  0
SECTION
  2
HEADER
  9
$ACADVER
  1
AC1015
  9
$ACADMAINTVER
 70
     6
  9
$DWGCODEPAGE
  3
DOS932
  9
$INSBASE
 10
0.0
 20
0.0
 30
0.0
  9
$EXTMIN
 10
0.0
 20
0.0
 30
0.0
  9
$EXTMAX
 10
215.9
 20
139.7
 30
0.0
  9
$LIMMIN
 10
0.0
 20
0.0
  9
$LIMMAX
 10
215.9
 20
139.7
  9
$ORTHOMODE
 70
     0
  9
$REGENMODE
 70
     1
  9
$FILLMODE
 70
     1
  9
$QTEXTMODE
 70
     0
  9
$MIRRTEXT
 70
     1
  9
$LTSCALE
 40
0.5
  9
$ATTMODE
 70
     1
  9
$TEXTSIZE
 40
1.75
  9
$TRACEWID
 40
1.0
  9
$TEXTSTYLE
  7
Standard
  9
$CLAYER
  8
0
  9
$CELTYPE
  6
ByLayer
  9
$CECOLOR
 62
   256
  9
$CELTSCALE
 40
1.0
  9
$DISPSILH
 70
     0
  9
$DIMSCALE
 40
1.0
  9
$DIMASZ
 40
1.651
  9
$DIMEXO
 40
0.5
  9
$DIMDLI
 40
3.75
  9
$DIMRND
 40
0.0
  9
$DIMDLE
 40
0.0
  9
$DIMEXE
 40
0.5
  9
$DIMTP
 40
0.0
  9
$DIMTM
 40
0.0
  9
$DIMTXT
 40
1.75
  9
$DIMCEN
 40
2.5
  9
$DIMTSZ
 40
0.0
  9
$DIMTOL
 70
     0
  9
$DIMLIM
 70
     0
  9
$DIMTIH
 70
     1
  9
$DIMTOH
 70
     1
  9
$DIMSE1
 70
     0
  9
$DIMSE2
 70
     0
  9
$DIMTAD
 70
     1
  9
$DIMZIN
 70
     1
  9
$DIMBLK
  1

  9
$DIMASO
 70
     1
  9
$DIMSHO
 70
     1
  9
$DIMPOST
  1

  9
$DIMAPOST
  1

  9
$DIMALT
 70
     0
  9
$DIMALTD
 70
     3
  9
$DIMALTF
 40
0.0393700787
  9
$DIMLFAC
 40
1.0
  9
$DIMTOFL
 70
     1
  9
$DIMTVP
 40
0.0
  9
$DIMTIX
 70
     0
  9
$DIMSOXD
 70
     0
  9
$DIMSAH
 70
     0
  9
$DIMBLK1
  1

  9
$DIMBLK2
  1

  9
$DIMSTYLE
  2
ISO-25
  9
$DIMCLRD
 70
     0
  9
$DIMCLRE
 70
     0
  9
$DIMCLRT
 70
     0
  9
$DIMTFAC
 40
1.0
  9
$DIMGAP
 40
0.762
  9
$DIMJUST
 70
     0
  9
$DIMSD1
 70
     0
  9
$DIMSD2
 70
     0
  9
$DIMTOLJ
 70
     0
  9
$DIMTZIN
 70
     1
  9
$DIMALTZ
 70
     0
  9
$DIMALTTZ
 70
     0
  9
$DIMUPT
 70
     0
  9
$DIMDEC
 70
     2
  9
$DIMTDEC
 70
     2
  9
$DIMALTU
 70
     2
  9
$DIMALTTD
 70
     3
  9
$DIMTXSTY
  7
Standard
  9
$DIMAUNIT
 70
     0
  9
$DIMADEC
 70
     2
  9
$DIMALTRND
 40
0.0
  9
$DIMAZIN
 70
     0
  9
$DIMDSEP
 70
    44
  9
$DIMATFIT
 70
     3
  9
$DIMFRAC
 70
     0
  9
$DIMLDRBLK
  1

  9
$DIMLUNIT
 70
     2
  9
$DIMLWD
 70
    -2
  9
$DIMLWE
 70
    -2
  9
$DIMTMOVE
 70
     0
  9
$LUNITS
 70
     2
  9
$LUPREC
 70
     2
  9
$SKETCHINC
 40
1.0
  9
$FILLETRAD
 40
10.0
  9
$AUNITS
 70
     0
  9
$AUPREC
 70
     2
  9
$MENU
  1
.
  9
$ELEVATION
 40
0.0
  9
$PELEVATION
 40
0.0
  9
$THICKNESS
 40
0.0
  9
$LIMCHECK
 70
     0
  9
$CHAMFERA
 40
0.0
  9
$CHAMFERB
 40
0.0
  9
$CHAMFERC
 40
0.0
  9
$CHAMFERD
 40
0.0
  9
$SKPOLY
 70
     0
  9
$TDCREATE
 40
2460082.704352546
  9
$TDUCREATE
 40
2460082.329352546
  9
$TDUPDATE
 40
2460082.70435316
  9
$TDUUPDATE
 40
2460082.32935316
  9
$TDINDWG
 40
0.0000000116
  9
$TDUSRTIMER
 40
0.0000000116
  9
$USRTIMER
 70
     1
  9
$ANGBASE
 50
0.0
  9
$ANGDIR
 70
     0
  9
$PDMODE
 70
     0
  9
$PDSIZE
 40
-1.0
  9
$PLINEWID
 40
0.0
  9
$SPLFRAME
 70
     0
  9
$SPLINETYPE
 70
     6
  9
$SPLINESEGS
 70
     8
  9
$HANDSEED
  5
146
  9
$SURFTAB1
 70
     6
  9
$SURFTAB2
 70
     6
  9
$SURFTYPE
 70
     6
  9
$SURFU
 70
     6
  9
$SURFV
 70
     6
  9
$UCSBASE
  2

  9
$UCSNAME
  2

  9
$UCSORG
 10
0.0
 20
0.0
 30
0.0
  9
$UCSXDIR
 10
1.0
 20
0.0
 30
0.0
  9
$UCSYDIR
 10
0.0
 20
1.0
 30
0.0
  9
$UCSORTHOREF
  2

  9
$UCSORTHOVIEW
 70
     0
  9
$UCSORGTOP
 10
0.0
 20
0.0
 30
0.0
  9
$UCSORGBOTTOM
 10
0.0
 20
0.0
 30
0.0
  9
$UCSORGLEFT
 10
0.0
 20
0.0
 30
0.0
  9
$UCSORGRIGHT
 10
0.0
 20
0.0
 30
0.0
  9
$UCSORGFRONT
 10
0.0
 20
0.0
 30
0.0
  9
$UCSORGBACK
 10
0.0
 20
0.0
 30
0.0
  9
$PUCSBASE
  2

  9
$PUCSNAME
  2

  9
$PUCSORG
 10
0.0
 20
0.0
 30
0.0
  9
$PUCSXDIR
 10
1.0
 20
0.0
 30
0.0
  9
$PUCSYDIR
 10
0.0
 20
1.0
 30
0.0
  9
$PUCSORTHOREF
  2

  9
$PUCSORTHOVIEW
 70
     0
  9
$PUCSORGTOP
 10
0.0
 20
0.0
 30
0.0
  9
$PUCSORGBOTTOM
 10
0.0
 20
0.0
 30
0.0
  9
$PUCSORGLEFT
 10
0.0
 20
0.0
 30
0.0
  9
$PUCSORGRIGHT
 10
0.0
 20
0.0
 30
0.0
  9
$PUCSORGFRONT
 10
0.0
 20
0.0
 30
0.0
  9
$PUCSORGBACK
 10
0.0
 20
0.0
 30
0.0
  9
$USERI1
 70
     0
  9
$USERI2
 70
     0
  9
$USERI3
 70
     0
  9
$USERI4
 70
     0
  9
$USERI5
 70
     0
  9
$USERR1
 40
0.0
  9
$USERR2
 40
0.0
  9
$USERR3
 40
0.0
  9
$USERR4
 40
0.0
  9
$USERR5
 40
0.0
  9
$WORLDVIEW
 70
     1
  9
$SHADEDGE
 70
     3
  9
$SHADEDIF
 70
    70
  9
$TILEMODE
 70
     1
  9
$MAXACTVP
 70
    64
  9
$PINSBASE
 10
0.0
 20
0.0
 30
0.0
  9
$PLIMCHECK
 70
     0
  9
$PEXTMIN
 10
1.0000000000E+20
 20
1.0000000000E+20
 30
1.0000000000E+20
  9
$PEXTMAX
 10
-1.0000000000E+20
 20
-1.0000000000E+20
 30
-1.0000000000E+20
  9
$PLIMMIN
 10
0.0
 20
0.0
  9
$PLIMMAX
 10
420.0
 20
297.0
  9
$UNITMODE
 70
     0
  9
$VISRETAIN
 70
     1
  9
$PLINEGEN
 70
     0
  9
$PSLTSCALE
 70
     1
  9
$TREEDEPTH
 70
  3020
  9
$CMLSTYLE
  2
Standard
  9
$CMLJUST
 70
     0
  9
$CMLSCALE
 40
20.0
  9
$PROXYGRAPHICS
 70
     1
  9
$MEASUREMENT
 70
     1
  9
$CELWEIGHT
370
    -1
  9
$ENDCAPS
280
     0
  9
$JOINSTYLE
280
     0
  9
$LWDISPLAY
290
     1
  9
$INSUNITS
 70
     4
  9
$HYPERLINKBASE
  1

  9
$STYLESHEET
  1

  9
$XEDIT
290
     1
  9
$CEPSNTYPE
380
     0
  9
$PSTYLEMODE
290
     1
  9
$FINGERPRINTGUID
  2
{F4187A32-3453-4062-B103-7817A0CCCEE0}
  9
$VERSIONGUID
  2
{FAEB1C32-E019-11D5-929B-00C0DF256EC4}
  9
$EXTNAMES
290
     1
  9
$PSVPSCALE
 40
0.0
  9
$OLESTARTUP
290
     0
  0
ENDSEC
  0
SECTION
  2
CLASSES
  0
CLASS
  1
ACDBDICTIONARYWDFLT
  2
AcDbDictionaryWithDefault
  3
ObjectDBX Classes
 90
        0
280
     0
281
     0
  0
CLASS
  1
VISUALSTYLE
  2
AcDbVisualStyle
  3
ObjectDBX Classes
 90
     4095
280
     0
281
     0
  0
CLASS
  1
MATERIAL
  2
AcDbMaterial
  3
ObjectDBX Classes
 90
     1153
280
     0
281
     0
  0
CLASS
  1
SCALE
  2
AcDbScale
  3
ObjectDBX Classes
 90
     1153
280
     0
281
     0
  0
CLASS
  1
TABLESTYLE
  2
AcDbTableStyle
  3
ObjectDBX Classes
 90
     4095
280
     0
281
     0
  0
CLASS
  1
MLEADERSTYLE
  2
AcDbMLeaderStyle
  3
ACDB_MLEADERSTYLE_CLASS
 90
     4095
280
     0
281
     0
  0
CLASS
  1
SUN
  2
AcDbSun
  3
SCENEOE
 90
     1153
280
     0
281
     0
  0
CLASS
  1
ACDBPLACEHOLDER
  2
AcDbPlaceHolder
  3
ObjectDBX Classes
 90
        0
280
     0
281
     0
  0
CLASS
  1
LAYOUT
  2
AcDbLayout
  3
ObjectDBX Classes
 90
        0
280
     0
281
     0
  0
ENDSEC
  0
SECTION
  2
TABLES
  0
TABLE
  2
VPORT
  5
8
330
0
100
AcDbSymbolTable
 70
     1
  0
VPORT
  5
29
330
8
100
AcDbSymbolTableRecord
100
AcDbViewportTableRecord
  2
*Active
 70
     0
 10
0.0
 20
0.0
 11
1.0
 21
1.0
 12
107.95
 22
69.85
 13
0.0
 23
0.0
 14
10.0
 24
10.0
 15
10.0
 25
10.0
 16
0.0
 26
0.0
 36
1.0
 17
0.0
 27
0.0
 37
0.0
 40
139.7
 41
1.5454545455
 42
50.0
 43
0.0
 44
0.0
 50
0.0
 51
0.0
 71
     0
 72
  2000
 73
     1
 74
     3
 75
     0
 76
     0
 77
     0
 78
     0
281
     0
 65
     1
110
0.0
120
0.0
130
0.0
111
1.0
121
0.0
131
0.0
112
0.0
122
1.0
132
0.0
 79
     0
146
0.0
  0
ENDTAB
  0
TABLE
  2
LTYPE
  5
5
330
0
100
AcDbSymbolTable
 70
     6
  0
LTYPE
  5
14
330
5
100
AcDbSymbolTableRecord
100
AcDbLinetypeTableRecord
  2
ByBlock
 70
     0
  3

 72
    65
 73
     0
 40
0.0
  0
LTYPE
  5
15
330
5
100
AcDbSymbolTableRecord
100
AcDbLinetypeTableRecord
  2
ByLayer
 70
     0
  3

 72
    65
 73
     0
 40
0.0
  0
LTYPE
  5
16
330
5
100
AcDbSymbolTableRecord
100
AcDbLinetypeTableRecord
  2
Continuous
 70
     0
  3
Solid line
 72
    65
 73
     0
 40
0.0
  0
LTYPE
  5
6E
330
5
100
AcDbSymbolTableRecord
100
AcDbLinetypeTableRecord
  2
HIDDEN
 70
     0
  3
Hidden __ __ __ __ __ __ __ __ __ __ __ __ __ __
 72
    65
 73
     2
 40
1.905
 49
1.27
 74
     0
 49
-0.635
 74
     0
  0
LTYPE
  5
6F
330
5
100
AcDbSymbolTableRecord
100
AcDbLinetypeTableRecord
  2
PHANTOM
 70
     0
  3
Phantom ______  __  __  ______  __  __  ______
 72
    65
 73
     6
 40
12.7
 49
6.35
 74
     0
 49
-1.27
 74
     0
 49
1.27
 74
     0
 49
-1.27
 74
     0
 49
1.27
 74
     0
 49
-1.27
 74
     0
  0
LTYPE
  5
70
330
5
100
AcDbSymbolTableRecord
100
AcDbLinetypeTableRecord
  2
CENTER
 70
     0
  3
Center ____ _ ____ _ ____ _ ____ _ ____ _ ____
 72
    65
 73
     4
 40
10.16
 49
6.35
 74
     0
 49
-1.27
 74
     0
 49
1.27
 74
     0
 49
-1.27
 74
     0
  0
LTYPE
  5
71
330
5
100
AcDbSymbolTableRecord
100
AcDbLinetypeTableRecord
  2
CENTERX2
 70
     0
  3
Center (2x) ________  __  ________  __  _____
 72
    65
 73
     4
 40
20.32
 49
12.7
 74
     0
 49
-2.54
 74
     0
 49
2.54
 74
     0
 49
-2.54
 74
     0
  0
LTYPE
  5
72
330
5
100
AcDbSymbolTableRecord
100
AcDbLinetypeTableRecord
  2
DOT2
 70
     0
  3
Dot (.5x) ........................................
 72
    65
 73
     2
 40
0.635
 49
0.0
 74
     0
 49
-0.635
 74
     0
  0
ENDTAB
  0
TABLE
  2
LAYER
  5
2
330
0
100
AcDbSymbolTable
 70
     1
  0
LAYER
  5
10
330
2
100
AcDbSymbolTableRecord
100
AcDbLayerTableRecord
  2
0
 70
     0
 62
     7
  6
Continuous
370
    -3
390
F
  0
ENDTAB
  0
TABLE
  2
STYLE
  5
3
330
0
100
AcDbSymbolTable
 70
     2
  0
STYLE
  5
11
330
3
100
AcDbSymbolTableRecord
100
AcDbTextStyleTableRecord
  2
Standard
 70
     0
 40
0.0
 41
1.0
 50
0.0
 71
     0
 42
1.75
  3
txt
  4
bigfont
  0
STYLE
  5
73
330
3
100
AcDbSymbolTableRecord
100
AcDbTextStyleTableRecord
  2
SLDTEXTSTYLE0
 70
     0
 40
0.0
 41
0.7
 50
0.0
 71
     0
 42
1.75
  3
TXT
  4
bigfont
  0
ENDTAB
  0
TABLE
  2
VIEW
  5
6
330
0
100
AcDbSymbolTable
 70
     0
  0
ENDTAB
  0
TABLE
  2
UCS
  5
7
330
0
100
AcDbSymbolTable
 70
     0
  0
ENDTAB
  0
TABLE
  2
APPID
  5
9
330
0
100
AcDbSymbolTable
 70
     1
  0
APPID
  5
12
330
9
100
AcDbSymbolTableRecord
100
AcDbRegAppTableRecord
  2
ACAD
 70
     0
  0
ENDTAB
  0
TABLE
  2
DIMSTYLE
  5
A
330
0
100
AcDbSymbolTable
 70
     1
100
AcDbDimStyleTable
  0
DIMSTYLE
105
27
330
A
100
AcDbSymbolTableRecord
100
AcDbDimStyleTableRecord
  2
ISO-25
 70
     0
 41
2.5
 42
0.625
 43
3.75
 44
1.25
 73
     0
 74
     0
 77
     1
 78
     8
140
2.5
141
2.5
143
0.0393700787
147
0.625
171
     3
172
     1
178
     0
271
     2
272
     2
274
     3
278
    44
283
     0
284
     8
340
11
  0
ENDTAB
  0
TABLE
  2
BLOCK_RECORD
  5
1
330
0
100
AcDbSymbolTable
 70
     3
  0
BLOCK_RECORD
  5
1F
330
1
100
AcDbSymbolTableRecord
100
AcDbBlockTableRecord
  2
*Model_Space
340
22
  0
BLOCK_RECORD
  5
1B
330
1
100
AcDbSymbolTableRecord
100
AcDbBlockTableRecord
  2
*Paper_Space
340
1E
  0
BLOCK_RECORD
  5
23
330
1
100
AcDbSymbolTableRecord
100
AcDbBlockTableRecord
  2
*Paper_Space0
340
26
  0
BLOCK_RECORD
  5
E9
330
1
100
AcDbSymbolTableRecord
100
AcDbBlockTableRecord
  2
SW_CENTERMARKSYMBOL_0
340
0
102
{BLKREFS
331
F4
102
}
  0
BLOCK_RECORD
  5
F5
330
1
100
AcDbSymbolTableRecord
100
AcDbBlockTableRecord
  2
SW_CENTERMARKSYMBOL_1
340
0
102
{BLKREFS
331
100
102
}
  0
ENDTAB
  0
ENDSEC
  0
SECTION
  2
BLOCKS
  0
BLOCK
  5
20
330
1F
100
AcDbEntity
  8
0
100
AcDbBlockBegin
  2
*Model_Space
 70
     0
 10
0.0
 20
0.0
 30
0.0
  3
*Model_Space
  1

  0
ENDBLK
  5
21
330
1F
100
AcDbEntity
  8
0
100
AcDbBlockEnd
  0
BLOCK
  5
1C
330
1B
100
AcDbEntity
 67
     1
  8
0
100
AcDbBlockBegin
  2
*Paper_Space
 70
     0
 10
0.0
 20
0.0
 30
0.0
  3
*Paper_Space
  1

  0
ENDBLK
  5
1D
330
1B
100
AcDbEntity
 67
     1
  8
0
100
AcDbBlockEnd
  0
BLOCK
  5
24
330
23
100
AcDbEntity
  8
0
100
AcDbBlockBegin
  2
*Paper_Space0
 70
     0
 10
0.0
 20
0.0
 30
0.0
  3
*Paper_Space0
  1

  0
ENDBLK
  5
25
330
23
100
AcDbEntity
  8
0
100
AcDbBlockEnd
  0
BLOCK
  5
EA
330
E9
100
AcDbEntity
  8
0
100
AcDbBlockBegin
  2
SW_CENTERMARKSYMBOL_0
 70
     0
 10
0.0
 20
0.0
 30
0.0
  3
SW_CENTERMARKSYMBOL_0
  1

  0
LINE
  5
EC
330
E9
100
AcDbEntity
  8
0
  6
Continuous
 62
     0
370
    18
100
AcDbLine
 10
0.0
 20
0.0
 30
0.0
 11
0.0
 21
2.5
 31
0.0
  0
LINE
  5
ED
330
E9
100
AcDbEntity
  8
0
  6
Continuous
 62
     0
370
    18
100
AcDbLine
 10
0.0
 20
0.0
 30
0.0
 11
-2.5
 21
0.0
 31
0.0
  0
LINE
  5
EE
330
E9
100
AcDbEntity
  8
0
  6
Continuous
 62
     0
370
    18
100
AcDbLine
 10
0.0
 20
0.0
 30
0.0
 11
0.0
 21
-2.5
 31
0.0
  0
LINE
  5
EF
330
E9
100
AcDbEntity
  8
0
  6
Continuous
 62
     0
370
    18
100
AcDbLine
 10
0.0
 20
0.0
 30
0.0
 11
2.5
 21
0.0
 31
0.0
  0
LINE
  5
F0
330
E9
100
AcDbEntity
  8
0
  6
Continuous
 62
     0
370
    18
100
AcDbLine
 10
0.0
 20
5.0
 30
0.0
 11
0.0
 21
10.0
 31
0.0
  0
LINE
  5
F1
330
E9
100
AcDbEntity
  8
0
  6
Continuous
 62
     0
370
    18
100
AcDbLine
 10
-5.0
 20
0.0
 30
0.0
 11
-10.0
 21
0.0
 31
0.0
  0
LINE
  5
F2
330
E9
100
AcDbEntity
  8
0
  6
Continuous
 62
     0
370
    18
100
AcDbLine
 10
0.0
 20
-5.0
 30
0.0
 11
0.0
 21
-10.0
 31
0.0
  0
LINE
  5
F3
330
E9
100
AcDbEntity
  8
0
  6
Continuous
 62
     0
370
    18
100
AcDbLine
 10
5.0
 20
0.0
 30
0.0
 11
10.0
 21
0.0
 31
0.0
  0
ENDBLK
  5
EB
330
E9
100
AcDbEntity
  8
0
100
AcDbBlockEnd
  0
BLOCK
  5
F6
330
F5
100
AcDbEntity
  8
0
100
AcDbBlockBegin
  2
SW_CENTERMARKSYMBOL_1
 70
     0
 10
0.0
 20
0.0
 30
0.0
  3
SW_CENTERMARKSYMBOL_1
  1

  0
LINE
  5
F8
330
F5
100
AcDbEntity
  8
0
  6
Continuous
 62
     0
370
    18
100
AcDbLine
 10
0.0
 20
0.0
 30
0.0
 11
0.0
 21
2.5
 31
0.0
  0
LINE
  5
F9
330
F5
100
AcDbEntity
  8
0
  6
Continuous
 62
     0
370
    18
100
AcDbLine
 10
0.0
 20
0.0
 30
0.0
 11
-2.5
 21
0.0
 31
0.0
  0
LINE
  5
FA
330
F5
100
AcDbEntity
  8
0
  6
Continuous
 62
     0
370
    18
100
AcDbLine
 10
0.0
 20
0.0
 30
0.0
 11
0.0
 21
-2.5
 31
0.0
  0
LINE
  5
FB
330
F5
100
AcDbEntity
  8
0
  6
Continuous
 62
     0
370
    18
100
AcDbLine
 10
0.0
 20
0.0
 30
0.0
 11
2.5
 21
0.0
 31
0.0
  0
LINE
  5
FC
330
F5
100
AcDbEntity
  8
0
  6
Continuous
 62
     0
370
    18
100
AcDbLine
 10
0.0
 20
5.0
 30
0.0
 11
0.0
 21
17.0645949474
 31
0.0
  0
LINE
  5
FD
330
F5
100
AcDbEntity
  8
0
  6
Continuous
 62
     0
370
    18
100
AcDbLine
 10
-5.0
 20
0.0
 30
0.0
 11
-15.75
 21
0.0
 31
0.0
  0
LINE
  5
FE
330
F5
100
AcDbEntity
  8
0
  6
Continuous
 62
     0
370
    18
100
AcDbLine
 10
0.0
 20
-5.0
 30
0.0
 11
0.0
 21
-16.9599041808
 31
0.0
  0
LINE
  5
FF
330
F5
100
AcDbEntity
  8
0
  6
Continuous
 62
     0
370
    18
100
AcDbLine
 10
5.0
 20
0.0
 30
0.0
 11
15.75
 21
0.0
 31
0.0
  0
ENDBLK
  5
F7
330
F5
100
AcDbEntity
  8
0
100
AcDbBlockEnd
  0
ENDSEC
  0
SECTION
  2
ENTITIES
  0
MTEXT
  5
74
330
1F
100
AcDbEntity
  8
0
  6
Continuous
 62
     7
370
     0
100
AcDbMText
 10
136.9538849291
 20
71.6331225051
 30
0.0
 40
2.38125
 41
0.0
 71
     1
 72
     1
  1
エースニップル　HN-8620
  7
SLDTEXTSTYLE0
 73
     1
 44
1.0
  0
LINE
  5
75
330
1F
100
AcDbEntity
  8
0
  6
Continuous
 62
     7
370
    25
100
AcDbLine
 10
96.3583184128
 20
62.5914155701
 30
0.0
 11
95.1259528501
 21
60.456895802
 31
0.0
  0
LINE
  5
76
330
1F
100
AcDbEntity
  8
0
  6
Continuous
 62
     7
370
    25
100
AcDbLine
 10
95.1259528501
 20
33.549020802
 30
0.0
 11
96.3583184128
 21
31.4145010338
 31
0.0
  0
LINE
  5
77
330
1F
100
AcDbEntity
  8
0
  6
Continuous
 62
     7
370
    25
100
AcDbLine
 10
101.7758439168
 20
31.4145010338
 30
0.0
 11
103.1259528501
 21
33.752958302
 31
0.0
  0
LINE
  5
78
330
1F
100
AcDbEntity
  8
0
  6
Continuous
 62
     7
370
    25
100
AcDbLine
 10
103.1259528501
 20
60.252958302
 30
0.0
 11
101.7758439168
 21
62.5914155701
 31
0.0
  0
LINE
  5
79
330
1F
100
AcDbEntity
  8
0
  6
Continuous
 62
     7
370
    25
100
AcDbLine
 10
95.1259528501
 20
60.456895802
 30
0.0
 11
80.731129189
 21
60.0070575625
 31
0.0
  0
LINE
  5
7A
330
1F
100
AcDbEntity
  8
0
  6
Continuous
 62
     7
370
    25
100
AcDbLine
 10
80.731129189
 20
33.9988590414
 30
0.0
 11
95.1259528501
 21
33.549020802
 31
0.0
  0
LINE
  5
7B
330
1F
100
AcDbEntity
  8
0
  6
Continuous
 62
     7
370
    25
100
AcDbLine
 10
80.731129189
 20
60.0070575625
 30
0.0
 11
78.1259528501
 21
58.502958302
 31
0.0
  0
LINE
  5
7C
330
1F
100
AcDbEntity
  8
0
  6
Continuous
 62
     7
370
    25
100
AcDbLine
 10
78.1259528501
 20
35.502958302
 30
0.0
 11
80.731129189
 21
33.9988590414
 31
0.0
  0
LINE
  5
7D
330
1F
100
AcDbEntity
  8
0
  6
Continuous
 62
     7
370
    25
100
AcDbLine
 10
112.1259528501
 20
57.252958302
 30
0.0
 11
103.1259528501
 21
57.252958302
 31
0.0
  0
LINE
  5
7E
330
1F
100
AcDbEntity
  8
0
  6
Continuous
 62
     7
370
    25
100
AcDbLine
 10
103.1259528501
 20
36.752958302
 30
0.0
 11
112.1259528501
 21
36.752958302
 31
0.0
  0
LINE
  5
7F
330
1F
100
AcDbEntity
  8
0
  6
Continuous
 62
     7
370
    25
100
AcDbLine
 10
112.1259528501
 20
36.752958302
 30
0.0
 11
118.1259528501
 21
37.752958302
 31
0.0
  0
LINE
  5
80
330
1F
100
AcDbEntity
  8
0
  6
Continuous
 62
     7
370
    25
100
AcDbLine
 10
118.1259528501
 20
56.252958302
 30
0.0
 11
112.1259528501
 21
57.252958302
 31
0.0
  0
LINE
  5
81
330
1F
100
AcDbEntity
  8
0
  6
Continuous
 62
     7
370
    25
100
AcDbLine
 10
124.1259528501
 20
36.752958302
 30
0.0
 11
130.1259528501
 21
37.752958302
 31
0.0
  0
LINE
  5
82
330
1F
100
AcDbEntity
  8
0
  6
Continuous
 62
     7
370
    25
100
AcDbLine
 10
130.1259528501
 20
56.252958302
 30
0.0
 11
124.1259528501
 21
57.252958302
 31
0.0
  0
LINE
  5
83
330
1F
100
AcDbEntity
  8
0
  6
Continuous
 62
     7
370
    25
100
AcDbLine
 10
130.1259528501
 20
36.752958302
 30
0.0
 11
137.6879702174
 21
37.6982104729
 31
0.0
  0
LINE
  5
84
330
1F
100
AcDbEntity
  8
0
  6
Continuous
 62
     7
370
    25
100
AcDbLine
 10
137.6879702174
 20
56.307706131
 30
0.0
 11
130.1259528501
 21
57.252958302
 31
0.0
  0
LINE
  5
85
330
1F
100
AcDbEntity
  8
0
  6
Continuous
 62
     7
370
    25
100
AcDbLine
 10
118.1259528501
 20
36.752958302
 30
0.0
 11
124.1259528501
 21
37.752958302
 31
0.0
  0
LINE
  5
86
330
1F
100
AcDbEntity
  8
0
  6
Continuous
 62
     7
370
    25
100
AcDbLine
 10
124.1259528501
 20
56.252958302
 30
0.0
 11
118.1259528501
 21
57.252958302
 31
0.0
  0
ARC
  5
87
330
1F
100
AcDbEntity
  8
0
  6
Continuous
 62
     7
370
    25
100
AcDbCircle
 10
137.6259528501
 20
38.1943494112
 30
0.0
 40
0.5000000000000052
100
AcDbArc
 50
277.1250163489
 51
0.0
  0
ARC
  5
88
330
1F
100
AcDbEntity
  8
0
  6
Continuous
 62
     7
370
    25
100
AcDbCircle
 10
137.6259528501
 20
55.8115671927
 30
0.0
 40
0.5
100
AcDbArc
 50
0.0
 51
82.8749836511
  0
LINE
  5
89
330
1F
100
AcDbEntity
  8
0
  6
Continuous
 62
     7
370
    25
100
AcDbLine
 10
99.1474659225
 20
62.5914155701
 30
0.0
 11
99.0670811648
 21
62.2914155701
 31
0.0
  0
LINE
  5
8A
330
1F
100
AcDbEntity
  8
0
  6
Continuous
 62
     7
370
    25
100
AcDbLine
 10
99.0670811648
 20
62.2914155701
 30
0.0
 11
98.9866964071
 21
62.5914155701
 31
0.0
  0
LINE
  5
8B
330
1F
100
AcDbEntity
  8
0
  6
Continuous
 62
     7
370
    25
100
AcDbLine
 10
99.0670811648
 20
31.7145010338
 30
0.0
 11
99.1474659225
 21
31.4145010338
 31
0.0
  0
LINE
  5
8C
330
1F
100
AcDbEntity
  8
0
  6
Continuous
 62
     7
370
    25
100
AcDbLine
 10
98.9866964071
 20
31.4145010338
 30
0.0
 11
99.0670811648
 21
31.7145010338
 31
0.0
  0
LINE
  5
8D
330
1F
100
AcDbEntity
  8
0
  6
Continuous
 62
     7
370
    25
100
AcDbLine
 10
99.1474659225
 20
39.2087296679
 30
0.0
 11
101.7758439168
 21
39.2087296679
 31
0.0
  0
SPLINE
  5
8E
330
1F
100
AcDbEntity
  8
0
  6
Continuous
 62
     7
370
    25
100
AcDbSpline
210
0.0
220
0.0
230
1.0
 70
     8
 71
     3
 72
    16
 73
    12
 74
     0
 42
0.000000001
 43
0.00000001
 40
0.0
 40
0.0
 40
0.0
 40
0.0
 40
0.2500000000000001
 40
0.2500000000000001
 40
0.5
 40
0.5
 40
0.6249999999999999
 40
0.6249999999999999
 40
0.7499999999999999
 40
0.7499999999999999
 40
1.0
 40
1.0
 40
1.0
 40
1.0
 10
101.7758439168217
 20
31.41450103383711
 30
0.0
 10
102.1432262795078
 20
32.05082595181396
 30
0.0
 10
102.4460158399019
 20
32.69179010276661
 30
0.0
 10
102.8654776482073
 20
33.98708586269822
 30
0.0
 10
102.9807662736618
 20
34.64151684725309
 30
0.0
 10
102.9820326705257
 20
35.63549288792323
 30
0.0
 10
102.9538491134367
 20
35.96837761452782
 30
0.0
 10
102.8439479443948
 20
36.62685864808808
 30
0.0
 10
102.7623418823218
 20
36.95389152436683
 30
0.0
 10
102.447223287431
 20
37.92916778408044
 30
0.0
 10
102.1436842710948
 20
38.57161148522175
 30
0.0
 10
101.7758439168216
 20
39.20872966789708
 30
0.0
  0
LINE
  5
8F
330
1F
100
AcDbEntity
  8
0
  6
Continuous
 62
     7
370
    25
100
AcDbLine
 10
99.1474659225
 20
31.4145010338
 30
0.0
 11
101.7758439168
 21
31.4145010338
 31
0.0
  0
SPLINE
  5
90
330
1F
100
AcDbEntity
  8
0
  6
Continuous
 62
     7
370
    25
100
AcDbSpline
210
0.0
220
0.0
230
1.0
 70
     8
 71
     3
 72
     8
 73
     4
 74
     0
 42
0.000000001
 43
0.00000001
 40
0.0
 40
0.0
 40
0.0
 40
0.0
 40
1.0
 40
1.0
 40
1.0
 40
1.0
 10
99.14746592252683
 20
31.41450103383713
 30
0.0
 10
99.11984286643302
 20
31.51759168263959
 30
0.0
 10
99.09303101931572
 20
31.62072244206013
 30
0.0
 10
99.06708116479751
 20
31.72389582311941
 30
0.0
  0
SPLINE
  5
91
330
1F
100
AcDbEntity
  8
0
  6
Continuous
 62
     7
370
    25
100
AcDbSpline
210
0.0
220
0.0
230
1.0
 70
     8
 71
     3
 72
     8
 73
     4
 74
     0
 42
0.000000001
 43
0.00000001
 40
0.0
 40
0.0
 40
0.0
 40
0.0
 40
1.0
 40
1.0
 40
1.0
 40
1.0
 10
99.06708116479751
 20
31.72389582311941
 30
0.0
 10
99.04112410115306
 20
31.62069377947452
 30
0.0
 10
99.01431194705862
 20
31.51756363215995
 30
0.0
 10
98.98669640706817
 20
31.41450103383713
 30
0.0
  0
LINE
  5
92
330
1F
100
AcDbEntity
  8
0
  6
Continuous
 62
     7
370
    25
100
AcDbLine
 10
96.3583184128
 20
31.4145010338
 30
0.0
 11
98.9866964071
 21
31.4145010338
 31
0.0
  0
SPLINE
  5
93
330
1F
100
AcDbEntity
  8
0
  6
Continuous
 62
     7
370
    25
100
AcDbSpline
210
0.0
220
0.0
230
1.0
 70
     8
 71
     3
 72
    16
 73
    12
 74
     0
 42
0.000000001
 43
0.00000001
 40
0.0
 40
0.0
 40
0.0
 40
0.0
 40
0.2500000000000001
 40
0.2500000000000001
 40
0.5000000000000001
 40
0.5000000000000001
 40
0.6250000000000001
 40
0.6250000000000001
 40
0.7500000000000002
 40
0.7500000000000002
 40
1.0
 40
1.0
 40
1.0
 40
1.0
 10
96.35831841277327
 20
39.20872966789709
 30
0.0
 10
95.99093605008727
 20
38.57240474992023
 30
0.0
 10
95.6881464896931
 20
37.93144059896759
 30
0.0
 10
95.26868468138775
 20
36.63614483903598
 30
0.0
 10
95.15339605593317
 20
35.98171385448111
 30
0.0
 10
95.15212965906927
 20
34.98773781381097
 30
0.0
 10
95.18031321615827
 20
34.65485308720638
 30
0.0
 10
95.29021438520026
 20
33.99637205364613
 30
0.0
 10
95.37182044727318
 20
33.66933917736737
 30
0.0
 10
95.68693904216401
 20
32.69406291765376
 30
0.0
 10
95.9904780585002
 20
32.05161921651244
 30
0.0
 10
96.3583184127734
 20
31.41450103383711
 30
0.0
  0
LINE
  5
94
330
1F
100
AcDbEntity
  8
0
  6
Continuous
 62
     7
370
    25
100
AcDbLine
 10
96.3583184128
 20
39.2087296679
 30
0.0
 11
98.9866964071
 21
39.2087296679
 31
0.0
  0
SPLINE
  5
95
330
1F
100
AcDbEntity
  8
0
  6
Continuous
 62
     7
370
    25
100
AcDbSpline
210
0.0
220
0.0
230
1.0
 70
     8
 71
     3
 72
     8
 73
     4
 74
     0
 42
0.000000001
 43
0.00000001
 40
0.0
 40
0.0
 40
0.0
 40
0.0
 40
1.0
 40
1.0
 40
1.0
 40
1.0
 10
98.98669640706817
 20
39.20872966789707
 30
0.0
 10
99.014319463162
 20
39.10563901909461
 30
0.0
 10
99.0411313102793
 20
39.00250825967407
 30
0.0
 10
99.06708116479751
 20
38.89933487861478
 30
0.0
  0
SPLINE
  5
96
330
1F
100
AcDbEntity
  8
0
  6
Continuous
 62
     7
370
    25
100
AcDbSpline
210
0.0
220
0.0
230
1.0
 70
     8
 71
     3
 72
     8
 73
     4
 74
     0
 42
0.000000001
 43
0.00000001
 40
0.0
 40
0.0
 40
0.0
 40
0.0
 40
1.0
 40
1.0
 40
1.0
 40
1.0
 10
99.06708116479751
 20
38.89933487861478
 30
0.0
 10
99.09303822844194
 20
39.00253692225967
 30
0.0
 10
99.11985038253638
 20
39.10566706957425
 30
0.0
 10
99.14746592252685
 20
39.20872966789708
 30
0.0
  0
SPLINE
  5
97
330
1F
100
AcDbEntity
  8
0
  6
Continuous
 62
     7
370
    25
100
AcDbSpline
210
0.0
220
0.0
230
1.0
 70
     8
 71
     3
 72
    19
 73
    15
 74
     0
 42
0.000000001
 43
0.00000001
 40
0.0
 40
0.0
 40
0.0
 40
0.0
 40
0.1227280999764557
 40
0.2397165235883926
 40
0.3518621792202465
 40
0.463201981803224
 40
0.520261154154164
 40
0.5794324380306666
 40
0.6405963441586369
 40
0.7052982290880198
 40
0.7732361059084532
 40
0.8446489293403163
 40
0.9200459817773702
 40
1.0
 40
1.0
 40
1.0
 40
1.0
 10
100.0836451577512
 20
48.5634550968288
 30
0.0
 10
100.082653255505
 20
48.59192151463758
 30
0.0
 10
100.0807158397194
 20
48.64752304939159
 30
0.0
 10
100.0636868282525
 20
48.72766345540364
 30
0.0
 10
100.0367061150332
 20
48.80208790378538
 30
0.0
 10
100.0041269838445
 20
48.85878432058252
 30
0.0
 10
99.97207784657319
 20
48.90072199523526
 30
0.0
 10
99.94450597382809
 20
48.9312648318767
 30
0.0
 10
99.91324511736944
 20
48.96071125508073
 30
0.0
 10
99.87743782708651
 20
48.98790576049598
 30
0.0
 10
99.83831537076536
 20
49.01447790047408
 30
0.0
 10
99.79566227648367
 20
49.04017395079786
 30
0.0
 10
99.74887043876723
 20
49.06416855373602
 30
0.0
 10
99.71596506980558
 20
49.07877446141988
 30
0.0
 10
99.69902977313586
 20
49.08629163529034
 30
0.0
  0
SPLINE
  5
98
330
1F
100
AcDbEntity
  8
0
  6
Continuous
 62
     7
370
    25
100
AcDbSpline
210
0.0
220
0.0
230
1.0
 70
     8
 71
     3
 72
    23
 73
    19
 74
     0
 42
0.000000001
 43
0.00000001
 40
0.0
 40
0.0
 40
0.0
 40
0.0
 40
0.0552698294993251
 40
0.109956704485094
 40
0.1632335040550558
 40
0.2180575651623567
 40
0.2732775387226746
 40
0.3308810454954968
 40
0.3904799376860886
 40
0.4536559730386416
 40
0.5189026226022312
 40
0.5833461108214766
 40
0.6485466930814432
 40
0.7150552190344911
 40
0.7825206438000538
 40
0.852335294426451
 40
0.9249348997257086
 40
1.0
 40
1.0
 40
1.0
 40
1.0
 10
99.69151775390509
 20
48.06065060964932
 30
0.0
 10
99.70457331753572
 20
48.06094658301851
 30
0.0
 10
99.73054674218757
 20
48.06153540799925
 30
0.0
 10
99.76849275927988
 20
48.06896254064566
 30
0.0
 10
99.80528086839657
 20
48.08012068233515
 30
0.0
 10
99.84074414695762
 20
48.09547057720511
 30
0.0
 10
99.87467674959835
 20
48.1159786943385
 30
0.0
 10
99.90712030497664
 20
48.14059526677335
 30
0.0
 10
99.93861853348218
 20
48.16933217574888
 30
0.0
 10
99.96766452132152
 20
48.20294045968112
 30
0.0
 10
99.99506232580885
 20
48.23932501143609
 30
0.0
 10
100.0187467086038
 20
48.27882818674265
 30
0.0
 10
100.0388215756329
 20
48.32057869484879
 30
0.0
 10
100.0554076952497
 20
48.36461492831762
 30
0.0
 10
100.0678764391977
 20
48.41111329487387
 30
0.0
 10
100.0768312212872
 20
48.4598461135418
 30
0.0
 10
100.0824293764434
 20
48.51090886617272
 30
0.0
 10
100.0832354113078
 20
48.5457458007684
 30
0.0
 10
100.0836451577512
 20
48.5634550968288
 30
0.0
  0
SPLINE
  5
99
330
1F
100
AcDbEntity
  8
0
  6
Continuous
 62
     7
370
    25
100
AcDbSpline
210
0.0
220
0.0
230
1.0
 70
     8
 71
     3
 72
    19
 73
    15
 74
     0
 42
0.000000001
 43
0.00000001
 40
0.0
 40
0.0
 40
0.0
 40
0.0
 40
0.1101423815503172
 40
0.2157418685830273
 40
0.3179605426392306
 40
0.4180517606815226
 40
0.5115631470355316
 40
0.5965727584443461
 40
0.6733290469034968
 40
0.7440491927238596
 40
0.8107168223002834
 40
0.8740854521098848
 40
0.93670961689667
 40
1.0
 40
1.0
 40
1.0
 40
1.0
 10
99.28236310646919
 20
48.70167625067496
 30
0.0
 10
99.28289025475019
 20
48.67074770145468
 30
0.0
 10
99.28392280873678
 20
48.61016627124203
 30
0.0
 10
99.29632488725446
 20
48.52165830544434
 30
0.0
 10
99.31367376362091
 20
48.43692238939163
 30
0.0
 10
99.33963404969003
 20
48.35789271593362
 30
0.0
 10
99.37079380252338
 20
48.28609485243652
 30
0.0
 10
99.40592869939438
 20
48.22346246018151
 30
0.0
 10
99.44573496112909
 20
48.17147990236372
 30
0.0
 10
99.48969016870944
 20
48.13001730519465
 30
0.0
 10
99.53738315102862
 20
48.09958523110812
 30
0.0
 10
99.58657136329666
 20
48.07674294534907
 30
0.0
 10
99.63839925196665
 20
48.06335187192773
 30
0.0
 10
99.67374924057984
 20
48.06155420092237
 30
0.0
 10
99.69151775390509
 20
48.06065060964932
 30
0.0
  0
LINE
  5
9A
330
1F
100
AcDbEntity
  8
0
  6
Continuous
 62
     7
370
    25
100
AcDbLine
 10
99.0259528501
 20
48.7016762507
 30
0.0
 11
99.2823631065
 21
48.7016762507
 31
0.0
  0
SPLINE
  5
9B
330
1F
100
AcDbEntity
  8
0
  6
Continuous
 62
     7
370
    25
100
AcDbSpline
210
0.0
220
0.0
230
1.0
 70
     8
 71
     3
 72
    23
 73
    19
 74
     0
 42
0.000000001
 43
0.00000001
 40
0.0
 40
0.0
 40
0.0
 40
0.0
 40
0.0669051223273615
 40
0.1334773340846823
 40
0.2010229080576287
 40
0.2712178684297487
 40
0.3428591616573977
 40
0.4138109980627168
 40
0.4855518488903452
 40
0.5598002749200528
 40
0.599899964903578
 40
0.6436094423977957
 40
0.6919106424505658
 40
0.7447030291556901
 40
0.8015038302285952
 40
0.8628660266331953
 40
0.9293326711591617
 40
1.0
 40
1.0
 40
1.0
 40
1.0
 10
98.49710669621278
 20
47.93244548144419
 30
0.0
 10
98.52040053601702
 20
47.93353853455256
 30
0.0
 10
98.56687230872303
 20
47.93571920188927
 30
0.0
 10
98.63524161032309
 20
47.95236847793105
 30
0.0
 10
98.70111701427645
 20
47.97975224701398
 30
0.0
 10
98.76336512461653
 20
48.01809419766943
 30
0.0
 10
98.8210852379754
 20
48.06474558711579
 30
0.0
 10
98.87238426956964
 20
48.11925483255986
 30
0.0
 10
98.91513905422308
 20
48.18175564504125
 30
0.0
 10
98.944569844616
 20
48.23965041368243
 30
0.0
 10
98.96418422872544
 20
48.29105541660741
 30
0.0
 10
98.97793746766705
 20
48.33495937324426
 30
0.0
 10
98.98893156317367
 20
48.38415467042284
 30
0.0
 10
98.99956616437974
 20
48.43805072931762
 30
0.0
 10
99.00848153915992
 20
48.49687485630923
 30
0.0
 10
99.01594851497538
 20
48.56068004822598
 30
0.0
 10
99.02191388304878
 20
48.6294919743828
 30
0.0
 10
99.02457931193933
 20
48.67712842573025
 30
0.0
 10
99.02595285005894
 20
48.70167625067496
 30
0.0
  0
SPLINE
  5
9C
330
1F
100
AcDbEntity
  8
0
  6
Continuous
 62
     7
370
    25
100
AcDbSpline
210
0.0
220
0.0
230
1.0
 70
     8
 71
     3
 72
    23
 73
    19
 74
     0
 42
0.000000001
 43
0.00000001
 40
0.0
 40
0.0
 40
0.0
 40
0.0
 40
0.0760618905628338
 40
0.1487324608035361
 40
0.2183745247439721
 40
0.2857225935927384
 40
0.3510576941824568
 40
0.4149349157293191
 40
0.4784859417740854
 40
0.5421690352812158
 40
0.6047501165431387
 40
0.6641185017301124
 40
0.7214996756099116
 40
0.777615916385255
 40
0.8326661086975489
 40
0.887858028113574
 40
0.9434676608977686
 40
1.0
 40
1.0
 40
1.0
 40
1.0
 10
97.96826054236662
 20
48.56896391093137
 30
0.0
 10
97.9686997592154
 20
48.54556823520505
 30
0.0
 10
97.9695586098469
 20
48.4998200109999
 30
0.0
 10
97.97747982488525
 20
48.43307096456041
 30
0.0
 10
97.9889658334284
 20
48.36954983603556
 30
0.0
 10
98.00693218403178
 20
48.30990485834947
 30
0.0
 10
98.0284857895724
 20
48.25332440972191
 30
0.0
 10
98.05670341502692
 20
48.2010715292318
 30
0.0
 10
98.08857066108654
 20
48.15161004674997
 30
0.0
 10
98.1256383972798
 20
48.10638895512613
 30
0.0
 10
98.165704607821
 20
48.06561992984134
 30
0.0
 10
98.20821128659118
 20
48.03039098758669
 30
0.0
 10
98.25184044992942
 20
47.99987869448078
 30
0.0
 10
98.29760987802716
 20
47.97535190284577
 30
0.0
 10
98.34507060958866
 20
47.95595005948444
 30
0.0
 10
98.39440029055254
 20
47.94275006717958
 30
0.0
 10
98.44518353413898
 20
47.93356980285836
 30
0.0
 10
98.47970429635467
 20
47.93282230539014
 30
0.0
 10
98.49710669621278
 20
47.93244548144419
 30
0.0
  0
SPLINE
  5
9D
330
1F
100
AcDbEntity
  8
0
  6
Continuous
 62
     7
370
    25
100
AcDbSpline
210
0.0
220
0.0
230
1.0
 70
     8
 71
     3
 72
    15
 73
    11
 74
     0
 42
0.000000001
 43
0.00000001
 40
0.0
 40
0.0
 40
0.0
 40
0.0
 40
0.1182713048357264
 40
0.2361775330837636
 40
0.3556629329485097
 40
0.475904164670683
 40
0.6001273417110831
 40
0.7286081161551196
 40
0.8613134756739419
 40
1.0
 40
1.0
 40
1.0
 40
1.0
 10
98.10347688852048
 20
48.98663218016215
 30
0.0
 10
98.09268522145939
 20
48.97263462550132
 30
0.0
 10
98.0711351987562
 20
48.94468272344368
 30
0.0
 10
98.04363403551493
 20
48.89913398694479
 30
0.0
 10
98.0198047317044
 20
48.85123049688356
 30
0.0
 10
98.00160209190703
 20
48.79993430101148
 30
0.0
 10
97.98618947705764
 20
48.74635232211573
 30
0.0
 10
97.976103391963
 20
48.68961848980729
 30
0.0
 10
97.96918326957498
 20
48.63023333472747
 30
0.0
 10
97.96857260422328
 20
48.58968493223957
 30
0.0
 10
97.96826054236662
 20
48.56896391093137
 30
0.0
  0
SPLINE
  5
9E
330
1F
100
AcDbEntity
  8
0
  6
Continuous
 62
     7
370
    25
100
AcDbSpline
210
0.0
220
0.0
230
1.0
 70
     8
 71
     3
 72
    15
 73
    11
 74
     0
 42
0.000000001
 43
0.00000001
 40
0.0
 40
0.0
 40
0.0
 40
0.0
 40
0.149770386031968
 40
0.2913164099952444
 40
0.4259663731047428
 40
0.5521595739695285
 40
0.6715274135235931
 40
0.7861216286916591
 40
0.8953250730704452
 40
1.0
 40
1.0
 40
1.0
 40
1.0
 10
98.44902977313585
 20
49.1824454814442
 30
0.0
 10
98.42978047794396
 20
49.17660027327256
 30
0.0
 10
98.39233892678818
 20
49.16523083565978
 30
0.0
 10
98.33845299416328
 20
49.14587776563471
 30
0.0
 10
98.28905438471698
 20
49.12382899987009
 30
0.0
 10
98.24378072616129
 20
49.10017574370148
 30
0.0
 10
98.20218615297259
 20
49.07533399654238
 30
0.0
 10
98.16537053223395
 20
49.04753762144495
 30
0.0
 10
98.13171681636983
 20
49.01884537491116
 30
0.0
 10
98.11275637926968
 20
48.99721726537448
 30
0.0
 10
98.10347688852048
 20
48.98663218016215
 30
0.0
  0
LINE
  5
9F
330
1F
100
AcDbEntity
  8
0
  6
Continuous
 62
     7
370
    25
100
AcDbLine
 10
98.4490297731
 20
49.4068044558
 30
0.0
 11
98.4490297731
 21
49.1824454814
 31
0.0
  0
SPLINE
  5
A0
330
1F
100
AcDbEntity
  8
0
  6
Continuous
 62
     7
370
    25
100
AcDbSpline
210
0.0
220
0.0
230
1.0
 70
     8
 71
     3
 72
    23
 73
    19
 74
     0
 42
0.000000001
 43
0.00000001
 40
0.0
 40
0.0
 40
0.0
 40
0.0
 40
0.0655411703374035
 40
0.1289631677825933
 40
0.1903771361885609
 40
0.2500923616690527
 40
0.308548432459201
 40
0.3663979630552959
 40
0.42454218926668
 40
0.4831699964229057
 40
0.5422433998311202
 40
0.6017393520173302
 40
0.6625060022496067
 40
0.724855513448847
 40
0.7891278292811812
 40
0.8563463998785101
 40
0.9262952349869055
 40
1.0
 40
1.0
 40
1.0
 40
1.0
 10
97.71185028595637
 20
48.57297032118778
 30
0.0
 10
97.71247043828386
 20
48.5996983928186
 30
0.0
 10
97.71369069126759
 20
48.65229032501151
 30
0.0
 10
97.72203254926517
 20
48.72960710957317
 30
0.0
 10
97.73726826729217
 20
48.80340832340497
 30
0.0
 10
97.75777062826795
 20
48.87379375044545
 30
0.0
 10
97.783764729754
 20
48.94082591929799
 30
0.0
 10
97.81613522834067
 20
49.00430028013921
 30
0.0
 10
97.8542148726634
 20
49.06460734693928
 30
0.0
 10
97.8984531496681
 20
49.12117802632826
 30
0.0
 10
97.94793982092293
 20
49.17400557468986
 30
0.0
 10
98.00355339947127
 20
49.2216860919971
 30
0.0
 10
98.06426583084345
 20
49.26501451552716
 30
0.0
 10
98.13078229955683
 20
49.30283068603537
 30
0.0
 10
98.20224319761236
 20
49.33685708076099
 30
0.0
 10
98.27956355359926
 20
49.3648434783662
 30
0.0
 10
98.36205214073426
 20
49.38947602739212
 30
0.0
 10
98.41953624085986
 20
49.40092850185361
 30
0.0
 10
98.44902977313585
 20
49.40680445580317
 30
0.0
  0
SPLINE
  5
A1
330
1F
100
AcDbEntity
  8
0
  6
Continuous
 62
     7
370
    25
100
AcDbSpline
210
0.0
220
0.0
230
1.0
 70
     8
 71
     3
 72
    19
 73
    15
 74
     0
 42
0.000000001
 43
0.00000001
 40
0.0
 40
0.0
 40
0.0
 40
0.0
 40
0.0796417041949911
 40
0.158908613257856
 40
0.2395997983184508
 40
0.3224093988203484
 40
0.405827748173513
 40
0.4876442139503137
 40
0.5697199979738973
 40
0.6530646649976933
 40
0.7374573001733064
 40
0.8224924079539123
 40
0.9097550737466981
 40
0.9999999999999999
 40
0.9999999999999999
 40
0.9999999999999999
 40
0.9999999999999999
 10
98.51864115134099
 20
47.70808650708522
 30
0.0
 10
98.48363559966879
 20
47.70937112493774
 30
0.0
 10
98.41378923300974
 20
47.71193431521065
 30
0.0
 10
98.31057212293862
 20
47.73475203138239
 30
0.0
 10
98.20985016616818
 20
47.77032970521609
 30
0.0
 10
98.11311573462653
 20
47.81996961138348
 30
0.0
 10
98.02279675069381
 20
47.88138721536622
 30
0.0
 10
97.94235244396623
 20
47.95486079126522
 30
0.0
 10
97.872738933554
 20
48.03860420816952
 30
0.0
 10
97.81476275645976
 20
48.13206938212093
 30
0.0
 10
97.7683843163309
 20
48.23328701403476
 30
0.0
 10
97.7362027402576
 20
48.34155771256759
 30
0.0
 10
97.71524068221137
 20
48.45530709229509
 30
0.0
 10
97.71299300559146
 20
48.53331239572143
 30
0.0
 10
97.71185028595637
 20
48.57297032118778
 30
0.0
  0
SPLINE
  5
A2
330
1F
100
AcDbEntity
  8
0
  6
Continuous
 62
     7
370
    25
100
AcDbSpline
210
0.0
220
0.0
230
1.0
 70
     8
 71
     3
 72
    15
 73
    11
 74
     0
 42
0.000000001
 43
0.00000001
 40
0.0
 40
0.0
 40
0.0
 40
0.0
 40
0.1281455049994642
 40
0.254192538628042
 40
0.378141139713589
 40
0.5013808330744056
 40
0.6239569784447038
 40
0.7470758858273291
 40
0.8728647202442611
 40
1.0
 40
1.0
 40
1.0
 40
1.0
 10
98.96285188852048
 20
47.8573252891365
 30
0.0
 10
98.94638382114547
 20
47.84529086215724
 30
0.0
 10
98.91371736240104
 20
47.82141908027302
 30
0.0
 10
98.86116570145839
 20
47.79203666583314
 30
0.0
 10
98.80820553606588
 20
47.76507632013132
 30
0.0
 10
98.75275454082616
 20
47.74523428611447
 30
0.0
 10
98.69659389979196
 20
47.72811139705105
 30
0.0
 10
98.6385209891821
 20
47.71684510619715
 30
0.0
 10
98.57908755080283
 20
47.70961259812099
 30
0.0
 10
98.53886133278783
 20
47.70859700626999
 30
0.0
 10
98.51864115134099
 20
47.70808650708522
 30
0.0
  0
SPLINE
  5
A3
330
1F
100
AcDbEntity
  8
0
  6
Continuous
 62
     7
370
    25
100
AcDbSpline
210
0.0
220
0.0
230
1.0
 70
     8
 71
     3
 72
    11
 73
     7
 74
     0
 42
0.000000001
 43
0.00000001
 40
0.0
 40
0.0
 40
0.0
 40
0.0
 40
0.2538796003266561
 40
0.5030089172783634
 40
0.7502910806899732
 40
1.0
 40
1.0
 40
1.0
 40
1.0
 10
99.17619323467432
 20
48.12825878272624
 30
0.0
 10
99.16335168357327
 20
48.10166467231672
 30
0.0
 10
99.13790885670883
 20
48.04897404784014
 30
0.0
 10
99.08801188705365
 20
47.97715224103093
 30
0.0
 10
99.0304002103723
 20
47.9119537586331
 30
0.0
 10
98.9854411725769
 20
47.87559395934468
 30
0.0
 10
98.96285188852048
 20
47.8573252891365
 30
0.0
  0
SPLINE
  5
A4
330
1F
100
AcDbEntity
  8
0
  6
Continuous
 62
     7
370
    25
100
AcDbSpline
210
0.0
220
0.0
230
1.0
 70
     8
 71
     3
 72
    15
 73
    11
 74
     0
 42
0.000000001
 43
0.00000001
 40
0.0
 40
0.0
 40
0.0
 40
0.0
 40
0.1280675485958908
 40
0.2506083188676689
 40
0.3706301659145033
 40
0.4900722467299491
 40
0.6103747641546201
 40
0.7343130699115257
 40
0.8632165042449896
 40
1.0
 40
1.0
 40
1.0
 40
1.0
 10
99.69051615134099
 20
47.83629163529035
 30
0.0
 10
99.66408272655129
 20
47.83712277175254
 30
0.0
 10
99.61235661622051
 20
47.83874917683191
 30
0.0
 10
99.5368412611218
 20
47.85255896651929
 30
0.0
 10
99.46566868949165
 20
47.87579915428802
 30
0.0
 10
99.39853928797487
 20
47.90799184184364
 30
0.0
 10
99.33587868810123
 20
47.94966437772955
 30
0.0
 10
99.27754590891516
 20
48.00014487550835
 30
0.0
 10
99.22328222453783
 20
48.05978963391942
 30
0.0
 10
99.19219688669821
 20
48.10498887536463
 30
0.0
 10
99.17619323467432
 20
48.12825878272624
 30
0.0
  0
SPLINE
  5
A5
330
1F
100
AcDbEntity
  8
0
  6
Continuous
 62
     7
370
    25
100
AcDbSpline
210
0.0
220
0.0
230
1.0
 70
     8
 71
     3
 72
    19
 73
    15
 74
     0
 42
0.000000001
 43
0.00000001
 40
0.0
 40
0.0
 40
0.0
 40
0.0
 40
0.0902542493426765
 40
0.1785397915286845
 40
0.2660930338538199
 40
0.3546309779571733
 40
0.4418861533505625
 40
0.5257469151636482
 40
0.6081136336036366
 40
0.6901972728278825
 40
0.7708214843303354
 40
0.8483261812554111
 40
0.9240117400247433
 40
1.0
 40
1.0
 40
1.0
 40
1.0
 10
100.3400554141615
 20
48.56645990452112
 30
0.0
 10
100.3390702497008
 20
48.53382937446749
 30
0.0
 10
100.337121410076
 20
48.46928008093644
 30
0.0
 10
100.3193253840195
 20
48.37444933311466
 30
0.0
 10
100.291164575195
 20
48.28300160518457
 30
0.0
 10
100.2522547700972
 20
48.19593785674434
 30
0.0
 10
100.2042638321243
 20
48.115067547747
 30
0.0
 10
100.1471461629137
 20
48.04311312864193
 30
0.0
 10
100.0820038047084
 20
47.9810499066391
 30
0.0
 10
100.0100519730523
 20
47.92898249402473
 30
0.0
 10
99.9331551806331
 20
47.88821463755781
 30
0.0
 10
99.85401221124216
 20
47.85815294221516
 30
0.0
 10
99.77281080310723
 20
47.83985174150182
 30
0.0
 10
99.71798417512497
 20
47.83747991520881
 30
0.0
 10
99.69051615134099
 20
47.83629163529035
 30
0.0
  0
SPLINE
  5
A6
330
1F
100
AcDbEntity
  8
0
  6
Continuous
 62
     7
370
    25
100
AcDbSpline
210
0.0
220
0.0
230
1.0
 70
     8
 71
     3
 72
    23
 73
    19
 74
     0
 42
0.000000001
 43
0.00000001
 40
0.0
 40
0.0
 40
0.0
 40
0.0
 40
0.0726253460834355
 40
0.1419766113262344
 40
0.2089849284189386
 40
0.2739568703644447
 40
0.3368893473968406
 40
0.3987449534945902
 40
0.4601158852788613
 40
0.5208249225900291
 40
0.5809944586324854
 40
0.640151927601465
 40
0.6986224507562546
 40
0.7572710809271643
 40
0.8164266940046601
 40
0.8762540482034703
 40
0.937165293062537
 40
1.0
 40
1.0
 40
1.0
 40
1.0
 10
99.69902977313586
 20
49.31065060964932
 30
0.0
 10
99.72419583311827
 20
49.3045723591629
 30
0.0
 10
99.77339342196873
 20
49.29268987662211
 30
0.0
 10
99.84368432257396
 20
49.26790589557289
 30
0.0
 10
99.91020112356735
 20
49.24090642757675
 30
0.0
 10
99.97169831906405
 20
49.20848563860191
 30
0.0
 10
100.029411821016
 20
49.17312224272612
 30
0.0
 10
100.0820326242075
 20
49.13260601305764
 30
0.0
 10
100.1308990281126
 20
49.08880621122483
 30
0.0
 10
100.1742656263677
 20
49.04035981886643
 30
0.0
 10
100.2135354329439
 20
48.98955363198014
 30
0.0
 10
100.2470176167599
 20
48.93567176072962
 30
0.0
 10
100.2758205830917
 20
48.87979826525061
 30
0.0
 10
100.2995493201455
 20
48.82154602743019
 30
0.0
 10
100.3174246941928
 20
48.76074161907876
 30
0.0
 10
100.3303938410433
 20
48.69793474527818
 30
0.0
 10
100.3388160654822
 20
48.63296081662486
 30
0.0
 10
100.3396380391153
 20
48.58885539476896
 30
0.0
 10
100.3400554141615
 20
48.56645990452112
 30
0.0
  0
LINE
  5
A7
330
1F
100
AcDbEntity
  8
0
  6
Continuous
 62
     7
370
    25
100
AcDbLine
 10
99.6990297731
 20
49.0862916353
 30
0.0
 11
99.6990297731
 21
49.3106506096
 31
0.0
  0
LINE
  5
A8
330
1F
100
AcDbEntity
  8
0
  6
Continuous
 62
     7
370
    25
100
AcDbLine
 10
100.3400554142
 20
45.4028330467
 30
0.0
 11
100.2043382667
 21
45.2300566044
 31
0.0
  0
LINE
  5
A9
330
1F
100
AcDbEntity
  8
0
  6
Continuous
 62
     7
370
    25
100
AcDbLine
 10
99.1992300936
 20
46.149026957
 30
0.0
 11
100.3400554142
 21
45.4028330467
 31
0.0
  0
SPLINE
  5
AA
330
1F
100
AcDbEntity
  8
0
  6
Continuous
 62
     7
370
    25
100
AcDbSpline
210
0.0
220
0.0
230
1.0
 70
     8
 71
     3
 72
    19
 73
    15
 74
     0
 42
0.000000001
 43
0.00000001
 40
0.0
 40
0.0
 40
0.0
 40
0.0
 40
0.0978059775289526
 40
0.1996122522918969
 40
0.3052960258330043
 40
0.4158173591641855
 40
0.4742405666184931
 40
0.5372869128296534
 40
0.6033858352934853
 40
0.6743111580696057
 40
0.749530467357482
 40
0.8286083142695118
 40
0.9120427387714449
 40
1.0
 40
1.0
 40
1.0
 40
1.0
 10
98.47306823467432
 20
46.42847407234154
 30
0.0
 10
98.49880499127985
 20
46.42756803784071
 30
0.0
 10
98.5513311464548
 20
46.42571891172454
 30
0.0
 10
98.63111360322546
 20
46.41468354010289
 30
0.0
 10
98.71242829186262
 20
46.39444332027115
 30
0.0
 10
98.78136090127265
 20
46.37253897865524
 30
0.0
 10
98.83844959094799
 20
46.3508032595802
 30
0.0
 10
98.88353102112643
 20
46.33064940071899
 30
0.0
 10
98.9311384589219
 20
46.30811493081986
 30
0.0
 10
98.98037112476455
 20
46.2817013939545
 30
0.0
 10
99.03263570255274
 20
46.25370091328833
 30
0.0
 10
99.08599667541388
 20
46.22099317437443
 30
0.0
 10
99.1424029508466
 20
46.18686214624053
 30
0.0
 10
99.17995737284946
 20
46.16185862512628
 30
0.0
 10
99.19923009364867
 20
46.14902695695692
 30
0.0
  0
SPLINE
  5
AB
330
1F
100
AcDbEntity
  8
0
  6
Continuous
 62
     7
370
    25
100
AcDbSpline
210
0.0
220
0.0
230
1.0
 70
     8
 71
     3
 72
    19
 73
    15
 74
     0
 42
0.000000001
 43
0.00000001
 40
0.0
 40
0.0
 40
0.0
 40
0.0
 40
0.0843261511037433
 40
0.1670353409858405
 40
0.2495407139852792
 40
0.3327066655796642
 40
0.4158726171740492
 40
0.4977774155681173
 40
0.5803136056784763
 40
0.6645325781316562
 40
0.7495711764063214
 40
0.8324741628544073
 40
0.9156738488962567
 40
1.0
 40
1.0
 40
1.0
 40
1.0
 10
97.71185028595637
 20
45.67126253388
 30
0.0
 10
97.71294185873163
 20
45.7049030408329
 30
0.0
 10
97.71510407328
 20
45.77153899511593
 30
0.0
 10
97.73436549778474
 20
45.86956232469651
 30
0.0
 10
97.76558470430832
 20
45.96375055339374
 30
0.0
 10
97.80859547772089
 20
46.05344161623612
 30
0.0
 10
97.86292040010673
 20
46.13653279787253
 30
0.0
 10
97.92832990575363
 20
46.21084685357845
 30
0.0
 10
98.00337836950261
 20
46.2761252291477
 30
0.0
 10
98.08829601257126
 20
46.33016417471423
 30
0.0
 10
98.17895791463428
 20
46.37420606202073
 30
0.0
 10
98.27435392920869
 20
46.40526944201561
 30
0.0
 10
98.37256417364614
 20
46.42535821094124
 30
0.0
 10
98.43941703860588
 20
46.42743080640949
 30
0.0
 10
98.47306823467432
 20
46.42847407234154
 30
0.0
  0
SPLINE
  5
AC
330
1F
100
AcDbEntity
  8
0
  6
Continuous
 62
     7
370
    25
100
AcDbSpline
210
0.0
220
0.0
230
1.0
 70
     8
 71
     3
 72
    19
 73
    15
 74
     0
 42
0.000000001
 43
0.00000001
 40
0.0
 40
0.0
 40
0.0
 40
0.0
 40
0.0859901205637197
 40
0.1691084375726415
 40
0.2505285789581879
 40
0.3322556961768449
 40
0.4135763652356403
 40
0.4941261456201216
 40
0.5763059341204169
 40
0.6607126719045471
 40
0.7461272722239101
 40
0.8300149859609741
 40
0.914419725928851
 40
1.0
 40
1.0
 40
1.0
 40
1.0
 10
98.47757544621278
 20
44.89001253388
 30
0.0
 10
98.44261074073592
 20
44.89131719721856
 30
0.0
 10
98.3738490425941
 20
44.89388295218315
 30
0.0
 10
98.2732794606912
 20
44.91256055857193
 30
0.0
 10
98.17823796865646
 20
44.94479393406556
 30
0.0
 10
98.08835106911816
 20
44.98791832519947
 30
0.0
 10
98.0062340266753
 20
45.04386883178725
 30
0.0
 10
97.93202223995814
 20
45.11017325821307
 30
0.0
 10
97.86733576595581
 20
45.18745836667052
 30
0.0
 10
97.81184393452621
 20
45.27389402873079
 30
0.0
 10
97.76775574433005
 20
45.3674442583925
 30
0.0
 10
97.73516044542828
 20
45.46553473426893
 30
0.0
 10
97.7156839259618
 20
45.5673270319051
 30
0.0
 10
97.71313404387506
 20
45.63645800776258
 30
0.0
 10
97.71185028595637
 20
45.67126253388
 30
0.0
  0
SPLINE
  5
AD
330
1F
100
AcDbEntity
  8
0
  6
Continuous
 62
     7
370
    25
100
AcDbSpline
210
0.0
220
0.0
230
1.0
 70
     8
 71
     3
 72
    23
 73
    19
 74
     0
 42
0.000000001
 43
0.00000001
 40
0.0
 40
0.0
 40
0.0
 40
0.0
 40
0.0652308037420295
 40
0.128404896003223
 40
0.1900670715964783
 40
0.2509433657682803
 40
0.3115458328521435
 40
0.3728628021568293
 40
0.4350236738562387
 40
0.4990717247070434
 40
0.5630910750496626
 40
0.625510106330375
 40
0.6866800359296493
 40
0.7472825030135126
 40
0.8085634952159588
 40
0.8707421035159857
 40
0.9343409515059125
 40
1.0
 40
1.0
 40
1.0
 40
1.0
 10
99.21826054236662
 20
45.63169923259795
 30
0.0
 10
99.21757760544108
 20
45.60629030664426
 30
0.0
 10
99.21623326442622
 20
45.55627359203287
 30
0.0
 10
99.20588765678919
 20
45.48284016190858
 30
0.0
 10
99.18958400541518
 20
45.41227663621346
 30
0.0
 10
99.16581810830932
 20
45.34487548460245
 30
0.0
 10
99.13545928376483
 20
45.28039478327419
 30
0.0
 10
99.09907437642163
 20
45.21846450033952
 30
0.0
 10
99.05478460473823
 20
45.16024877883509
 30
0.0
 10
99.00530963632117
 20
45.10499793654087
 30
0.0
 10
98.95051179025322
 20
45.05483572411734
 30
0.0
 10
98.89236797832032
 20
45.01042425586196
 30
0.0
 10
98.83093877760732
 20
44.9731194046233
 30
0.0
 10
98.76625530194066
 20
44.94285231775574
 30
0.0
 10
98.69841725939742
 20
44.91934883304297
 30
0.0
 10
98.62751144547713
 20
44.90221480086897
 30
0.0
 10
98.55348896586275
 20
44.89208652028336
 30
0.0
 10
98.5031474121012
 20
44.89071116977259
 30
0.0
 10
98.47757544621278
 20
44.89001253388
 30
0.0
  0
SPLINE
  5
AE
330
1F
100
AcDbEntity
  8
0
  6
Continuous
 62
     7
370
    25
100
AcDbSpline
210
0.0
220
0.0
230
1.0
 70
     8
 71
     3
 72
     9
 73
     5
 74
     0
 42
0.000000001
 43
0.00000001
 40
0.0
 40
0.0
 40
0.0
 40
0.0
 40
0.5126593363417816
 40
1.0
 40
1.0
 40
1.0
 40
1.0
 10
99.19422208082817
 20
45.89061349541846
 30
0.0
 10
99.20123198129502
 20
45.84663472614466
 30
0.0
 10
99.21490558473872
 20
45.76084916416185
 30
0.0
 10
99.21716126005903
 20
45.67401637950158
 30
0.0
 10
99.21826054236662
 20
45.63169923259795
 30
0.0
  0
LINE
  5
AF
330
1F
100
AcDbEntity
  8
0
  6
Continuous
 62
     7
370
    25
100
AcDbLine
 10
100.2043382667
 20
45.2300566044
 30
0.0
 11
99.1942220808
 21
45.8906134954
 31
0.0
  0
LINE
  5
B0
330
1F
100
AcDbEntity
  8
0
  6
Continuous
 62
     7
370
    25
100
AcDbLine
 10
100.2759528501
 20
47.3427952257
 30
0.0
 11
100.2759528501
 21
46.8805556424
 31
0.0
  0
LINE
  5
B1
330
1F
100
AcDbEntity
  8
0
  6
Continuous
 62
     7
370
    25
100
AcDbLine
 10
100.0195425936
 20
47.4895300013
 30
0.0
 11
100.2759528501
 21
47.3427952257
 31
0.0
  0
LINE
  5
B2
330
1F
100
AcDbEntity
  8
0
  6
Continuous
 62
     7
370
    25
100
AcDbLine
 10
100.0195425936
 20
47.1049146167
 30
0.0
 11
100.0195425936
 21
47.4895300013
 31
0.0
  0
LINE
  5
B3
330
1F
100
AcDbEntity
  8
0
  6
Continuous
 62
     7
370
    25
100
AcDbLine
 10
97.7759528501
 20
47.1049146167
 30
0.0
 11
100.0195425936
 21
47.1049146167
 31
0.0
  0
LINE
  5
B4
330
1F
100
AcDbEntity
  8
0
  6
Continuous
 62
     7
370
    25
100
AcDbLine
 10
97.7759528501
 20
46.8805556424
 30
0.0
 11
97.7759528501
 21
47.1049146167
 31
0.0
  0
LINE
  5
B5
330
1F
100
AcDbEntity
  8
0
  6
Continuous
 62
     7
370
    25
100
AcDbLine
 10
100.2759528501
 20
46.8805556424
 30
0.0
 11
97.7759528501
 21
46.8805556424
 31
0.0
  0
LINE
  5
B6
330
1F
100
AcDbEntity
  8
0
  6
Continuous
 62
     7
370
    25
100
AcDbLine
 10
99.1474659225
 20
54.797186936
 30
0.0
 11
101.7758439168
 21
54.797186936
 31
0.0
  0
SPLINE
  5
B7
330
1F
100
AcDbEntity
  8
0
  6
Continuous
 62
     7
370
    25
100
AcDbSpline
210
0.0
220
0.0
230
1.0
 70
     8
 71
     3
 72
    16
 73
    12
 74
     0
 42
0.000000001
 43
0.00000001
 40
0.0
 40
0.0
 40
0.0
 40
0.0
 40
0.2499999999999999
 40
0.2499999999999999
 40
0.4999999999999999
 40
0.4999999999999999
 40
0.6249999999999999
 40
0.6249999999999999
 40
0.7499999999999998
 40
0.7499999999999998
 40
1.0
 40
1.0
 40
1.0
 40
1.0
 10
101.7758439168215
 20
39.20872966789705
 30
0.0
 10
102.1420632095759
 20
40.47735051142207
 30
0.0
 10
102.4489738418637
 20
41.77595797799843
 30
0.0
 10
102.8685321710431
 20
44.37846334373111
 30
0.0
 10
102.9817594098621
 20
45.68744990954436
 30
0.0
 10
102.9815430091165
 20
47.6645514745032
 30
0.0
 10
102.9534595732461
 20
48.32582905618225
 30
0.0
 10
102.8419322459347
 20
49.65281863428508
 30
0.0
 10
102.7593045901512
 20
50.30965983500516
 30
0.0
 10
102.4424233964119
 20
52.26090081894887
 30
0.0
 10
102.1395719597213
 20
53.53719603513672
 30
0.0
 10
101.7758439168215
 20
54.79718693601698
 30
0.0
  0
SPLINE
  5
B8
330
1F
100
AcDbEntity
  8
0
  6
Continuous
 62
     7
370
    25
100
AcDbSpline
210
0.0
220
0.0
230
1.0
 70
     8
 71
     3
 72
     8
 73
     4
 74
     0
 42
0.000000001
 43
0.00000001
 40
0.0
 40
0.0
 40
0.0
 40
0.0
 40
1.0
 40
1.0
 40
1.0
 40
1.0
 10
99.14746592252683
 20
39.20872966789708
 30
0.0
 10
99.11984176372444
 20
39.41491919623098
 30
0.0
 10
99.09302996231132
 20
39.62118088937812
 30
0.0
 10
99.06708116479751
 20
39.82751924646166
 30
0.0
  0
SPLINE
  5
B9
330
1F
100
AcDbEntity
  8
0
  6
Continuous
 62
     7
370
    25
100
AcDbSpline
210
0.0
220
0.0
230
1.0
 70
     8
 71
     3
 72
     8
 73
     4
 74
     0
 42
0.000000001
 43
0.00000001
 40
0.0
 40
0.0
 40
0.0
 40
0.0
 40
1.0
 40
1.0
 40
1.0
 40
1.0
 10
99.06708116479751
 20
39.82751924646166
 30
0.0
 10
99.04112447206703
 20
39.62111810858708
 30
0.0
 10
99.01431233356509
 20
39.41485774946626
 30
0.0
 10
98.98669640706817
 20
39.20872966789707
 30
0.0
  0
SPLINE
  5
BA
330
1F
100
AcDbEntity
  8
0
  6
Continuous
 62
     7
370
    25
100
AcDbSpline
210
0.0
220
0.0
230
1.0
 70
     8
 71
     3
 72
    16
 73
    12
 74
     0
 42
0.000000001
 43
0.00000001
 40
0.0
 40
0.0
 40
0.0
 40
0.0
 40
0.25
 40
0.25
 40
0.5
 40
0.5
 40
0.625
 40
0.625
 40
0.75
 40
0.75
 40
1.0
 40
1.0
 40
1.0
 40
1.0
 10
96.3583184127735
 20
39.20872966789706
 30
0.0
 10
95.99193558873165
 20
40.47791700041915
 30
0.0
 10
95.68514163555596
 20
41.77626772589587
 30
0.0
 10
95.26569719332899
 20
44.37802840479483
 30
0.0
 10
95.15239013728304
 20
45.68707868253159
 30
0.0
 10
95.15262575043904
 20
47.66507602567791
 30
0.0
 10
95.18080056044009
 20
48.3274747057598
 30
0.0
 10
95.29238049361783
 20
49.65412524508415
 30
0.0
 10
95.37496265422047
 20
50.31037905041588
 30
0.0
 10
95.69176486973151
 20
52.26091406966863
 30
0.0
 10
95.9945613196733
 20
53.53709540229065
 30
0.0
 10
96.35831841277354
 20
54.79718693601697
 30
0.0
  0
LINE
  5
BB
330
1F
100
AcDbEntity
  8
0
  6
Continuous
 62
     7
370
    25
100
AcDbLine
 10
96.3583184128
 20
54.797186936
 30
0.0
 11
98.9866964071
 21
54.797186936
 31
0.0
  0
SPLINE
  5
BC
330
1F
100
AcDbEntity
  8
0
  6
Continuous
 62
     7
370
    25
100
AcDbSpline
210
0.0
220
0.0
230
1.0
 70
     8
 71
     3
 72
     8
 73
     4
 74
     0
 42
0.000000001
 43
0.00000001
 40
0.0
 40
0.0
 40
0.0
 40
0.0
 40
1.0
 40
1.0
 40
1.0
 40
1.0
 10
98.98669640706817
 20
54.79718693601697
 30
0.0
 10
99.01432056587058
 20
54.59099740768306
 30
0.0
 10
99.0411323672837
 20
54.38473571453591
 30
0.0
 10
99.06708116479751
 20
54.17839735745238
 30
0.0
  0
SPLINE
  5
BD
330
1F
100
AcDbEntity
  8
0
  6
Continuous
 62
     7
370
    25
100
AcDbSpline
210
0.0
220
0.0
230
1.0
 70
     8
 71
     3
 72
     8
 73
     4
 74
     0
 42
0.000000001
 43
0.00000001
 40
0.0
 40
0.0
 40
0.0
 40
0.0
 40
1.0
 40
1.0
 40
1.0
 40
1.0
 10
99.06708116479751
 20
54.17839735745238
 30
0.0
 10
99.09303785752797
 20
54.38479849532696
 30
0.0
 10
99.11984999602993
 20
54.59105885444779
 30
0.0
 10
99.14746592252685
 20
54.79718693601697
 30
0.0
  0
LINE
  5
BE
330
1F
100
AcDbEntity
  8
0
  6
Continuous
 62
     7
370
    25
100
AcDbLine
 10
99.0670811648
 20
38.8993348786
 30
0.0
 11
99.0670811648
 21
39.8275192465
 31
0.0
  0
LINE
  5
BF
330
1F
100
AcDbEntity
  8
0
  6
Continuous
 62
     7
370
    25
100
AcDbLine
 10
99.1474659225
 20
62.5914155701
 30
0.0
 11
101.7758439168
 21
62.5914155701
 31
0.0
  0
SPLINE
  5
C0
330
1F
100
AcDbEntity
  8
0
  6
Continuous
 62
     7
370
    25
100
AcDbSpline
210
0.0
220
0.0
230
1.0
 70
     8
 71
     3
 72
    16
 73
    12
 74
     0
 42
0.000000001
 43
0.00000001
 40
0.0
 40
0.0
 40
0.0
 40
0.0
 40
0.25
 40
0.25
 40
0.5
 40
0.5
 40
0.625
 40
0.625
 40
0.75
 40
0.75
 40
1.0
 40
1.0
 40
1.0
 40
1.0
 10
101.7758439168217
 20
54.79718693601696
 30
0.0
 10
102.1432262795077
 20
55.43351185399381
 30
0.0
 10
102.4460158399019
 20
56.07447600494645
 30
0.0
 10
102.8654776482073
 20
57.36977176487807
 30
0.0
 10
102.9807662736618
 20
58.02420274943293
 30
0.0
 10
102.9820326705257
 20
59.01817879010307
 30
0.0
 10
102.9538491134367
 20
59.35106351670767
 30
0.0
 10
102.8439479443947
 20
60.00954455026792
 30
0.0
 10
102.7623418823218
 20
60.33657742654668
 30
0.0
 10
102.447223287431
 20
61.31185368626029
 30
0.0
 10
102.1436842710948
 20
61.9542973874016
 30
0.0
 10
101.7758439168216
 20
62.59141557007693
 30
0.0
  0
SPLINE
  5
C1
330
1F
100
AcDbEntity
  8
0
  6
Continuous
 62
     7
370
    25
100
AcDbSpline
210
0.0
220
0.0
230
1.0
 70
     8
 71
     3
 72
     8
 73
     4
 74
     0
 42
0.000000001
 43
0.00000001
 40
0.0
 40
0.0
 40
0.0
 40
0.0
 40
1.0
 40
1.0
 40
1.0
 40
1.0
 10
99.14746592252685
 20
54.79718693601698
 30
0.0
 10
99.11984286643302
 20
54.90027758481943
 30
0.0
 10
99.09303101931572
 20
55.00340834423998
 30
0.0
 10
99.06708116479751
 20
55.10658172529926
 30
0.0
  0
SPLINE
  5
C2
330
1F
100
AcDbEntity
  8
0
  6
Continuous
 62
     7
370
    25
100
AcDbSpline
210
0.0
220
0.0
230
1.0
 70
     8
 71
     3
 72
     8
 73
     4
 74
     0
 42
0.000000001
 43
0.00000001
 40
0.0
 40
0.0
 40
0.0
 40
0.0
 40
1.0
 40
1.0
 40
1.0
 40
1.0
 10
99.0670811647975
 20
55.10658172529926
 30
0.0
 10
99.04112410115306
 20
55.00337968165438
 30
0.0
 10
99.01431194705862
 20
54.9002495343398
 30
0.0
 10
98.98669640706817
 20
54.79718693601697
 30
0.0
  0
SPLINE
  5
C3
330
1F
100
AcDbEntity
  8
0
  6
Continuous
 62
     7
370
    25
100
AcDbSpline
210
0.0
220
0.0
230
1.0
 70
     8
 71
     3
 72
    16
 73
    12
 74
     0
 42
0.000000001
 43
0.00000001
 40
0.0
 40
0.0
 40
0.0
 40
0.0
 40
0.25
 40
0.25
 40
0.5
 40
0.5
 40
0.625
 40
0.625
 40
0.75
 40
0.75
 40
1.0
 40
1.0
 40
1.0
 40
1.0
 10
96.35831841277327
 20
62.59141557007694
 30
0.0
 10
95.99093605008727
 20
61.95509065210008
 30
0.0
 10
95.6881464896931
 20
61.31412650114743
 30
0.0
 10
95.26868468138775
 20
60.01883074121582
 30
0.0
 10
95.15339605593317
 20
59.36439975666096
 30
0.0
 10
95.15212965906927
 20
58.37042371599081
 30
0.0
 10
95.18031321615827
 20
58.03753898938622
 30
0.0
 10
95.29021438520026
 20
57.37905795582597
 30
0.0
 10
95.37182044727318
 20
57.05202507954721
 30
0.0
 10
95.68693904216401
 20
56.07674881983361
 30
0.0
 10
95.9904780585002
 20
55.43430511869229
 30
0.0
 10
96.3583184127734
 20
54.79718693601696
 30
0.0
  0
LINE
  5
C4
330
1F
100
AcDbEntity
  8
0
  6
Continuous
 62
     7
370
    25
100
AcDbLine
 10
96.3583184128
 20
62.5914155701
 30
0.0
 11
98.9866964071
 21
62.5914155701
 31
0.0
  0
SPLINE
  5
C5
330
1F
100
AcDbEntity
  8
0
  6
Continuous
 62
     7
370
    25
100
AcDbSpline
210
0.0
220
0.0
230
1.0
 70
     8
 71
     3
 72
     8
 73
     4
 74
     0
 42
0.000000001
 43
0.00000001
 40
0.0
 40
0.0
 40
0.0
 40
0.0
 40
1.0
 40
1.0
 40
1.0
 40
1.0
 10
98.98669640706817
 20
62.59141557007691
 30
0.0
 10
99.01431946316198
 20
62.48832492127445
 30
0.0
 10
99.0411313102793
 20
62.38519416185391
 30
0.0
 10
99.06708116479751
 20
62.28202078079462
 30
0.0
  0
SPLINE
  5
C6
330
1F
100
AcDbEntity
  8
0
  6
Continuous
 62
     7
370
    25
100
AcDbSpline
210
0.0
220
0.0
230
1.0
 70
     8
 71
     3
 72
     8
 73
     4
 74
     0
 42
0.000000001
 43
0.00000001
 40
0.0
 40
0.0
 40
0.0
 40
0.0
 40
1.0
 40
1.0
 40
1.0
 40
1.0
 10
99.06708116479751
 20
62.28202078079462
 30
0.0
 10
99.09303822844194
 20
62.38522282443952
 30
0.0
 10
99.11985038253638
 20
62.48835297175409
 30
0.0
 10
99.14746592252685
 20
62.59141557007691
 30
0.0
  0
LINE
  5
C7
330
1F
100
AcDbEntity
  8
0
  6
Continuous
 62
     7
370
    25
100
AcDbLine
 10
99.0670811648
 20
54.1783973575
 30
0.0
 11
99.0670811648
 21
55.1065817253
 31
0.0
  0
LINE
  5
C8
330
1F
100
AcDbEntity
  8
0
  6
Continuous
 62
     7
370
    25
100
AcDbLine
 10
95.1259528501
 20
47.002958302
 30
0.0
 11
95.1259528501
 21
60.456895802
 31
0.0
  0
LINE
  5
C9
330
1F
100
AcDbEntity
  8
0
  6
Continuous
 62
     7
370
    25
100
AcDbLine
 10
95.1259528501
 20
33.549020802
 30
0.0
 11
95.1259528501
 21
47.002958302
 31
0.0
  0
LINE
  5
CA
330
1F
100
AcDbEntity
  8
0
  6
Continuous
 62
     7
370
    25
100
AcDbLine
 10
103.1259528501
 20
60.252958302
 30
0.0
 11
103.1259528501
 21
33.752958302
 31
0.0
  0
SPLINE
  5
CB
330
1F
100
AcDbEntity
  8
0
  6
Continuous
 62
     7
370
    25
100
AcDbSpline
210
0.0
220
0.0
230
1.0
 70
     8
 71
     3
 72
    23
 73
    19
 74
     0
 42
0.000000001
 43
0.00000001
 40
0.0
 40
0.0
 40
0.0
 40
0.0
 40
0.0611415679303345
 40
0.1200010135310723
 40
0.1782359705414084
 40
0.236495543407017
 40
0.294887248704973
 40
0.3546771928192958
 40
0.4166948132897783
 40
0.4806333779628394
 40
0.5458046334786406
 40
0.6097347883178744
 40
0.6729516883751544
 40
0.7360010960706833
 40
0.799827438516525
 40
0.8647672769393869
 40
0.9310835057306723
 40
1.0
 40
1.0
 40
1.0
 40
1.0
 10
98.4640538115974
 20
45.11437150823897
 30
0.0
 10
98.48112332901431
 20
45.11475999331071
 30
0.0
 10
98.51462524039562
 20
45.11552246316433
 30
0.0
 10
98.5636595964007
 20
45.12431342159132
 30
0.0
 10
98.61120094428989
 20
45.13618707399433
 30
0.0
 10
98.65617833849788
 20
45.15537598455656
 30
0.0
 10
98.69983558488182
 20
45.17823154332932
 30
0.0
 10
98.74092492673361
 20
45.20734802382161
 30
0.0
 10
98.78061043247361
 20
45.24073078138491
 30
0.0
 10
98.81743112202382
 20
45.27939125382635
 30
0.0
 10
98.85111032146472
 20
45.32145038690893
 30
0.0
 10
98.88083785902425
 20
45.36617720983098
 30
0.0
 10
98.90592731676692
 20
45.41296824992105
 30
0.0
 10
98.9268609108814
 20
45.46177830747999
 30
0.0
 10
98.9419676918071
 20
45.51316605398148
 30
0.0
 10
98.95386286167195
 20
45.56630201790052
 30
0.0
 10
98.96019287535576
 20
45.62186576064295
 30
0.0
 10
98.9612907788975
 20
45.65956333828821
 30
0.0
 10
98.96185028595637
 20
45.67877455311077
 30
0.0
  0
SPLINE
  5
CC
330
1F
100
AcDbEntity
  8
0
  6
Continuous
 62
     7
370
    25
100
AcDbSpline
210
0.0
220
0.0
230
1.0
 70
     8
 71
     3
 72
    23
 73
    19
 74
     0
 42
0.000000001
 43
0.00000001
 40
0.0
 40
0.0
 40
0.0
 40
0.0
 40
0.0679503475997536
 40
0.1332598223836994
 40
0.197800296759647
 40
0.2608458295516823
 40
0.3233192927503669
 40
0.386281722459572
 40
0.4500615162333126
 40
0.515207584485815
 40
0.5796407692199315
 40
0.6418172023841521
 40
0.7016924412115348
 40
0.7607690981778943
 40
0.8192540511346831
 40
0.8787376269055533
 40
0.9381582970160908
 40
0.9999999999999999
 40
0.9999999999999999
 40
0.9999999999999999
 40
0.9999999999999999
 10
97.96826054236662
 20
45.65924330311077
 30
0.0
 10
97.96880985743516
 20
45.64069648807179
 30
0.0
 10
97.96988713858313
 20
45.60432367519915
 30
0.0
 10
97.97637322858019
 20
45.55062877839131
 30
0.0
 10
97.98784571376457
 20
45.49914266835845
 30
0.0
 10
98.00414877579824
 20
45.44982953695295
 30
0.0
 10
98.02401384552499
 20
45.40227852118501
 30
0.0
 10
98.049361112238
 20
45.35716426414427
 30
0.0
 10
98.07898986475067
 20
45.31387769092579
 30
0.0
 10
98.11288745344767
 20
45.27336100308389
 30
0.0
 10
98.14931707589534
 20
45.23560819347831
 30
0.0
 10
98.18933141167625
 20
45.20402477502694
 30
0.0
 10
98.2298566155847
 20
45.17552097203477
 30
0.0
 10
98.27335398560781
 20
45.15393033763129
 30
0.0
 10
98.31824798473926
 20
45.13583005487355
 30
0.0
 10
98.36522291931252
 20
45.12366213892807
 30
0.0
 10
98.41403661900493
 20
45.11569619616478
 30
0.0
 10
98.44716096882382
 20
45.11481890929639
 30
0.0
 10
98.4640538115974
 20
45.11437150823897
 30
0.0
  0
SPLINE
  5
CD
330
1F
100
AcDbEntity
  8
0
  6
Continuous
 62
     7
370
    25
100
AcDbSpline
210
0.0
220
0.0
230
1.0
 70
     8
 71
     3
 72
    23
 73
    19
 74
     0
 42
0.000000001
 43
0.00000001
 40
0.0
 40
0.0
 40
0.0
 40
0.0
 40
0.0705921865358073
 40
0.1385012886049301
 40
0.2037899961427013
 40
0.2667875726696012
 40
0.3290979656467186
 40
0.3911745246039659
 40
0.4531677986176574
 40
0.5157967602265847
 40
0.5779688050530403
 40
0.6389663383752914
 40
0.698381066162843
 40
0.7573204555574266
 40
0.8164122397216688
 40
0.8762793582308311
 40
0.9368234656501931
 40
0.9999999999999999
 40
0.9999999999999999
 40
0.9999999999999999
 40
0.9999999999999999
 10
98.96185028595637
 20
45.67877455311077
 30
0.0
 10
98.96128717853205
 20
45.69781841617379
 30
0.0
 10
98.9601823664031
 20
45.7351823186633
 30
0.0
 10
98.95394237953818
 20
45.78993141235534
 30
0.0
 10
98.94211931517086
 20
45.84160796849817
 30
0.0
 10
98.92682590924373
 20
45.89080221763842
 30
0.0
 10
98.90600286691571
 20
45.93700142655091
 30
0.0
 10
98.88100931267519
 20
45.98073259093148
 30
0.0
 10
98.85129361055385
 20
46.02156177084301
 30
0.0
 10
98.8171870833271
 20
46.05877193506333
 30
0.0
 10
98.78039082619394
 20
46.09294005578724
 30
0.0
 10
98.74074261996286
 20
46.12233021924551
 30
0.0
 10
98.69945378666155
 20
46.14770982109273
 30
0.0
 10
98.65613626135514
 20
46.16833798893101
 30
0.0
 10
98.610817830564
 20
46.18440278609412
 30
0.0
 10
98.56370394580387
 20
46.19602284099859
 30
0.0
 10
98.51447947787878
 20
46.20248983966501
 30
0.0
 10
98.48109911374745
 20
46.20356571467962
 30
0.0
 10
98.4640538115974
 20
46.20411509798257
 30
0.0
  0
SPLINE
  5
CE
330
1F
100
AcDbEntity
  8
0
  6
Continuous
 62
     7
370
    25
100
AcDbSpline
210
0.0
220
0.0
230
1.0
 70
     8
 71
     3
 72
    23
 73
    19
 74
     0
 42
0.000000001
 43
0.00000001
 40
0.0
 40
0.0
 40
0.0
 40
0.0
 40
0.0618526459466919
 40
0.12128383061537
 40
0.1807779320756125
 40
0.2392732340142804
 40
0.2986414352139415
 40
0.3581858222417119
 40
0.4207600867589708
 40
0.4852046730216432
 40
0.5503622689482868
 40
0.613649924530912
 40
0.6766234955168249
 40
0.7391080134690126
 40
0.8021647022429446
 40
0.8667165971324776
 40
0.9320376285055444
 40
1.0
 40
1.0
 40
1.0
 40
1.0
 10
98.4640538115974
 20
46.20411509798257
 30
0.0
 10
98.44716161183588
 20
46.20366654413679
 30
0.0
 10
98.41403852286793
 20
46.20278699682206
 30
0.0
 10
98.36521564717874
 20
46.19483750473339
 30
0.0
 10
98.3182751300938
 20
46.1826078853113
 30
0.0
 10
98.27318263892563
 20
46.16470696294164
 30
0.0
 10
98.23018414615329
 20
46.14225397217887
 30
0.0
 10
98.18897422091958
 20
46.11462309129236
 30
0.0
 10
98.14952441918611
 20
46.0822821778123
 30
0.0
 10
98.11282952493441
 20
46.04468650757006
 30
0.0
 10
98.07917207620207
 20
46.00414322217915
 30
0.0
 10
98.04920342066538
 20
45.96126601250393
 30
0.0
 10
98.02403776370878
 20
45.9161912114252
 30
0.0
 10
98.00414232828867
 20
45.86866161780671
 30
0.0
 10
97.98784749238483
 20
45.81934268309611
 30
0.0
 10
97.9763727438618
 20
45.76785816978552
 30
0.0
 10
97.96988726611889
 20
45.71416284104949
 30
0.0
 10
97.96880990050505
 20
45.67779008776515
 30
0.0
 10
97.96826054236662
 20
45.65924330311077
 30
0.0
  0
LINE
  5
CF
330
1F
100
AcDbEntity
  8
0
  6
Continuous
 62
     7
370
    25
100
AcDbLine
 10
80.731129189
 20
60.0070575625
 30
0.0
 11
80.731129189
 21
33.9988590414
 31
0.0
  0
LINE
  5
D0
330
1F
100
AcDbEntity
  8
0
  6
Continuous
 62
     7
370
    25
100
AcDbLine
 10
78.1259528501
 20
35.502958302
 30
0.0
 11
78.1259528501
 21
58.502958302
 31
0.0
  0
LINE
  5
D1
330
1F
100
AcDbEntity
  8
0
  6
Continuous
 62
     7
370
    25
100
AcDbLine
 10
112.1259528501
 20
57.252958302
 30
0.0
 11
112.1259528501
 21
36.752958302
 31
0.0
  0
LINE
  5
D2
330
1F
100
AcDbEntity
  8
0
  6
Continuous
 62
     7
370
    25
100
AcDbLine
 10
124.1259528501
 20
57.252958302
 30
0.0
 11
124.1259528501
 21
36.752958302
 31
0.0
  0
LINE
  5
D3
330
1F
100
AcDbEntity
  8
0
  6
Continuous
 62
     7
370
    25
100
AcDbLine
 10
130.1259528501
 20
57.252958302
 30
0.0
 11
130.1259528501
 21
36.752958302
 31
0.0
  0
LINE
  5
D4
330
1F
100
AcDbEntity
  8
0
  6
Continuous
 62
     7
370
    25
100
AcDbLine
 10
118.1259528501
 20
57.252958302
 30
0.0
 11
118.1259528501
 21
36.752958302
 31
0.0
  0
LINE
  5
D5
330
1F
100
AcDbEntity
  8
0
  6
Continuous
 62
     7
370
    25
100
AcDbLine
 10
138.1259528501
 20
55.8115671911
 30
0.0
 11
138.1259528501
 21
38.1943494112
 31
0.0
  0
LINE
  5
D6
330
1F
100
AcDbEntity
  8
0
  6
Continuous
 62
     7
370
    25
100
AcDbLine
 10
99.0670811648
 20
62.2820207808
 30
0.0
 11
99.0670811648
 21
62.2914155701
 31
0.0
  0
LINE
  5
D7
330
1F
100
AcDbEntity
  8
0
  6
Continuous
 62
     7
370
    25
100
AcDbLine
 10
99.0670811648
 20
31.7145010338
 30
0.0
 11
99.0670811648
 21
31.7238958231
 31
0.0
  0
LINE
  5
D8
330
1F
100
AcDbEntity
  8
0
  6
Continuous
 62
     8
370
    25
100
AcDbLine
 10
137.6879702174
 20
37.6982104729
 30
0.0
 11
137.6879702174
 21
56.307706131
 31
0.0
  0
LINE
  5
D9
330
1F
100
AcDbEntity
  8
0
  6
Continuous
 62
     7
370
    18
100
AcDbLine
 10
79.14865881
 20
59.0934178632
 30
0.0
 11
94.6259528501
 21
59.577083302
 31
0.0
  0
LINE
  5
DA
330
1F
100
AcDbEntity
  8
0
  6
Continuous
 62
     7
370
    18
100
AcDbLine
 10
79.14865881
 20
34.9124987407
 30
0.0
 11
94.6259528501
 21
34.428833302
 31
0.0
  0
LINE
  5
DB
330
1F
100
AcDbEntity
  8
0
  6
Continuous
 62
     7
370
    18
100
AcDbLine
 10
94.6259528501
 20
33.564645802
 30
0.0
 11
94.6259528501
 21
60.441270802
 31
0.0
  0
LINE
  5
DC
330
1F
100
AcDbEntity
  8
0
  6
CENTERX2
 62
     7
370
    18
100
AcDbLine
 10
139.1259528501
 20
47.002958302
 30
0.0
 11
76.8234136521
 21
47.002958302
 31
0.0
  0
CIRCLE
  5
DD
330
1F
100
AcDbEntity
  8
0
  6
Continuous
 62
     7
370
    25
100
AcDbCircle
 10
166.4387098174
 20
47.002958302
 30
0.0
 40
8.80860889073135
  0
CIRCLE
  5
DE
330
1F
100
AcDbEntity
  8
0
  6
Continuous
 62
     7
370
    25
100
AcDbCircle
 10
166.4387098174
 20
47.002958302
 30
0.0
 40
9.304747829088171
  0
CIRCLE
  5
DF
330
1F
100
AcDbEntity
  8
0
  6
Continuous
 62
     7
370
    25
100
AcDbCircle
 10
166.4387098174
 20
47.002958302
 30
0.0
 40
7.499999999999972
  0
CIRCLE
  5
E0
330
1F
100
AcDbEntity
  8
0
  6
Continuous
 62
     7
370
    25
100
AcDbCircle
 10
166.4387098174
 20
47.002958302
 30
0.0
 40
7.700000000000003
  0
CIRCLE
  5
E1
330
1F
100
AcDbEntity
  8
0
  6
Continuous
 62
     7
370
    25
100
AcDbCircle
 10
166.4387098174
 20
47.002958302
 30
0.0
 40
10.25
  0
CIRCLE
  5
E2
330
1F
100
AcDbEntity
  8
0
  6
Continuous
 62
     7
370
    25
100
AcDbCircle
 10
166.4387098174
 20
47.002958302
 30
0.0
 40
13.25000000000003
  0
SPLINE
  5
E3
330
1F
100
AcDbEntity
  8
0
  6
Continuous
 62
     7
370
    25
100
AcDbSpline
210
0.0
220
0.0
230
1.0
 70
    24
 71
     3
 72
    16
 73
    12
 74
     0
 42
0.000000001
 43
0.00000001
 40
0.0
 40
0.0
 40
0.0
 40
0.0
 40
0.2500000000000002
 40
0.2500000000000002
 40
0.5000000000000003
 40
0.5000000000000003
 40
0.6250000000000003
 40
0.6250000000000003
 40
0.7500000000000004
 40
0.7500000000000004
 40
1.0
 40
1.0
 40
1.0
 40
1.0
 10
166.4387098174225
 20
31.4145010338371
 30
0.0
 10
165.3365627293645
 20
32.05082595181396
 30
0.0
 10
164.2263802540842
 20
32.6917901027666
 30
0.0
 10
161.9828621870542
 20
33.98708586269822
 30
0.0
 10
160.8493544717578
 20
34.64151684725308
 30
0.0
 10
159.127737467811
 20
35.63549288792323
 30
0.0
 10
158.5511642082681
 20
35.96837761452782
 30
0.0
 10
157.4106416023213
 20
36.62685864808807
 30
0.0
 10
156.8442040448611
 20
36.95389152436682
 30
0.0
 10
155.1549760116214
 20
37.92916778408043
 30
0.0
 10
154.042230880242
 20
38.57161148522174
 30
0.0
 10
152.9387098174224
 20
39.20872966789708
 30
0.0
  0
SPLINE
  5
E4
330
1F
100
AcDbEntity
  8
0
  6
Continuous
 62
     7
370
    25
100
AcDbSpline
210
0.0
220
0.0
230
1.0
 70
    24
 71
     3
 72
    16
 73
    12
 74
     0
 42
0.000000001
 43
0.00000001
 40
0.0
 40
0.0
 40
0.0
 40
0.0
 40
0.2499999999999999
 40
0.2499999999999999
 40
0.4999999999999999
 40
0.4999999999999999
 40
0.6249999999999999
 40
0.6249999999999999
 40
0.7499999999999998
 40
0.7499999999999998
 40
1.0
 40
1.0
 40
1.0
 40
1.0
 10
152.9387098174225
 20
39.20872966789705
 30
0.0
 10
152.9387098174224
 20
40.47735051142207
 30
0.0
 10
152.9387098174224
 20
41.77595797799842
 30
0.0
 10
152.9387098174224
 20
44.3784633437311
 30
0.0
 10
152.9387098174224
 20
45.68744990954435
 30
0.0
 10
152.9387098174224
 20
47.66455147450319
 30
0.0
 10
152.9387098174224
 20
48.32582905618224
 30
0.0
 10
152.9387098174224
 20
49.65281863428507
 30
0.0
 10
152.9387098174224
 20
50.30965983500515
 30
0.0
 10
152.9387098174224
 20
52.26090081894885
 30
0.0
 10
152.9387098174224
 20
53.53719603513671
 30
0.0
 10
152.9387098174224
 20
54.79718693601697
 30
0.0
  0
SPLINE
  5
E5
330
1F
100
AcDbEntity
  8
0
  6
Continuous
 62
     7
370
    25
100
AcDbSpline
210
0.0
220
0.0
230
1.0
 70
    24
 71
     3
 72
    16
 73
    12
 74
     0
 42
0.000000001
 43
0.00000001
 40
0.0
 40
0.0
 40
0.0
 40
0.0
 40
0.25
 40
0.25
 40
0.5
 40
0.5
 40
0.625
 40
0.625
 40
0.75
 40
0.75
 40
1.0
 40
1.0
 40
1.0
 40
1.0
 10
152.9387098174224
 20
54.79718693601695
 30
0.0
 10
154.0408569054804
 20
55.4335118539938
 30
0.0
 10
155.1510393807607
 20
56.07447600494645
 30
0.0
 10
157.3945574477908
 20
57.36977176487806
 30
0.0
 10
158.5280651630871
 20
58.02420274943292
 30
0.0
 10
160.2496821670339
 20
59.01817879010306
 30
0.0
 10
160.8262554265768
 20
59.35106351670766
 30
0.0
 10
161.9667780325236
 20
60.00954455026791
 30
0.0
 10
162.5332155899838
 20
60.33657742654666
 30
0.0
 10
164.2224436232235
 20
61.31185368626028
 30
0.0
 10
165.3351887546029
 20
61.95429738740159
 30
0.0
 10
166.4387098174225
 20
62.59141557007691
 30
0.0
  0
SPLINE
  5
E6
330
1F
100
AcDbEntity
  8
0
  6
Continuous
 62
     7
370
    25
100
AcDbSpline
210
0.0
220
0.0
230
1.0
 70
    24
 71
     3
 72
    16
 73
    12
 74
     0
 42
0.000000001
 43
0.00000001
 40
0.0
 40
0.0
 40
0.0
 40
0.0
 40
0.2500000000000002
 40
0.2500000000000002
 40
0.5000000000000004
 40
0.5000000000000004
 40
0.6250000000000003
 40
0.6250000000000003
 40
0.7500000000000002
 40
0.7500000000000002
 40
1.0
 40
1.0
 40
1.0
 40
1.0
 10
166.4387098174224
 20
62.59141557007693
 30
0.0
 10
167.5408569054804
 20
61.95509065210008
 30
0.0
 10
168.6510393807607
 20
61.31412650114743
 30
0.0
 10
170.8945574477908
 20
60.01883074121581
 30
0.0
 10
172.0280651630871
 20
59.36439975666095
 30
0.0
 10
173.7496821670339
 20
58.37042371599081
 30
0.0
 10
174.3262554265768
 20
58.03753898938622
 30
0.0
 10
175.4667780325236
 20
57.37905795582596
 30
0.0
 10
176.0332155899838
 20
57.05202507954721
 30
0.0
 10
177.7224436232235
 20
56.0767488198336
 30
0.0
 10
178.8351887546029
 20
55.43430511869228
 30
0.0
 10
179.9387098174225
 20
54.79718693601696
 30
0.0
  0
SPLINE
  5
E7
330
1F
100
AcDbEntity
  8
0
  6
Continuous
 62
     7
370
    25
100
AcDbSpline
210
0.0
220
0.0
230
1.0
 70
    24
 71
     3
 72
    16
 73
    12
 74
     0
 42
0.000000001
 43
0.00000001
 40
0.0
 40
0.0
 40
0.0
 40
0.0
 40
0.2499999999999999
 40
0.2499999999999999
 40
0.4999999999999999
 40
0.4999999999999999
 40
0.6249999999999999
 40
0.6249999999999999
 40
0.7499999999999998
 40
0.7499999999999998
 40
1.0
 40
1.0
 40
1.0
 40
1.0
 10
179.9387098174224
 20
39.20872966789704
 30
0.0
 10
179.9387098174225
 20
40.47735051142208
 30
0.0
 10
179.9387098174225
 20
41.77595797799845
 30
0.0
 10
179.9387098174225
 20
44.37846334373097
 30
0.0
 10
179.9387098174225
 20
45.68744990954409
 30
0.0
 10
179.9387098174225
 20
47.66455147450266
 30
0.0
 10
179.9387098174224
 20
48.3258290561816
 30
0.0
 10
179.9387098174225
 20
49.65281863428419
 30
0.0
 10
179.9387098174224
 20
50.30965983500467
 30
0.0
 10
179.9387098174224
 20
52.2609008189487
 30
0.0
 10
179.9387098174224
 20
53.53719603513666
 30
0.0
 10
179.9387098174224
 20
54.79718693601697
 30
0.0
  0
SPLINE
  5
E8
330
1F
100
AcDbEntity
  8
0
  6
Continuous
 62
     7
370
    25
100
AcDbSpline
210
0.0
220
0.0
230
1.0
 70
    24
 71
     3
 72
    16
 73
    12
 74
     0
 42
0.000000001
 43
0.00000001
 40
0.0
 40
0.0
 40
0.0
 40
0.0
 40
0.2500000000000002
 40
0.2500000000000002
 40
0.5000000000000003
 40
0.5000000000000003
 40
0.6250000000000003
 40
0.6250000000000003
 40
0.7500000000000002
 40
0.7500000000000002
 40
1.0
 40
1.0
 40
1.0
 40
1.0
 10
179.9387098174225
 20
39.20872966789707
 30
0.0
 10
178.8365627293645
 20
38.57240474992022
 30
0.0
 10
177.7263802540842
 20
37.93144059896757
 30
0.0
 10
175.4828621870541
 20
36.63614483903596
 30
0.0
 10
174.3493544717578
 20
35.9817138544811
 30
0.0
 10
172.627737467811
 20
34.98773781381096
 30
0.0
 10
172.0511642082681
 20
34.65485308720637
 30
0.0
 10
170.9106416023213
 20
33.99637205364611
 30
0.0
 10
170.3442040448611
 20
33.66933917736736
 30
0.0
 10
168.6549760116214
 20
32.69406291765375
 30
0.0
 10
167.5422308802421
 20
32.05161921651244
 30
0.0
 10
166.4387098174224
 20
31.41450103383711
 30
0.0
  0
INSERT
  5
F4
330
1F
100
AcDbEntity
  8
0
  6
Continuous
 62
     7
370
    18
100
AcDbBlockReference
  2
SW_CENTERMARKSYMBOL_0
 10
166.4387098174
 20
47.002958302
 30
0.0
  0
INSERT
  5
100
330
1F
100
AcDbEntity
  8
0
  6
Continuous
 62
     7
370
    18
100
AcDbBlockReference
  2
SW_CENTERMARKSYMBOL_1
 10
166.4387098174
 20
47.002958302
 30
0.0
  0
LINE
  5
101
330
1F
100
AcDbEntity
  8
0
  6
Continuous
 62
     7
370
    25
100
AcDbLine
 10
102.9816152828
 20
76.4261725867
 30
0.0
 11
103.1259528501
 21
76.6761725867
 31
0.0
  0
LINE
  5
102
330
1F
100
AcDbEntity
  8
0
  6
Continuous
 62
     7
370
    25
100
AcDbLine
 10
103.1259528501
 20
103.1761725867
 30
0.0
 11
102.9816152828
 21
103.4261725867
 31
0.0
  0
LINE
  5
103
330
1F
100
AcDbEntity
  8
0
  6
Continuous
 62
     7
370
    25
100
AcDbLine
 10
95.1525470468
 20
103.4261725867
 30
0.0
 11
95.1259528501
 21
103.3801100867
 31
0.0
  0
LINE
  5
104
330
1F
100
AcDbEntity
  8
0
  6
Continuous
 62
     7
370
    25
100
AcDbLine
 10
95.1259528501
 20
76.4722350867
 30
0.0
 11
95.1525470468
 21
76.4261725867
 31
0.0
  0
LINE
  5
105
330
1F
100
AcDbEntity
  8
0
  6
Continuous
 62
     7
370
    25
100
AcDbLine
 10
95.1259528501
 20
103.3801100867
 30
0.0
 11
80.731129189
 21
102.9302718473
 31
0.0
  0
LINE
  5
106
330
1F
100
AcDbEntity
  8
0
  6
Continuous
 62
     7
370
    25
100
AcDbLine
 10
80.731129189
 20
76.9220733261
 30
0.0
 11
95.1259528501
 21
76.4722350867
 31
0.0
  0
LINE
  5
107
330
1F
100
AcDbEntity
  8
0
  6
Continuous
 62
     7
370
    25
100
AcDbLine
 10
80.731129189
 20
102.9302718473
 30
0.0
 11
78.1259528501
 21
101.4261725867
 31
0.0
  0
LINE
  5
108
330
1F
100
AcDbEntity
  8
0
  6
Continuous
 62
     7
370
    25
100
AcDbLine
 10
78.1259528501
 20
78.4261725867
 30
0.0
 11
80.731129189
 21
76.9220733261
 31
0.0
  0
LINE
  5
109
330
1F
100
AcDbEntity
  8
0
  6
Continuous
 62
     7
370
    25
100
AcDbLine
 10
112.1259528501
 20
100.1761725867
 30
0.0
 11
103.1259528501
 21
100.1761725867
 31
0.0
  0
LINE
  5
10A
330
1F
100
AcDbEntity
  8
0
  6
Continuous
 62
     7
370
    25
100
AcDbLine
 10
103.1259528501
 20
79.6761725867
 30
0.0
 11
112.1259528501
 21
79.6761725867
 31
0.0
  0
LINE
  5
10B
330
1F
100
AcDbEntity
  8
0
  6
Continuous
 62
     7
370
    25
100
AcDbLine
 10
130.1259528501
 20
79.6761725867
 30
0.0
 11
137.6879702174
 21
80.6214247576
 31
0.0
  0
LINE
  5
10C
330
1F
100
AcDbEntity
  8
0
  6
Continuous
 62
     7
370
    25
100
AcDbLine
 10
137.6879702174
 20
99.2309204158
 30
0.0
 11
130.1259528501
 21
100.1761725867
 31
0.0
  0
LINE
  5
10D
330
1F
100
AcDbEntity
  8
0
  6
Continuous
 62
     7
370
    25
100
AcDbLine
 10
112.1259528501
 20
79.6761725867
 30
0.0
 11
118.1259528501
 21
80.6761725867
 31
0.0
  0
LINE
  5
10E
330
1F
100
AcDbEntity
  8
0
  6
Continuous
 62
     7
370
    25
100
AcDbLine
 10
118.1259528501
 20
99.1761725867
 30
0.0
 11
112.1259528501
 21
100.1761725867
 31
0.0
  0
LINE
  5
10F
330
1F
100
AcDbEntity
  8
0
  6
Continuous
 62
     7
370
    25
100
AcDbLine
 10
124.1259528501
 20
79.6761725867
 30
0.0
 11
130.1259528501
 21
80.6761725867
 31
0.0
  0
LINE
  5
110
330
1F
100
AcDbEntity
  8
0
  6
Continuous
 62
     7
370
    25
100
AcDbLine
 10
130.1259528501
 20
99.1761725867
 30
0.0
 11
124.1259528501
 21
100.1761725867
 31
0.0
  0
LINE
  5
111
330
1F
100
AcDbEntity
  8
0
  6
Continuous
 62
     7
370
    25
100
AcDbLine
 10
118.1259528501
 20
79.6761725867
 30
0.0
 11
124.1259528501
 21
80.6761725867
 31
0.0
  0
LINE
  5
112
330
1F
100
AcDbEntity
  8
0
  6
Continuous
 62
     7
370
    25
100
AcDbLine
 10
124.1259528501
 20
99.1761725867
 30
0.0
 11
118.1259528501
 21
100.1761725867
 31
0.0
  0
ARC
  5
113
330
1F
100
AcDbEntity
  8
0
  6
Continuous
 62
     7
370
    25
100
AcDbCircle
 10
137.6259528501
 20
81.117563696
 30
0.0
 40
0.5
100
AcDbArc
 50
277.1250163489
 51
0.0
  0
ARC
  5
114
330
1F
100
AcDbEntity
  8
0
  6
Continuous
 62
     7
370
    25
100
AcDbCircle
 10
137.6259528501
 20
98.7347814775
 30
0.0
 40
0.5
100
AcDbArc
 50
0.0
 51
82.8749836511
  0
LINE
  5
115
330
1F
100
AcDbEntity
  8
0
  6
Continuous
 62
     7
370
    25
100
AcDbLine
 10
99.1474659225
 20
103.4261725867
 30
0.0
 11
101.7758439168
 21
103.4261725867
 31
0.0
  0
SPLINE
  5
116
330
1F
100
AcDbEntity
  8
0
  6
Continuous
 62
     7
370
    25
100
AcDbSpline
210
0.0
220
0.0
230
1.0
 70
     8
 71
     3
 72
    16
 73
    12
 74
     0
 42
0.000000001
 43
0.00000001
 40
0.0
 40
0.0
 40
0.0
 40
0.0
 40
0.2500000000000002
 40
0.2500000000000002
 40
0.5000000000000004
 40
0.5000000000000004
 40
0.6250000000000003
 40
0.6250000000000003
 40
0.7500000000000002
 40
0.7500000000000002
 40
1.0
 40
1.0
 40
1.0
 40
1.0
 10
101.7758439168217
 20
89.92617258673084
 30
0.0
 10
102.1432262795077
 20
91.02831967478886
 30
0.0
 10
102.4460158399019
 20
92.13850215006909
 30
0.0
 10
102.8654776482073
 20
94.38202021709918
 30
0.0
 10
102.9807662736618
 20
95.51552793239551
 30
0.0
 10
102.9820326705257
 20
97.23714493634236
 30
0.0
 10
102.9538491134367
 20
97.81371819588517
 30
0.0
 10
102.8439479443948
 20
98.95424080183201
 30
0.0
 10
102.7623418823218
 20
99.52067835929219
 30
0.0
 10
102.447223287431
 20
101.2099063925319
 30
0.0
 10
102.1436842710948
 20
102.3226515239113
 30
0.0
 10
101.7758439168216
 20
103.4261725867309
 30
0.0
  0
LINE
  5
117
330
1F
100
AcDbEntity
  8
0
  6
Continuous
 62
     7
370
    25
100
AcDbLine
 10
99.1474659225
 20
89.9261725867
 30
0.0
 11
101.7758439168
 21
89.9261725867
 31
0.0
  0
SPLINE
  5
118
330
1F
100
AcDbEntity
  8
0
  6
Continuous
 62
     7
370
    25
100
AcDbSpline
210
0.0
220
0.0
230
1.0
 70
     8
 71
     3
 72
     8
 73
     4
 74
     0
 42
0.000000001
 43
0.00000001
 40
0.0
 40
0.0
 40
0.0
 40
0.0
 40
1.0
 40
1.0
 40
1.0
 40
1.0
 10
99.14746592252685
 20
89.92617258673087
 30
0.0
 10
99.11984286643302
 20
90.10473082824197
 30
0.0
 10
99.09303101931572
 20
90.28335854338152
 30
0.0
 10
99.06708116479751
 20
90.46206008136487
 30
0.0
  0
SPLINE
  5
119
330
1F
100
AcDbEntity
  8
0
  6
Continuous
 62
     7
370
    25
100
AcDbSpline
210
0.0
220
0.0
230
1.0
 70
     8
 71
     3
 72
     8
 73
     4
 74
     0
 42
0.000000001
 43
0.00000001
 40
0.0
 40
0.0
 40
0.0
 40
0.0
 40
1.0
 40
1.0
 40
1.0
 40
1.0
 10
99.0670811647975
 20
90.46206008136487
 30
0.0
 10
99.04112410115306
 20
90.28330889832698
 30
0.0
 10
99.01431194705862
 20
90.10468224338607
 30
0.0
 10
98.98669640706817
 20
89.92617258673087
 30
0.0
  0
LINE
  5
11A
330
1F
100
AcDbEntity
  8
0
  6
Continuous
 62
     7
370
    25
100
AcDbLine
 10
96.3583184128
 20
89.9261725867
 30
0.0
 11
98.9866964071
 21
89.9261725867
 31
0.0
  0
SPLINE
  5
11B
330
1F
100
AcDbEntity
  8
0
  6
Continuous
 62
     7
370
    25
100
AcDbSpline
210
0.0
220
0.0
230
1.0
 70
     8
 71
     3
 72
    16
 73
    12
 74
     0
 42
0.000000001
 43
0.00000001
 40
0.0
 40
0.0
 40
0.0
 40
0.0
 40
0.2499999999999999
 40
0.2499999999999999
 40
0.4999999999999999
 40
0.4999999999999999
 40
0.6249999999999999
 40
0.6249999999999999
 40
0.7499999999999998
 40
0.7499999999999998
 40
1.0
 40
1.0
 40
1.0
 40
1.0
 10
96.35831841277327
 20
103.4261725867309
 30
0.0
 10
95.99093605008727
 20
102.3240254986729
 30
0.0
 10
95.6881464896931
 20
101.2138430233926
 30
0.0
 10
95.26868468138774
 20
98.97032495636256
 30
0.0
 10
95.15339605593317
 20
97.83681724106623
 30
0.0
 10
95.15212965906927
 20
96.1152002371194
 30
0.0
 10
95.18031321615827
 20
95.53862697757657
 30
0.0
 10
95.29021438520026
 20
94.39810437162973
 30
0.0
 10
95.37182044727318
 20
93.83166681416955
 30
0.0
 10
95.68693904216401
 20
92.14243878092982
 30
0.0
 10
95.9904780585002
 20
91.02969364955048
 30
0.0
 10
96.3583184127734
 20
89.92617258673086
 30
0.0
  0
LINE
  5
11C
330
1F
100
AcDbEntity
  8
0
  6
Continuous
 62
     7
370
    25
100
AcDbLine
 10
96.3583184128
 20
103.4261725867
 30
0.0
 11
98.9866964071
 21
103.4261725867
 31
0.0
  0
SPLINE
  5
11D
330
1F
100
AcDbEntity
  8
0
  6
Continuous
 62
     7
370
    25
100
AcDbSpline
210
0.0
220
0.0
230
1.0
 70
     8
 71
     3
 72
     8
 73
     4
 74
     0
 42
0.000000001
 43
0.00000001
 40
0.0
 40
0.0
 40
0.0
 40
0.0
 40
1.0
 40
1.0
 40
1.0
 40
1.0
 10
98.98669640706817
 20
103.4261725867309
 30
0.0
 10
99.014319463162
 20
103.2476143452198
 30
0.0
 10
99.0411313102793
 20
103.0689866300802
 30
0.0
 10
99.06708116479751
 20
102.8902850920969
 30
0.0
  0
SPLINE
  5
11E
330
1F
100
AcDbEntity
  8
0
  6
Continuous
 62
     7
370
    25
100
AcDbSpline
210
0.0
220
0.0
230
1.0
 70
     8
 71
     3
 72
     8
 73
     4
 74
     0
 42
0.000000001
 43
0.00000001
 40
0.0
 40
0.0
 40
0.0
 40
0.0
 40
1.0
 40
1.0
 40
1.0
 40
1.0
 10
99.06708116479751
 20
102.8902850920969
 30
0.0
 10
99.09303822844194
 20
103.0690362751348
 30
0.0
 10
99.11985038253638
 20
103.2476629300757
 30
0.0
 10
99.14746592252683
 20
103.4261725867309
 30
0.0
  0
LINE
  5
11F
330
1F
100
AcDbEntity
  8
0
  6
Continuous
 62
     7
370
    25
100
AcDbLine
 10
103.1259528501
 20
103.1761725867
 30
0.0
 11
103.1259528501
 21
76.6761725867
 31
0.0
  0
SPLINE
  5
120
330
1F
100
AcDbEntity
  8
0
  6
Continuous
 62
     7
370
    25
100
AcDbSpline
210
0.0
220
0.0
230
1.0
 70
    24
 71
     3
 72
    12
 73
     8
 74
     0
 42
0.000000001
 43
0.00000001
 40
0.0
 40
0.0
 40
0.0
 40
0.0
 40
0.2548952602317417
 40
0.439918559559427
 40
0.6255232731917001
 40
0.8125798341053733
 40
1.0
 40
1.0
 40
1.0
 40
1.0
 10
102.9806730944737
 20
76.42617258673087
 30
0.0
 10
102.9645509602114
 20
76.42617258673087
 30
0.0
 10
102.9367260956955
 20
76.42617258673087
 30
0.0
 10
102.7403801870705
 20
76.42617258673086
 30
0.0
 10
102.4916626300898
 20
76.42617258673087
 30
0.0
 10
102.1718330872342
 20
76.42617258673086
 30
0.0
 10
101.9079257221759
 20
76.42617258673087
 30
0.0
 10
101.7758439168215
 20
76.42617258673087
 30
0.0
  0
SPLINE
  5
121
330
1F
100
AcDbEntity
  8
0
  6
Continuous
 62
     7
370
    25
100
AcDbSpline
210
0.0
220
0.0
230
1.0
 70
     8
 71
     3
 72
    16
 73
    12
 74
     0
 42
0.000000001
 43
0.00000001
 40
0.0
 40
0.0
 40
0.0
 40
0.0
 40
0.25
 40
0.25
 40
0.5
 40
0.5
 40
0.625
 40
0.625
 40
0.75
 40
0.75
 40
1.0
 40
1.0
 40
1.0
 40
1.0
 10
101.7758439168217
 20
76.42617258673083
 30
0.0
 10
102.1432262795077
 20
77.52831967478885
 30
0.0
 10
102.4460158399019
 20
78.6385021500691
 30
0.0
 10
102.8654776482073
 20
80.88202021709918
 30
0.0
 10
102.9807662736618
 20
82.01552793239551
 30
0.0
 10
102.9820326705257
 20
83.73714493634235
 30
0.0
 10
102.9538491134367
 20
84.31371819588517
 30
0.0
 10
102.8439479443947
 20
85.45424080183201
 30
0.0
 10
102.7623418823218
 20
86.02067835929219
 30
0.0
 10
102.447223287431
 20
87.70990639253192
 30
0.0
 10
102.1436842710948
 20
88.82265152391126
 30
0.0
 10
101.7758439168216
 20
89.92617258673089
 30
0.0
  0
SPLINE
  5
122
330
1F
100
AcDbEntity
  8
0
  6
Continuous
 62
     7
370
    25
100
AcDbSpline
210
0.0
220
0.0
230
1.0
 70
    24
 71
     3
 72
    13
 73
     9
 74
     0
 42
0.000000001
 43
0.00000001
 40
0.0
 40
0.0
 40
0.0
 40
0.0
 40
0.1852917298383032
 40
0.3709014145284597
 40
0.5577472837880131
 40
0.7451514664625281
 40
0.9945824924508236
 40
1.0
 40
1.0
 40
1.0
 40
1.0
 10
101.7758439168215
 20
103.4261725867309
 30
0.0
 10
101.9065484501434
 20
103.4261725867309
 30
0.0
 10
102.1681818017057
 20
103.4261725867309
 30
0.0
 10
102.4865349978188
 20
103.4261725867309
 30
0.0
 10
102.7418493421149
 20
103.4261725867309
 30
0.0
 10
102.9199170653343
 20
103.4261725867309
 30
0.0
 10
103.0081292726603
 20
103.4261725867308
 30
0.0
 10
102.9804334674855
 20
103.4261725867309
 30
0.0
 10
102.9798447168597
 20
103.4261725867309
 30
0.0
  0
LINE
  5
123
330
1F
100
AcDbEntity
  8
0
  6
Continuous
 62
     7
370
    25
100
AcDbLine
 10
95.1259528501
 20
76.4722350867
 30
0.0
 11
95.1259528501
 21
103.3801100867
 31
0.0
  0
SPLINE
  5
124
330
1F
100
AcDbEntity
  8
0
  6
Continuous
 62
     7
370
    25
100
AcDbSpline
210
0.0
220
0.0
230
1.0
 70
    24
 71
     3
 72
    12
 73
     8
 74
     0
 42
0.000000001
 43
0.00000001
 40
0.0
 40
0.0
 40
0.0
 40
0.0
 40
0.2416481335353986
 40
0.4299028472038076
 40
0.6187765127099388
 40
0.8091952269991516
 40
1.0
 40
1.0
 40
1.0
 40
1.0
 10
95.15798455649372
 20
103.4261725867309
 30
0.0
 10
95.17055073142198
 20
103.4261725867309
 30
0.0
 10
95.19290651915802
 20
103.4261725867309
 30
0.0
 10
95.3822987916529
 20
103.4261725867309
 30
0.0
 10
95.63170507903968
 20
103.4261725867309
 30
0.0
 10
95.95547730042745
 20
103.4261725867309
 30
0.0
 10
96.22394741691134
 20
103.4261725867309
 30
0.0
 10
96.35831841277353
 20
103.4261725867309
 30
0.0
  0
SPLINE
  5
125
330
1F
100
AcDbEntity
  8
0
  6
Continuous
 62
     7
370
    25
100
AcDbSpline
210
0.0
220
0.0
230
1.0
 70
     8
 71
     3
 72
    16
 73
    12
 74
     0
 42
0.000000001
 43
0.00000001
 40
0.0
 40
0.0
 40
0.0
 40
0.0
 40
0.25
 40
0.25
 40
0.5
 40
0.5
 40
0.625
 40
0.625
 40
0.75
 40
0.75
 40
1.0
 40
1.0
 40
1.0
 40
1.0
 10
96.35831841277327
 20
89.9261725867309
 30
0.0
 10
95.99093605008727
 20
88.8240254986729
 30
0.0
 10
95.6881464896931
 20
87.71384302339266
 30
0.0
 10
95.26868468138775
 20
85.47032495636256
 30
0.0
 10
95.15339605593317
 20
84.33681724106623
 30
0.0
 10
95.15212965906927
 20
82.61520023711938
 30
0.0
 10
95.18031321615827
 20
82.03862697757656
 30
0.0
 10
95.29021438520026
 20
80.89810437162973
 30
0.0
 10
95.37182044727318
 20
80.33166681416955
 30
0.0
 10
95.68693904216401
 20
78.64243878092984
 30
0.0
 10
95.9904780585002
 20
77.52969364955048
 30
0.0
 10
96.3583184127734
 20
76.42617258673084
 30
0.0
  0
SPLINE
  5
126
330
1F
100
AcDbEntity
  8
0
  6
Continuous
 62
     7
370
    25
100
AcDbSpline
210
0.0
220
0.0
230
1.0
 70
    24
 71
     3
 72
    12
 73
     8
 74
     0
 42
0.000000001
 43
0.00000001
 40
0.0
 40
0.0
 40
0.0
 40
0.0
 40
0.1885294093501802
 40
0.3773953527529332
 40
0.5675745867769598
 40
0.758348914443257
 40
1.0
 40
1.0
 40
1.0
 40
1.0
 10
96.35831841277354
 20
76.42617258673087
 30
0.0
 10
96.22548750607906
 20
76.42617258673087
 30
0.0
 10
95.95958858314052
 20
76.42617258673087
 30
0.0
 10
95.63617451357133
 20
76.42617258673087
 30
0.0
 10
95.38426254606266
 20
76.42617258673087
 30
0.0
 10
95.19362979516386
 20
76.42617258673087
 30
0.0
 10
95.16905253465444
 20
76.42617258673087
 30
0.0
 10
95.15531809282818
 20
76.42617258673087
 30
0.0
  0
LINE
  5
127
330
1F
100
AcDbEntity
  8
0
  6
Continuous
 62
     7
370
    25
100
AcDbLine
 10
99.0670811648
 20
89.3902850921
 30
0.0
 11
99.0670811648
 21
90.4620600814
 31
0.0
  0
SPLINE
  5
128
330
1F
100
AcDbEntity
  8
0
  6
Continuous
 62
     7
370
    25
100
AcDbSpline
210
0.0
220
0.0
230
1.0
 70
     8
 71
     3
 72
     8
 73
     4
 74
     0
 42
0.000000001
 43
0.00000001
 40
0.0
 40
0.0
 40
0.0
 40
0.0
 40
1.0
 40
1.0
 40
1.0
 40
1.0
 10
98.98669640706817
 20
89.92617258673087
 30
0.0
 10
99.01431946316198
 20
89.74761434521977
 30
0.0
 10
99.0411313102793
 20
89.56898663008022
 30
0.0
 10
99.06708116479751
 20
89.39028509209687
 30
0.0
  0
LINE
  5
129
330
1F
100
AcDbEntity
  8
0
  6
Continuous
 62
     7
370
    25
100
AcDbLine
 10
99.1474659225
 20
76.4261725867
 30
0.0
 11
101.7758439168
 21
76.4261725867
 31
0.0
  0
SPLINE
  5
12A
330
1F
100
AcDbEntity
  8
0
  6
Continuous
 62
     7
370
    25
100
AcDbSpline
210
0.0
220
0.0
230
1.0
 70
     8
 71
     3
 72
     8
 73
     4
 74
     0
 42
0.000000001
 43
0.00000001
 40
0.0
 40
0.0
 40
0.0
 40
0.0
 40
1.0
 40
1.0
 40
1.0
 40
1.0
 10
99.14746592252685
 20
76.42617258673087
 30
0.0
 10
99.11984286643302
 20
76.60473082824197
 30
0.0
 10
99.09303101931572
 20
76.78335854338151
 30
0.0
 10
99.06708116479751
 20
76.96206008136485
 30
0.0
  0
SPLINE
  5
12B
330
1F
100
AcDbEntity
  8
0
  6
Continuous
 62
     7
370
    25
100
AcDbSpline
210
0.0
220
0.0
230
1.0
 70
     8
 71
     3
 72
     8
 73
     4
 74
     0
 42
0.000000001
 43
0.00000001
 40
0.0
 40
0.0
 40
0.0
 40
0.0
 40
1.0
 40
1.0
 40
1.0
 40
1.0
 10
99.0670811647975
 20
76.96206008136487
 30
0.0
 10
99.04112410115306
 20
76.78330889832698
 30
0.0
 10
99.01431194705862
 20
76.60468224338607
 30
0.0
 10
98.98669640706817
 20
76.42617258673087
 30
0.0
  0
LINE
  5
12C
330
1F
100
AcDbEntity
  8
0
  6
Continuous
 62
     7
370
    25
100
AcDbLine
 10
96.3583184128
 20
76.4261725867
 30
0.0
 11
98.9866964071
 21
76.4261725867
 31
0.0
  0
SPLINE
  5
12D
330
1F
100
AcDbEntity
  8
0
  6
Continuous
 62
     7
370
    25
100
AcDbSpline
210
0.0
220
0.0
230
1.0
 70
     8
 71
     3
 72
     8
 73
     4
 74
     0
 42
0.000000001
 43
0.00000001
 40
0.0
 40
0.0
 40
0.0
 40
0.0
 40
1.0
 40
1.0
 40
1.0
 40
1.0
 10
99.06708116479751
 20
89.39028509209687
 30
0.0
 10
99.09303822844194
 20
89.56903627513476
 30
0.0
 10
99.11985038253638
 20
89.74766293007568
 30
0.0
 10
99.14746592252685
 20
89.92617258673087
 30
0.0
  0
LINE
  5
12E
330
1F
100
AcDbEntity
  8
0
  6
Continuous
 62
     7
370
    25
100
AcDbLine
 10
80.731129189
 20
89.9261725867
 30
0.0
 11
80.731129189
 21
76.9220733261
 31
0.0
  0
LINE
  5
12F
330
1F
100
AcDbEntity
  8
0
  6
Continuous
 62
     7
370
    25
100
AcDbLine
 10
80.731129189
 20
102.9302718473
 30
0.0
 11
80.731129189
 21
89.9261725867
 31
0.0
  0
LINE
  5
130
330
1F
100
AcDbEntity
  8
0
  6
Continuous
 62
     7
370
    25
100
AcDbLine
 10
78.1259528501
 20
78.4261725867
 30
0.0
 11
78.1259528501
 21
101.4261725867
 31
0.0
  0
LINE
  5
131
330
1F
100
AcDbEntity
  8
0
  6
Continuous
 62
     7
370
    25
100
AcDbLine
 10
112.1259528501
 20
89.9261725867
 30
0.0
 11
112.1259528501
 21
79.6761725867
 31
0.0
  0
LINE
  5
132
330
1F
100
AcDbEntity
  8
0
  6
Continuous
 62
     7
370
    25
100
AcDbLine
 10
112.1259528501
 20
100.1761725867
 30
0.0
 11
112.1259528501
 21
89.9261725867
 31
0.0
  0
LINE
  5
133
330
1F
100
AcDbEntity
  8
0
  6
Continuous
 62
     7
370
    25
100
AcDbLine
 10
130.1259528501
 20
89.9261725867
 30
0.0
 11
130.1259528501
 21
79.6761725867
 31
0.0
  0
LINE
  5
134
330
1F
100
AcDbEntity
  8
0
  6
Continuous
 62
     7
370
    25
100
AcDbLine
 10
130.1259528501
 20
100.1761725867
 30
0.0
 11
130.1259528501
 21
89.9261725867
 31
0.0
  0
LINE
  5
135
330
1F
100
AcDbEntity
  8
0
  6
Continuous
 62
     7
370
    25
100
AcDbLine
 10
124.1259528501
 20
89.9261725867
 30
0.0
 11
124.1259528501
 21
79.6761725867
 31
0.0
  0
LINE
  5
136
330
1F
100
AcDbEntity
  8
0
  6
Continuous
 62
     7
370
    25
100
AcDbLine
 10
124.1259528501
 20
100.1761725867
 30
0.0
 11
124.1259528501
 21
89.9261725867
 31
0.0
  0
LINE
  5
137
330
1F
100
AcDbEntity
  8
0
  6
Continuous
 62
     7
370
    25
100
AcDbLine
 10
118.1259528501
 20
89.9261725867
 30
0.0
 11
118.1259528501
 21
79.6761725867
 31
0.0
  0
LINE
  5
138
330
1F
100
AcDbEntity
  8
0
  6
Continuous
 62
     7
370
    25
100
AcDbLine
 10
118.1259528501
 20
100.1761725867
 30
0.0
 11
118.1259528501
 21
89.9261725867
 31
0.0
  0
LINE
  5
139
330
1F
100
AcDbEntity
  8
0
  6
Continuous
 62
     7
370
    25
100
AcDbLine
 10
138.1259528501
 20
98.7347814775
 30
0.0
 11
138.1259528501
 21
81.117563696
 31
0.0
  0
SPLINE
  5
13A
330
1F
100
AcDbEntity
  8
0
  6
Continuous
 62
     7
370
    25
100
AcDbSpline
210
0.0
220
0.0
230
1.0
 70
    24
 71
     3
 72
     8
 73
     4
 74
     0
 42
0.000000001
 43
0.00000001
 40
0.0
 40
0.0
 40
0.0
 40
0.0
 40
1.0
 40
1.0
 40
1.0
 40
1.0
 10
99.06708116479751
 20
103.4261725867309
 30
0.0
 10
99.04112447206703
 20
103.4261725867309
 30
0.0
 10
99.01431233356509
 20
103.4261725867309
 30
0.0
 10
98.98669640706817
 20
103.4261725867309
 30
0.0
  0
LINE
  5
13B
330
1F
100
AcDbEntity
  8
0
  6
Continuous
 62
     7
370
    25
100
AcDbLine
 10
99.0670811648
 20
102.8902850921
 30
0.0
 11
99.0670811648
 21
103.4261725867
 31
0.0
  0
SPLINE
  5
13C
330
1F
100
AcDbEntity
  8
0
  6
Continuous
 62
     7
370
    25
100
AcDbSpline
210
0.0
220
0.0
230
1.0
 70
    24
 71
     3
 72
     8
 73
     4
 74
     0
 42
0.000000001
 43
0.00000001
 40
0.0
 40
0.0
 40
0.0
 40
0.0
 40
1.0
 40
1.0
 40
1.0
 40
1.0
 10
99.14746592252685
 20
103.4261725867309
 30
0.0
 10
99.11984176372444
 20
103.4261725867309
 30
0.0
 10
99.09302996231132
 20
103.4261725867309
 30
0.0
 10
99.06708116479751
 20
103.4261725867309
 30
0.0
  0
LINE
  5
13D
330
1F
100
AcDbEntity
  8
0
  6
Continuous
 62
     7
370
    25
100
AcDbLine
 10
99.0670811648
 20
76.4261725867
 30
0.0
 11
99.0670811648
 21
76.9620600814
 31
0.0
  0
SPLINE
  5
13E
330
1F
100
AcDbEntity
  8
0
  6
Continuous
 62
     7
370
    25
100
AcDbSpline
210
0.0
220
0.0
230
1.0
 70
    24
 71
     3
 72
     8
 73
     4
 74
     0
 42
0.000000001
 43
0.00000001
 40
0.0
 40
0.0
 40
0.0
 40
0.0
 40
1.0
 40
1.0
 40
1.0
 40
1.0
 10
98.98669640706817
 20
76.42617258673087
 30
0.0
 10
99.01432056587058
 20
76.42617258673087
 30
0.0
 10
99.0411323672837
 20
76.42617258673087
 30
0.0
 10
99.06708116479751
 20
76.42617258673087
 30
0.0
  0
SPLINE
  5
13F
330
1F
100
AcDbEntity
  8
0
  6
Continuous
 62
     7
370
    25
100
AcDbSpline
210
0.0
220
0.0
230
1.0
 70
    24
 71
     3
 72
     8
 73
     4
 74
     0
 42
0.000000001
 43
0.00000001
 40
0.0
 40
0.0
 40
0.0
 40
0.0
 40
1.0
 40
1.0
 40
1.0
 40
1.0
 10
99.06708116479751
 20
76.42617258673087
 30
0.0
 10
99.09303785752797
 20
76.42617258673087
 30
0.0
 10
99.11984999602993
 20
76.42617258673087
 30
0.0
 10
99.14746592252685
 20
76.42617258673087
 30
0.0
  0
LINE
  5
140
330
1F
100
AcDbEntity
  8
0
  6
Continuous
 62
     8
370
    25
100
AcDbLine
 10
137.6879702174
 20
89.9261725867
 30
0.0
 11
137.6879702174
 21
99.2309204158
 31
0.0
  0
LINE
  5
141
330
1F
100
AcDbEntity
  8
0
  6
Continuous
 62
     8
370
    25
100
AcDbLine
 10
137.6879702174
 20
80.6214247576
 30
0.0
 11
137.6879702174
 21
89.9261725867
 31
0.0
  0
LINE
  5
142
330
1F
100
AcDbEntity
  8
0
  6
Continuous
 62
     7
370
    18
100
AcDbLine
 10
79.14865881
 20
102.016632148
 30
0.0
 11
94.6259528501
 21
102.5002975867
 31
0.0
  0
LINE
  5
143
330
1F
100
AcDbEntity
  8
0
  6
Continuous
 62
     7
370
    18
100
AcDbLine
 10
79.14865881
 20
77.8357130255
 30
0.0
 11
94.6259528501
 21
77.3520475867
 31
0.0
  0
LINE
  5
144
330
1F
100
AcDbEntity
  8
0
  6
Continuous
 62
     7
370
    18
100
AcDbLine
 10
94.6259528501
 20
76.4878600867
 30
0.0
 11
94.6259528501
 21
103.3644850867
 31
0.0
  0
LINE
  5
145
330
1F
100
AcDbEntity
  8
0
  6
CENTERX2
 62
     7
370
    18
100
AcDbLine
 10
139.1259528501
 20
89.9261725867
 30
0.0
 11
76.9281044187
 21
89.9261725867
 31
0.0
  0
ENDSEC
  0
SECTION
  2
OBJECTS
  0
DICTIONARY
  5
C
330
0
100
AcDbDictionary
281
     1
  3
ACAD_GROUP
350
D
  3
ACAD_LAYOUT
350
1A
  3
ACAD_MLINESTYLE
350
17
  3
ACAD_PLOTSETTINGS
350
19
  3
ACAD_PLOTSTYLENAME
350
E
  3
ACAD_SCALELIST
350
47
  0
DICTIONARY
  5
D
102
{ACAD_REACTORS
330
C
102
}
330
C
100
AcDbDictionary
281
     1
  0
DICTIONARY
  5
1A
102
{ACAD_REACTORS
330
C
102
}
330
C
100
AcDbDictionary
281
     1
  3
Layout1
350
1E
  3
Layout2
350
26
  3
Model
350
22
  0
DICTIONARY
  5
17
102
{ACAD_REACTORS
330
C
102
}
330
C
100
AcDbDictionary
281
     1
  3
Standard
350
18
  0
DICTIONARY
  5
19
102
{ACAD_REACTORS
330
C
102
}
330
C
100
AcDbDictionary
281
     1
  0
ACDBDICTIONARYWDFLT
  5
E
102
{ACAD_REACTORS
330
C
102
}
330
C
100
AcDbDictionary
281
     1
  3
Normal
350
F
100
AcDbDictionaryWithDefault
340
F
  0
DICTIONARY
  5
47
102
{ACAD_REACTORS
330
C
102
}
330
C
100
AcDbDictionary
281
     1
  3
A0
350
48
  3
A1
350
49
  3
A2
350
4A
  3
A3
350
4B
  3
A4
350
4C
  3
A5
350
4D
  3
A6
350
4E
  3
A7
350
4F
  3
A8
350
50
  3
A9
350
51
  3
B0
350
52
  3
B1
350
53
  3
B2
350
54
  3
B3
350
55
  3
B4
350
56
  3
B5
350
57
  3
B6
350
58
  3
B7
350
59
  3
B8
350
5A
  3
B9
350
5B
  3
C0
350
5C
  3
C1
350
5D
  3
C2
350
5E
  3
C3
350
5F
  3
C4
350
60
  3
C5
350
61
  3
C6
350
62
  3
C7
350
63
  3
C8
350
64
  3
C9
350
65
  3
D0
350
66
  3
D1
350
67
  3
D2
350
68
  0
LAYOUT
  5
1E
102
{ACAD_REACTORS
330
1A
102
}
330
1A
100
AcDbPlotSettings
  1

  2
none_device
  4

  6

 40
0.0
 41
0.0
 42
0.0
 43
0.0
 44
0.0
 45
0.0
 46
0.0
 47
0.0
 48
0.0
 49
0.0
140
0.0
141
0.0
142
1.0
143
1.0
 70
   688
 72
     1
 73
     0
 74
     5
  7

 75
    16
147
1.0
148
0.0
149
0.0
100
AcDbLayout
  1
Layout1
 70
     1
 71
     1
 10
0.0
 20
0.0
 11
420.0
 21
297.0
 12
0.0
 22
0.0
 32
0.0
 14
1.0000000000E+20
 24
1.0000000000E+20
 34
1.0000000000E+20
 15
-1.0000000000E+20
 25
-1.0000000000E+20
 35
-1.0000000000E+20
146
0.0
 13
0.0
 23
0.0
 33
0.0
 16
1.0
 26
0.0
 36
0.0
 17
0.0
 27
1.0
 37
0.0
 76
     0
330
1B
  0
LAYOUT
  5
26
102
{ACAD_REACTORS
330
1A
102
}
330
1A
100
AcDbPlotSettings
  1

  2
none_device
  4

  6

 40
0.0
 41
0.0
 42
0.0
 43
0.0
 44
0.0
 45
0.0
 46
0.0
 47
0.0
 48
0.0
 49
0.0
140
0.0
141
0.0
142
1.0
143
1.0
 70
   688
 72
     1
 73
     0
 74
     5
  7

 75
    16
147
1.0
148
0.0
149
0.0
100
AcDbLayout
  1
Layout2
 70
     1
 71
     2
 10
0.0
 20
0.0
 11
0.0
 21
0.0
 12
0.0
 22
0.0
 32
0.0
 14
0.0
 24
0.0
 34
0.0
 15
0.0
 25
0.0
 35
0.0
146
0.0
 13
0.0
 23
0.0
 33
0.0
 16
1.0
 26
0.0
 36
0.0
 17
0.0
 27
1.0
 37
0.0
 76
     0
330
23
  0
LAYOUT
  5
22
102
{ACAD_REACTORS
330
1A
102
}
330
1A
100
AcDbPlotSettings
  1

  2
none_device
  4
Letter_(8.50_x_11.00_Inches)
  6

 40
6.35
 41
6.35
 42
6.35000508
 43
6.35000508
 44
215.9
 45
279.4
 46
0.0
 47
0.0
 48
0.0
 49
0.0
140
0.0
141
0.0
142
1.0
143
1.0
 70
  1712
 72
     1
 73
     0
 74
     0
  7

 75
     0
147
1.0
148
0.0
149
0.0
100
AcDbLayout
  1
Model
 70
     1
 71
     0
 10
0.0
 20
0.0
 11
215.9
 21
139.7
 12
0.0
 22
0.0
 32
0.0
 14
0.0
 24
0.0
 34
0.0
 15
215.9
 25
139.7
 35
0.0
146
0.0
 13
0.0
 23
0.0
 33
0.0
 16
1.0
 26
0.0
 36
0.0
 17
0.0
 27
1.0
 37
0.0
 76
     0
330
1F
331
29
  0
MLINESTYLE
  5
18
102
{ACAD_REACTORS
330
17
102
}
330
17
100
AcDbMlineStyle
  2
Standard
 70
     0
  3

 62
   256
 51
90.0
 52
90.0
 71
     2
 49
0.5
 62
   256
  6
BYLAYER
 49
-0.5
 62
   256
  6
BYLAYER
  0
ACDBPLACEHOLDER
  5
F
102
{ACAD_REACTORS
330
E
102
}
330
E
  0
SCALE
  5
48
102
{ACAD_REACTORS
330
47
102
}
330
47
100
AcDbScale
 70
     0
300
1:1
140
1.0
141
1.0
290
     1
  0
SCALE
  5
49
102
{ACAD_REACTORS
330
47
102
}
330
47
100
AcDbScale
 70
     0
300
1:2
140
1.0
141
2.0
290
     0
  0
SCALE
  5
4A
102
{ACAD_REACTORS
330
47
102
}
330
47
100
AcDbScale
 70
     0
300
1:4
140
1.0
141
4.0
290
     0
  0
SCALE
  5
4B
102
{ACAD_REACTORS
330
47
102
}
330
47
100
AcDbScale
 70
     0
300
1:5
140
1.0
141
5.0
290
     0
  0
SCALE
  5
4C
102
{ACAD_REACTORS
330
47
102
}
330
47
100
AcDbScale
 70
     0
300
1:8
140
1.0
141
8.0
290
     0
  0
SCALE
  5
4D
102
{ACAD_REACTORS
330
47
102
}
330
47
100
AcDbScale
 70
     0
300
1:10
140
1.0
141
10.0
290
     0
  0
SCALE
  5
4E
102
{ACAD_REACTORS
330
47
102
}
330
47
100
AcDbScale
 70
     0
300
1:16
140
1.0
141
16.0
290
     0
  0
SCALE
  5
4F
102
{ACAD_REACTORS
330
47
102
}
330
47
100
AcDbScale
 70
     0
300
1:20
140
1.0
141
20.0
290
     0
  0
SCALE
  5
50
102
{ACAD_REACTORS
330
47
102
}
330
47
100
AcDbScale
 70
     0
300
1:30
140
1.0
141
30.0
290
     0
  0
SCALE
  5
51
102
{ACAD_REACTORS
330
47
102
}
330
47
100
AcDbScale
 70
     0
300
1:40
140
1.0
141
40.0
290
     0
  0
SCALE
  5
52
102
{ACAD_REACTORS
330
47
102
}
330
47
100
AcDbScale
 70
     0
300
1:50
140
1.0
141
50.0
290
     0
  0
SCALE
  5
53
102
{ACAD_REACTORS
330
47
102
}
330
47
100
AcDbScale
 70
     0
300
1:100
140
1.0
141
100.0
290
     0
  0
SCALE
  5
54
102
{ACAD_REACTORS
330
47
102
}
330
47
100
AcDbScale
 70
     0
300
2:1
140
2.0
141
1.0
290
     0
  0
SCALE
  5
55
102
{ACAD_REACTORS
330
47
102
}
330
47
100
AcDbScale
 70
     0
300
4:1
140
4.0
141
1.0
290
     0
  0
SCALE
  5
56
102
{ACAD_REACTORS
330
47
102
}
330
47
100
AcDbScale
 70
     0
300
8:1
140
8.0
141
1.0
290
     0
  0
SCALE
  5
57
102
{ACAD_REACTORS
330
47
102
}
330
47
100
AcDbScale
 70
     0
300
10:1
140
10.0
141
1.0
290
     0
  0
SCALE
  5
58
102
{ACAD_REACTORS
330
47
102
}
330
47
100
AcDbScale
 70
     0
300
100:1
140
100.0
141
1.0
290
     0
  0
SCALE
  5
59
102
{ACAD_REACTORS
330
47
102
}
330
47
100
AcDbScale
 70
     0
300
1/128" = 1'-0"
140
0.0078125
141
12.0
290
     0
  0
SCALE
  5
5A
102
{ACAD_REACTORS
330
47
102
}
330
47
100
AcDbScale
 70
     0
300
1/64" = 1'-0"
140
0.015625
141
12.0
290
     0
  0
SCALE
  5
5B
102
{ACAD_REACTORS
330
47
102
}
330
47
100
AcDbScale
 70
     0
300
1/32" = 1'-0"
140
0.03125
141
12.0
290
     0
  0
SCALE
  5
5C
102
{ACAD_REACTORS
330
47
102
}
330
47
100
AcDbScale
 70
     0
300
1/16" = 1'-0"
140
0.0625
141
12.0
290
     0
  0
SCALE
  5
5D
102
{ACAD_REACTORS
330
47
102
}
330
47
100
AcDbScale
 70
     0
300
3/32" = 1'-0"
140
0.09375
141
12.0
290
     0
  0
SCALE
  5
5E
102
{ACAD_REACTORS
330
47
102
}
330
47
100
AcDbScale
 70
     0
300
1/8" = 1'-0"
140
0.125
141
12.0
290
     0
  0
SCALE
  5
5F
102
{ACAD_REACTORS
330
47
102
}
330
47
100
AcDbScale
 70
     0
300
3/16" = 1'-0"
140
0.1875
141
12.0
290
     0
  0
SCALE
  5
60
102
{ACAD_REACTORS
330
47
102
}
330
47
100
AcDbScale
 70
     0
300
1/4" = 1'-0"
140
0.25
141
12.0
290
     0
  0
SCALE
  5
61
102
{ACAD_REACTORS
330
47
102
}
330
47
100
AcDbScale
 70
     0
300
3/8" = 1'-0"
140
0.375
141
12.0
290
     0
  0
SCALE
  5
62
102
{ACAD_REACTORS
330
47
102
}
330
47
100
AcDbScale
 70
     0
300
1/2" = 1'-0"
140
0.5
141
12.0
290
     0
  0
SCALE
  5
63
102
{ACAD_REACTORS
330
47
102
}
330
47
100
AcDbScale
 70
     0
300
3/4" = 1'-0"
140
0.75
141
12.0
290
     0
  0
SCALE
  5
64
102
{ACAD_REACTORS
330
47
102
}
330
47
100
AcDbScale
 70
     0
300
1" = 1'-0"
140
1.0
141
12.0
290
     0
  0
SCALE
  5
65
102
{ACAD_REACTORS
330
47
102
}
330
47
100
AcDbScale
 70
     0
300
1-1/2" = 1'-0"
140
1.5
141
12.0
290
     0
  0
SCALE
  5
66
102
{ACAD_REACTORS
330
47
102
}
330
47
100
AcDbScale
 70
     0
300
3" = 1'-0"
140
3.0
141
12.0
290
     0
  0
SCALE
  5
67
102
{ACAD_REACTORS
330
47
102
}
330
47
100
AcDbScale
 70
     0
300
6" = 1'-0"
140
6.0
141
12.0
290
     0
  0
SCALE
  5
68
102
{ACAD_REACTORS
330
47
102
}
330
47
100
AcDbScale
 70
     0
300
1'-0" = 1'-0"
140
12.0
141
12.0
290
     0
  0
ENDSEC
  0
EOF
