  0
SECTION
  2
HEADER
  9
$ACADVER
  1
AC1015
  9
$ACADMAINTVER
 70
     6
  9
$DWGCODEPAGE
  3
DOS932
  9
$INSBASE
 10
0.0
 20
0.0
 30
0.0
  9
$EXTMIN
 10
0.0
 20
0.0
 30
0.0
  9
$EXTMAX
 10
215.9
 20
139.7
 30
0.0
  9
$LIMMIN
 10
0.0
 20
0.0
  9
$LIMMAX
 10
215.9
 20
139.7
  9
$ORTHOMODE
 70
     0
  9
$REGENMODE
 70
     1
  9
$FILLMODE
 70
     1
  9
$QTEXTMODE
 70
     0
  9
$MIRRTEXT
 70
     1
  9
$LTSCALE
 40
0.5
  9
$ATTMODE
 70
     1
  9
$TEXTSIZE
 40
1.75
  9
$TRACEWID
 40
1.0
  9
$TEXTSTYLE
  7
Standard
  9
$CLAYER
  8
0
  9
$CELTYPE
  6
ByLayer
  9
$CECOLOR
 62
   256
  9
$CELTSCALE
 40
1.0
  9
$DISPSILH
 70
     0
  9
$DIMSCALE
 40
1.0
  9
$DIMASZ
 40
1.651
  9
$DIMEXO
 40
0.5
  9
$DIMDLI
 40
3.75
  9
$DIMRND
 40
0.0
  9
$DIMDLE
 40
0.0
  9
$DIMEXE
 40
0.5
  9
$DIMTP
 40
0.0
  9
$DIMTM
 40
0.0
  9
$DIMTXT
 40
1.75
  9
$DIMCEN
 40
2.5
  9
$DIMTSZ
 40
0.0
  9
$DIMTOL
 70
     0
  9
$DIMLIM
 70
     0
  9
$DIMTIH
 70
     1
  9
$DIMTOH
 70
     1
  9
$DIMSE1
 70
     0
  9
$DIMSE2
 70
     0
  9
$DIMTAD
 70
     1
  9
$DIMZIN
 70
     1
  9
$DIMBLK
  1

  9
$DIMASO
 70
     1
  9
$DIMSHO
 70
     1
  9
$DIMPOST
  1

  9
$DIMAPOST
  1

  9
$DIMALT
 70
     0
  9
$DIMALTD
 70
     3
  9
$DIMALTF
 40
0.0393700787
  9
$DIMLFAC
 40
1.0
  9
$DIMTOFL
 70
     1
  9
$DIMTVP
 40
0.0
  9
$DIMTIX
 70
     0
  9
$DIMSOXD
 70
     0
  9
$DIMSAH
 70
     0
  9
$DIMBLK1
  1

  9
$DIMBLK2
  1

  9
$DIMSTYLE
  2
ISO-25
  9
$DIMCLRD
 70
     0
  9
$DIMCLRE
 70
     0
  9
$DIMCLRT
 70
     0
  9
$DIMTFAC
 40
1.0
  9
$DIMGAP
 40
0.762
  9
$DIMJUST
 70
     0
  9
$DIMSD1
 70
     0
  9
$DIMSD2
 70
     0
  9
$DIMTOLJ
 70
     0
  9
$DIMTZIN
 70
     1
  9
$DIMALTZ
 70
     0
  9
$DIMALTTZ
 70
     0
  9
$DIMUPT
 70
     0
  9
$DIMDEC
 70
     2
  9
$DIMTDEC
 70
     2
  9
$DIMALTU
 70
     2
  9
$DIMALTTD
 70
     3
  9
$DIMTXSTY
  7
Standard
  9
$DIMAUNIT
 70
     0
  9
$DIMADEC
 70
     2
  9
$DIMALTRND
 40
0.0
  9
$DIMAZIN
 70
     0
  9
$DIMDSEP
 70
    44
  9
$DIMATFIT
 70
     3
  9
$DIMFRAC
 70
     0
  9
$DIMLDRBLK
  1

  9
$DIMLUNIT
 70
     2
  9
$DIMLWD
 70
    -2
  9
$DIMLWE
 70
    -2
  9
$DIMTMOVE
 70
     0
  9
$LUNITS
 70
     2
  9
$LUPREC
 70
     2
  9
$SKETCHINC
 40
1.0
  9
$FILLETRAD
 40
10.0
  9
$AUNITS
 70
     0
  9
$AUPREC
 70
     2
  9
$MENU
  1
.
  9
$ELEVATION
 40
0.0
  9
$PELEVATION
 40
0.0
  9
$THICKNESS
 40
0.0
  9
$LIMCHECK
 70
     0
  9
$CHAMFERA
 40
0.0
  9
$CHAMFERB
 40
0.0
  9
$CHAMFERC
 40
0.0
  9
$CHAMFERD
 40
0.0
  9
$SKPOLY
 70
     0
  9
$TDCREATE
 40
2460082.703368218
  9
$TDUCREATE
 40
2460082.328368218
  9
$TDUPDATE
 40
2460082.703368715
  9
$TDUUPDATE
 40
2460082.328368715
  9
$TDINDWG
 40
0.0000000116
  9
$TDUSRTIMER
 40
0.0000000116
  9
$USRTIMER
 70
     1
  9
$ANGBASE
 50
0.0
  9
$ANGDIR
 70
     0
  9
$PDMODE
 70
     0
  9
$PDSIZE
 40
-1.0
  9
$PLINEWID
 40
0.0
  9
$SPLFRAME
 70
     0
  9
$SPLINETYPE
 70
     6
  9
$SPLINESEGS
 70
     8
  9
$HANDSEED
  5
146
  9
$SURFTAB1
 70
     6
  9
$SURFTAB2
 70
     6
  9
$SURFTYPE
 70
     6
  9
$SURFU
 70
     6
  9
$SURFV
 70
     6
  9
$UCSBASE
  2

  9
$UCSNAME
  2

  9
$UCSORG
 10
0.0
 20
0.0
 30
0.0
  9
$UCSXDIR
 10
1.0
 20
0.0
 30
0.0
  9
$UCSYDIR
 10
0.0
 20
1.0
 30
0.0
  9
$UCSORTHOREF
  2

  9
$UCSORTHOVIEW
 70
     0
  9
$UCSORGTOP
 10
0.0
 20
0.0
 30
0.0
  9
$UCSORGBOTTOM
 10
0.0
 20
0.0
 30
0.0
  9
$UCSORGLEFT
 10
0.0
 20
0.0
 30
0.0
  9
$UCSORGRIGHT
 10
0.0
 20
0.0
 30
0.0
  9
$UCSORGFRONT
 10
0.0
 20
0.0
 30
0.0
  9
$UCSORGBACK
 10
0.0
 20
0.0
 30
0.0
  9
$PUCSBASE
  2

  9
$PUCSNAME
  2

  9
$PUCSORG
 10
0.0
 20
0.0
 30
0.0
  9
$PUCSXDIR
 10
1.0
 20
0.0
 30
0.0
  9
$PUCSYDIR
 10
0.0
 20
1.0
 30
0.0
  9
$PUCSORTHOREF
  2

  9
$PUCSORTHOVIEW
 70
     0
  9
$PUCSORGTOP
 10
0.0
 20
0.0
 30
0.0
  9
$PUCSORGBOTTOM
 10
0.0
 20
0.0
 30
0.0
  9
$PUCSORGLEFT
 10
0.0
 20
0.0
 30
0.0
  9
$PUCSORGRIGHT
 10
0.0
 20
0.0
 30
0.0
  9
$PUCSORGFRONT
 10
0.0
 20
0.0
 30
0.0
  9
$PUCSORGBACK
 10
0.0
 20
0.0
 30
0.0
  9
$USERI1
 70
     0
  9
$USERI2
 70
     0
  9
$USERI3
 70
     0
  9
$USERI4
 70
     0
  9
$USERI5
 70
     0
  9
$USERR1
 40
0.0
  9
$USERR2
 40
0.0
  9
$USERR3
 40
0.0
  9
$USERR4
 40
0.0
  9
$USERR5
 40
0.0
  9
$WORLDVIEW
 70
     1
  9
$SHADEDGE
 70
     3
  9
$SHADEDIF
 70
    70
  9
$TILEMODE
 70
     1
  9
$MAXACTVP
 70
    64
  9
$PINSBASE
 10
0.0
 20
0.0
 30
0.0
  9
$PLIMCHECK
 70
     0
  9
$PEXTMIN
 10
1.0000000000E+20
 20
1.0000000000E+20
 30
1.0000000000E+20
  9
$PEXTMAX
 10
-1.0000000000E+20
 20
-1.0000000000E+20
 30
-1.0000000000E+20
  9
$PLIMMIN
 10
0.0
 20
0.0
  9
$PLIMMAX
 10
420.0
 20
297.0
  9
$UNITMODE
 70
     0
  9
$VISRETAIN
 70
     1
  9
$PLINEGEN
 70
     0
  9
$PSLTSCALE
 70
     1
  9
$TREEDEPTH
 70
  3020
  9
$CMLSTYLE
  2
Standard
  9
$CMLJUST
 70
     0
  9
$CMLSCALE
 40
20.0
  9
$PROXYGRAPHICS
 70
     1
  9
$MEASUREMENT
 70
     1
  9
$CELWEIGHT
370
    -1
  9
$ENDCAPS
280
     0
  9
$JOINSTYLE
280
     0
  9
$LWDISPLAY
290
     1
  9
$INSUNITS
 70
     4
  9
$HYPERLINKBASE
  1

  9
$STYLESHEET
  1

  9
$XEDIT
290
     1
  9
$CEPSNTYPE
380
     0
  9
$PSTYLEMODE
290
     1
  9
$FINGERPRINTGUID
  2
{F27C1714-FE33-4DCA-81CA-929DC3C54950}
  9
$VERSIONGUID
  2
{FAEB1C32-E019-11D5-929B-00C0DF256EC4}
  9
$EXTNAMES
290
     1
  9
$PSVPSCALE
 40
0.0
  9
$OLESTARTUP
290
     0
  0
ENDSEC
  0
SECTION
  2
CLASSES
  0
CLASS
  1
ACDBDICTIONARYWDFLT
  2
AcDbDictionaryWithDefault
  3
ObjectDBX Classes
 90
        0
280
     0
281
     0
  0
CLASS
  1
VISUALSTYLE
  2
AcDbVisualStyle
  3
ObjectDBX Classes
 90
     4095
280
     0
281
     0
  0
CLASS
  1
MATERIAL
  2
AcDbMaterial
  3
ObjectDBX Classes
 90
     1153
280
     0
281
     0
  0
CLASS
  1
SCALE
  2
AcDbScale
  3
ObjectDBX Classes
 90
     1153
280
     0
281
     0
  0
CLASS
  1
TABLESTYLE
  2
AcDbTableStyle
  3
ObjectDBX Classes
 90
     4095
280
     0
281
     0
  0
CLASS
  1
MLEADERSTYLE
  2
AcDbMLeaderStyle
  3
ACDB_MLEADERSTYLE_CLASS
 90
     4095
280
     0
281
     0
  0
CLASS
  1
SUN
  2
AcDbSun
  3
SCENEOE
 90
     1153
280
     0
281
     0
  0
CLASS
  1
ACDBPLACEHOLDER
  2
AcDbPlaceHolder
  3
ObjectDBX Classes
 90
        0
280
     0
281
     0
  0
CLASS
  1
LAYOUT
  2
AcDbLayout
  3
ObjectDBX Classes
 90
        0
280
     0
281
     0
  0
ENDSEC
  0
SECTION
  2
TABLES
  0
TABLE
  2
VPORT
  5
8
330
0
100
AcDbSymbolTable
 70
     1
  0
VPORT
  5
29
330
8
100
AcDbSymbolTableRecord
100
AcDbViewportTableRecord
  2
*Active
 70
     0
 10
0.0
 20
0.0
 11
1.0
 21
1.0
 12
107.95
 22
69.85
 13
0.0
 23
0.0
 14
10.0
 24
10.0
 15
10.0
 25
10.0
 16
0.0
 26
0.0
 36
1.0
 17
0.0
 27
0.0
 37
0.0
 40
139.7
 41
1.5454545455
 42
50.0
 43
0.0
 44
0.0
 50
0.0
 51
0.0
 71
     0
 72
  2000
 73
     1
 74
     3
 75
     0
 76
     0
 77
     0
 78
     0
281
     0
 65
     1
110
0.0
120
0.0
130
0.0
111
1.0
121
0.0
131
0.0
112
0.0
122
1.0
132
0.0
 79
     0
146
0.0
  0
ENDTAB
  0
TABLE
  2
LTYPE
  5
5
330
0
100
AcDbSymbolTable
 70
     6
  0
LTYPE
  5
14
330
5
100
AcDbSymbolTableRecord
100
AcDbLinetypeTableRecord
  2
ByBlock
 70
     0
  3

 72
    65
 73
     0
 40
0.0
  0
LTYPE
  5
15
330
5
100
AcDbSymbolTableRecord
100
AcDbLinetypeTableRecord
  2
ByLayer
 70
     0
  3

 72
    65
 73
     0
 40
0.0
  0
LTYPE
  5
16
330
5
100
AcDbSymbolTableRecord
100
AcDbLinetypeTableRecord
  2
Continuous
 70
     0
  3
Solid line
 72
    65
 73
     0
 40
0.0
  0
LTYPE
  5
6E
330
5
100
AcDbSymbolTableRecord
100
AcDbLinetypeTableRecord
  2
HIDDEN
 70
     0
  3
Hidden __ __ __ __ __ __ __ __ __ __ __ __ __ __
 72
    65
 73
     2
 40
1.905
 49
1.27
 74
     0
 49
-0.635
 74
     0
  0
LTYPE
  5
6F
330
5
100
AcDbSymbolTableRecord
100
AcDbLinetypeTableRecord
  2
PHANTOM
 70
     0
  3
Phantom ______  __  __  ______  __  __  ______
 72
    65
 73
     6
 40
12.7
 49
6.35
 74
     0
 49
-1.27
 74
     0
 49
1.27
 74
     0
 49
-1.27
 74
     0
 49
1.27
 74
     0
 49
-1.27
 74
     0
  0
LTYPE
  5
70
330
5
100
AcDbSymbolTableRecord
100
AcDbLinetypeTableRecord
  2
CENTER
 70
     0
  3
Center ____ _ ____ _ ____ _ ____ _ ____ _ ____
 72
    65
 73
     4
 40
10.16
 49
6.35
 74
     0
 49
-1.27
 74
     0
 49
1.27
 74
     0
 49
-1.27
 74
     0
  0
LTYPE
  5
71
330
5
100
AcDbSymbolTableRecord
100
AcDbLinetypeTableRecord
  2
CENTERX2
 70
     0
  3
Center (2x) ________  __  ________  __  _____
 72
    65
 73
     4
 40
20.32
 49
12.7
 74
     0
 49
-2.54
 74
     0
 49
2.54
 74
     0
 49
-2.54
 74
     0
  0
LTYPE
  5
72
330
5
100
AcDbSymbolTableRecord
100
AcDbLinetypeTableRecord
  2
DOT2
 70
     0
  3
Dot (.5x) ........................................
 72
    65
 73
     2
 40
0.635
 49
0.0
 74
     0
 49
-0.635
 74
     0
  0
ENDTAB
  0
TABLE
  2
LAYER
  5
2
330
0
100
AcDbSymbolTable
 70
     1
  0
LAYER
  5
10
330
2
100
AcDbSymbolTableRecord
100
AcDbLayerTableRecord
  2
0
 70
     0
 62
     7
  6
Continuous
370
    -3
390
F
  0
ENDTAB
  0
TABLE
  2
STYLE
  5
3
330
0
100
AcDbSymbolTable
 70
     2
  0
STYLE
  5
11
330
3
100
AcDbSymbolTableRecord
100
AcDbTextStyleTableRecord
  2
Standard
 70
     0
 40
0.0
 41
1.0
 50
0.0
 71
     0
 42
1.75
  3
txt
  4
bigfont
  0
STYLE
  5
73
330
3
100
AcDbSymbolTableRecord
100
AcDbTextStyleTableRecord
  2
SLDTEXTSTYLE0
 70
     0
 40
0.0
 41
0.7
 50
0.0
 71
     0
 42
1.75
  3
TXT
  4
bigfont
  0
ENDTAB
  0
TABLE
  2
VIEW
  5
6
330
0
100
AcDbSymbolTable
 70
     0
  0
ENDTAB
  0
TABLE
  2
UCS
  5
7
330
0
100
AcDbSymbolTable
 70
     0
  0
ENDTAB
  0
TABLE
  2
APPID
  5
9
330
0
100
AcDbSymbolTable
 70
     1
  0
APPID
  5
12
330
9
100
AcDbSymbolTableRecord
100
AcDbRegAppTableRecord
  2
ACAD
 70
     0
  0
ENDTAB
  0
TABLE
  2
DIMSTYLE
  5
A
330
0
100
AcDbSymbolTable
 70
     1
100
AcDbDimStyleTable
  0
DIMSTYLE
105
27
330
A
100
AcDbSymbolTableRecord
100
AcDbDimStyleTableRecord
  2
ISO-25
 70
     0
 41
2.5
 42
0.625
 43
3.75
 44
1.25
 73
     0
 74
     0
 77
     1
 78
     8
140
2.5
141
2.5
143
0.0393700787
147
0.625
171
     3
172
     1
178
     0
271
     2
272
     2
274
     3
278
    44
283
     0
284
     8
340
11
  0
ENDTAB
  0
TABLE
  2
BLOCK_RECORD
  5
1
330
0
100
AcDbSymbolTable
 70
     3
  0
BLOCK_RECORD
  5
1F
330
1
100
AcDbSymbolTableRecord
100
AcDbBlockTableRecord
  2
*Model_Space
340
22
  0
BLOCK_RECORD
  5
1B
330
1
100
AcDbSymbolTableRecord
100
AcDbBlockTableRecord
  2
*Paper_Space
340
1E
  0
BLOCK_RECORD
  5
23
330
1
100
AcDbSymbolTableRecord
100
AcDbBlockTableRecord
  2
*Paper_Space0
340
26
  0
BLOCK_RECORD
  5
E9
330
1
100
AcDbSymbolTableRecord
100
AcDbBlockTableRecord
  2
SW_CENTERMARKSYMBOL_0
340
0
102
{BLKREFS
331
F4
102
}
  0
BLOCK_RECORD
  5
F5
330
1
100
AcDbSymbolTableRecord
100
AcDbBlockTableRecord
  2
SW_CENTERMARKSYMBOL_1
340
0
102
{BLKREFS
331
100
102
}
  0
ENDTAB
  0
ENDSEC
  0
SECTION
  2
BLOCKS
  0
BLOCK
  5
20
330
1F
100
AcDbEntity
  8
0
100
AcDbBlockBegin
  2
*Model_Space
 70
     0
 10
0.0
 20
0.0
 30
0.0
  3
*Model_Space
  1

  0
ENDBLK
  5
21
330
1F
100
AcDbEntity
  8
0
100
AcDbBlockEnd
  0
BLOCK
  5
1C
330
1B
100
AcDbEntity
 67
     1
  8
0
100
AcDbBlockBegin
  2
*Paper_Space
 70
     0
 10
0.0
 20
0.0
 30
0.0
  3
*Paper_Space
  1

  0
ENDBLK
  5
1D
330
1B
100
AcDbEntity
 67
     1
  8
0
100
AcDbBlockEnd
  0
BLOCK
  5
24
330
23
100
AcDbEntity
  8
0
100
AcDbBlockBegin
  2
*Paper_Space0
 70
     0
 10
0.0
 20
0.0
 30
0.0
  3
*Paper_Space0
  1

  0
ENDBLK
  5
25
330
23
100
AcDbEntity
  8
0
100
AcDbBlockEnd
  0
BLOCK
  5
EA
330
E9
100
AcDbEntity
  8
0
100
AcDbBlockBegin
  2
SW_CENTERMARKSYMBOL_0
 70
     0
 10
0.0
 20
0.0
 30
0.0
  3
SW_CENTERMARKSYMBOL_0
  1

  0
LINE
  5
EC
330
E9
100
AcDbEntity
  8
0
  6
Continuous
 62
     0
370
    18
100
AcDbLine
 10
0.0
 20
0.0
 30
0.0
 11
0.0
 21
2.5
 31
0.0
  0
LINE
  5
ED
330
E9
100
AcDbEntity
  8
0
  6
Continuous
 62
     0
370
    18
100
AcDbLine
 10
0.0
 20
0.0
 30
0.0
 11
-2.5
 21
0.0
 31
0.0
  0
LINE
  5
EE
330
E9
100
AcDbEntity
  8
0
  6
Continuous
 62
     0
370
    18
100
AcDbLine
 10
0.0
 20
0.0
 30
0.0
 11
0.0
 21
-2.5
 31
0.0
  0
LINE
  5
EF
330
E9
100
AcDbEntity
  8
0
  6
Continuous
 62
     0
370
    18
100
AcDbLine
 10
0.0
 20
0.0
 30
0.0
 11
2.5
 21
0.0
 31
0.0
  0
LINE
  5
F0
330
E9
100
AcDbEntity
  8
0
  6
Continuous
 62
     0
370
    18
100
AcDbLine
 10
0.0
 20
5.0
 30
0.0
 11
0.0
 21
9.5
 31
0.0
  0
LINE
  5
F1
330
E9
100
AcDbEntity
  8
0
  6
Continuous
 62
     0
370
    18
100
AcDbLine
 10
-5.0
 20
0.0
 30
0.0
 11
-9.5
 21
0.0
 31
0.0
  0
LINE
  5
F2
330
E9
100
AcDbEntity
  8
0
  6
Continuous
 62
     0
370
    18
100
AcDbLine
 10
0.0
 20
-5.0
 30
0.0
 11
0.0
 21
-9.5
 31
0.0
  0
LINE
  5
F3
330
E9
100
AcDbEntity
  8
0
  6
Continuous
 62
     0
370
    18
100
AcDbLine
 10
5.0
 20
0.0
 30
0.0
 11
9.5
 21
0.0
 31
0.0
  0
ENDBLK
  5
EB
330
E9
100
AcDbEntity
  8
0
100
AcDbBlockEnd
  0
BLOCK
  5
F6
330
F5
100
AcDbEntity
  8
0
100
AcDbBlockBegin
  2
SW_CENTERMARKSYMBOL_1
 70
     0
 10
0.0
 20
0.0
 30
0.0
  3
SW_CENTERMARKSYMBOL_1
  1

  0
LINE
  5
F8
330
F5
100
AcDbEntity
  8
0
  6
Continuous
 62
     0
370
    18
100
AcDbLine
 10
0.0
 20
0.0
 30
0.0
 11
0.0
 21
2.5
 31
0.0
  0
LINE
  5
F9
330
F5
100
AcDbEntity
  8
0
  6
Continuous
 62
     0
370
    18
100
AcDbLine
 10
0.0
 20
0.0
 30
0.0
 11
-2.5
 21
0.0
 31
0.0
  0
LINE
  5
FA
330
F5
100
AcDbEntity
  8
0
  6
Continuous
 62
     0
370
    18
100
AcDbLine
 10
0.0
 20
0.0
 30
0.0
 11
0.0
 21
-2.5
 31
0.0
  0
LINE
  5
FB
330
F5
100
AcDbEntity
  8
0
  6
Continuous
 62
     0
370
    18
100
AcDbLine
 10
0.0
 20
0.0
 30
0.0
 11
2.5
 21
0.0
 31
0.0
  0
LINE
  5
FC
330
F5
100
AcDbEntity
  8
0
  6
Continuous
 62
     0
370
    18
100
AcDbLine
 10
0.0
 20
5.0
 30
0.0
 11
0.0
 21
16.7505226477
 31
0.0
  0
LINE
  5
FD
330
F5
100
AcDbEntity
  8
0
  6
Continuous
 62
     0
370
    18
100
AcDbLine
 10
-5.0
 20
0.0
 30
0.0
 11
-15.75
 21
0.0
 31
0.0
  0
LINE
  5
FE
330
F5
100
AcDbEntity
  8
0
  6
Continuous
 62
     0
370
    18
100
AcDbLine
 10
0.0
 20
-5.0
 30
0.0
 11
0.0
 21
-17.1692857139
 31
0.0
  0
LINE
  5
FF
330
F5
100
AcDbEntity
  8
0
  6
Continuous
 62
     0
370
    18
100
AcDbLine
 10
5.0
 20
0.0
 30
0.0
 11
15.75
 21
0.0
 31
0.0
  0
ENDBLK
  5
F7
330
F5
100
AcDbEntity
  8
0
100
AcDbBlockEnd
  0
ENDSEC
  0
SECTION
  2
ENTITIES
  0
MTEXT
  5
74
330
1F
100
AcDbEntity
  8
0
  6
Continuous
 62
     7
370
     0
100
AcDbMText
 10
133.0803265668
 20
71.0049779058
 30
0.0
 40
2.38125
 41
0.0
 71
     1
 72
     1
  1
エースニップル　HN-8619
  7
SLDTEXTSTYLE0
 73
     1
 44
1.0
  0
LINE
  5
75
330
1F
100
AcDbEntity
  8
0
  6
Continuous
 62
     7
370
    25
100
AcDbLine
 10
92.0797946578
 20
61.0750982931
 30
0.0
 11
90.8474290951
 21
58.940578525
 31
0.0
  0
LINE
  5
76
330
1F
100
AcDbEntity
  8
0
  6
Continuous
 62
     7
370
    25
100
AcDbLine
 10
90.8474290951
 20
32.032703525
 30
0.0
 11
92.0797946578
 21
29.8981837569
 31
0.0
  0
LINE
  5
77
330
1F
100
AcDbEntity
  8
0
  6
Continuous
 62
     7
370
    25
100
AcDbLine
 10
97.4973201619
 20
29.8981837569
 30
0.0
 11
98.8474290951
 21
32.236641025
 31
0.0
  0
LINE
  5
78
330
1F
100
AcDbEntity
  8
0
  6
Continuous
 62
     7
370
    25
100
AcDbLine
 10
98.8474290951
 20
58.736641025
 30
0.0
 11
97.4973201619
 21
61.0750982931
 31
0.0
  0
LINE
  5
79
330
1F
100
AcDbEntity
  8
0
  6
Continuous
 62
     7
370
    25
100
AcDbLine
 10
90.8474290951
 20
58.940578525
 30
0.0
 11
76.4526054341
 21
58.4907402856
 31
0.0
  0
LINE
  5
7A
330
1F
100
AcDbEntity
  8
0
  6
Continuous
 62
     7
370
    25
100
AcDbLine
 10
76.4526054341
 20
32.4825417644
 30
0.0
 11
90.8474290951
 21
32.032703525
 31
0.0
  0
LINE
  5
7B
330
1F
100
AcDbEntity
  8
0
  6
Continuous
 62
     7
370
    25
100
AcDbLine
 10
76.4526054341
 20
58.4907402856
 30
0.0
 11
73.8474290951
 21
56.986641025
 31
0.0
  0
LINE
  5
7C
330
1F
100
AcDbEntity
  8
0
  6
Continuous
 62
     7
370
    25
100
AcDbLine
 10
73.8474290951
 20
33.986641025
 30
0.0
 11
76.4526054341
 21
32.4825417644
 31
0.0
  0
LINE
  5
7D
330
1F
100
AcDbEntity
  8
0
  6
Continuous
 62
     7
370
    25
100
AcDbLine
 10
107.8474290951
 20
54.986641025
 30
0.0
 11
98.8474290951
 21
54.986641025
 31
0.0
  0
LINE
  5
7E
330
1F
100
AcDbEntity
  8
0
  6
Continuous
 62
     7
370
    25
100
AcDbLine
 10
98.8474290951
 20
35.986641025
 30
0.0
 11
107.8474290951
 21
35.986641025
 31
0.0
  0
LINE
  5
7F
330
1F
100
AcDbEntity
  8
0
  6
Continuous
 62
     7
370
    25
100
AcDbLine
 10
107.8474290951
 20
35.986641025
 30
0.0
 11
113.8474290951
 21
36.986641025
 31
0.0
  0
LINE
  5
80
330
1F
100
AcDbEntity
  8
0
  6
Continuous
 62
     7
370
    25
100
AcDbLine
 10
113.8474290951
 20
53.986641025
 30
0.0
 11
107.8474290951
 21
54.986641025
 31
0.0
  0
LINE
  5
81
330
1F
100
AcDbEntity
  8
0
  6
Continuous
 62
     7
370
    25
100
AcDbLine
 10
119.8474290951
 20
35.986641025
 30
0.0
 11
125.8474290951
 21
36.986641025
 31
0.0
  0
LINE
  5
82
330
1F
100
AcDbEntity
  8
0
  6
Continuous
 62
     7
370
    25
100
AcDbLine
 10
125.8474290951
 20
53.986641025
 30
0.0
 11
119.8474290951
 21
54.986641025
 31
0.0
  0
LINE
  5
83
330
1F
100
AcDbEntity
  8
0
  6
Continuous
 62
     7
370
    25
100
AcDbLine
 10
125.8474290951
 20
35.986641025
 30
0.0
 11
133.4094464624
 21
36.9318931959
 31
0.0
  0
LINE
  5
84
330
1F
100
AcDbEntity
  8
0
  6
Continuous
 62
     7
370
    25
100
AcDbLine
 10
133.4094464624
 20
54.0413888541
 30
0.0
 11
125.8474290951
 21
54.986641025
 31
0.0
  0
LINE
  5
85
330
1F
100
AcDbEntity
  8
0
  6
Continuous
 62
     7
370
    25
100
AcDbLine
 10
113.8474290951
 20
35.986641025
 30
0.0
 11
119.8474290951
 21
36.986641025
 31
0.0
  0
LINE
  5
86
330
1F
100
AcDbEntity
  8
0
  6
Continuous
 62
     7
370
    25
100
AcDbLine
 10
119.8474290951
 20
53.986641025
 30
0.0
 11
113.8474290951
 21
54.986641025
 31
0.0
  0
ARC
  5
87
330
1F
100
AcDbEntity
  8
0
  6
Continuous
 62
     7
370
    25
100
AcDbCircle
 10
133.3474290951
 20
37.4280321343
 30
0.0
 40
0.5
100
AcDbArc
 50
277.1250163489
 51
0.0
  0
ARC
  5
88
330
1F
100
AcDbEntity
  8
0
  6
Continuous
 62
     7
370
    25
100
AcDbCircle
 10
133.3474290951
 20
53.5452499157
 30
0.0
 40
0.5
100
AcDbArc
 50
0.0
 51
82.8749836511
  0
LINE
  5
89
330
1F
100
AcDbEntity
  8
0
  6
Continuous
 62
     7
370
    25
100
AcDbLine
 10
94.8689421676
 20
61.0750982931
 30
0.0
 11
94.7885574098
 21
60.7750982931
 31
0.0
  0
LINE
  5
8A
330
1F
100
AcDbEntity
  8
0
  6
Continuous
 62
     7
370
    25
100
AcDbLine
 10
94.7885574098
 20
60.7750982931
 30
0.0
 11
94.7081726521
 21
61.0750982931
 31
0.0
  0
LINE
  5
8B
330
1F
100
AcDbEntity
  8
0
  6
Continuous
 62
     7
370
    25
100
AcDbLine
 10
94.7885574098
 20
30.1981837569
 30
0.0
 11
94.8689421676
 21
29.8981837569
 31
0.0
  0
LINE
  5
8C
330
1F
100
AcDbEntity
  8
0
  6
Continuous
 62
     7
370
    25
100
AcDbLine
 10
94.7081726521
 20
29.8981837569
 30
0.0
 11
94.7885574098
 21
30.1981837569
 31
0.0
  0
LINE
  5
8D
330
1F
100
AcDbEntity
  8
0
  6
Continuous
 62
     7
370
    25
100
AcDbLine
 10
94.8689421676
 20
37.692412391
 30
0.0
 11
97.4973201619
 21
37.692412391
 31
0.0
  0
SPLINE
  5
8E
330
1F
100
AcDbEntity
  8
0
  6
Continuous
 62
     7
370
    25
100
AcDbSpline
210
0.0
220
0.0
230
1.0
 70
     8
 71
     3
 72
    16
 73
    12
 74
     0
 42
0.000000001
 43
0.00000001
 40
0.0
 40
0.0
 40
0.0
 40
0.0
 40
0.2500000000000001
 40
0.2500000000000001
 40
0.5
 40
0.5
 40
0.6249999999999999
 40
0.6249999999999999
 40
0.7499999999999999
 40
0.7499999999999999
 40
1.0
 40
1.0
 40
1.0
 40
1.0
 10
97.49732016185763
 20
29.89818375689467
 30
0.0
 10
97.86470252454363
 20
30.53450867487153
 30
0.0
 10
98.1674920849378
 20
31.17547282582418
 30
0.0
 10
98.58695389324313
 20
32.47076858575578
 30
0.0
 10
98.70224251869772
 20
33.12519957031066
 30
0.0
 10
98.70350891556163
 20
34.1191756109808
 30
0.0
 10
98.6753253584726
 20
34.45206033758538
 30
0.0
 10
98.56542418943063
 20
35.11054137114564
 30
0.0
 10
98.48381812735771
 20
35.43757424742439
 30
0.0
 10
98.16869953246687
 20
36.412850507138
 30
0.0
 10
97.8651605161307
 20
37.05529420827931
 30
0.0
 10
97.4973201618575
 20
37.69241239095465
 30
0.0
  0
LINE
  5
8F
330
1F
100
AcDbEntity
  8
0
  6
Continuous
 62
     7
370
    25
100
AcDbLine
 10
94.8689421676
 20
29.8981837569
 30
0.0
 11
97.4973201619
 21
29.8981837569
 31
0.0
  0
SPLINE
  5
90
330
1F
100
AcDbEntity
  8
0
  6
Continuous
 62
     7
370
    25
100
AcDbSpline
210
0.0
220
0.0
230
1.0
 70
     8
 71
     3
 72
     8
 73
     4
 74
     0
 42
0.000000001
 43
0.00000001
 40
0.0
 40
0.0
 40
0.0
 40
0.0
 40
1.0
 40
1.0
 40
1.0
 40
1.0
 10
94.86894216756271
 20
29.8981837568947
 30
0.0
 10
94.84131911146889
 20
30.00127440569715
 30
0.0
 10
94.81450726435159
 20
30.1044051651177
 30
0.0
 10
94.78855740983339
 20
30.20757854617698
 30
0.0
  0
SPLINE
  5
91
330
1F
100
AcDbEntity
  8
0
  6
Continuous
 62
     7
370
    25
100
AcDbSpline
210
0.0
220
0.0
230
1.0
 70
     8
 71
     3
 72
     8
 73
     4
 74
     0
 42
0.000000001
 43
0.00000001
 40
0.0
 40
0.0
 40
0.0
 40
0.0
 40
1.0
 40
1.0
 40
1.0
 40
1.0
 10
94.78855740983339
 20
30.20757854617698
 30
0.0
 10
94.76260034618895
 20
30.10437650253209
 30
0.0
 10
94.73578819209449
 20
30.00124635521752
 30
0.0
 10
94.70817265210404
 20
29.89818375689469
 30
0.0
  0
LINE
  5
92
330
1F
100
AcDbEntity
  8
0
  6
Continuous
 62
     7
370
    25
100
AcDbLine
 10
92.0797946578
 20
29.8981837569
 30
0.0
 11
94.7081726521
 21
29.8981837569
 31
0.0
  0
SPLINE
  5
93
330
1F
100
AcDbEntity
  8
0
  6
Continuous
 62
     7
370
    25
100
AcDbSpline
210
0.0
220
0.0
230
1.0
 70
     8
 71
     3
 72
    16
 73
    12
 74
     0
 42
0.000000001
 43
0.00000001
 40
0.0
 40
0.0
 40
0.0
 40
0.0
 40
0.2500000000000001
 40
0.2500000000000001
 40
0.5000000000000001
 40
0.5000000000000001
 40
0.6250000000000001
 40
0.6250000000000001
 40
0.7500000000000002
 40
0.7500000000000002
 40
1.0
 40
1.0
 40
1.0
 40
1.0
 10
92.07979465780915
 20
37.69241239095466
 30
0.0
 10
91.71241229512314
 20
37.0560874729778
 30
0.0
 10
91.40962273472897
 20
36.41512332202515
 30
0.0
 10
90.99016092642363
 20
35.11982756209354
 30
0.0
 10
90.87487230096905
 20
34.46539657753868
 30
0.0
 10
90.87360590410515
 20
33.47142053686854
 30
0.0
 10
90.90178946119416
 20
33.13853581026395
 30
0.0
 10
91.01169063023613
 20
32.48005477670369
 30
0.0
 10
91.09329669230907
 20
32.15302190042494
 30
0.0
 10
91.40841528719989
 20
31.17774564071133
 30
0.0
 10
91.71195430353607
 20
30.53530193957001
 30
0.0
 10
92.07979465780927
 20
29.89818375689468
 30
0.0
  0
LINE
  5
94
330
1F
100
AcDbEntity
  8
0
  6
Continuous
 62
     7
370
    25
100
AcDbLine
 10
92.0797946578
 20
37.692412391
 30
0.0
 11
94.7081726521
 21
37.692412391
 31
0.0
  0
SPLINE
  5
95
330
1F
100
AcDbEntity
  8
0
  6
Continuous
 62
     7
370
    25
100
AcDbSpline
210
0.0
220
0.0
230
1.0
 70
     8
 71
     3
 72
     8
 73
     4
 74
     0
 42
0.000000001
 43
0.00000001
 40
0.0
 40
0.0
 40
0.0
 40
0.0
 40
1.0
 40
1.0
 40
1.0
 40
1.0
 10
94.70817265210404
 20
37.69241239095464
 30
0.0
 10
94.73579570819786
 20
37.58932174215218
 30
0.0
 10
94.76260755531517
 20
37.48619098273164
 30
0.0
 10
94.78855740983339
 20
37.38301760167235
 30
0.0
  0
SPLINE
  5
96
330
1F
100
AcDbEntity
  8
0
  6
Continuous
 62
     7
370
    25
100
AcDbSpline
210
0.0
220
0.0
230
1.0
 70
     8
 71
     3
 72
     8
 73
     4
 74
     0
 42
0.000000001
 43
0.00000001
 40
0.0
 40
0.0
 40
0.0
 40
0.0
 40
1.0
 40
1.0
 40
1.0
 40
1.0
 10
94.78855740983339
 20
37.38301760167235
 30
0.0
 10
94.81451447347781
 20
37.48621964531724
 30
0.0
 10
94.84132662757226
 20
37.58934979263181
 30
0.0
 10
94.86894216756272
 20
37.69241239095464
 30
0.0
  0
SPLINE
  5
97
330
1F
100
AcDbEntity
  8
0
  6
Continuous
 62
     7
370
    25
100
AcDbSpline
210
0.0
220
0.0
230
1.0
 70
     8
 71
     3
 72
    19
 73
    15
 74
     0
 42
0.000000001
 43
0.00000001
 40
0.0
 40
0.0
 40
0.0
 40
0.0
 40
0.1227280999764557
 40
0.2397165235883926
 40
0.3518621792202465
 40
0.463201981803224
 40
0.520261154154164
 40
0.5794324380306666
 40
0.6405963441586369
 40
0.7052982290880198
 40
0.7732361059084532
 40
0.8446489293403163
 40
0.9200459817773702
 40
1.0
 40
1.0
 40
1.0
 40
1.0
 10
95.80512140278712
 20
47.04713781988638
 30
0.0
 10
95.80412950054082
 20
47.07560423769515
 30
0.0
 10
95.80219208475528
 20
47.13120577244916
 30
0.0
 10
95.78516307328836
 20
47.2113461784612
 30
0.0
 10
95.75818236006906
 20
47.28577062684295
 30
0.0
 10
95.72560322888036
 20
47.34246704364008
 30
0.0
 10
95.69355409160906
 20
47.38440471829282
 30
0.0
 10
95.66598221886396
 20
47.41494755493426
 30
0.0
 10
95.63472136240532
 20
47.4443939781383
 30
0.0
 10
95.59891407212238
 20
47.47158848355354
 30
0.0
 10
95.55979161580123
 20
47.49816062353165
 30
0.0
 10
95.51713852151954
 20
47.52385667385543
 30
0.0
 10
95.47034668380311
 20
47.54785127679359
 30
0.0
 10
95.43744131484145
 20
47.56245718447745
 30
0.0
 10
95.42050601817174
 20
47.56997435834791
 30
0.0
  0
SPLINE
  5
98
330
1F
100
AcDbEntity
  8
0
  6
Continuous
 62
     7
370
    25
100
AcDbSpline
210
0.0
220
0.0
230
1.0
 70
     8
 71
     3
 72
    23
 73
    19
 74
     0
 42
0.000000001
 43
0.00000001
 40
0.0
 40
0.0
 40
0.0
 40
0.0
 40
0.0552698294993251
 40
0.109956704485094
 40
0.1632335040550558
 40
0.2180575651623567
 40
0.2732775387226746
 40
0.3308810454954968
 40
0.3904799376860886
 40
0.4536559730386416
 40
0.5189026226022312
 40
0.5833461108214766
 40
0.6485466930814432
 40
0.7150552190344911
 40
0.7825206438000538
 40
0.852335294426451
 40
0.9249348997257086
 40
1.0
 40
1.0
 40
1.0
 40
1.0
 10
95.41299399894096
 20
46.54433333270689
 30
0.0
 10
95.4260495625716
 20
46.54462930607607
 30
0.0
 10
95.45202298722344
 20
46.54521813105682
 30
0.0
 10
95.48996900431575
 20
46.55264526370322
 30
0.0
 10
95.52675711343244
 20
46.56380340539271
 30
0.0
 10
95.56222039199349
 20
46.57915330026268
 30
0.0
 10
95.59615299463422
 20
46.59966141739607
 30
0.0
 10
95.62859655001252
 20
46.62427798983091
 30
0.0
 10
95.66009477851806
 20
46.65301489880645
 30
0.0
 10
95.6891407663574
 20
46.68662318273869
 30
0.0
 10
95.71653857084472
 20
46.72300773449365
 30
0.0
 10
95.74022295363972
 20
46.76251090980022
 30
0.0
 10
95.76029782066882
 20
46.80426141790635
 30
0.0
 10
95.77688394028557
 20
46.84829765137519
 30
0.0
 10
95.78935268423359
 20
46.89479601793144
 30
0.0
 10
95.7983074663231
 20
46.94352883659937
 30
0.0
 10
95.80390562147923
 20
46.99459158923028
 30
0.0
 10
95.80471165634371
 20
47.02942852382597
 30
0.0
 10
95.80512140278712
 20
47.04713781988638
 30
0.0
  0
SPLINE
  5
99
330
1F
100
AcDbEntity
  8
0
  6
Continuous
 62
     7
370
    25
100
AcDbSpline
210
0.0
220
0.0
230
1.0
 70
     8
 71
     3
 72
    19
 73
    15
 74
     0
 42
0.000000001
 43
0.00000001
 40
0.0
 40
0.0
 40
0.0
 40
0.0
 40
0.1101423815503172
 40
0.2157418685830273
 40
0.3179605426392306
 40
0.4180517606815226
 40
0.5115631470355316
 40
0.5965727584443461
 40
0.6733290469034968
 40
0.7440491927238596
 40
0.8107168223002834
 40
0.8740854521098848
 40
0.93670961689667
 40
1.0
 40
1.0
 40
1.0
 40
1.0
 10
95.00383935150506
 20
47.18535897373253
 30
0.0
 10
95.00436649978607
 20
47.15443042451225
 30
0.0
 10
95.00539905377266
 20
47.0938489942996
 30
0.0
 10
95.01780113229033
 20
47.00534102850191
 30
0.0
 10
95.03515000865679
 20
46.92060511244919
 30
0.0
 10
95.06111029472592
 20
46.84157543899118
 30
0.0
 10
95.09227004755925
 20
46.76977757549409
 30
0.0
 10
95.12740494443025
 20
46.70714518323908
 30
0.0
 10
95.16721120616496
 20
46.65516262542129
 30
0.0
 10
95.21116641374532
 20
46.61370002825222
 30
0.0
 10
95.25885939606451
 20
46.58326795416568
 30
0.0
 10
95.30804760833253
 20
46.56042566840664
 30
0.0
 10
95.35987549700252
 20
46.54703459498529
 30
0.0
 10
95.39522548561571
 20
46.54523692397993
 30
0.0
 10
95.41299399894096
 20
46.54433333270689
 30
0.0
  0
LINE
  5
9A
330
1F
100
AcDbEntity
  8
0
  6
Continuous
 62
     7
370
    25
100
AcDbLine
 10
94.7474290951
 20
47.1853589737
 30
0.0
 11
95.0038393515
 21
47.1853589737
 31
0.0
  0
SPLINE
  5
9B
330
1F
100
AcDbEntity
  8
0
  6
Continuous
 62
     7
370
    25
100
AcDbSpline
210
0.0
220
0.0
230
1.0
 70
     8
 71
     3
 72
    23
 73
    19
 74
     0
 42
0.000000001
 43
0.00000001
 40
0.0
 40
0.0
 40
0.0
 40
0.0
 40
0.0669051223273615
 40
0.1334773340846823
 40
0.2010229080576287
 40
0.2712178684297487
 40
0.3428591616573977
 40
0.4138109980627168
 40
0.4855518488903452
 40
0.5598002749200528
 40
0.599899964903578
 40
0.6436094423977957
 40
0.6919106424505658
 40
0.7447030291556901
 40
0.8015038302285952
 40
0.8628660266331953
 40
0.9293326711591617
 40
1.0
 40
1.0
 40
1.0
 40
1.0
 10
94.21858294124866
 20
46.41612820450176
 30
0.0
 10
94.2418767810529
 20
46.41722125761013
 30
0.0
 10
94.28834855375891
 20
46.41940192494683
 30
0.0
 10
94.35671785535897
 20
46.43605120098862
 30
0.0
 10
94.42259325931232
 20
46.46343497007155
 30
0.0
 10
94.4848413696524
 20
46.50177692072699
 30
0.0
 10
94.54256148301127
 20
46.54842831017335
 30
0.0
 10
94.59386051460551
 20
46.60293755561742
 30
0.0
 10
94.63661529925895
 20
46.66543836809881
 30
0.0
 10
94.66604608965187
 20
46.72333313674
 30
0.0
 10
94.68566047376132
 20
46.77473813966497
 30
0.0
 10
94.69941371270292
 20
46.81864209630183
 30
0.0
 10
94.71040780820954
 20
46.86783739348041
 30
0.0
 10
94.72104240941562
 20
46.92173345237519
 30
0.0
 10
94.72995778419579
 20
46.9805575793668
 30
0.0
 10
94.73742476001125
 20
47.04436277128354
 30
0.0
 10
94.74339012808466
 20
47.11317469744037
 30
0.0
 10
94.74605555697521
 20
47.16081114878782
 30
0.0
 10
94.74742909509482
 20
47.18535897373253
 30
0.0
  0
SPLINE
  5
9C
330
1F
100
AcDbEntity
  8
0
  6
Continuous
 62
     7
370
    25
100
AcDbSpline
210
0.0
220
0.0
230
1.0
 70
     8
 71
     3
 72
    23
 73
    19
 74
     0
 42
0.000000001
 43
0.00000001
 40
0.0
 40
0.0
 40
0.0
 40
0.0
 40
0.0760618905628338
 40
0.1487324608035361
 40
0.2183745247439721
 40
0.2857225935927384
 40
0.3510576941824568
 40
0.4149349157293191
 40
0.4784859417740854
 40
0.5421690352812158
 40
0.6047501165431387
 40
0.6641185017301124
 40
0.7214996756099116
 40
0.777615916385255
 40
0.8326661086975489
 40
0.887858028113574
 40
0.9434676608977686
 40
1.0
 40
1.0
 40
1.0
 40
1.0
 10
93.6897367874025
 20
47.05264663398894
 30
0.0
 10
93.69017600425127
 20
47.02925095826262
 30
0.0
 10
93.69103485488277
 20
46.98350273405746
 30
0.0
 10
93.69895606992112
 20
46.91675368761797
 30
0.0
 10
93.71044207846427
 20
46.85323255909312
 30
0.0
 10
93.72840842906766
 20
46.79358758140703
 30
0.0
 10
93.74996203460827
 20
46.73700713277948
 30
0.0
 10
93.77817966006279
 20
46.68475425228937
 30
0.0
 10
93.81004690612241
 20
46.63529276980753
 30
0.0
 10
93.84711464231567
 20
46.59007167818369
 30
0.0
 10
93.88718085285687
 20
46.5493026528989
 30
0.0
 10
93.92968753162705
 20
46.51407371064425
 30
0.0
 10
93.97331669496529
 20
46.48356141753835
 30
0.0
 10
94.01908612306303
 20
46.45903462590333
 30
0.0
 10
94.06654685462453
 20
46.43963278254201
 30
0.0
 10
94.11587653558841
 20
46.42643279023714
 30
0.0
 10
94.16665977917485
 20
46.41725252591593
 30
0.0
 10
94.20118054139054
 20
46.4165050284477
 30
0.0
 10
94.21858294124866
 20
46.41612820450176
 30
0.0
  0
SPLINE
  5
9D
330
1F
100
AcDbEntity
  8
0
  6
Continuous
 62
     7
370
    25
100
AcDbSpline
210
0.0
220
0.0
230
1.0
 70
     8
 71
     3
 72
    15
 73
    11
 74
     0
 42
0.000000001
 43
0.00000001
 40
0.0
 40
0.0
 40
0.0
 40
0.0
 40
0.1182713048357264
 40
0.2361775330837636
 40
0.3556629329485097
 40
0.475904164670683
 40
0.6001273417110831
 40
0.7286081161551196
 40
0.8613134756739419
 40
1.0
 40
1.0
 40
1.0
 40
1.0
 10
93.82495313355635
 20
47.47031490321971
 30
0.0
 10
93.81416146649526
 20
47.45631734855889
 30
0.0
 10
93.79261144379207
 20
47.42836544650124
 30
0.0
 10
93.7651102805508
 20
47.38281671000235
 30
0.0
 10
93.74128097674027
 20
47.33491321994112
 30
0.0
 10
93.7230783369429
 20
47.28361702406904
 30
0.0
 10
93.70766572209351
 20
47.2300350451733
 30
0.0
 10
93.69757963699887
 20
47.17330121286486
 30
0.0
 10
93.69065951461086
 20
47.11391605778504
 30
0.0
 10
93.69004884925916
 20
47.07336765529713
 30
0.0
 10
93.6897367874025
 20
47.05264663398894
 30
0.0
  0
SPLINE
  5
9E
330
1F
100
AcDbEntity
  8
0
  6
Continuous
 62
     7
370
    25
100
AcDbSpline
210
0.0
220
0.0
230
1.0
 70
     8
 71
     3
 72
    15
 73
    11
 74
     0
 42
0.000000001
 43
0.00000001
 40
0.0
 40
0.0
 40
0.0
 40
0.0
 40
0.149770386031968
 40
0.2913164099952444
 40
0.4259663731047428
 40
0.5521595739695285
 40
0.6715274135235931
 40
0.7861216286916591
 40
0.8953250730704452
 40
1.0
 40
1.0
 40
1.0
 40
1.0
 10
94.17050601817174
 20
47.66612820450176
 30
0.0
 10
94.15125672297985
 20
47.66028299633013
 30
0.0
 10
94.11381517182406
 20
47.64891355871735
 30
0.0
 10
94.05992923919915
 20
47.62956048869227
 30
0.0
 10
94.01053062975285
 20
47.60751172292765
 30
0.0
 10
93.96525697119716
 20
47.58385846675904
 30
0.0
 10
93.92366239800846
 20
47.55901671959995
 30
0.0
 10
93.88684677726982
 20
47.53122034450251
 30
0.0
 10
93.8531930614057
 20
47.50252809796872
 30
0.0
 10
93.83423262430556
 20
47.48089998843205
 30
0.0
 10
93.82495313355635
 20
47.47031490321971
 30
0.0
  0
LINE
  5
9F
330
1F
100
AcDbEntity
  8
0
  6
Continuous
 62
     7
370
    25
100
AcDbLine
 10
94.1705060182
 20
47.8904871789
 30
0.0
 11
94.1705060182
 21
47.6661282045
 31
0.0
  0
SPLINE
  5
A0
330
1F
100
AcDbEntity
  8
0
  6
Continuous
 62
     7
370
    25
100
AcDbSpline
210
0.0
220
0.0
230
1.0
 70
     8
 71
     3
 72
    23
 73
    19
 74
     0
 42
0.000000001
 43
0.00000001
 40
0.0
 40
0.0
 40
0.0
 40
0.0
 40
0.0655411703374035
 40
0.1289631677825933
 40
0.1903771361885609
 40
0.2500923616690527
 40
0.308548432459201
 40
0.3663979630552959
 40
0.42454218926668
 40
0.4831699964229057
 40
0.5422433998311202
 40
0.6017393520173302
 40
0.6625060022496067
 40
0.724855513448847
 40
0.7891278292811812
 40
0.8563463998785101
 40
0.9262952349869055
 40
1.0
 40
1.0
 40
1.0
 40
1.0
 10
93.43332653099225
 20
47.05665304424534
 30
0.0
 10
93.43394668331973
 20
47.08338111587616
 30
0.0
 10
93.43516693630346
 20
47.13597304806908
 30
0.0
 10
93.44350879430104
 20
47.21328983263074
 30
0.0
 10
93.45874451232804
 20
47.28709104646253
 30
0.0
 10
93.47924687330382
 20
47.35747647350302
 30
0.0
 10
93.50524097478987
 20
47.42450864235555
 30
0.0
 10
93.53761147337654
 20
47.48798300319677
 30
0.0
 10
93.57569111769928
 20
47.54829006999685
 30
0.0
 10
93.61992939470397
 20
47.60486074938583
 30
0.0
 10
93.6694160659588
 20
47.65768829774743
 30
0.0
 10
93.72502964450715
 20
47.70536881505466
 30
0.0
 10
93.78574207587933
 20
47.74869723858473
 30
0.0
 10
93.8522585445927
 20
47.78651340909294
 30
0.0
 10
93.92371944264823
 20
47.82053980381855
 30
0.0
 10
94.00103979863513
 20
47.84852620142377
 30
0.0
 10
94.08352838577014
 20
47.87315875044969
 30
0.0
 10
94.14101248589574
 20
47.88461122491118
 30
0.0
 10
94.17050601817174
 20
47.89048717886073
 30
0.0
  0
SPLINE
  5
A1
330
1F
100
AcDbEntity
  8
0
  6
Continuous
 62
     7
370
    25
100
AcDbSpline
210
0.0
220
0.0
230
1.0
 70
     8
 71
     3
 72
    19
 73
    15
 74
     0
 42
0.000000001
 43
0.00000001
 40
0.0
 40
0.0
 40
0.0
 40
0.0
 40
0.0796417041949911
 40
0.158908613257856
 40
0.2395997983184508
 40
0.3224093988203484
 40
0.405827748173513
 40
0.4876442139503137
 40
0.5697199979738973
 40
0.6530646649976933
 40
0.7374573001733064
 40
0.8224924079539123
 40
0.9097550737466981
 40
0.9999999999999999
 40
0.9999999999999999
 40
0.9999999999999999
 40
0.9999999999999999
 10
94.24011739637686
 20
46.19176923014279
 30
0.0
 10
94.20511184470466
 20
46.1930538479953
 30
0.0
 10
94.13526547804561
 20
46.19561703826821
 30
0.0
 10
94.03204836797451
 20
46.21843475443996
 30
0.0
 10
93.93132641120405
 20
46.25401242827366
 30
0.0
 10
93.8345919796624
 20
46.30365233444104
 30
0.0
 10
93.74427299572969
 20
46.36506993842379
 30
0.0
 10
93.66382868900212
 20
46.43854351432279
 30
0.0
 10
93.59421517858988
 20
46.52228693122708
 30
0.0
 10
93.53623900149563
 20
46.61575210517849
 30
0.0
 10
93.48986056136677
 20
46.71696973709232
 30
0.0
 10
93.45767898529347
 20
46.82524043562515
 30
0.0
 10
93.43671692724726
 20
46.93898981535266
 30
0.0
 10
93.43446925062733
 20
47.01699511877899
 30
0.0
 10
93.43332653099225
 20
47.05665304424534
 30
0.0
  0
SPLINE
  5
A2
330
1F
100
AcDbEntity
  8
0
  6
Continuous
 62
     7
370
    25
100
AcDbSpline
210
0.0
220
0.0
230
1.0
 70
     8
 71
     3
 72
    15
 73
    11
 74
     0
 42
0.000000001
 43
0.00000001
 40
0.0
 40
0.0
 40
0.0
 40
0.0
 40
0.1281455049994642
 40
0.254192538628042
 40
0.378141139713589
 40
0.5013808330744056
 40
0.6239569784447038
 40
0.7470758858273291
 40
0.8728647202442611
 40
1.0
 40
1.0
 40
1.0
 40
1.0
 10
94.68432813355635
 20
46.34100801219407
 30
0.0
 10
94.66786006618135
 20
46.32897358521481
 30
0.0
 10
94.63519360743692
 20
46.30510180333059
 30
0.0
 10
94.58264194649426
 20
46.27571938889071
 30
0.0
 10
94.52968178110176
 20
46.24875904318888
 30
0.0
 10
94.47423078586203
 20
46.22891700917204
 30
0.0
 10
94.41807014482784
 20
46.21179412010861
 30
0.0
 10
94.35999723421799
 20
46.20052782925472
 30
0.0
 10
94.3005637958387
 20
46.19329532117856
 30
0.0
 10
94.2603375778237
 20
46.19227972932756
 30
0.0
 10
94.24011739637686
 20
46.19176923014279
 30
0.0
  0
SPLINE
  5
A3
330
1F
100
AcDbEntity
  8
0
  6
Continuous
 62
     7
370
    25
100
AcDbSpline
210
0.0
220
0.0
230
1.0
 70
     8
 71
     3
 72
    11
 73
     7
 74
     0
 42
0.000000001
 43
0.00000001
 40
0.0
 40
0.0
 40
0.0
 40
0.0
 40
0.2538796003266561
 40
0.5030089172783634
 40
0.7502910806899732
 40
1.0
 40
1.0
 40
1.0
 40
1.0
 10
94.89766947971019
 20
46.61194150578381
 30
0.0
 10
94.88482792860914
 20
46.58534739537428
 30
0.0
 10
94.85938510174472
 20
46.5326567708977
 30
0.0
 10
94.80948813208953
 20
46.4608349640885
 30
0.0
 10
94.75187645540818
 20
46.39563648169067
 30
0.0
 10
94.70691741761279
 20
46.35927668240224
 30
0.0
 10
94.68432813355635
 20
46.34100801219407
 30
0.0
  0
SPLINE
  5
A4
330
1F
100
AcDbEntity
  8
0
  6
Continuous
 62
     7
370
    25
100
AcDbSpline
210
0.0
220
0.0
230
1.0
 70
     8
 71
     3
 72
    15
 73
    11
 74
     0
 42
0.000000001
 43
0.00000001
 40
0.0
 40
0.0
 40
0.0
 40
0.0
 40
0.1280675485958908
 40
0.2506083188676689
 40
0.3706301659145033
 40
0.4900722467299491
 40
0.6103747641546201
 40
0.7343130699115257
 40
0.8632165042449896
 40
1.0
 40
1.0
 40
1.0
 40
1.0
 10
95.41199239637686
 20
46.31997435834791
 30
0.0
 10
95.38555897158716
 20
46.3208054948101
 30
0.0
 10
95.33383286125638
 20
46.32243189988947
 30
0.0
 10
95.25831750615767
 20
46.33624168957685
 30
0.0
 10
95.18714493452752
 20
46.35948187734559
 30
0.0
 10
95.12001553301074
 20
46.3916745649012
 30
0.0
 10
95.0573549331371
 20
46.43334710078712
 30
0.0
 10
94.99902215395103
 20
46.48382759856592
 30
0.0
 10
94.9447584695737
 20
46.54347235697699
 30
0.0
 10
94.91367313173409
 20
46.5886715984222
 30
0.0
 10
94.89766947971019
 20
46.61194150578381
 30
0.0
  0
SPLINE
  5
A5
330
1F
100
AcDbEntity
  8
0
  6
Continuous
 62
     7
370
    25
100
AcDbSpline
210
0.0
220
0.0
230
1.0
 70
     8
 71
     3
 72
    19
 73
    15
 74
     0
 42
0.000000001
 43
0.00000001
 40
0.0
 40
0.0
 40
0.0
 40
0.0
 40
0.0902542493426765
 40
0.1785397915286845
 40
0.2660930338538199
 40
0.3546309779571733
 40
0.4418861533505625
 40
0.5257469151636482
 40
0.6081136336036366
 40
0.6901972728278825
 40
0.7708214843303354
 40
0.8483261812554111
 40
0.9240117400247433
 40
1.0
 40
1.0
 40
1.0
 40
1.0
 10
96.06153165919737
 20
47.05014262757868
 30
0.0
 10
96.0605464947367
 20
47.01751209752506
 30
0.0
 10
96.05859765511183
 20
46.95296280399401
 30
0.0
 10
96.04080162905534
 20
46.85813205617223
 30
0.0
 10
96.01264082023093
 20
46.76668432824214
 30
0.0
 10
95.97373101513305
 20
46.67962057980191
 30
0.0
 10
95.92574007716013
 20
46.59875027080457
 30
0.0
 10
95.86862240794957
 20
46.52679585169949
 30
0.0
 10
95.80348004974434
 20
46.46473262969666
 30
0.0
 10
95.73152821808821
 20
46.41266521708229
 30
0.0
 10
95.65463142566897
 20
46.37189736061537
 30
0.0
 10
95.57548845627804
 20
46.34183566527273
 30
0.0
 10
95.49428704814311
 20
46.32353446455939
 30
0.0
 10
95.43946042016084
 20
46.32116263826638
 30
0.0
 10
95.41199239637686
 20
46.31997435834791
 30
0.0
  0
SPLINE
  5
A6
330
1F
100
AcDbEntity
  8
0
  6
Continuous
 62
     7
370
    25
100
AcDbSpline
210
0.0
220
0.0
230
1.0
 70
     8
 71
     3
 72
    23
 73
    19
 74
     0
 42
0.000000001
 43
0.00000001
 40
0.0
 40
0.0
 40
0.0
 40
0.0
 40
0.0726253460834355
 40
0.1419766113262344
 40
0.2089849284189386
 40
0.2739568703644447
 40
0.3368893473968406
 40
0.3987449534945902
 40
0.4601158852788613
 40
0.5208249225900291
 40
0.5809944586324854
 40
0.640151927601465
 40
0.6986224507562546
 40
0.7572710809271643
 40
0.8164266940046601
 40
0.8762540482034703
 40
0.937165293062537
 40
1.0
 40
1.0
 40
1.0
 40
1.0
 10
95.42050601817174
 20
47.79433333270689
 30
0.0
 10
95.44567207815415
 20
47.78825508222046
 30
0.0
 10
95.49486966700461
 20
47.77637259967967
 30
0.0
 10
95.56516056760985
 20
47.75158861863046
 30
0.0
 10
95.63167736860322
 20
47.72458915063431
 30
0.0
 10
95.69317456409992
 20
47.69216836165948
 30
0.0
 10
95.75088806605184
 20
47.65680496578369
 30
0.0
 10
95.80350886924337
 20
47.6162887361152
 30
0.0
 10
95.85237527314845
 20
47.5724889342824
 30
0.0
 10
95.8957418714036
 20
47.52404254192399
 30
0.0
 10
95.93501167797982
 20
47.47323635503771
 30
0.0
 10
95.96849386179579
 20
47.41935448378719
 30
0.0
 10
95.99729682812756
 20
47.36348098830818
 30
0.0
 10
96.02102556518142
 20
47.30522875048775
 30
0.0
 10
96.03890093922863
 20
47.24442434213633
 30
0.0
 10
96.05187008607918
 20
47.18161746833574
 30
0.0
 10
96.06029231051808
 20
47.11664353968243
 30
0.0
 10
96.06111428415117
 20
47.07253811782653
 30
0.0
 10
96.06153165919737
 20
47.05014262757868
 30
0.0
  0
LINE
  5
A7
330
1F
100
AcDbEntity
  8
0
  6
Continuous
 62
     7
370
    25
100
AcDbLine
 10
95.4205060182
 20
47.5699743583
 30
0.0
 11
95.4205060182
 21
47.7943333327
 31
0.0
  0
LINE
  5
A8
330
1F
100
AcDbEntity
  8
0
  6
Continuous
 62
     7
370
    25
100
AcDbLine
 10
96.0615316592
 20
43.8865157698
 30
0.0
 11
95.9258145118
 21
43.7137393275
 31
0.0
  0
LINE
  5
A9
330
1F
100
AcDbEntity
  8
0
  6
Continuous
 62
     7
370
    25
100
AcDbLine
 10
94.9207063387
 20
44.63270968
 30
0.0
 11
96.0615316592
 21
43.8865157698
 31
0.0
  0
SPLINE
  5
AA
330
1F
100
AcDbEntity
  8
0
  6
Continuous
 62
     7
370
    25
100
AcDbSpline
210
0.0
220
0.0
230
1.0
 70
     8
 71
     3
 72
    19
 73
    15
 74
     0
 42
0.000000001
 43
0.00000001
 40
0.0
 40
0.0
 40
0.0
 40
0.0
 40
0.0978059775289526
 40
0.1996122522918969
 40
0.3052960258330043
 40
0.4158173591641855
 40
0.4742405666184931
 40
0.5372869128296534
 40
0.6033858352934853
 40
0.6743111580696057
 40
0.749530467357482
 40
0.8286083142695118
 40
0.9120427387714449
 40
1.0
 40
1.0
 40
1.0
 40
1.0
 10
94.19454447971019
 20
44.9121567953991
 30
0.0
 10
94.22028123631573
 20
44.91125076089828
 30
0.0
 10
94.27280739149067
 20
44.90940163478211
 30
0.0
 10
94.35258984826133
 20
44.89836626316045
 30
0.0
 10
94.4339045368985
 20
44.87812604332872
 30
0.0
 10
94.50283714630852
 20
44.85622170171281
 30
0.0
 10
94.55992583598386
 20
44.83448598263777
 30
0.0
 10
94.6050072661623
 20
44.81433212377655
 30
0.0
 10
94.65261470395777
 20
44.79179765387743
 30
0.0
 10
94.70184736980042
 20
44.76538411701207
 30
0.0
 10
94.75411194758861
 20
44.7373836363459
 30
0.0
 10
94.80747292044977
 20
44.70467589743199
 30
0.0
 10
94.86387919588248
 20
44.67054486929809
 30
0.0
 10
94.90143361788533
 20
44.64554134818384
 30
0.0
 10
94.92070633868454
 20
44.63270968001449
 30
0.0
  0
SPLINE
  5
AB
330
1F
100
AcDbEntity
  8
0
  6
Continuous
 62
     7
370
    25
100
AcDbSpline
210
0.0
220
0.0
230
1.0
 70
     8
 71
     3
 72
    19
 73
    15
 74
     0
 42
0.000000001
 43
0.00000001
 40
0.0
 40
0.0
 40
0.0
 40
0.0
 40
0.0843261511037433
 40
0.1670353409858405
 40
0.2495407139852792
 40
0.3327066655796642
 40
0.4158726171740492
 40
0.4977774155681173
 40
0.5803136056784763
 40
0.6645325781316562
 40
0.7495711764063214
 40
0.8324741628544073
 40
0.9156738488962567
 40
1.0
 40
1.0
 40
1.0
 40
1.0
 10
93.43332653099225
 20
44.15494525693757
 30
0.0
 10
93.4344181037675
 20
44.18858576389046
 30
0.0
 10
93.43658031831588
 20
44.25522171817349
 30
0.0
 10
93.45584174282061
 20
44.35324504775408
 30
0.0
 10
93.4870609493442
 20
44.44743327645131
 30
0.0
 10
93.53007172275676
 20
44.53712433929369
 30
0.0
 10
93.5843966451426
 20
44.6202155209301
 30
0.0
 10
93.6498061507895
 20
44.69452957663601
 30
0.0
 10
93.72485461453849
 20
44.75980795220526
 30
0.0
 10
93.80977225760715
 20
44.8138468977718
 30
0.0
 10
93.90043415967016
 20
44.85788878507829
 30
0.0
 10
93.99583017424456
 20
44.88895216507317
 30
0.0
 10
94.09404041868201
 20
44.90904093399881
 30
0.0
 10
94.16089328364176
 20
44.91111352946706
 30
0.0
 10
94.19454447971019
 20
44.9121567953991
 30
0.0
  0
SPLINE
  5
AC
330
1F
100
AcDbEntity
  8
0
  6
Continuous
 62
     7
370
    25
100
AcDbSpline
210
0.0
220
0.0
230
1.0
 70
     8
 71
     3
 72
    19
 73
    15
 74
     0
 42
0.000000001
 43
0.00000001
 40
0.0
 40
0.0
 40
0.0
 40
0.0
 40
0.0859901205637197
 40
0.1691084375726415
 40
0.2505285789581879
 40
0.3322556961768449
 40
0.4135763652356403
 40
0.4941261456201216
 40
0.5763059341204169
 40
0.6607126719045471
 40
0.7461272722239101
 40
0.8300149859609741
 40
0.914419725928851
 40
1.0
 40
1.0
 40
1.0
 40
1.0
 10
94.19905169124866
 20
43.37369525693757
 30
0.0
 10
94.16408698577179
 20
43.37499992027612
 30
0.0
 10
94.09532528762998
 20
43.37756567524071
 30
0.0
 10
93.99475570572707
 20
43.3962432816295
 30
0.0
 10
93.89971421369233
 20
43.42847665712312
 30
0.0
 10
93.80982731415403
 20
43.47160104825703
 30
0.0
 10
93.72771027171117
 20
43.52755155484482
 30
0.0
 10
93.65349848499402
 20
43.59385598127064
 30
0.0
 10
93.58881201099169
 20
43.67114108972809
 30
0.0
 10
93.5333201795621
 20
43.75757675178837
 30
0.0
 10
93.48923198936592
 20
43.85112698145007
 30
0.0
 10
93.45663669046415
 20
43.94921745732649
 30
0.0
 10
93.43716017099769
 20
44.05100975496267
 30
0.0
 10
93.43461028891093
 20
44.12014073082015
 30
0.0
 10
93.43332653099225
 20
44.15494525693757
 30
0.0
  0
SPLINE
  5
AD
330
1F
100
AcDbEntity
  8
0
  6
Continuous
 62
     7
370
    25
100
AcDbSpline
210
0.0
220
0.0
230
1.0
 70
     8
 71
     3
 72
    23
 73
    19
 74
     0
 42
0.000000001
 43
0.00000001
 40
0.0
 40
0.0
 40
0.0
 40
0.0
 40
0.0652308037420295
 40
0.128404896003223
 40
0.1900670715964783
 40
0.2509433657682803
 40
0.3115458328521435
 40
0.3728628021568293
 40
0.4350236738562387
 40
0.4990717247070434
 40
0.5630910750496626
 40
0.625510106330375
 40
0.6866800359296493
 40
0.7472825030135126
 40
0.8085634952159588
 40
0.8707421035159857
 40
0.9343409515059125
 40
1.0
 40
1.0
 40
1.0
 40
1.0
 10
94.9397367874025
 20
44.11538195565551
 30
0.0
 10
94.93905385047695
 20
44.08997302970183
 30
0.0
 10
94.9377095094621
 20
44.03995631509043
 30
0.0
 10
94.92736390182506
 20
43.96652288496615
 30
0.0
 10
94.91106025045106
 20
43.89595935927102
 30
0.0
 10
94.8872943533452
 20
43.82855820766002
 30
0.0
 10
94.8569355288007
 20
43.76407750633175
 30
0.0
 10
94.8205506214575
 20
43.70214722339709
 30
0.0
 10
94.7762608497741
 20
43.64393150189265
 30
0.0
 10
94.72678588135705
 20
43.58868065959844
 30
0.0
 10
94.67198803528909
 20
43.5385184471749
 30
0.0
 10
94.6138442233562
 20
43.49410697891953
 30
0.0
 10
94.55241502264319
 20
43.45680212768087
 30
0.0
 10
94.48773154697653
 20
43.42653504081331
 30
0.0
 10
94.41989350443329
 20
43.40303155610054
 30
0.0
 10
94.348987690513
 20
43.38589752392653
 30
0.0
 10
94.27496521089863
 20
43.37576924334093
 30
0.0
 10
94.22462365713707
 20
43.37439389283016
 30
0.0
 10
94.19905169124866
 20
43.37369525693757
 30
0.0
  0
SPLINE
  5
AE
330
1F
100
AcDbEntity
  8
0
  6
Continuous
 62
     7
370
    25
100
AcDbSpline
210
0.0
220
0.0
230
1.0
 70
     8
 71
     3
 72
     9
 73
     5
 74
     0
 42
0.000000001
 43
0.00000001
 40
0.0
 40
0.0
 40
0.0
 40
0.0
 40
0.5126593363417816
 40
1.0
 40
1.0
 40
1.0
 40
1.0
 10
94.91569832586404
 20
44.37429621847603
 30
0.0
 10
94.9227082263309
 20
44.33031744920222
 30
0.0
 10
94.9363818297746
 20
44.24453188721942
 30
0.0
 10
94.9386375050949
 20
44.15769910255914
 30
0.0
 10
94.9397367874025
 20
44.11538195565551
 30
0.0
  0
LINE
  5
AF
330
1F
100
AcDbEntity
  8
0
  6
Continuous
 62
     7
370
    25
100
AcDbLine
 10
95.9258145118
 20
43.7137393275
 30
0.0
 11
94.9156983259
 21
44.3742962185
 31
0.0
  0
LINE
  5
B0
330
1F
100
AcDbEntity
  8
0
  6
Continuous
 62
     7
370
    25
100
AcDbLine
 10
95.9974290951
 20
45.8264779487
 30
0.0
 11
95.9974290951
 21
45.3642383654
 31
0.0
  0
LINE
  5
B1
330
1F
100
AcDbEntity
  8
0
  6
Continuous
 62
     7
370
    25
100
AcDbLine
 10
95.7410188387
 20
45.9732127244
 30
0.0
 11
95.9974290951
 21
45.8264779487
 31
0.0
  0
LINE
  5
B2
330
1F
100
AcDbEntity
  8
0
  6
Continuous
 62
     7
370
    25
100
AcDbLine
 10
95.7410188387
 20
45.5885973398
 30
0.0
 11
95.7410188387
 21
45.9732127244
 31
0.0
  0
LINE
  5
B3
330
1F
100
AcDbEntity
  8
0
  6
Continuous
 62
     7
370
    25
100
AcDbLine
 10
93.4974290951
 20
45.5885973398
 30
0.0
 11
95.7410188387
 21
45.5885973398
 31
0.0
  0
LINE
  5
B4
330
1F
100
AcDbEntity
  8
0
  6
Continuous
 62
     7
370
    25
100
AcDbLine
 10
93.4974290951
 20
45.3642383654
 30
0.0
 11
93.4974290951
 21
45.5885973398
 31
0.0
  0
LINE
  5
B5
330
1F
100
AcDbEntity
  8
0
  6
Continuous
 62
     7
370
    25
100
AcDbLine
 10
95.9974290951
 20
45.3642383654
 30
0.0
 11
93.4974290951
 21
45.3642383654
 31
0.0
  0
LINE
  5
B6
330
1F
100
AcDbEntity
  8
0
  6
Continuous
 62
     7
370
    25
100
AcDbLine
 10
94.8689421676
 20
53.2808696591
 30
0.0
 11
97.4973201619
 21
53.2808696591
 31
0.0
  0
SPLINE
  5
B7
330
1F
100
AcDbEntity
  8
0
  6
Continuous
 62
     7
370
    25
100
AcDbSpline
210
0.0
220
0.0
230
1.0
 70
     8
 71
     3
 72
    16
 73
    12
 74
     0
 42
0.000000001
 43
0.00000001
 40
0.0
 40
0.0
 40
0.0
 40
0.0
 40
0.2499999999999999
 40
0.2499999999999999
 40
0.4999999999999999
 40
0.4999999999999999
 40
0.6249999999999999
 40
0.6249999999999999
 40
0.7499999999999998
 40
0.7499999999999998
 40
1.0
 40
1.0
 40
1.0
 40
1.0
 10
97.4973201618574
 20
37.69241239095462
 30
0.0
 10
97.86353945461177
 20
38.96103323447964
 30
0.0
 10
98.17045008689954
 20
40.259640701056
 30
0.0
 10
98.59000841607897
 20
42.86214606678868
 30
0.0
 10
98.70323565489792
 20
44.17113263260192
 30
0.0
 10
98.70301925415238
 20
46.14823419756076
 30
0.0
 10
98.674935818282
 20
46.80951177923981
 30
0.0
 10
98.56340849097057
 20
48.13650135734265
 30
0.0
 10
98.48078083518708
 20
48.79334255806272
 30
0.0
 10
98.16389964144773
 20
50.74458354200643
 30
0.0
 10
97.8610482047572
 20
52.02087875819428
 30
0.0
 10
97.49732016185736
 20
53.28086965907454
 30
0.0
  0
SPLINE
  5
B8
330
1F
100
AcDbEntity
  8
0
  6
Continuous
 62
     7
370
    25
100
AcDbSpline
210
0.0
220
0.0
230
1.0
 70
     8
 71
     3
 72
     8
 73
     4
 74
     0
 42
0.000000001
 43
0.00000001
 40
0.0
 40
0.0
 40
0.0
 40
0.0
 40
1.0
 40
1.0
 40
1.0
 40
1.0
 10
94.86894216756271
 20
37.69241239095464
 30
0.0
 10
94.84131800876031
 20
37.89860191928855
 30
0.0
 10
94.8145062073472
 20
38.10486361243569
 30
0.0
 10
94.78855740983339
 20
38.31120196951922
 30
0.0
  0
SPLINE
  5
B9
330
1F
100
AcDbEntity
  8
0
  6
Continuous
 62
     7
370
    25
100
AcDbSpline
210
0.0
220
0.0
230
1.0
 70
     8
 71
     3
 72
     8
 73
     4
 74
     0
 42
0.000000001
 43
0.00000001
 40
0.0
 40
0.0
 40
0.0
 40
0.0
 40
1.0
 40
1.0
 40
1.0
 40
1.0
 10
94.78855740983339
 20
38.31120196951922
 30
0.0
 10
94.76260071710291
 20
38.10480083164465
 30
0.0
 10
94.73578857860096
 20
37.89854047252382
 30
0.0
 10
94.70817265210404
 20
37.69241239095464
 30
0.0
  0
SPLINE
  5
BA
330
1F
100
AcDbEntity
  8
0
  6
Continuous
 62
     7
370
    25
100
AcDbSpline
210
0.0
220
0.0
230
1.0
 70
     8
 71
     3
 72
    16
 73
    12
 74
     0
 42
0.000000001
 43
0.00000001
 40
0.0
 40
0.0
 40
0.0
 40
0.0
 40
0.25
 40
0.25
 40
0.5
 40
0.5
 40
0.625
 40
0.625
 40
0.75
 40
0.75
 40
1.0
 40
1.0
 40
1.0
 40
1.0
 10
92.07979465780937
 20
37.69241239095463
 30
0.0
 10
91.71341183376752
 20
38.96159972347672
 30
0.0
 10
91.40661788059184
 20
40.25995044895344
 30
0.0
 10
90.98717343836486
 20
42.8617111278524
 30
0.0
 10
90.87386638231891
 20
44.17076140558915
 30
0.0
 10
90.87410199547493
 20
46.14875874873547
 30
0.0
 10
90.90227680547596
 20
46.81115742881737
 30
0.0
 10
91.0138567386537
 20
48.13780796814171
 30
0.0
 10
91.09643889925634
 20
48.79406177347344
 30
0.0
 10
91.4132411147674
 20
50.74459679272619
 30
0.0
 10
91.71603756470917
 20
52.02077812534822
 30
0.0
 10
92.07979465780942
 20
53.28086965907454
 30
0.0
  0
LINE
  5
BB
330
1F
100
AcDbEntity
  8
0
  6
Continuous
 62
     7
370
    25
100
AcDbLine
 10
92.0797946578
 20
53.2808696591
 30
0.0
 11
94.7081726521
 21
53.2808696591
 31
0.0
  0
SPLINE
  5
BC
330
1F
100
AcDbEntity
  8
0
  6
Continuous
 62
     7
370
    25
100
AcDbSpline
210
0.0
220
0.0
230
1.0
 70
     8
 71
     3
 72
     8
 73
     4
 74
     0
 42
0.000000001
 43
0.00000001
 40
0.0
 40
0.0
 40
0.0
 40
0.0
 40
1.0
 40
1.0
 40
1.0
 40
1.0
 10
94.70817265210404
 20
53.28086965907454
 30
0.0
 10
94.73579681090645
 20
53.07468013074063
 30
0.0
 10
94.76260861231957
 20
52.86841843759348
 30
0.0
 10
94.78855740983339
 20
52.66208008050994
 30
0.0
  0
SPLINE
  5
BD
330
1F
100
AcDbEntity
  8
0
  6
Continuous
 62
     7
370
    25
100
AcDbSpline
210
0.0
220
0.0
230
1.0
 70
     8
 71
     3
 72
     8
 73
     4
 74
     0
 42
0.000000001
 43
0.00000001
 40
0.0
 40
0.0
 40
0.0
 40
0.0
 40
1.0
 40
1.0
 40
1.0
 40
1.0
 10
94.78855740983339
 20
52.66208008050994
 30
0.0
 10
94.81451410256385
 20
52.86848121838453
 30
0.0
 10
94.8413262410658
 20
53.07474157750536
 30
0.0
 10
94.86894216756272
 20
53.28086965907455
 30
0.0
  0
LINE
  5
BE
330
1F
100
AcDbEntity
  8
0
  6
Continuous
 62
     7
370
    25
100
AcDbLine
 10
94.7885574098
 20
37.3830176017
 30
0.0
 11
94.7885574098
 21
38.3112019695
 31
0.0
  0
LINE
  5
BF
330
1F
100
AcDbEntity
  8
0
  6
Continuous
 62
     7
370
    25
100
AcDbLine
 10
94.8689421676
 20
61.0750982931
 30
0.0
 11
97.4973201619
 21
61.0750982931
 31
0.0
  0
SPLINE
  5
C0
330
1F
100
AcDbEntity
  8
0
  6
Continuous
 62
     7
370
    25
100
AcDbSpline
210
0.0
220
0.0
230
1.0
 70
     8
 71
     3
 72
    16
 73
    12
 74
     0
 42
0.000000001
 43
0.00000001
 40
0.0
 40
0.0
 40
0.0
 40
0.0
 40
0.25
 40
0.25
 40
0.5
 40
0.5
 40
0.625
 40
0.625
 40
0.75
 40
0.75
 40
1.0
 40
1.0
 40
1.0
 40
1.0
 10
97.49732016185762
 20
53.28086965907452
 30
0.0
 10
97.86470252454362
 20
53.91719457705138
 30
0.0
 10
98.16749208493779
 20
54.55815872800403
 30
0.0
 10
98.58695389324313
 20
55.85345448793564
 30
0.0
 10
98.70224251869772
 20
56.50788547249049
 30
0.0
 10
98.70350891556163
 20
57.50186151316064
 30
0.0
 10
98.6753253584726
 20
57.83474623976523
 30
0.0
 10
98.56542418943063
 20
58.49322727332548
 30
0.0
 10
98.48381812735771
 20
58.82026014960424
 30
0.0
 10
98.16869953246687
 20
59.79553640931785
 30
0.0
 10
97.8651605161307
 20
60.43798011045916
 30
0.0
 10
97.49732016185749
 20
61.07509829313449
 30
0.0
  0
SPLINE
  5
C1
330
1F
100
AcDbEntity
  8
0
  6
Continuous
 62
     7
370
    25
100
AcDbSpline
210
0.0
220
0.0
230
1.0
 70
     8
 71
     3
 72
     8
 73
     4
 74
     0
 42
0.000000001
 43
0.00000001
 40
0.0
 40
0.0
 40
0.0
 40
0.0
 40
1.0
 40
1.0
 40
1.0
 40
1.0
 10
94.86894216756272
 20
53.28086965907454
 30
0.0
 10
94.84131911146889
 20
53.383960307877
 30
0.0
 10
94.81450726435159
 20
53.48709106729754
 30
0.0
 10
94.78855740983339
 20
53.59026444835683
 30
0.0
  0
SPLINE
  5
C2
330
1F
100
AcDbEntity
  8
0
  6
Continuous
 62
     7
370
    25
100
AcDbSpline
210
0.0
220
0.0
230
1.0
 70
     8
 71
     3
 72
     8
 73
     4
 74
     0
 42
0.000000001
 43
0.00000001
 40
0.0
 40
0.0
 40
0.0
 40
0.0
 40
1.0
 40
1.0
 40
1.0
 40
1.0
 10
94.78855740983337
 20
53.59026444835683
 30
0.0
 10
94.76260034618895
 20
53.48706240471194
 30
0.0
 10
94.73578819209449
 20
53.38393225739737
 30
0.0
 10
94.70817265210404
 20
53.28086965907455
 30
0.0
  0
SPLINE
  5
C3
330
1F
100
AcDbEntity
  8
0
  6
Continuous
 62
     7
370
    25
100
AcDbSpline
210
0.0
220
0.0
230
1.0
 70
     8
 71
     3
 72
    16
 73
    12
 74
     0
 42
0.000000001
 43
0.00000001
 40
0.0
 40
0.0
 40
0.0
 40
0.0
 40
0.25
 40
0.25
 40
0.5
 40
0.5
 40
0.625
 40
0.625
 40
0.75
 40
0.75
 40
1.0
 40
1.0
 40
1.0
 40
1.0
 10
92.07979465780915
 20
61.0750982931345
 30
0.0
 10
91.71241229512314
 20
60.43877337515764
 30
0.0
 10
91.40962273472897
 20
59.797809224205
 30
0.0
 10
90.99016092642363
 20
58.50251346427338
 30
0.0
 10
90.87487230096905
 20
57.84808247971852
 30
0.0
 10
90.87360590410515
 20
56.85410643904838
 30
0.0
 10
90.90178946119416
 20
56.52122171244379
 30
0.0
 10
91.01169063023613
 20
55.86274067888353
 30
0.0
 10
91.09329669230907
 20
55.53570780260478
 30
0.0
 10
91.40841528719989
 20
54.56043154289117
 30
0.0
 10
91.71195430353607
 20
53.91798784174986
 30
0.0
 10
92.07979465780927
 20
53.28086965907453
 30
0.0
  0
LINE
  5
C4
330
1F
100
AcDbEntity
  8
0
  6
Continuous
 62
     7
370
    25
100
AcDbLine
 10
92.0797946578
 20
61.0750982931
 30
0.0
 11
94.7081726521
 21
61.0750982931
 31
0.0
  0
SPLINE
  5
C5
330
1F
100
AcDbEntity
  8
0
  6
Continuous
 62
     7
370
    25
100
AcDbSpline
210
0.0
220
0.0
230
1.0
 70
     8
 71
     3
 72
     8
 73
     4
 74
     0
 42
0.000000001
 43
0.00000001
 40
0.0
 40
0.0
 40
0.0
 40
0.0
 40
1.0
 40
1.0
 40
1.0
 40
1.0
 10
94.70817265210404
 20
61.07509829313448
 30
0.0
 10
94.73579570819786
 20
60.97200764433202
 30
0.0
 10
94.76260755531517
 20
60.86887688491147
 30
0.0
 10
94.78855740983339
 20
60.76570350385219
 30
0.0
  0
SPLINE
  5
C6
330
1F
100
AcDbEntity
  8
0
  6
Continuous
 62
     7
370
    25
100
AcDbSpline
210
0.0
220
0.0
230
1.0
 70
     8
 71
     3
 72
     8
 73
     4
 74
     0
 42
0.000000001
 43
0.00000001
 40
0.0
 40
0.0
 40
0.0
 40
0.0
 40
1.0
 40
1.0
 40
1.0
 40
1.0
 10
94.78855740983339
 20
60.76570350385219
 30
0.0
 10
94.81451447347781
 20
60.86890554749708
 30
0.0
 10
94.84132662757226
 20
60.97203569481166
 30
0.0
 10
94.86894216756272
 20
61.07509829313448
 30
0.0
  0
LINE
  5
C7
330
1F
100
AcDbEntity
  8
0
  6
Continuous
 62
     7
370
    25
100
AcDbLine
 10
94.7885574098
 20
52.6620800805
 30
0.0
 11
94.7885574098
 21
53.5902644484
 31
0.0
  0
LINE
  5
C8
330
1F
100
AcDbEntity
  8
0
  6
Continuous
 62
     7
370
    25
100
AcDbLine
 10
90.8474290951
 20
45.486641025
 30
0.0
 11
90.8474290951
 21
58.940578525
 31
0.0
  0
LINE
  5
C9
330
1F
100
AcDbEntity
  8
0
  6
Continuous
 62
     7
370
    25
100
AcDbLine
 10
90.8474290951
 20
32.032703525
 30
0.0
 11
90.8474290951
 21
45.486641025
 31
0.0
  0
LINE
  5
CA
330
1F
100
AcDbEntity
  8
0
  6
Continuous
 62
     7
370
    25
100
AcDbLine
 10
98.8474290951
 20
58.736641025
 30
0.0
 11
98.8474290951
 21
32.236641025
 31
0.0
  0
SPLINE
  5
CB
330
1F
100
AcDbEntity
  8
0
  6
Continuous
 62
     7
370
    25
100
AcDbSpline
210
0.0
220
0.0
230
1.0
 70
     8
 71
     3
 72
    23
 73
    19
 74
     0
 42
0.000000001
 43
0.00000001
 40
0.0
 40
0.0
 40
0.0
 40
0.0
 40
0.0611415679303345
 40
0.1200010135310723
 40
0.1782359705414084
 40
0.236495543407017
 40
0.294887248704973
 40
0.3546771928192958
 40
0.4166948132897783
 40
0.4806333779628394
 40
0.5458046334786406
 40
0.6097347883178744
 40
0.6729516883751544
 40
0.7360010960706833
 40
0.799827438516525
 40
0.8647672769393869
 40
0.9310835057306723
 40
1.0
 40
1.0
 40
1.0
 40
1.0
 10
94.18553005663327
 20
43.59805423129654
 30
0.0
 10
94.20259957405018
 20
43.59844271636827
 30
0.0
 10
94.23610148543149
 20
43.59920518622189
 30
0.0
 10
94.28513584143657
 20
43.60799614464888
 30
0.0
 10
94.33267718932576
 20
43.6198697970519
 30
0.0
 10
94.37765458353375
 20
43.63905870761413
 30
0.0
 10
94.4213118299177
 20
43.66191426638689
 30
0.0
 10
94.46240117176949
 20
43.69103074687919
 30
0.0
 10
94.50208667750948
 20
43.72441350444248
 30
0.0
 10
94.53890736705969
 20
43.76307397688391
 30
0.0
 10
94.57258656650059
 20
43.8051331099665
 30
0.0
 10
94.60231410406013
 20
43.84985993288854
 30
0.0
 10
94.6274035618028
 20
43.89665097297862
 30
0.0
 10
94.64833715591728
 20
43.94546103053755
 30
0.0
 10
94.66344393684297
 20
43.99684877703904
 30
0.0
 10
94.67533910670782
 20
44.04998474095808
 30
0.0
 10
94.68166912039163
 20
44.10554848370052
 30
0.0
 10
94.68276702393338
 20
44.14324606134577
 30
0.0
 10
94.68332653099225
 20
44.16245727616833
 30
0.0
  0
SPLINE
  5
CC
330
1F
100
AcDbEntity
  8
0
  6
Continuous
 62
     7
370
    25
100
AcDbSpline
210
0.0
220
0.0
230
1.0
 70
     8
 71
     3
 72
    23
 73
    19
 74
     0
 42
0.000000001
 43
0.00000001
 40
0.0
 40
0.0
 40
0.0
 40
0.0
 40
0.0679503475997536
 40
0.1332598223836994
 40
0.197800296759647
 40
0.2608458295516823
 40
0.3233192927503669
 40
0.386281722459572
 40
0.4500615162333126
 40
0.515207584485815
 40
0.5796407692199315
 40
0.6418172023841521
 40
0.7016924412115348
 40
0.7607690981778943
 40
0.8192540511346831
 40
0.8787376269055533
 40
0.9381582970160908
 40
0.9999999999999999
 40
0.9999999999999999
 40
0.9999999999999999
 40
0.9999999999999999
 10
93.6897367874025
 20
44.14292602616834
 30
0.0
 10
93.69028610247105
 20
44.12437921112937
 30
0.0
 10
93.691363383619
 20
44.08800639825671
 30
0.0
 10
93.69784947361606
 20
44.03431150144888
 30
0.0
 10
93.70932195880044
 20
43.98282539141601
 30
0.0
 10
93.72562502083412
 20
43.93351226001052
 30
0.0
 10
93.74549009056086
 20
43.88596124424257
 30
0.0
 10
93.77083735727388
 20
43.84084698720184
 30
0.0
 10
93.80046610978654
 20
43.79756041398335
 30
0.0
 10
93.83436369848354
 20
43.75704372614145
 30
0.0
 10
93.87079332093121
 20
43.71929091653588
 30
0.0
 10
93.91080765671212
 20
43.68770749808451
 30
0.0
 10
93.95133286062057
 20
43.65920369509234
 30
0.0
 10
93.99483023064369
 20
43.63761306068886
 30
0.0
 10
94.03972422977513
 20
43.61951277793111
 30
0.0
 10
94.08669916434839
 20
43.60734486198563
 30
0.0
 10
94.1355128640408
 20
43.59937891922235
 30
0.0
 10
94.1686372138597
 20
43.59850163235395
 30
0.0
 10
94.18553005663327
 20
43.59805423129654
 30
0.0
  0
SPLINE
  5
CD
330
1F
100
AcDbEntity
  8
0
  6
Continuous
 62
     7
370
    25
100
AcDbSpline
210
0.0
220
0.0
230
1.0
 70
     8
 71
     3
 72
    23
 73
    19
 74
     0
 42
0.000000001
 43
0.00000001
 40
0.0
 40
0.0
 40
0.0
 40
0.0
 40
0.0705921865358073
 40
0.1385012886049301
 40
0.2037899961427013
 40
0.2667875726696012
 40
0.3290979656467186
 40
0.3911745246039659
 40
0.4531677986176574
 40
0.5157967602265847
 40
0.5779688050530403
 40
0.6389663383752914
 40
0.698381066162843
 40
0.7573204555574266
 40
0.8164122397216688
 40
0.8762793582308311
 40
0.9368234656501931
 40
0.9999999999999999
 40
0.9999999999999999
 40
0.9999999999999999
 40
0.9999999999999999
 10
94.68332653099225
 20
44.16245727616833
 30
0.0
 10
94.68276342356792
 20
44.18150113923136
 30
0.0
 10
94.68165861143899
 20
44.21886504172086
 30
0.0
 10
94.67541862457405
 20
44.27361413541291
 30
0.0
 10
94.66359556020673
 20
44.32529069155574
 30
0.0
 10
94.6483021542796
 20
44.37448494069598
 30
0.0
 10
94.62747911195159
 20
44.42068414960848
 30
0.0
 10
94.60248555771106
 20
44.46441531398905
 30
0.0
 10
94.57276985558973
 20
44.50524449390058
 30
0.0
 10
94.53866332836297
 20
44.54245465812089
 30
0.0
 10
94.50186707122981
 20
44.57662277884481
 30
0.0
 10
94.46221886499875
 20
44.60601294230308
 30
0.0
 10
94.42093003169742
 20
44.63139254415029
 30
0.0
 10
94.37761250639102
 20
44.65202071198857
 30
0.0
 10
94.33229407559988
 20
44.66808550915168
 30
0.0
 10
94.28518019083974
 20
44.67970556405616
 30
0.0
 10
94.23595572291465
 20
44.68617256272258
 30
0.0
 10
94.20257535878332
 20
44.6872484377372
 30
0.0
 10
94.18553005663327
 20
44.68779782104014
 30
0.0
  0
SPLINE
  5
CE
330
1F
100
AcDbEntity
  8
0
  6
Continuous
 62
     7
370
    25
100
AcDbSpline
210
0.0
220
0.0
230
1.0
 70
     8
 71
     3
 72
    23
 73
    19
 74
     0
 42
0.000000001
 43
0.00000001
 40
0.0
 40
0.0
 40
0.0
 40
0.0
 40
0.0618526459466919
 40
0.12128383061537
 40
0.1807779320756125
 40
0.2392732340142804
 40
0.2986414352139415
 40
0.3581858222417119
 40
0.4207600867589708
 40
0.4852046730216432
 40
0.5503622689482868
 40
0.613649924530912
 40
0.6766234955168249
 40
0.7391080134690126
 40
0.8021647022429446
 40
0.8667165971324776
 40
0.9320376285055444
 40
1.0
 40
1.0
 40
1.0
 40
1.0
 10
94.18553005663327
 20
44.68779782104013
 30
0.0
 10
94.16863785687175
 20
44.68734926719436
 30
0.0
 10
94.1355147679038
 20
44.68646971987963
 30
0.0
 10
94.08669189221462
 20
44.67852022779096
 30
0.0
 10
94.03975137512967
 20
44.66629060836886
 30
0.0
 10
93.9946588839615
 20
44.64838968599921
 30
0.0
 10
93.95166039118917
 20
44.62593669523643
 30
0.0
 10
93.91045046595545
 20
44.59830581434992
 30
0.0
 10
93.87100066422198
 20
44.56596490086987
 30
0.0
 10
93.83430576997029
 20
44.52836923062763
 30
0.0
 10
93.80064832123794
 20
44.48782594523671
 30
0.0
 10
93.77067966570125
 20
44.4449487355615
 30
0.0
 10
93.74551400874465
 20
44.39987393448276
 30
0.0
 10
93.72561857332454
 20
44.35234434086428
 30
0.0
 10
93.7093237374207
 20
44.30302540615368
 30
0.0
 10
93.69784898889768
 20
44.25154089284309
 30
0.0
 10
93.69136351115476
 20
44.19784556410706
 30
0.0
 10
93.69028614554092
 20
44.16147281082272
 30
0.0
 10
93.6897367874025
 20
44.14292602616834
 30
0.0
  0
LINE
  5
CF
330
1F
100
AcDbEntity
  8
0
  6
Continuous
 62
     7
370
    25
100
AcDbLine
 10
76.4526054341
 20
58.4907402856
 30
0.0
 11
76.4526054341
 21
32.4825417644
 31
0.0
  0
LINE
  5
D0
330
1F
100
AcDbEntity
  8
0
  6
Continuous
 62
     7
370
    25
100
AcDbLine
 10
73.8474290951
 20
33.986641025
 30
0.0
 11
73.8474290951
 21
56.986641025
 31
0.0
  0
LINE
  5
D1
330
1F
100
AcDbEntity
  8
0
  6
Continuous
 62
     7
370
    25
100
AcDbLine
 10
107.8474290951
 20
54.986641025
 30
0.0
 11
107.8474290951
 21
35.986641025
 31
0.0
  0
LINE
  5
D2
330
1F
100
AcDbEntity
  8
0
  6
Continuous
 62
     7
370
    25
100
AcDbLine
 10
119.8474290951
 20
54.986641025
 30
0.0
 11
119.8474290951
 21
35.986641025
 31
0.0
  0
LINE
  5
D3
330
1F
100
AcDbEntity
  8
0
  6
Continuous
 62
     7
370
    25
100
AcDbLine
 10
125.8474290951
 20
54.986641025
 30
0.0
 11
125.8474290951
 21
35.986641025
 31
0.0
  0
LINE
  5
D4
330
1F
100
AcDbEntity
  8
0
  6
Continuous
 62
     7
370
    25
100
AcDbLine
 10
113.8474290951
 20
54.986641025
 30
0.0
 11
113.8474290951
 21
35.986641025
 31
0.0
  0
LINE
  5
D5
330
1F
100
AcDbEntity
  8
0
  6
Continuous
 62
     7
370
    25
100
AcDbLine
 10
133.8474290951
 20
53.5452499157
 30
0.0
 11
133.8474290951
 21
37.4280321343
 31
0.0
  0
LINE
  5
D6
330
1F
100
AcDbEntity
  8
0
  6
Continuous
 62
     7
370
    25
100
AcDbLine
 10
94.7885574098
 20
60.7657035039
 30
0.0
 11
94.7885574098
 21
60.7750982931
 31
0.0
  0
LINE
  5
D7
330
1F
100
AcDbEntity
  8
0
  6
Continuous
 62
     7
370
    25
100
AcDbLine
 10
94.7885574098
 20
30.1981837569
 30
0.0
 11
94.7885574098
 21
30.2075785462
 31
0.0
  0
LINE
  5
D8
330
1F
100
AcDbEntity
  8
0
  6
Continuous
 62
     8
370
    25
100
AcDbLine
 10
133.4094464624
 20
36.9318931959
 30
0.0
 11
133.4094464624
 21
54.0413888541
 31
0.0
  0
LINE
  5
D9
330
1F
100
AcDbEntity
  8
0
  6
Continuous
 62
     7
370
    18
100
AcDbLine
 10
74.870135055
 20
57.5771005863
 30
0.0
 11
90.3474290951
 21
58.060766025
 31
0.0
  0
LINE
  5
DA
330
1F
100
AcDbEntity
  8
0
  6
Continuous
 62
     7
370
    18
100
AcDbLine
 10
74.870135055
 20
33.3961814638
 30
0.0
 11
90.3474290951
 21
32.912516025
 31
0.0
  0
LINE
  5
DB
330
1F
100
AcDbEntity
  8
0
  6
Continuous
 62
     7
370
    18
100
AcDbLine
 10
90.3474290951
 20
32.048328525
 30
0.0
 11
90.3474290951
 21
58.924953525
 31
0.0
  0
LINE
  5
DC
330
1F
100
AcDbEntity
  8
0
  6
CENTERX2
 62
     7
370
    18
100
AcDbLine
 10
134.8474290951
 20
45.486641025
 30
0.0
 11
72.6495806637
 21
45.486641025
 31
0.0
  0
CIRCLE
  5
DD
330
1F
100
AcDbEntity
  8
0
  6
Continuous
 62
     7
370
    25
100
AcDbCircle
 10
162.8930214283
 20
45.486641025
 30
0.0
 40
8.058608890731342
  0
CIRCLE
  5
DE
330
1F
100
AcDbEntity
  8
0
  6
Continuous
 62
     7
370
    25
100
AcDbCircle
 10
162.8930214283
 20
45.486641025
 30
0.0
 40
8.554747829088171
  0
CIRCLE
  5
DF
330
1F
100
AcDbEntity
  8
0
  6
Continuous
 62
     7
370
    25
100
AcDbCircle
 10
162.8930214283
 20
45.486641025
 30
0.0
 40
6.999999999999972
  0
CIRCLE
  5
E0
330
1F
100
AcDbEntity
  8
0
  6
Continuous
 62
     7
370
    25
100
AcDbCircle
 10
162.8930214283
 20
45.486641025
 30
0.0
 40
7.200000000000031
  0
CIRCLE
  5
E1
330
1F
100
AcDbEntity
  8
0
  6
Continuous
 62
     7
370
    25
100
AcDbCircle
 10
162.8930214283
 20
45.486641025
 30
0.0
 40
9.499999999999993
  0
CIRCLE
  5
E2
330
1F
100
AcDbEntity
  8
0
  6
Continuous
 62
     7
370
    25
100
AcDbCircle
 10
162.8930214283
 20
45.486641025
 30
0.0
 40
13.25
  0
SPLINE
  5
E3
330
1F
100
AcDbEntity
  8
0
  6
Continuous
 62
     7
370
    25
100
AcDbSpline
210
0.0
220
0.0
230
1.0
 70
    24
 71
     3
 72
    16
 73
    12
 74
     0
 42
0.000000001
 43
0.00000001
 40
0.0
 40
0.0
 40
0.0
 40
0.0
 40
0.2500000000000002
 40
0.2500000000000002
 40
0.5000000000000003
 40
0.5000000000000003
 40
0.6250000000000003
 40
0.6250000000000003
 40
0.7500000000000004
 40
0.7500000000000004
 40
1.0
 40
1.0
 40
1.0
 40
1.0
 10
162.893021428296
 20
29.89818375689468
 30
0.0
 10
161.790874340238
 20
30.53450867487153
 30
0.0
 10
160.6806918649577
 20
31.17547282582419
 30
0.0
 10
158.4371737979276
 20
32.4707685857558
 30
0.0
 10
157.3036660826313
 20
33.12519957031066
 30
0.0
 10
155.5820490786844
 20
34.1191756109808
 30
0.0
 10
155.0054758191416
 20
34.45206033758539
 30
0.0
 10
153.8649532131948
 20
35.11054137114565
 30
0.0
 10
153.2985156557346
 20
35.4375742474244
 30
0.0
 10
151.6092876224949
 20
36.41285050713801
 30
0.0
 10
150.4965424911155
 20
37.05529420827933
 30
0.0
 10
149.3930214282959
 20
37.69241239095466
 30
0.0
  0
SPLINE
  5
E4
330
1F
100
AcDbEntity
  8
0
  6
Continuous
 62
     7
370
    25
100
AcDbSpline
210
0.0
220
0.0
230
1.0
 70
    24
 71
     3
 72
    16
 73
    12
 74
     0
 42
0.000000001
 43
0.00000001
 40
0.0
 40
0.0
 40
0.0
 40
0.0
 40
0.2499999999999999
 40
0.2499999999999999
 40
0.4999999999999999
 40
0.4999999999999999
 40
0.6249999999999999
 40
0.6249999999999999
 40
0.7499999999999998
 40
0.7499999999999998
 40
1.0
 40
1.0
 40
1.0
 40
1.0
 10
149.393021428296
 20
37.69241239095463
 30
0.0
 10
149.3930214282959
 20
38.96103323447965
 30
0.0
 10
149.3930214282959
 20
40.25964070105601
 30
0.0
 10
149.3930214282959
 20
42.86214606678868
 30
0.0
 10
149.3930214282959
 20
44.17113263260192
 30
0.0
 10
149.3930214282959
 20
46.14823419756077
 30
0.0
 10
149.3930214282959
 20
46.80951177923982
 30
0.0
 10
149.3930214282959
 20
48.13650135734265
 30
0.0
 10
149.3930214282959
 20
48.79334255806273
 30
0.0
 10
149.3930214282959
 20
50.74458354200644
 30
0.0
 10
149.3930214282959
 20
52.02087875819429
 30
0.0
 10
149.3930214282959
 20
53.28086965907455
 30
0.0
  0
SPLINE
  5
E5
330
1F
100
AcDbEntity
  8
0
  6
Continuous
 62
     7
370
    25
100
AcDbSpline
210
0.0
220
0.0
230
1.0
 70
    24
 71
     3
 72
    16
 73
    12
 74
     0
 42
0.000000001
 43
0.00000001
 40
0.0
 40
0.0
 40
0.0
 40
0.0
 40
0.25
 40
0.25
 40
0.5
 40
0.5
 40
0.625
 40
0.625
 40
0.75
 40
0.75
 40
1.0
 40
1.0
 40
1.0
 40
1.0
 10
149.3930214282959
 20
53.28086965907453
 30
0.0
 10
150.4951685163539
 20
53.91719457705138
 30
0.0
 10
151.6053509916341
 20
54.55815872800403
 30
0.0
 10
153.8488690586642
 20
55.85345448793564
 30
0.0
 10
154.9823767739606
 20
56.5078854724905
 30
0.0
 10
156.7039937779074
 20
57.50186151316065
 30
0.0
 10
157.2805670374503
 20
57.83474623976524
 30
0.0
 10
158.4210896433971
 20
58.49322727332549
 30
0.0
 10
158.9875272008573
 20
58.82026014960424
 30
0.0
 10
160.676755234097
 20
59.79553640931785
 30
0.0
 10
161.7895003654763
 20
60.43798011045916
 30
0.0
 10
162.893021428296
 20
61.0750982931345
 30
0.0
  0
SPLINE
  5
E6
330
1F
100
AcDbEntity
  8
0
  6
Continuous
 62
     7
370
    25
100
AcDbSpline
210
0.0
220
0.0
230
1.0
 70
    24
 71
     3
 72
    16
 73
    12
 74
     0
 42
0.000000001
 43
0.00000001
 40
0.0
 40
0.0
 40
0.0
 40
0.0
 40
0.2500000000000002
 40
0.2500000000000002
 40
0.5000000000000004
 40
0.5000000000000004
 40
0.6250000000000003
 40
0.6250000000000003
 40
0.7500000000000002
 40
0.7500000000000002
 40
1.0
 40
1.0
 40
1.0
 40
1.0
 10
162.8930214282959
 20
61.07509829313451
 30
0.0
 10
163.9951685163539
 20
60.43877337515766
 30
0.0
 10
165.1053509916341
 20
59.797809224205
 30
0.0
 10
167.3488690586643
 20
58.50251346427339
 30
0.0
 10
168.4823767739606
 20
57.84808247971853
 30
0.0
 10
170.2039937779074
 20
56.85410643904839
 30
0.0
 10
170.7805670374502
 20
56.5212217124438
 30
0.0
 10
171.9210896433971
 20
55.86274067888354
 30
0.0
 10
172.4875272008572
 20
55.53570780260479
 30
0.0
 10
174.176755234097
 20
54.56043154289118
 30
0.0
 10
175.2895003654763
 20
53.91798784174986
 30
0.0
 10
176.3930214282959
 20
53.28086965907453
 30
0.0
  0
SPLINE
  5
E7
330
1F
100
AcDbEntity
  8
0
  6
Continuous
 62
     7
370
    25
100
AcDbSpline
210
0.0
220
0.0
230
1.0
 70
    24
 71
     3
 72
    16
 73
    12
 74
     0
 42
0.000000001
 43
0.00000001
 40
0.0
 40
0.0
 40
0.0
 40
0.0
 40
0.2499999999999999
 40
0.2499999999999999
 40
0.4999999999999999
 40
0.4999999999999999
 40
0.6249999999999999
 40
0.6249999999999999
 40
0.7499999999999998
 40
0.7499999999999998
 40
1.0
 40
1.0
 40
1.0
 40
1.0
 10
176.3930214282959
 20
37.69241239095462
 30
0.0
 10
176.3930214282959
 20
38.96103323447966
 30
0.0
 10
176.3930214282959
 20
40.25964070105603
 30
0.0
 10
176.3930214282959
 20
42.86214606678855
 30
0.0
 10
176.3930214282959
 20
44.17113263260167
 30
0.0
 10
176.3930214282959
 20
46.14823419756024
 30
0.0
 10
176.3930214282959
 20
46.80951177923918
 30
0.0
 10
176.3930214282959
 20
48.13650135734177
 30
0.0
 10
176.3930214282959
 20
48.79334255806224
 30
0.0
 10
176.3930214282959
 20
50.74458354200627
 30
0.0
 10
176.3930214282959
 20
52.02087875819424
 30
0.0
 10
176.3930214282959
 20
53.28086965907455
 30
0.0
  0
SPLINE
  5
E8
330
1F
100
AcDbEntity
  8
0
  6
Continuous
 62
     7
370
    25
100
AcDbSpline
210
0.0
220
0.0
230
1.0
 70
    24
 71
     3
 72
    16
 73
    12
 74
     0
 42
0.000000001
 43
0.00000001
 40
0.0
 40
0.0
 40
0.0
 40
0.0
 40
0.2500000000000002
 40
0.2500000000000002
 40
0.5000000000000003
 40
0.5000000000000003
 40
0.6250000000000003
 40
0.6250000000000003
 40
0.7500000000000002
 40
0.7500000000000002
 40
1.0
 40
1.0
 40
1.0
 40
1.0
 10
176.393021428296
 20
37.69241239095465
 30
0.0
 10
175.2908743402379
 20
37.0560874729778
 30
0.0
 10
174.1806918649577
 20
36.41512332202515
 30
0.0
 10
171.9371737979276
 20
35.11982756209355
 30
0.0
 10
170.8036660826313
 20
34.46539657753868
 30
0.0
 10
169.0820490786844
 20
33.47142053686854
 30
0.0
 10
168.5054758191416
 20
33.13853581026395
 30
0.0
 10
167.3649532131948
 20
32.4800547767037
 30
0.0
 10
166.7985156557346
 20
32.15302190042494
 30
0.0
 10
165.1092876224949
 20
31.17774564071133
 30
0.0
 10
163.9965424911155
 20
30.53530193957002
 30
0.0
 10
162.8930214282959
 20
29.89818375689469
 30
0.0
  0
INSERT
  5
F4
330
1F
100
AcDbEntity
  8
0
  6
Continuous
 62
     7
370
    18
100
AcDbBlockReference
  2
SW_CENTERMARKSYMBOL_0
 10
162.8930214283
 20
45.486641025
 30
0.0
  0
INSERT
  5
100
330
1F
100
AcDbEntity
  8
0
  6
Continuous
 62
     7
370
    18
100
AcDbBlockReference
  2
SW_CENTERMARKSYMBOL_1
 10
162.8930214283
 20
45.486641025
 30
0.0
  0
LINE
  5
101
330
1F
100
AcDbEntity
  8
0
  6
Continuous
 62
     7
370
    25
100
AcDbLine
 10
98.7030915278
 20
75.6426906756
 30
0.0
 11
98.8474290951
 21
75.8926906756
 31
0.0
  0
LINE
  5
102
330
1F
100
AcDbEntity
  8
0
  6
Continuous
 62
     7
370
    25
100
AcDbLine
 10
98.8474290951
 20
102.3926906756
 30
0.0
 11
98.7030915278
 21
102.6426906756
 31
0.0
  0
LINE
  5
103
330
1F
100
AcDbEntity
  8
0
  6
Continuous
 62
     7
370
    25
100
AcDbLine
 10
90.8740232919
 20
102.6426906756
 30
0.0
 11
90.8474290951
 21
102.5966281756
 31
0.0
  0
LINE
  5
104
330
1F
100
AcDbEntity
  8
0
  6
Continuous
 62
     7
370
    25
100
AcDbLine
 10
90.8474290951
 20
75.6887531756
 30
0.0
 11
90.8740232919
 21
75.6426906756
 31
0.0
  0
LINE
  5
105
330
1F
100
AcDbEntity
  8
0
  6
Continuous
 62
     7
370
    25
100
AcDbLine
 10
90.8474290951
 20
102.5966281756
 30
0.0
 11
76.4526054341
 21
102.1467899362
 31
0.0
  0
LINE
  5
106
330
1F
100
AcDbEntity
  8
0
  6
Continuous
 62
     7
370
    25
100
AcDbLine
 10
76.4526054341
 20
76.138591415
 30
0.0
 11
90.8474290951
 21
75.6887531756
 31
0.0
  0
LINE
  5
107
330
1F
100
AcDbEntity
  8
0
  6
Continuous
 62
     7
370
    25
100
AcDbLine
 10
76.4526054341
 20
102.1467899362
 30
0.0
 11
73.8474290951
 21
100.6426906756
 31
0.0
  0
LINE
  5
108
330
1F
100
AcDbEntity
  8
0
  6
Continuous
 62
     7
370
    25
100
AcDbLine
 10
73.8474290951
 20
77.6426906756
 30
0.0
 11
76.4526054341
 21
76.138591415
 31
0.0
  0
LINE
  5
109
330
1F
100
AcDbEntity
  8
0
  6
Continuous
 62
     7
370
    25
100
AcDbLine
 10
107.8474290951
 20
98.6426906756
 30
0.0
 11
98.8474290951
 21
98.6426906756
 31
0.0
  0
LINE
  5
10A
330
1F
100
AcDbEntity
  8
0
  6
Continuous
 62
     7
370
    25
100
AcDbLine
 10
98.8474290951
 20
79.6426906756
 30
0.0
 11
107.8474290951
 21
79.6426906756
 31
0.0
  0
LINE
  5
10B
330
1F
100
AcDbEntity
  8
0
  6
Continuous
 62
     7
370
    25
100
AcDbLine
 10
125.8474290951
 20
79.6426906756
 30
0.0
 11
133.4094464624
 21
80.5879428465
 31
0.0
  0
LINE
  5
10C
330
1F
100
AcDbEntity
  8
0
  6
Continuous
 62
     7
370
    25
100
AcDbLine
 10
133.4094464624
 20
97.6974385047
 30
0.0
 11
125.8474290951
 21
98.6426906756
 31
0.0
  0
LINE
  5
10D
330
1F
100
AcDbEntity
  8
0
  6
Continuous
 62
     7
370
    25
100
AcDbLine
 10
107.8474290951
 20
79.6426906756
 30
0.0
 11
113.8474290951
 21
80.6426906756
 31
0.0
  0
LINE
  5
10E
330
1F
100
AcDbEntity
  8
0
  6
Continuous
 62
     7
370
    25
100
AcDbLine
 10
113.8474290951
 20
97.6426906756
 30
0.0
 11
107.8474290951
 21
98.6426906756
 31
0.0
  0
LINE
  5
10F
330
1F
100
AcDbEntity
  8
0
  6
Continuous
 62
     7
370
    25
100
AcDbLine
 10
119.8474290951
 20
79.6426906756
 30
0.0
 11
125.8474290951
 21
80.6426906756
 31
0.0
  0
LINE
  5
110
330
1F
100
AcDbEntity
  8
0
  6
Continuous
 62
     7
370
    25
100
AcDbLine
 10
125.8474290951
 20
97.6426906756
 30
0.0
 11
119.8474290951
 21
98.6426906756
 31
0.0
  0
LINE
  5
111
330
1F
100
AcDbEntity
  8
0
  6
Continuous
 62
     7
370
    25
100
AcDbLine
 10
113.8474290951
 20
79.6426906756
 30
0.0
 11
119.8474290951
 21
80.6426906756
 31
0.0
  0
LINE
  5
112
330
1F
100
AcDbEntity
  8
0
  6
Continuous
 62
     7
370
    25
100
AcDbLine
 10
119.8474290951
 20
97.6426906756
 30
0.0
 11
113.8474290951
 21
98.6426906756
 31
0.0
  0
ARC
  5
113
330
1F
100
AcDbEntity
  8
0
  6
Continuous
 62
     7
370
    25
100
AcDbCircle
 10
133.3474290951
 20
81.0840817849
 30
0.0
 40
0.5000000000000017
100
AcDbArc
 50
277.1250163489
 51
0.0
  0
ARC
  5
114
330
1F
100
AcDbEntity
  8
0
  6
Continuous
 62
     7
370
    25
100
AcDbCircle
 10
133.3474290951
 20
97.2012995664
 30
0.0
 40
0.5000000000000017
100
AcDbArc
 50
0.0
 51
82.8749836511
  0
LINE
  5
115
330
1F
100
AcDbEntity
  8
0
  6
Continuous
 62
     7
370
    25
100
AcDbLine
 10
94.8689421676
 20
102.6426906756
 30
0.0
 11
97.4973201619
 21
102.6426906756
 31
0.0
  0
SPLINE
  5
116
330
1F
100
AcDbEntity
  8
0
  6
Continuous
 62
     7
370
    25
100
AcDbSpline
210
0.0
220
0.0
230
1.0
 70
     8
 71
     3
 72
    16
 73
    12
 74
     0
 42
0.000000001
 43
0.00000001
 40
0.0
 40
0.0
 40
0.0
 40
0.0
 40
0.2500000000000002
 40
0.2500000000000002
 40
0.5000000000000004
 40
0.5000000000000004
 40
0.6250000000000003
 40
0.6250000000000003
 40
0.7500000000000002
 40
0.7500000000000002
 40
1.0
 40
1.0
 40
1.0
 40
1.0
 10
97.49732016185762
 20
89.14269067562606
 30
0.0
 10
97.86470252454362
 20
90.24483776368407
 30
0.0
 10
98.16749208493779
 20
91.3550202389643
 30
0.0
 10
98.58695389324313
 20
93.5985383059944
 30
0.0
 10
98.70224251869772
 20
94.73204602129073
 30
0.0
 10
98.70350891556163
 20
96.45366302523757
 30
0.0
 10
98.6753253584726
 20
97.03023628478039
 30
0.0
 10
98.56542418943063
 20
98.17075889072723
 30
0.0
 10
98.48381812735771
 20
98.7371964481874
 30
0.0
 10
98.16869953246687
 20
100.4264244814271
 30
0.0
 10
97.8651605161307
 20
101.5391696128065
 30
0.0
 10
97.4973201618575
 20
102.6426906756261
 30
0.0
  0
LINE
  5
117
330
1F
100
AcDbEntity
  8
0
  6
Continuous
 62
     7
370
    25
100
AcDbLine
 10
94.8689421676
 20
89.1426906756
 30
0.0
 11
97.4973201619
 21
89.1426906756
 31
0.0
  0
SPLINE
  5
118
330
1F
100
AcDbEntity
  8
0
  6
Continuous
 62
     7
370
    25
100
AcDbSpline
210
0.0
220
0.0
230
1.0
 70
     8
 71
     3
 72
     8
 73
     4
 74
     0
 42
0.000000001
 43
0.00000001
 40
0.0
 40
0.0
 40
0.0
 40
0.0
 40
1.0
 40
1.0
 40
1.0
 40
1.0
 10
94.86894216756272
 20
89.1426906756261
 30
0.0
 10
94.84131911146889
 20
89.32124891713718
 30
0.0
 10
94.81450726435159
 20
89.49987663227674
 30
0.0
 10
94.78855740983339
 20
89.67857817026008
 30
0.0
  0
SPLINE
  5
119
330
1F
100
AcDbEntity
  8
0
  6
Continuous
 62
     7
370
    25
100
AcDbSpline
210
0.0
220
0.0
230
1.0
 70
     8
 71
     3
 72
     8
 73
     4
 74
     0
 42
0.000000001
 43
0.00000001
 40
0.0
 40
0.0
 40
0.0
 40
0.0
 40
1.0
 40
1.0
 40
1.0
 40
1.0
 10
94.78855740983337
 20
89.67857817026008
 30
0.0
 10
94.76260034618895
 20
89.49982698722218
 30
0.0
 10
94.73578819209449
 20
89.3212003322813
 30
0.0
 10
94.70817265210404
 20
89.14269067562608
 30
0.0
  0
LINE
  5
11A
330
1F
100
AcDbEntity
  8
0
  6
Continuous
 62
     7
370
    25
100
AcDbLine
 10
92.0797946578
 20
89.1426906756
 30
0.0
 11
94.7081726521
 21
89.1426906756
 31
0.0
  0
SPLINE
  5
11B
330
1F
100
AcDbEntity
  8
0
  6
Continuous
 62
     7
370
    25
100
AcDbSpline
210
0.0
220
0.0
230
1.0
 70
     8
 71
     3
 72
    16
 73
    12
 74
     0
 42
0.000000001
 43
0.00000001
 40
0.0
 40
0.0
 40
0.0
 40
0.0
 40
0.2499999999999999
 40
0.2499999999999999
 40
0.4999999999999999
 40
0.4999999999999999
 40
0.6249999999999999
 40
0.6249999999999999
 40
0.7499999999999998
 40
0.7499999999999998
 40
1.0
 40
1.0
 40
1.0
 40
1.0
 10
92.07979465780915
 20
102.6426906756261
 30
0.0
 10
91.71241229512314
 20
101.5405435875681
 30
0.0
 10
91.40962273472897
 20
100.4303611122879
 30
0.0
 10
90.99016092642361
 20
98.18684304525776
 30
0.0
 10
90.87487230096905
 20
97.05333532996144
 30
0.0
 10
90.87360590410515
 20
95.3317183260146
 30
0.0
 10
90.90178946119416
 20
94.75514506647177
 30
0.0
 10
91.01169063023613
 20
93.61462246052493
 30
0.0
 10
91.09329669230907
 20
93.04818490306475
 30
0.0
 10
91.40841528719989
 20
91.35895686982504
 30
0.0
 10
91.71195430353607
 20
90.24621173844568
 30
0.0
 10
92.07979465780927
 20
89.14269067562607
 30
0.0
  0
LINE
  5
11C
330
1F
100
AcDbEntity
  8
0
  6
Continuous
 62
     7
370
    25
100
AcDbLine
 10
92.0797946578
 20
102.6426906756
 30
0.0
 11
94.7081726521
 21
102.6426906756
 31
0.0
  0
SPLINE
  5
11D
330
1F
100
AcDbEntity
  8
0
  6
Continuous
 62
     7
370
    25
100
AcDbSpline
210
0.0
220
0.0
230
1.0
 70
     8
 71
     3
 72
     8
 73
     4
 74
     0
 42
0.000000001
 43
0.00000001
 40
0.0
 40
0.0
 40
0.0
 40
0.0
 40
1.0
 40
1.0
 40
1.0
 40
1.0
 10
94.70817265210404
 20
102.6426906756261
 30
0.0
 10
94.73579570819786
 20
102.464132434115
 30
0.0
 10
94.76260755531517
 20
102.2855047189754
 30
0.0
 10
94.78855740983339
 20
102.1068031809921
 30
0.0
  0
SPLINE
  5
11E
330
1F
100
AcDbEntity
  8
0
  6
Continuous
 62
     7
370
    25
100
AcDbSpline
210
0.0
220
0.0
230
1.0
 70
     8
 71
     3
 72
     8
 73
     4
 74
     0
 42
0.000000001
 43
0.00000001
 40
0.0
 40
0.0
 40
0.0
 40
0.0
 40
1.0
 40
1.0
 40
1.0
 40
1.0
 10
94.78855740983339
 20
102.1068031809921
 30
0.0
 10
94.81451447347781
 20
102.28555436403
 30
0.0
 10
94.84132662757226
 20
102.4641810189709
 30
0.0
 10
94.86894216756271
 20
102.6426906756261
 30
0.0
  0
LINE
  5
11F
330
1F
100
AcDbEntity
  8
0
  6
Continuous
 62
     7
370
    25
100
AcDbLine
 10
98.8474290951
 20
102.3926906756
 30
0.0
 11
98.8474290951
 21
75.8926906756
 31
0.0
  0
SPLINE
  5
120
330
1F
100
AcDbEntity
  8
0
  6
Continuous
 62
     7
370
    25
100
AcDbSpline
210
0.0
220
0.0
230
1.0
 70
    24
 71
     3
 72
    12
 73
     8
 74
     0
 42
0.000000001
 43
0.00000001
 40
0.0
 40
0.0
 40
0.0
 40
0.0
 40
0.2548952602317417
 40
0.439918559559427
 40
0.6255232731917001
 40
0.8125798341053733
 40
1.0
 40
1.0
 40
1.0
 40
1.0
 10
98.70214933950959
 20
75.64269067562608
 30
0.0
 10
98.68602720524729
 20
75.64269067562608
 30
0.0
 10
98.65820234073138
 20
75.64269067562608
 30
0.0
 10
98.46185643210639
 20
75.64269067562607
 30
0.0
 10
98.21313887512565
 20
75.64269067562608
 30
0.0
 10
97.89330933227009
 20
75.64269067562607
 30
0.0
 10
97.62940196721176
 20
75.64269067562608
 30
0.0
 10
97.49732016185736
 20
75.64269067562608
 30
0.0
  0
SPLINE
  5
121
330
1F
100
AcDbEntity
  8
0
  6
Continuous
 62
     7
370
    25
100
AcDbSpline
210
0.0
220
0.0
230
1.0
 70
     8
 71
     3
 72
    16
 73
    12
 74
     0
 42
0.000000001
 43
0.00000001
 40
0.0
 40
0.0
 40
0.0
 40
0.0
 40
0.25
 40
0.25
 40
0.5
 40
0.5
 40
0.625
 40
0.625
 40
0.75
 40
0.75
 40
1.0
 40
1.0
 40
1.0
 40
1.0
 10
97.49732016185762
 20
75.64269067562604
 30
0.0
 10
97.86470252454362
 20
76.74483776368406
 30
0.0
 10
98.16749208493779
 20
77.8550202389643
 30
0.0
 10
98.58695389324313
 20
80.0985383059944
 30
0.0
 10
98.70224251869772
 20
81.23204602129073
 30
0.0
 10
98.70350891556163
 20
82.95366302523757
 30
0.0
 10
98.6753253584726
 20
83.5302362847804
 30
0.0
 10
98.56542418943063
 20
84.67075889072723
 30
0.0
 10
98.48381812735771
 20
85.2371964481874
 30
0.0
 10
98.16869953246687
 20
86.92642448142712
 30
0.0
 10
97.8651605161307
 20
88.03916961280648
 30
0.0
 10
97.49732016185749
 20
89.14269067562611
 30
0.0
  0
SPLINE
  5
122
330
1F
100
AcDbEntity
  8
0
  6
Continuous
 62
     7
370
    25
100
AcDbSpline
210
0.0
220
0.0
230
1.0
 70
    24
 71
     3
 72
    13
 73
     9
 74
     0
 42
0.000000001
 43
0.00000001
 40
0.0
 40
0.0
 40
0.0
 40
0.0
 40
0.1852917298383032
 40
0.3709014145284597
 40
0.5577472837880131
 40
0.7451514664625281
 40
0.9945824924508236
 40
1.0
 40
1.0
 40
1.0
 40
1.0
 10
97.49732016185736
 20
102.6426906756261
 30
0.0
 10
97.62802469517925
 20
102.6426906756261
 30
0.0
 10
97.88965804674154
 20
102.6426906756261
 30
0.0
 10
98.20801124285462
 20
102.6426906756261
 30
0.0
 10
98.46332558715078
 20
102.6426906756261
 30
0.0
 10
98.6413933103702
 20
102.6426906756261
 30
0.0
 10
98.72960551769614
 20
102.642690675626
 30
0.0
 10
98.70190971252141
 20
102.6426906756261
 30
0.0
 10
98.70132096189558
 20
102.6426906756261
 30
0.0
  0
LINE
  5
123
330
1F
100
AcDbEntity
  8
0
  6
Continuous
 62
     7
370
    25
100
AcDbLine
 10
90.8474290951
 20
75.6887531756
 30
0.0
 11
90.8474290951
 21
102.5966281756
 31
0.0
  0
SPLINE
  5
124
330
1F
100
AcDbEntity
  8
0
  6
Continuous
 62
     7
370
    25
100
AcDbSpline
210
0.0
220
0.0
230
1.0
 70
    24
 71
     3
 72
    12
 73
     8
 74
     0
 42
0.000000001
 43
0.00000001
 40
0.0
 40
0.0
 40
0.0
 40
0.0
 40
0.2416481335353986
 40
0.4299028472038076
 40
0.6187765127099388
 40
0.8091952269991516
 40
1.0
 40
1.0
 40
1.0
 40
1.0
 10
90.87946080152959
 20
102.6426906756261
 30
0.0
 10
90.89202697645786
 20
102.6426906756261
 30
0.0
 10
90.91438276419389
 20
102.6426906756261
 30
0.0
 10
91.10377503668877
 20
102.6426906756261
 30
0.0
 10
91.35318132407555
 20
102.6426906756261
 30
0.0
 10
91.67695354546332
 20
102.6426906756261
 30
0.0
 10
91.94542366194722
 20
102.6426906756261
 30
0.0
 10
92.0797946578094
 20
102.6426906756261
 30
0.0
  0
SPLINE
  5
125
330
1F
100
AcDbEntity
  8
0
  6
Continuous
 62
     7
370
    25
100
AcDbSpline
210
0.0
220
0.0
230
1.0
 70
     8
 71
     3
 72
    16
 73
    12
 74
     0
 42
0.000000001
 43
0.00000001
 40
0.0
 40
0.0
 40
0.0
 40
0.0
 40
0.25
 40
0.25
 40
0.5
 40
0.5
 40
0.625
 40
0.625
 40
0.75
 40
0.75
 40
1.0
 40
1.0
 40
1.0
 40
1.0
 10
92.07979465780915
 20
89.14269067562613
 30
0.0
 10
91.71241229512314
 20
88.04054358756811
 30
0.0
 10
91.40962273472897
 20
86.93036111228786
 30
0.0
 10
90.99016092642363
 20
84.68684304525779
 30
0.0
 10
90.87487230096905
 20
83.55333532996144
 30
0.0
 10
90.87360590410515
 20
81.8317183260146
 30
0.0
 10
90.90178946119416
 20
81.25514506647175
 30
0.0
 10
91.01169063023613
 20
80.11462246052493
 30
0.0
 10
91.09329669230907
 20
79.54818490306475
 30
0.0
 10
91.40841528719989
 20
77.85895686982504
 30
0.0
 10
91.71195430353607
 20
76.7462117384457
 30
0.0
 10
92.07979465780927
 20
75.64269067562607
 30
0.0
  0
SPLINE
  5
126
330
1F
100
AcDbEntity
  8
0
  6
Continuous
 62
     7
370
    25
100
AcDbSpline
210
0.0
220
0.0
230
1.0
 70
    24
 71
     3
 72
    12
 73
     8
 74
     0
 42
0.000000001
 43
0.00000001
 40
0.0
 40
0.0
 40
0.0
 40
0.0
 40
0.1885294093501802
 40
0.3773953527529332
 40
0.5675745867769598
 40
0.758348914443257
 40
1.0
 40
1.0
 40
1.0
 40
1.0
 10
92.07979465780942
 20
75.64269067562608
 30
0.0
 10
91.94696375111494
 20
75.64269067562608
 30
0.0
 10
91.68106482817639
 20
75.64269067562608
 30
0.0
 10
91.3576507586072
 20
75.64269067562608
 30
0.0
 10
91.10573879109853
 20
75.64269067562608
 30
0.0
 10
90.91510604019973
 20
75.64269067562608
 30
0.0
 10
90.89052877969031
 20
75.64269067562608
 30
0.0
 10
90.87679433786406
 20
75.64269067562608
 30
0.0
  0
LINE
  5
127
330
1F
100
AcDbEntity
  8
0
  6
Continuous
 62
     7
370
    25
100
AcDbLine
 10
94.7885574098
 20
88.606803181
 30
0.0
 11
94.7885574098
 21
89.6785781703
 31
0.0
  0
SPLINE
  5
128
330
1F
100
AcDbEntity
  8
0
  6
Continuous
 62
     7
370
    25
100
AcDbSpline
210
0.0
220
0.0
230
1.0
 70
     8
 71
     3
 72
     8
 73
     4
 74
     0
 42
0.000000001
 43
0.00000001
 40
0.0
 40
0.0
 40
0.0
 40
0.0
 40
1.0
 40
1.0
 40
1.0
 40
1.0
 10
94.70817265210404
 20
89.1426906756261
 30
0.0
 10
94.73579570819786
 20
88.96413243411499
 30
0.0
 10
94.76260755531517
 20
88.78550471897542
 30
0.0
 10
94.78855740983339
 20
88.60680318099207
 30
0.0
  0
SPLINE
  5
129
330
1F
100
AcDbEntity
  8
0
  6
Continuous
 62
     7
370
    25
100
AcDbSpline
210
0.0
220
0.0
230
1.0
 70
     8
 71
     3
 72
     8
 73
     4
 74
     0
 42
0.000000001
 43
0.00000001
 40
0.0
 40
0.0
 40
0.0
 40
0.0
 40
1.0
 40
1.0
 40
1.0
 40
1.0
 10
94.78855740983339
 20
88.60680318099207
 30
0.0
 10
94.81451447347781
 20
88.78555436402998
 30
0.0
 10
94.84132662757226
 20
88.96418101897089
 30
0.0
 10
94.86894216756272
 20
89.1426906756261
 30
0.0
  0
LINE
  5
12A
330
1F
100
AcDbEntity
  8
0
  6
Continuous
 62
     7
370
    25
100
AcDbLine
 10
94.8689421676
 20
75.6426906756
 30
0.0
 11
97.4973201619
 21
75.6426906756
 31
0.0
  0
SPLINE
  5
12B
330
1F
100
AcDbEntity
  8
0
  6
Continuous
 62
     7
370
    25
100
AcDbSpline
210
0.0
220
0.0
230
1.0
 70
     8
 71
     3
 72
     8
 73
     4
 74
     0
 42
0.000000001
 43
0.00000001
 40
0.0
 40
0.0
 40
0.0
 40
0.0
 40
1.0
 40
1.0
 40
1.0
 40
1.0
 10
94.86894216756272
 20
75.64269067562608
 30
0.0
 10
94.84131911146889
 20
75.82124891713718
 30
0.0
 10
94.81450726435159
 20
75.99987663227672
 30
0.0
 10
94.78855740983339
 20
76.17857817026007
 30
0.0
  0
SPLINE
  5
12C
330
1F
100
AcDbEntity
  8
0
  6
Continuous
 62
     7
370
    25
100
AcDbSpline
210
0.0
220
0.0
230
1.0
 70
     8
 71
     3
 72
     8
 73
     4
 74
     0
 42
0.000000001
 43
0.00000001
 40
0.0
 40
0.0
 40
0.0
 40
0.0
 40
1.0
 40
1.0
 40
1.0
 40
1.0
 10
94.78855740983337
 20
76.17857817026008
 30
0.0
 10
94.76260034618895
 20
75.99982698722218
 30
0.0
 10
94.73578819209449
 20
75.82120033228128
 30
0.0
 10
94.70817265210404
 20
75.6426906756261
 30
0.0
  0
LINE
  5
12D
330
1F
100
AcDbEntity
  8
0
  6
Continuous
 62
     7
370
    25
100
AcDbLine
 10
92.0797946578
 20
75.6426906756
 30
0.0
 11
94.7081726521
 21
75.6426906756
 31
0.0
  0
LINE
  5
12E
330
1F
100
AcDbEntity
  8
0
  6
Continuous
 62
     7
370
    25
100
AcDbLine
 10
76.4526054341
 20
89.1426906756
 30
0.0
 11
76.4526054341
 21
76.138591415
 31
0.0
  0
LINE
  5
12F
330
1F
100
AcDbEntity
  8
0
  6
Continuous
 62
     7
370
    25
100
AcDbLine
 10
76.4526054341
 20
102.1467899362
 30
0.0
 11
76.4526054341
 21
89.1426906756
 31
0.0
  0
LINE
  5
130
330
1F
100
AcDbEntity
  8
0
  6
Continuous
 62
     7
370
    25
100
AcDbLine
 10
73.8474290951
 20
77.6426906756
 30
0.0
 11
73.8474290951
 21
100.6426906756
 31
0.0
  0
LINE
  5
131
330
1F
100
AcDbEntity
  8
0
  6
Continuous
 62
     7
370
    25
100
AcDbLine
 10
107.8474290951
 20
89.1426906756
 30
0.0
 11
107.8474290951
 21
79.6426906756
 31
0.0
  0
LINE
  5
132
330
1F
100
AcDbEntity
  8
0
  6
Continuous
 62
     7
370
    25
100
AcDbLine
 10
107.8474290951
 20
98.6426906756
 30
0.0
 11
107.8474290951
 21
89.1426906756
 31
0.0
  0
LINE
  5
133
330
1F
100
AcDbEntity
  8
0
  6
Continuous
 62
     7
370
    25
100
AcDbLine
 10
125.8474290951
 20
89.1426906756
 30
0.0
 11
125.8474290951
 21
79.6426906756
 31
0.0
  0
LINE
  5
134
330
1F
100
AcDbEntity
  8
0
  6
Continuous
 62
     7
370
    25
100
AcDbLine
 10
125.8474290951
 20
98.6426906756
 30
0.0
 11
125.8474290951
 21
89.1426906756
 31
0.0
  0
LINE
  5
135
330
1F
100
AcDbEntity
  8
0
  6
Continuous
 62
     7
370
    25
100
AcDbLine
 10
119.8474290951
 20
89.1426906756
 30
0.0
 11
119.8474290951
 21
79.6426906756
 31
0.0
  0
LINE
  5
136
330
1F
100
AcDbEntity
  8
0
  6
Continuous
 62
     7
370
    25
100
AcDbLine
 10
119.8474290951
 20
98.6426906756
 30
0.0
 11
119.8474290951
 21
89.1426906756
 31
0.0
  0
LINE
  5
137
330
1F
100
AcDbEntity
  8
0
  6
Continuous
 62
     7
370
    25
100
AcDbLine
 10
113.8474290951
 20
89.1426906756
 30
0.0
 11
113.8474290951
 21
79.6426906756
 31
0.0
  0
LINE
  5
138
330
1F
100
AcDbEntity
  8
0
  6
Continuous
 62
     7
370
    25
100
AcDbLine
 10
113.8474290951
 20
98.6426906756
 30
0.0
 11
113.8474290951
 21
89.1426906756
 31
0.0
  0
LINE
  5
139
330
1F
100
AcDbEntity
  8
0
  6
Continuous
 62
     7
370
    25
100
AcDbLine
 10
133.8474290951
 20
97.2012995664
 30
0.0
 11
133.8474290951
 21
81.0840817849
 31
0.0
  0
LINE
  5
13A
330
1F
100
AcDbEntity
  8
0
  6
Continuous
 62
     7
370
    25
100
AcDbLine
 10
94.7885574098
 20
102.106803181
 30
0.0
 11
94.7885574098
 21
102.6426906756
 31
0.0
  0
SPLINE
  5
13B
330
1F
100
AcDbEntity
  8
0
  6
Continuous
 62
     7
370
    25
100
AcDbSpline
210
0.0
220
0.0
230
1.0
 70
    24
 71
     3
 72
     8
 73
     4
 74
     0
 42
0.000000001
 43
0.00000001
 40
0.0
 40
0.0
 40
0.0
 40
0.0
 40
1.0
 40
1.0
 40
1.0
 40
1.0
 10
94.86894216756272
 20
102.6426906756261
 30
0.0
 10
94.84131800876031
 20
102.6426906756261
 30
0.0
 10
94.8145062073472
 20
102.6426906756261
 30
0.0
 10
94.78855740983339
 20
102.6426906756261
 30
0.0
  0
SPLINE
  5
13C
330
1F
100
AcDbEntity
  8
0
  6
Continuous
 62
     7
370
    25
100
AcDbSpline
210
0.0
220
0.0
230
1.0
 70
    24
 71
     3
 72
     8
 73
     4
 74
     0
 42
0.000000001
 43
0.00000001
 40
0.0
 40
0.0
 40
0.0
 40
0.0
 40
1.0
 40
1.0
 40
1.0
 40
1.0
 10
94.78855740983339
 20
102.6426906756261
 30
0.0
 10
94.76260071710291
 20
102.6426906756261
 30
0.0
 10
94.73578857860096
 20
102.6426906756261
 30
0.0
 10
94.70817265210404
 20
102.6426906756261
 30
0.0
  0
LINE
  5
13D
330
1F
100
AcDbEntity
  8
0
  6
Continuous
 62
     7
370
    25
100
AcDbLine
 10
94.7885574098
 20
75.6426906756
 30
0.0
 11
94.7885574098
 21
76.1785781703
 31
0.0
  0
SPLINE
  5
13E
330
1F
100
AcDbEntity
  8
0
  6
Continuous
 62
     7
370
    25
100
AcDbSpline
210
0.0
220
0.0
230
1.0
 70
    24
 71
     3
 72
     8
 73
     4
 74
     0
 42
0.000000001
 43
0.00000001
 40
0.0
 40
0.0
 40
0.0
 40
0.0
 40
1.0
 40
1.0
 40
1.0
 40
1.0
 10
94.78855740983339
 20
75.64269067562608
 30
0.0
 10
94.81451410256385
 20
75.64269067562608
 30
0.0
 10
94.8413262410658
 20
75.64269067562608
 30
0.0
 10
94.86894216756272
 20
75.64269067562608
 30
0.0
  0
SPLINE
  5
13F
330
1F
100
AcDbEntity
  8
0
  6
Continuous
 62
     7
370
    25
100
AcDbSpline
210
0.0
220
0.0
230
1.0
 70
    24
 71
     3
 72
     8
 73
     4
 74
     0
 42
0.000000001
 43
0.00000001
 40
0.0
 40
0.0
 40
0.0
 40
0.0
 40
1.0
 40
1.0
 40
1.0
 40
1.0
 10
94.70817265210404
 20
75.64269067562608
 30
0.0
 10
94.73579681090645
 20
75.64269067562608
 30
0.0
 10
94.76260861231957
 20
75.64269067562608
 30
0.0
 10
94.78855740983339
 20
75.64269067562608
 30
0.0
  0
LINE
  5
140
330
1F
100
AcDbEntity
  8
0
  6
Continuous
 62
     8
370
    25
100
AcDbLine
 10
133.4094464624
 20
89.1426906756
 30
0.0
 11
133.4094464624
 21
97.6974385047
 31
0.0
  0
LINE
  5
141
330
1F
100
AcDbEntity
  8
0
  6
Continuous
 62
     8
370
    25
100
AcDbLine
 10
133.4094464624
 20
80.5879428465
 30
0.0
 11
133.4094464624
 21
89.1426906756
 31
0.0
  0
LINE
  5
142
330
1F
100
AcDbEntity
  8
0
  6
Continuous
 62
     7
370
    18
100
AcDbLine
 10
74.870135055
 20
101.2331502369
 30
0.0
 11
90.3474290951
 21
101.7168156756
 31
0.0
  0
LINE
  5
143
330
1F
100
AcDbEntity
  8
0
  6
Continuous
 62
     7
370
    18
100
AcDbLine
 10
74.870135055
 20
77.0522311144
 30
0.0
 11
90.3474290951
 21
76.5685656756
 31
0.0
  0
LINE
  5
144
330
1F
100
AcDbEntity
  8
0
  6
Continuous
 62
     7
370
    18
100
AcDbLine
 10
90.3474290951
 20
75.7043781756
 30
0.0
 11
90.3474290951
 21
102.5810031756
 31
0.0
  0
LINE
  5
145
330
1F
100
AcDbEntity
  8
0
  6
CENTERX2
 62
     7
370
    18
100
AcDbLine
 10
134.8474290951
 20
89.1426906756
 30
0.0
 11
72.6495806637
 21
89.1426906756
 31
0.0
  0
ENDSEC
  0
SECTION
  2
OBJECTS
  0
DICTIONARY
  5
C
330
0
100
AcDbDictionary
281
     1
  3
ACAD_GROUP
350
D
  3
ACAD_LAYOUT
350
1A
  3
ACAD_MLINESTYLE
350
17
  3
ACAD_PLOTSETTINGS
350
19
  3
ACAD_PLOTSTYLENAME
350
E
  3
ACAD_SCALELIST
350
47
  0
DICTIONARY
  5
D
102
{ACAD_REACTORS
330
C
102
}
330
C
100
AcDbDictionary
281
     1
  0
DICTIONARY
  5
1A
102
{ACAD_REACTORS
330
C
102
}
330
C
100
AcDbDictionary
281
     1
  3
Layout1
350
1E
  3
Layout2
350
26
  3
Model
350
22
  0
DICTIONARY
  5
17
102
{ACAD_REACTORS
330
C
102
}
330
C
100
AcDbDictionary
281
     1
  3
Standard
350
18
  0
DICTIONARY
  5
19
102
{ACAD_REACTORS
330
C
102
}
330
C
100
AcDbDictionary
281
     1
  0
ACDBDICTIONARYWDFLT
  5
E
102
{ACAD_REACTORS
330
C
102
}
330
C
100
AcDbDictionary
281
     1
  3
Normal
350
F
100
AcDbDictionaryWithDefault
340
F
  0
DICTIONARY
  5
47
102
{ACAD_REACTORS
330
C
102
}
330
C
100
AcDbDictionary
281
     1
  3
A0
350
48
  3
A1
350
49
  3
A2
350
4A
  3
A3
350
4B
  3
A4
350
4C
  3
A5
350
4D
  3
A6
350
4E
  3
A7
350
4F
  3
A8
350
50
  3
A9
350
51
  3
B0
350
52
  3
B1
350
53
  3
B2
350
54
  3
B3
350
55
  3
B4
350
56
  3
B5
350
57
  3
B6
350
58
  3
B7
350
59
  3
B8
350
5A
  3
B9
350
5B
  3
C0
350
5C
  3
C1
350
5D
  3
C2
350
5E
  3
C3
350
5F
  3
C4
350
60
  3
C5
350
61
  3
C6
350
62
  3
C7
350
63
  3
C8
350
64
  3
C9
350
65
  3
D0
350
66
  3
D1
350
67
  3
D2
350
68
  0
LAYOUT
  5
1E
102
{ACAD_REACTORS
330
1A
102
}
330
1A
100
AcDbPlotSettings
  1

  2
none_device
  4

  6

 40
0.0
 41
0.0
 42
0.0
 43
0.0
 44
0.0
 45
0.0
 46
0.0
 47
0.0
 48
0.0
 49
0.0
140
0.0
141
0.0
142
1.0
143
1.0
 70
   688
 72
     1
 73
     0
 74
     5
  7

 75
    16
147
1.0
148
0.0
149
0.0
100
AcDbLayout
  1
Layout1
 70
     1
 71
     1
 10
0.0
 20
0.0
 11
420.0
 21
297.0
 12
0.0
 22
0.0
 32
0.0
 14
1.0000000000E+20
 24
1.0000000000E+20
 34
1.0000000000E+20
 15
-1.0000000000E+20
 25
-1.0000000000E+20
 35
-1.0000000000E+20
146
0.0
 13
0.0
 23
0.0
 33
0.0
 16
1.0
 26
0.0
 36
0.0
 17
0.0
 27
1.0
 37
0.0
 76
     0
330
1B
  0
LAYOUT
  5
26
102
{ACAD_REACTORS
330
1A
102
}
330
1A
100
AcDbPlotSettings
  1

  2
none_device
  4

  6

 40
0.0
 41
0.0
 42
0.0
 43
0.0
 44
0.0
 45
0.0
 46
0.0
 47
0.0
 48
0.0
 49
0.0
140
0.0
141
0.0
142
1.0
143
1.0
 70
   688
 72
     1
 73
     0
 74
     5
  7

 75
    16
147
1.0
148
0.0
149
0.0
100
AcDbLayout
  1
Layout2
 70
     1
 71
     2
 10
0.0
 20
0.0
 11
0.0
 21
0.0
 12
0.0
 22
0.0
 32
0.0
 14
0.0
 24
0.0
 34
0.0
 15
0.0
 25
0.0
 35
0.0
146
0.0
 13
0.0
 23
0.0
 33
0.0
 16
1.0
 26
0.0
 36
0.0
 17
0.0
 27
1.0
 37
0.0
 76
     0
330
23
  0
LAYOUT
  5
22
102
{ACAD_REACTORS
330
1A
102
}
330
1A
100
AcDbPlotSettings
  1

  2
none_device
  4
Letter_(8.50_x_11.00_Inches)
  6

 40
6.35
 41
6.35
 42
6.35000508
 43
6.35000508
 44
215.9
 45
279.4
 46
0.0
 47
0.0
 48
0.0
 49
0.0
140
0.0
141
0.0
142
1.0
143
1.0
 70
  1712
 72
     1
 73
     0
 74
     0
  7

 75
     0
147
1.0
148
0.0
149
0.0
100
AcDbLayout
  1
Model
 70
     1
 71
     0
 10
0.0
 20
0.0
 11
215.9
 21
139.7
 12
0.0
 22
0.0
 32
0.0
 14
0.0
 24
0.0
 34
0.0
 15
215.9
 25
139.7
 35
0.0
146
0.0
 13
0.0
 23
0.0
 33
0.0
 16
1.0
 26
0.0
 36
0.0
 17
0.0
 27
1.0
 37
0.0
 76
     0
330
1F
331
29
  0
MLINESTYLE
  5
18
102
{ACAD_REACTORS
330
17
102
}
330
17
100
AcDbMlineStyle
  2
Standard
 70
     0
  3

 62
   256
 51
90.0
 52
90.0
 71
     2
 49
0.5
 62
   256
  6
BYLAYER
 49
-0.5
 62
   256
  6
BYLAYER
  0
ACDBPLACEHOLDER
  5
F
102
{ACAD_REACTORS
330
E
102
}
330
E
  0
SCALE
  5
48
102
{ACAD_REACTORS
330
47
102
}
330
47
100
AcDbScale
 70
     0
300
1:1
140
1.0
141
1.0
290
     1
  0
SCALE
  5
49
102
{ACAD_REACTORS
330
47
102
}
330
47
100
AcDbScale
 70
     0
300
1:2
140
1.0
141
2.0
290
     0
  0
SCALE
  5
4A
102
{ACAD_REACTORS
330
47
102
}
330
47
100
AcDbScale
 70
     0
300
1:4
140
1.0
141
4.0
290
     0
  0
SCALE
  5
4B
102
{ACAD_REACTORS
330
47
102
}
330
47
100
AcDbScale
 70
     0
300
1:5
140
1.0
141
5.0
290
     0
  0
SCALE
  5
4C
102
{ACAD_REACTORS
330
47
102
}
330
47
100
AcDbScale
 70
     0
300
1:8
140
1.0
141
8.0
290
     0
  0
SCALE
  5
4D
102
{ACAD_REACTORS
330
47
102
}
330
47
100
AcDbScale
 70
     0
300
1:10
140
1.0
141
10.0
290
     0
  0
SCALE
  5
4E
102
{ACAD_REACTORS
330
47
102
}
330
47
100
AcDbScale
 70
     0
300
1:16
140
1.0
141
16.0
290
     0
  0
SCALE
  5
4F
102
{ACAD_REACTORS
330
47
102
}
330
47
100
AcDbScale
 70
     0
300
1:20
140
1.0
141
20.0
290
     0
  0
SCALE
  5
50
102
{ACAD_REACTORS
330
47
102
}
330
47
100
AcDbScale
 70
     0
300
1:30
140
1.0
141
30.0
290
     0
  0
SCALE
  5
51
102
{ACAD_REACTORS
330
47
102
}
330
47
100
AcDbScale
 70
     0
300
1:40
140
1.0
141
40.0
290
     0
  0
SCALE
  5
52
102
{ACAD_REACTORS
330
47
102
}
330
47
100
AcDbScale
 70
     0
300
1:50
140
1.0
141
50.0
290
     0
  0
SCALE
  5
53
102
{ACAD_REACTORS
330
47
102
}
330
47
100
AcDbScale
 70
     0
300
1:100
140
1.0
141
100.0
290
     0
  0
SCALE
  5
54
102
{ACAD_REACTORS
330
47
102
}
330
47
100
AcDbScale
 70
     0
300
2:1
140
2.0
141
1.0
290
     0
  0
SCALE
  5
55
102
{ACAD_REACTORS
330
47
102
}
330
47
100
AcDbScale
 70
     0
300
4:1
140
4.0
141
1.0
290
     0
  0
SCALE
  5
56
102
{ACAD_REACTORS
330
47
102
}
330
47
100
AcDbScale
 70
     0
300
8:1
140
8.0
141
1.0
290
     0
  0
SCALE
  5
57
102
{ACAD_REACTORS
330
47
102
}
330
47
100
AcDbScale
 70
     0
300
10:1
140
10.0
141
1.0
290
     0
  0
SCALE
  5
58
102
{ACAD_REACTORS
330
47
102
}
330
47
100
AcDbScale
 70
     0
300
100:1
140
100.0
141
1.0
290
     0
  0
SCALE
  5
59
102
{ACAD_REACTORS
330
47
102
}
330
47
100
AcDbScale
 70
     0
300
1/128" = 1'-0"
140
0.0078125
141
12.0
290
     0
  0
SCALE
  5
5A
102
{ACAD_REACTORS
330
47
102
}
330
47
100
AcDbScale
 70
     0
300
1/64" = 1'-0"
140
0.015625
141
12.0
290
     0
  0
SCALE
  5
5B
102
{ACAD_REACTORS
330
47
102
}
330
47
100
AcDbScale
 70
     0
300
1/32" = 1'-0"
140
0.03125
141
12.0
290
     0
  0
SCALE
  5
5C
102
{ACAD_REACTORS
330
47
102
}
330
47
100
AcDbScale
 70
     0
300
1/16" = 1'-0"
140
0.0625
141
12.0
290
     0
  0
SCALE
  5
5D
102
{ACAD_REACTORS
330
47
102
}
330
47
100
AcDbScale
 70
     0
300
3/32" = 1'-0"
140
0.09375
141
12.0
290
     0
  0
SCALE
  5
5E
102
{ACAD_REACTORS
330
47
102
}
330
47
100
AcDbScale
 70
     0
300
1/8" = 1'-0"
140
0.125
141
12.0
290
     0
  0
SCALE
  5
5F
102
{ACAD_REACTORS
330
47
102
}
330
47
100
AcDbScale
 70
     0
300
3/16" = 1'-0"
140
0.1875
141
12.0
290
     0
  0
SCALE
  5
60
102
{ACAD_REACTORS
330
47
102
}
330
47
100
AcDbScale
 70
     0
300
1/4" = 1'-0"
140
0.25
141
12.0
290
     0
  0
SCALE
  5
61
102
{ACAD_REACTORS
330
47
102
}
330
47
100
AcDbScale
 70
     0
300
3/8" = 1'-0"
140
0.375
141
12.0
290
     0
  0
SCALE
  5
62
102
{ACAD_REACTORS
330
47
102
}
330
47
100
AcDbScale
 70
     0
300
1/2" = 1'-0"
140
0.5
141
12.0
290
     0
  0
SCALE
  5
63
102
{ACAD_REACTORS
330
47
102
}
330
47
100
AcDbScale
 70
     0
300
3/4" = 1'-0"
140
0.75
141
12.0
290
     0
  0
SCALE
  5
64
102
{ACAD_REACTORS
330
47
102
}
330
47
100
AcDbScale
 70
     0
300
1" = 1'-0"
140
1.0
141
12.0
290
     0
  0
SCALE
  5
65
102
{ACAD_REACTORS
330
47
102
}
330
47
100
AcDbScale
 70
     0
300
1-1/2" = 1'-0"
140
1.5
141
12.0
290
     0
  0
SCALE
  5
66
102
{ACAD_REACTORS
330
47
102
}
330
47
100
AcDbScale
 70
     0
300
3" = 1'-0"
140
3.0
141
12.0
290
     0
  0
SCALE
  5
67
102
{ACAD_REACTORS
330
47
102
}
330
47
100
AcDbScale
 70
     0
300
6" = 1'-0"
140
6.0
141
12.0
290
     0
  0
SCALE
  5
68
102
{ACAD_REACTORS
330
47
102
}
330
47
100
AcDbScale
 70
     0
300
1'-0" = 1'-0"
140
12.0
141
12.0
290
     0
  0
ENDSEC
  0
EOF
