  0
SECTION
  2
HEADER
  9
$ACADVER
  1
AC1015
  9
$ACADMAINTVER
 70
     6
  9
$DWGCODEPAGE
  3
DOS932
  9
$INSBASE
 10
0.0
 20
0.0
 30
0.0
  9
$EXTMIN
 10
0.0
 20
0.0
 30
0.0
  9
$EXTMAX
 10
215.9
 20
139.7
 30
0.0
  9
$LIMMIN
 10
0.0
 20
0.0
  9
$LIMMAX
 10
215.9
 20
139.7
  9
$ORTHOMODE
 70
     0
  9
$REGENMODE
 70
     1
  9
$FILLMODE
 70
     1
  9
$QTEXTMODE
 70
     0
  9
$MIRRTEXT
 70
     1
  9
$LTSCALE
 40
0.5
  9
$ATTMODE
 70
     1
  9
$TEXTSIZE
 40
1.75
  9
$TRACEWID
 40
1.0
  9
$TEXTSTYLE
  7
Standard
  9
$CLAYER
  8
0
  9
$CELTYPE
  6
ByLayer
  9
$CECOLOR
 62
   256
  9
$CELTSCALE
 40
1.0
  9
$DISPSILH
 70
     0
  9
$DIMSCALE
 40
1.0
  9
$DIMASZ
 40
1.651
  9
$DIMEXO
 40
0.5
  9
$DIMDLI
 40
3.75
  9
$DIMRND
 40
0.0
  9
$DIMDLE
 40
0.0
  9
$DIMEXE
 40
0.5
  9
$DIMTP
 40
0.0
  9
$DIMTM
 40
0.0
  9
$DIMTXT
 40
1.75
  9
$DIMCEN
 40
2.5
  9
$DIMTSZ
 40
0.0
  9
$DIMTOL
 70
     0
  9
$DIMLIM
 70
     0
  9
$DIMTIH
 70
     1
  9
$DIMTOH
 70
     1
  9
$DIMSE1
 70
     0
  9
$DIMSE2
 70
     0
  9
$DIMTAD
 70
     1
  9
$DIMZIN
 70
     1
  9
$DIMBLK
  1

  9
$DIMASO
 70
     1
  9
$DIMSHO
 70
     1
  9
$DIMPOST
  1

  9
$DIMAPOST
  1

  9
$DIMALT
 70
     0
  9
$DIMALTD
 70
     3
  9
$DIMALTF
 40
0.0393700787
  9
$DIMLFAC
 40
1.0
  9
$DIMTOFL
 70
     1
  9
$DIMTVP
 40
0.0
  9
$DIMTIX
 70
     0
  9
$DIMSOXD
 70
     0
  9
$DIMSAH
 70
     0
  9
$DIMBLK1
  1

  9
$DIMBLK2
  1

  9
$DIMSTYLE
  2
ISO-25
  9
$DIMCLRD
 70
     0
  9
$DIMCLRE
 70
     0
  9
$DIMCLRT
 70
     0
  9
$DIMTFAC
 40
1.0
  9
$DIMGAP
 40
0.762
  9
$DIMJUST
 70
     0
  9
$DIMSD1
 70
     0
  9
$DIMSD2
 70
     0
  9
$DIMTOLJ
 70
     0
  9
$DIMTZIN
 70
     1
  9
$DIMALTZ
 70
     0
  9
$DIMALTTZ
 70
     0
  9
$DIMUPT
 70
     0
  9
$DIMDEC
 70
     2
  9
$DIMTDEC
 70
     2
  9
$DIMALTU
 70
     2
  9
$DIMALTTD
 70
     3
  9
$DIMTXSTY
  7
Standard
  9
$DIMAUNIT
 70
     0
  9
$DIMADEC
 70
     2
  9
$DIMALTRND
 40
0.0
  9
$DIMAZIN
 70
     0
  9
$DIMDSEP
 70
    44
  9
$DIMATFIT
 70
     3
  9
$DIMFRAC
 70
     0
  9
$DIMLDRBLK
  1

  9
$DIMLUNIT
 70
     2
  9
$DIMLWD
 70
    -2
  9
$DIMLWE
 70
    -2
  9
$DIMTMOVE
 70
     0
  9
$LUNITS
 70
     2
  9
$LUPREC
 70
     2
  9
$SKETCHINC
 40
1.0
  9
$FILLETRAD
 40
10.0
  9
$AUNITS
 70
     0
  9
$AUPREC
 70
     2
  9
$MENU
  1
.
  9
$ELEVATION
 40
0.0
  9
$PELEVATION
 40
0.0
  9
$THICKNESS
 40
0.0
  9
$LIMCHECK
 70
     0
  9
$CHAMFERA
 40
0.0
  9
$CHAMFERB
 40
0.0
  9
$CHAMFERC
 40
0.0
  9
$CHAMFERD
 40
0.0
  9
$SKPOLY
 70
     0
  9
$TDCREATE
 40
2460082.693007974
  9
$TDUCREATE
 40
2460082.318007974
  9
$TDUPDATE
 40
2460082.693008646
  9
$TDUUPDATE
 40
2460082.318008646
  9
$TDINDWG
 40
0.0000000116
  9
$TDUSRTIMER
 40
0.0000000116
  9
$USRTIMER
 70
     1
  9
$ANGBASE
 50
0.0
  9
$ANGDIR
 70
     0
  9
$PDMODE
 70
     0
  9
$PDSIZE
 40
-1.0
  9
$PLINEWID
 40
0.0
  9
$SPLFRAME
 70
     0
  9
$SPLINETYPE
 70
     6
  9
$SPLINESEGS
 70
     8
  9
$HANDSEED
  5
146
  9
$SURFTAB1
 70
     6
  9
$SURFTAB2
 70
     6
  9
$SURFTYPE
 70
     6
  9
$SURFU
 70
     6
  9
$SURFV
 70
     6
  9
$UCSBASE
  2

  9
$UCSNAME
  2

  9
$UCSORG
 10
0.0
 20
0.0
 30
0.0
  9
$UCSXDIR
 10
1.0
 20
0.0
 30
0.0
  9
$UCSYDIR
 10
0.0
 20
1.0
 30
0.0
  9
$UCSORTHOREF
  2

  9
$UCSORTHOVIEW
 70
     0
  9
$UCSORGTOP
 10
0.0
 20
0.0
 30
0.0
  9
$UCSORGBOTTOM
 10
0.0
 20
0.0
 30
0.0
  9
$UCSORGLEFT
 10
0.0
 20
0.0
 30
0.0
  9
$UCSORGRIGHT
 10
0.0
 20
0.0
 30
0.0
  9
$UCSORGFRONT
 10
0.0
 20
0.0
 30
0.0
  9
$UCSORGBACK
 10
0.0
 20
0.0
 30
0.0
  9
$PUCSBASE
  2

  9
$PUCSNAME
  2

  9
$PUCSORG
 10
0.0
 20
0.0
 30
0.0
  9
$PUCSXDIR
 10
1.0
 20
0.0
 30
0.0
  9
$PUCSYDIR
 10
0.0
 20
1.0
 30
0.0
  9
$PUCSORTHOREF
  2

  9
$PUCSORTHOVIEW
 70
     0
  9
$PUCSORGTOP
 10
0.0
 20
0.0
 30
0.0
  9
$PUCSORGBOTTOM
 10
0.0
 20
0.0
 30
0.0
  9
$PUCSORGLEFT
 10
0.0
 20
0.0
 30
0.0
  9
$PUCSORGRIGHT
 10
0.0
 20
0.0
 30
0.0
  9
$PUCSORGFRONT
 10
0.0
 20
0.0
 30
0.0
  9
$PUCSORGBACK
 10
0.0
 20
0.0
 30
0.0
  9
$USERI1
 70
     0
  9
$USERI2
 70
     0
  9
$USERI3
 70
     0
  9
$USERI4
 70
     0
  9
$USERI5
 70
     0
  9
$USERR1
 40
0.0
  9
$USERR2
 40
0.0
  9
$USERR3
 40
0.0
  9
$USERR4
 40
0.0
  9
$USERR5
 40
0.0
  9
$WORLDVIEW
 70
     1
  9
$SHADEDGE
 70
     3
  9
$SHADEDIF
 70
    70
  9
$TILEMODE
 70
     1
  9
$MAXACTVP
 70
    64
  9
$PINSBASE
 10
0.0
 20
0.0
 30
0.0
  9
$PLIMCHECK
 70
     0
  9
$PEXTMIN
 10
1.0000000000E+20
 20
1.0000000000E+20
 30
1.0000000000E+20
  9
$PEXTMAX
 10
-1.0000000000E+20
 20
-1.0000000000E+20
 30
-1.0000000000E+20
  9
$PLIMMIN
 10
0.0
 20
0.0
  9
$PLIMMAX
 10
420.0
 20
297.0
  9
$UNITMODE
 70
     0
  9
$VISRETAIN
 70
     1
  9
$PLINEGEN
 70
     0
  9
$PSLTSCALE
 70
     1
  9
$TREEDEPTH
 70
  3020
  9
$CMLSTYLE
  2
Standard
  9
$CMLJUST
 70
     0
  9
$CMLSCALE
 40
20.0
  9
$PROXYGRAPHICS
 70
     1
  9
$MEASUREMENT
 70
     1
  9
$CELWEIGHT
370
    -1
  9
$ENDCAPS
280
     0
  9
$JOINSTYLE
280
     0
  9
$LWDISPLAY
290
     1
  9
$INSUNITS
 70
     4
  9
$HYPERLINKBASE
  1

  9
$STYLESHEET
  1

  9
$XEDIT
290
     1
  9
$CEPSNTYPE
380
     0
  9
$PSTYLEMODE
290
     1
  9
$FINGERPRINTGUID
  2
{96528691-E471-4A0B-A02E-EA79CC5E5A85}
  9
$VERSIONGUID
  2
{FAEB1C32-E019-11D5-929B-00C0DF256EC4}
  9
$EXTNAMES
290
     1
  9
$PSVPSCALE
 40
0.0
  9
$OLESTARTUP
290
     0
  0
ENDSEC
  0
SECTION
  2
CLASSES
  0
CLASS
  1
ACDBDICTIONARYWDFLT
  2
AcDbDictionaryWithDefault
  3
ObjectDBX Classes
 90
        0
280
     0
281
     0
  0
CLASS
  1
VISUALSTYLE
  2
AcDbVisualStyle
  3
ObjectDBX Classes
 90
     4095
280
     0
281
     0
  0
CLASS
  1
MATERIAL
  2
AcDbMaterial
  3
ObjectDBX Classes
 90
     1153
280
     0
281
     0
  0
CLASS
  1
SCALE
  2
AcDbScale
  3
ObjectDBX Classes
 90
     1153
280
     0
281
     0
  0
CLASS
  1
TABLESTYLE
  2
AcDbTableStyle
  3
ObjectDBX Classes
 90
     4095
280
     0
281
     0
  0
CLASS
  1
MLEADERSTYLE
  2
AcDbMLeaderStyle
  3
ACDB_MLEADERSTYLE_CLASS
 90
     4095
280
     0
281
     0
  0
CLASS
  1
SUN
  2
AcDbSun
  3
SCENEOE
 90
     1153
280
     0
281
     0
  0
CLASS
  1
ACDBPLACEHOLDER
  2
AcDbPlaceHolder
  3
ObjectDBX Classes
 90
        0
280
     0
281
     0
  0
CLASS
  1
LAYOUT
  2
AcDbLayout
  3
ObjectDBX Classes
 90
        0
280
     0
281
     0
  0
ENDSEC
  0
SECTION
  2
TABLES
  0
TABLE
  2
VPORT
  5
8
330
0
100
AcDbSymbolTable
 70
     1
  0
VPORT
  5
29
330
8
100
AcDbSymbolTableRecord
100
AcDbViewportTableRecord
  2
*Active
 70
     0
 10
0.0
 20
0.0
 11
1.0
 21
1.0
 12
107.95
 22
69.85
 13
0.0
 23
0.0
 14
10.0
 24
10.0
 15
10.0
 25
10.0
 16
0.0
 26
0.0
 36
1.0
 17
0.0
 27
0.0
 37
0.0
 40
139.7
 41
1.5454545455
 42
50.0
 43
0.0
 44
0.0
 50
0.0
 51
0.0
 71
     0
 72
  2000
 73
     1
 74
     3
 75
     0
 76
     0
 77
     0
 78
     0
281
     0
 65
     1
110
0.0
120
0.0
130
0.0
111
1.0
121
0.0
131
0.0
112
0.0
122
1.0
132
0.0
 79
     0
146
0.0
  0
ENDTAB
  0
TABLE
  2
LTYPE
  5
5
330
0
100
AcDbSymbolTable
 70
     6
  0
LTYPE
  5
14
330
5
100
AcDbSymbolTableRecord
100
AcDbLinetypeTableRecord
  2
ByBlock
 70
     0
  3

 72
    65
 73
     0
 40
0.0
  0
LTYPE
  5
15
330
5
100
AcDbSymbolTableRecord
100
AcDbLinetypeTableRecord
  2
ByLayer
 70
     0
  3

 72
    65
 73
     0
 40
0.0
  0
LTYPE
  5
16
330
5
100
AcDbSymbolTableRecord
100
AcDbLinetypeTableRecord
  2
Continuous
 70
     0
  3
Solid line
 72
    65
 73
     0
 40
0.0
  0
LTYPE
  5
6E
330
5
100
AcDbSymbolTableRecord
100
AcDbLinetypeTableRecord
  2
HIDDEN
 70
     0
  3
Hidden __ __ __ __ __ __ __ __ __ __ __ __ __ __
 72
    65
 73
     2
 40
1.905
 49
1.27
 74
     0
 49
-0.635
 74
     0
  0
LTYPE
  5
6F
330
5
100
AcDbSymbolTableRecord
100
AcDbLinetypeTableRecord
  2
PHANTOM
 70
     0
  3
Phantom ______  __  __  ______  __  __  ______
 72
    65
 73
     6
 40
12.7
 49
6.35
 74
     0
 49
-1.27
 74
     0
 49
1.27
 74
     0
 49
-1.27
 74
     0
 49
1.27
 74
     0
 49
-1.27
 74
     0
  0
LTYPE
  5
70
330
5
100
AcDbSymbolTableRecord
100
AcDbLinetypeTableRecord
  2
CENTER
 70
     0
  3
Center ____ _ ____ _ ____ _ ____ _ ____ _ ____
 72
    65
 73
     4
 40
10.16
 49
6.35
 74
     0
 49
-1.27
 74
     0
 49
1.27
 74
     0
 49
-1.27
 74
     0
  0
LTYPE
  5
71
330
5
100
AcDbSymbolTableRecord
100
AcDbLinetypeTableRecord
  2
CENTERX2
 70
     0
  3
Center (2x) ________  __  ________  __  _____
 72
    65
 73
     4
 40
20.32
 49
12.7
 74
     0
 49
-2.54
 74
     0
 49
2.54
 74
     0
 49
-2.54
 74
     0
  0
LTYPE
  5
72
330
5
100
AcDbSymbolTableRecord
100
AcDbLinetypeTableRecord
  2
DOT2
 70
     0
  3
Dot (.5x) ........................................
 72
    65
 73
     2
 40
0.635
 49
0.0
 74
     0
 49
-0.635
 74
     0
  0
ENDTAB
  0
TABLE
  2
LAYER
  5
2
330
0
100
AcDbSymbolTable
 70
     1
  0
LAYER
  5
10
330
2
100
AcDbSymbolTableRecord
100
AcDbLayerTableRecord
  2
0
 70
     0
 62
     7
  6
Continuous
370
    -3
390
F
  0
ENDTAB
  0
TABLE
  2
STYLE
  5
3
330
0
100
AcDbSymbolTable
 70
     2
  0
STYLE
  5
11
330
3
100
AcDbSymbolTableRecord
100
AcDbTextStyleTableRecord
  2
Standard
 70
     0
 40
0.0
 41
1.0
 50
0.0
 71
     0
 42
1.75
  3
txt
  4
bigfont
  0
STYLE
  5
73
330
3
100
AcDbSymbolTableRecord
100
AcDbTextStyleTableRecord
  2
SLDTEXTSTYLE0
 70
     0
 40
0.0
 41
0.7
 50
0.0
 71
     0
 42
1.75
  3
TXT
  4
bigfont
  0
ENDTAB
  0
TABLE
  2
VIEW
  5
6
330
0
100
AcDbSymbolTable
 70
     0
  0
ENDTAB
  0
TABLE
  2
UCS
  5
7
330
0
100
AcDbSymbolTable
 70
     0
  0
ENDTAB
  0
TABLE
  2
APPID
  5
9
330
0
100
AcDbSymbolTable
 70
     1
  0
APPID
  5
12
330
9
100
AcDbSymbolTableRecord
100
AcDbRegAppTableRecord
  2
ACAD
 70
     0
  0
ENDTAB
  0
TABLE
  2
DIMSTYLE
  5
A
330
0
100
AcDbSymbolTable
 70
     1
100
AcDbDimStyleTable
  0
DIMSTYLE
105
27
330
A
100
AcDbSymbolTableRecord
100
AcDbDimStyleTableRecord
  2
ISO-25
 70
     0
 41
2.5
 42
0.625
 43
3.75
 44
1.25
 73
     0
 74
     0
 77
     1
 78
     8
140
2.5
141
2.5
143
0.0393700787
147
0.625
171
     3
172
     1
178
     0
271
     2
272
     2
274
     3
278
    44
283
     0
284
     8
340
11
  0
ENDTAB
  0
TABLE
  2
BLOCK_RECORD
  5
1
330
0
100
AcDbSymbolTable
 70
     3
  0
BLOCK_RECORD
  5
1F
330
1
100
AcDbSymbolTableRecord
100
AcDbBlockTableRecord
  2
*Model_Space
340
22
  0
BLOCK_RECORD
  5
1B
330
1
100
AcDbSymbolTableRecord
100
AcDbBlockTableRecord
  2
*Paper_Space
340
1E
  0
BLOCK_RECORD
  5
23
330
1
100
AcDbSymbolTableRecord
100
AcDbBlockTableRecord
  2
*Paper_Space0
340
26
  0
BLOCK_RECORD
  5
E9
330
1
100
AcDbSymbolTableRecord
100
AcDbBlockTableRecord
  2
SW_CENTERMARKSYMBOL_0
340
0
102
{BLKREFS
331
F4
102
}
  0
BLOCK_RECORD
  5
F5
330
1
100
AcDbSymbolTableRecord
100
AcDbBlockTableRecord
  2
SW_CENTERMARKSYMBOL_1
340
0
102
{BLKREFS
331
100
102
}
  0
ENDTAB
  0
ENDSEC
  0
SECTION
  2
BLOCKS
  0
BLOCK
  5
20
330
1F
100
AcDbEntity
  8
0
100
AcDbBlockBegin
  2
*Model_Space
 70
     0
 10
0.0
 20
0.0
 30
0.0
  3
*Model_Space
  1

  0
ENDBLK
  5
21
330
1F
100
AcDbEntity
  8
0
100
AcDbBlockEnd
  0
BLOCK
  5
1C
330
1B
100
AcDbEntity
 67
     1
  8
0
100
AcDbBlockBegin
  2
*Paper_Space
 70
     0
 10
0.0
 20
0.0
 30
0.0
  3
*Paper_Space
  1

  0
ENDBLK
  5
1D
330
1B
100
AcDbEntity
 67
     1
  8
0
100
AcDbBlockEnd
  0
BLOCK
  5
24
330
23
100
AcDbEntity
  8
0
100
AcDbBlockBegin
  2
*Paper_Space0
 70
     0
 10
0.0
 20
0.0
 30
0.0
  3
*Paper_Space0
  1

  0
ENDBLK
  5
25
330
23
100
AcDbEntity
  8
0
100
AcDbBlockEnd
  0
BLOCK
  5
EA
330
E9
100
AcDbEntity
  8
0
100
AcDbBlockBegin
  2
SW_CENTERMARKSYMBOL_0
 70
     0
 10
0.0
 20
0.0
 30
0.0
  3
SW_CENTERMARKSYMBOL_0
  1

  0
LINE
  5
EC
330
E9
100
AcDbEntity
  8
0
  6
Continuous
 62
     0
370
    18
100
AcDbLine
 10
0.0
 20
0.0
 30
0.0
 11
0.0
 21
2.5
 31
0.0
  0
LINE
  5
ED
330
E9
100
AcDbEntity
  8
0
  6
Continuous
 62
     0
370
    18
100
AcDbLine
 10
0.0
 20
0.0
 30
0.0
 11
-2.5
 21
0.0
 31
0.0
  0
LINE
  5
EE
330
E9
100
AcDbEntity
  8
0
  6
Continuous
 62
     0
370
    18
100
AcDbLine
 10
0.0
 20
0.0
 30
0.0
 11
0.0
 21
-2.5
 31
0.0
  0
LINE
  5
EF
330
E9
100
AcDbEntity
  8
0
  6
Continuous
 62
     0
370
    18
100
AcDbLine
 10
0.0
 20
0.0
 30
0.0
 11
2.5
 21
0.0
 31
0.0
  0
LINE
  5
F0
330
E9
100
AcDbEntity
  8
0
  6
Continuous
 62
     0
370
    18
100
AcDbLine
 10
0.0
 20
5.0
 30
0.0
 11
0.0
 21
8.0
 31
0.0
  0
LINE
  5
F1
330
E9
100
AcDbEntity
  8
0
  6
Continuous
 62
     0
370
    18
100
AcDbLine
 10
-5.0
 20
0.0
 30
0.0
 11
-8.0
 21
0.0
 31
0.0
  0
LINE
  5
F2
330
E9
100
AcDbEntity
  8
0
  6
Continuous
 62
     0
370
    18
100
AcDbLine
 10
0.0
 20
-5.0
 30
0.0
 11
0.0
 21
-8.0
 31
0.0
  0
LINE
  5
F3
330
E9
100
AcDbEntity
  8
0
  6
Continuous
 62
     0
370
    18
100
AcDbLine
 10
5.0
 20
0.0
 30
0.0
 11
8.0
 21
0.0
 31
0.0
  0
ENDBLK
  5
EB
330
E9
100
AcDbEntity
  8
0
100
AcDbBlockEnd
  0
BLOCK
  5
F6
330
F5
100
AcDbEntity
  8
0
100
AcDbBlockBegin
  2
SW_CENTERMARKSYMBOL_1
 70
     0
 10
0.0
 20
0.0
 30
0.0
  3
SW_CENTERMARKSYMBOL_1
  1

  0
LINE
  5
F8
330
F5
100
AcDbEntity
  8
0
  6
Continuous
 62
     0
370
    18
100
AcDbLine
 10
0.0
 20
0.0
 30
0.0
 11
0.0
 21
2.5
 31
0.0
  0
LINE
  5
F9
330
F5
100
AcDbEntity
  8
0
  6
Continuous
 62
     0
370
    18
100
AcDbLine
 10
0.0
 20
0.0
 30
0.0
 11
-2.5
 21
0.0
 31
0.0
  0
LINE
  5
FA
330
F5
100
AcDbEntity
  8
0
  6
Continuous
 62
     0
370
    18
100
AcDbLine
 10
0.0
 20
0.0
 30
0.0
 11
0.0
 21
-2.5
 31
0.0
  0
LINE
  5
FB
330
F5
100
AcDbEntity
  8
0
  6
Continuous
 62
     0
370
    18
100
AcDbLine
 10
0.0
 20
0.0
 30
0.0
 11
2.5
 21
0.0
 31
0.0
  0
LINE
  5
FC
330
F5
100
AcDbEntity
  8
0
  6
Continuous
 62
     0
370
    18
100
AcDbLine
 10
0.0
 20
5.0
 30
0.0
 11
0.0
 21
16.6796433133
 31
0.0
  0
LINE
  5
FD
330
F5
100
AcDbEntity
  8
0
  6
Continuous
 62
     0
370
    18
100
AcDbLine
 10
-5.0
 20
0.0
 30
0.0
 11
-15.75
 21
0.0
 31
0.0
  0
LINE
  5
FE
330
F5
100
AcDbEntity
  8
0
  6
Continuous
 62
     0
370
    18
100
AcDbLine
 10
0.0
 20
-5.0
 30
0.0
 11
0.0
 21
-16.6932466781
 31
0.0
  0
LINE
  5
FF
330
F5
100
AcDbEntity
  8
0
  6
Continuous
 62
     0
370
    18
100
AcDbLine
 10
5.0
 20
0.0
 30
0.0
 11
15.75
 21
0.0
 31
0.0
  0
ENDBLK
  5
F7
330
F5
100
AcDbEntity
  8
0
100
AcDbBlockEnd
  0
ENDSEC
  0
SECTION
  2
ENTITIES
  0
MTEXT
  5
74
330
1F
100
AcDbEntity
  8
0
  6
Continuous
 62
     7
370
     0
100
AcDbMText
 10
128.8926959049
 20
70.3768333065
 30
0.0
 40
2.38125
 41
0.0
 71
     1
 72
     1
  1
エースニップル　HN-8616
  7
SLDTEXTSTYLE0
 73
     1
 44
1.0
  0
LINE
  5
75
330
1F
100
AcDbEntity
  8
0
  6
Continuous
 62
     7
370
    25
100
AcDbLine
 10
88.110906336
 20
60.5604991372
 30
0.0
 11
86.8785407733
 21
58.4259793691
 31
0.0
  0
LINE
  5
76
330
1F
100
AcDbEntity
  8
0
  6
Continuous
 62
     7
370
    25
100
AcDbLine
 10
86.8785407733
 20
31.5181043691
 30
0.0
 11
88.110906336
 21
29.383584601
 31
0.0
  0
LINE
  5
77
330
1F
100
AcDbEntity
  8
0
  6
Continuous
 62
     7
370
    25
100
AcDbLine
 10
93.5284318401
 20
29.383584601
 30
0.0
 11
94.8785407733
 21
31.7220418691
 31
0.0
  0
LINE
  5
78
330
1F
100
AcDbEntity
  8
0
  6
Continuous
 62
     7
370
    25
100
AcDbLine
 10
94.8785407733
 20
58.2220418691
 30
0.0
 11
93.5284318401
 21
60.5604991372
 31
0.0
  0
LINE
  5
79
330
1F
100
AcDbEntity
  8
0
  6
Continuous
 62
     7
370
    25
100
AcDbLine
 10
86.8785407733
 20
58.4259793691
 30
0.0
 11
72.4837171123
 21
57.9761411297
 31
0.0
  0
LINE
  5
7A
330
1F
100
AcDbEntity
  8
0
  6
Continuous
 62
     7
370
    25
100
AcDbLine
 10
72.4837171123
 20
31.9679426085
 30
0.0
 11
86.8785407733
 21
31.5181043691
 31
0.0
  0
LINE
  5
7B
330
1F
100
AcDbEntity
  8
0
  6
Continuous
 62
     7
370
    25
100
AcDbLine
 10
72.4837171123
 20
57.9761411297
 30
0.0
 11
69.8785407733
 21
56.4720418691
 31
0.0
  0
LINE
  5
7C
330
1F
100
AcDbEntity
  8
0
  6
Continuous
 62
     7
370
    25
100
AcDbLine
 10
69.8785407733
 20
33.4720418691
 30
0.0
 11
72.4837171123
 21
31.9679426085
 31
0.0
  0
LINE
  5
7D
330
1F
100
AcDbEntity
  8
0
  6
Continuous
 62
     7
370
    25
100
AcDbLine
 10
103.8785407733
 20
36.9720418691
 30
0.0
 11
109.8785407733
 21
37.9720418691
 31
0.0
  0
LINE
  5
7E
330
1F
100
AcDbEntity
  8
0
  6
Continuous
 62
     7
370
    25
100
AcDbLine
 10
109.8785407733
 20
51.9720418691
 30
0.0
 11
103.8785407733
 21
52.9720418691
 31
0.0
  0
LINE
  5
7F
330
1F
100
AcDbEntity
  8
0
  6
Continuous
 62
     7
370
    25
100
AcDbLine
 10
103.8785407733
 20
52.9720418691
 30
0.0
 11
94.8785407733
 21
52.9720418691
 31
0.0
  0
LINE
  5
80
330
1F
100
AcDbEntity
  8
0
  6
Continuous
 62
     7
370
    25
100
AcDbLine
 10
94.8785407733
 20
36.9720418691
 30
0.0
 11
103.8785407733
 21
36.9720418691
 31
0.0
  0
LINE
  5
81
330
1F
100
AcDbEntity
  8
0
  6
Continuous
 62
     7
370
    25
100
AcDbLine
 10
121.8785407733
 20
36.9720418691
 30
0.0
 11
129.4405581406
 21
37.91729404
 31
0.0
  0
LINE
  5
82
330
1F
100
AcDbEntity
  8
0
  6
Continuous
 62
     7
370
    25
100
AcDbLine
 10
129.4405581406
 20
52.0267896982
 30
0.0
 11
121.8785407733
 21
52.9720418691
 31
0.0
  0
LINE
  5
83
330
1F
100
AcDbEntity
  8
0
  6
Continuous
 62
     7
370
    25
100
AcDbLine
 10
109.8785407733
 20
36.9720418691
 30
0.0
 11
115.8785407733
 21
37.9720418691
 31
0.0
  0
LINE
  5
84
330
1F
100
AcDbEntity
  8
0
  6
Continuous
 62
     7
370
    25
100
AcDbLine
 10
115.8785407733
 20
51.9720418691
 30
0.0
 11
109.8785407733
 21
52.9720418691
 31
0.0
  0
LINE
  5
85
330
1F
100
AcDbEntity
  8
0
  6
Continuous
 62
     7
370
    25
100
AcDbLine
 10
115.8785407733
 20
36.9720418691
 30
0.0
 11
121.8785407733
 21
37.9720418691
 31
0.0
  0
LINE
  5
86
330
1F
100
AcDbEntity
  8
0
  6
Continuous
 62
     7
370
    25
100
AcDbLine
 10
121.8785407733
 20
51.9720418691
 30
0.0
 11
115.8785407733
 21
52.9720418691
 31
0.0
  0
ARC
  5
87
330
1F
100
AcDbEntity
  8
0
  6
Continuous
 62
     7
370
    25
100
AcDbCircle
 10
129.3785407733
 20
38.4134329784
 30
0.0
 40
0.5000000000000052
100
AcDbArc
 50
277.1250163489
 51
0.0
  0
ARC
  5
88
330
1F
100
AcDbEntity
  8
0
  6
Continuous
 62
     7
370
    25
100
AcDbCircle
 10
129.3785407733
 20
51.5306507598
 30
0.0
 40
0.5
100
AcDbArc
 50
0.0
 51
82.8749836511
  0
LINE
  5
89
330
1F
100
AcDbEntity
  8
0
  6
Continuous
 62
     7
370
    25
100
AcDbLine
 10
90.9000538458
 20
60.5604991372
 30
0.0
 11
90.819669088
 21
60.2604991372
 31
0.0
  0
LINE
  5
8A
330
1F
100
AcDbEntity
  8
0
  6
Continuous
 62
     7
370
    25
100
AcDbLine
 10
90.819669088
 20
60.2604991372
 30
0.0
 11
90.7392843303
 21
60.5604991372
 31
0.0
  0
LINE
  5
8B
330
1F
100
AcDbEntity
  8
0
  6
Continuous
 62
     7
370
    25
100
AcDbLine
 10
90.819669088
 20
29.683584601
 30
0.0
 11
90.9000538458
 21
29.383584601
 31
0.0
  0
LINE
  5
8C
330
1F
100
AcDbEntity
  8
0
  6
Continuous
 62
     7
370
    25
100
AcDbLine
 10
90.7392843303
 20
29.383584601
 30
0.0
 11
90.819669088
 21
29.683584601
 31
0.0
  0
LINE
  5
8D
330
1F
100
AcDbEntity
  8
0
  6
Continuous
 62
     7
370
    25
100
AcDbLine
 10
90.9000538458
 20
37.177813235
 30
0.0
 11
93.5284318401
 21
37.177813235
 31
0.0
  0
SPLINE
  5
8E
330
1F
100
AcDbEntity
  8
0
  6
Continuous
 62
     7
370
    25
100
AcDbSpline
210
0.0
220
0.0
230
1.0
 70
     8
 71
     3
 72
    16
 73
    12
 74
     0
 42
0.000000001
 43
0.00000001
 40
0.0
 40
0.0
 40
0.0
 40
0.0
 40
0.2500000000000001
 40
0.2500000000000001
 40
0.5
 40
0.5
 40
0.6249999999999999
 40
0.6249999999999999
 40
0.7499999999999999
 40
0.7499999999999999
 40
1.0
 40
1.0
 40
1.0
 40
1.0
 10
93.52843184006389
 20
29.38358460098964
 30
0.0
 10
93.89581420274989
 20
30.0199095189665
 30
0.0
 10
94.19860376314406
 20
30.66087366991914
 30
0.0
 10
94.6180655714494
 20
31.95616942985076
 30
0.0
 10
94.73335419690399
 20
32.61060041440562
 30
0.0
 10
94.73462059376789
 20
33.60457645507577
 30
0.0
 10
94.70643703667888
 20
33.93746118168036
 30
0.0
 10
94.5965358676369
 20
34.59594221524061
 30
0.0
 10
94.51492980556398
 20
34.92297509151936
 30
0.0
 10
94.19981121067315
 20
35.89825135123297
 30
0.0
 10
93.89627219433697
 20
36.54069505237428
 30
0.0
 10
93.52843184006376
 20
37.17781323504962
 30
0.0
  0
LINE
  5
8F
330
1F
100
AcDbEntity
  8
0
  6
Continuous
 62
     7
370
    25
100
AcDbLine
 10
90.9000538458
 20
29.383584601
 30
0.0
 11
93.5284318401
 21
29.383584601
 31
0.0
  0
SPLINE
  5
90
330
1F
100
AcDbEntity
  8
0
  6
Continuous
 62
     7
370
    25
100
AcDbSpline
210
0.0
220
0.0
230
1.0
 70
     8
 71
     3
 72
     8
 73
     4
 74
     0
 42
0.000000001
 43
0.00000001
 40
0.0
 40
0.0
 40
0.0
 40
0.0
 40
1.0
 40
1.0
 40
1.0
 40
1.0
 10
90.90005384576898
 20
29.38358460098966
 30
0.0
 10
90.87243078967516
 20
29.48667524979212
 30
0.0
 10
90.84561894255785
 20
29.58980600921267
 30
0.0
 10
90.81966908803965
 20
29.69297939027195
 30
0.0
  0
SPLINE
  5
91
330
1F
100
AcDbEntity
  8
0
  6
Continuous
 62
     7
370
    25
100
AcDbSpline
210
0.0
220
0.0
230
1.0
 70
     8
 71
     3
 72
     8
 73
     4
 74
     0
 42
0.000000001
 43
0.00000001
 40
0.0
 40
0.0
 40
0.0
 40
0.0
 40
1.0
 40
1.0
 40
1.0
 40
1.0
 10
90.81966908803965
 20
29.69297939027195
 30
0.0
 10
90.7937120243952
 20
29.58977734662706
 30
0.0
 10
90.76689987030076
 20
29.48664719931249
 30
0.0
 10
90.73928433031031
 20
29.38358460098966
 30
0.0
  0
LINE
  5
92
330
1F
100
AcDbEntity
  8
0
  6
Continuous
 62
     7
370
    25
100
AcDbLine
 10
88.110906336
 20
29.383584601
 30
0.0
 11
90.7392843303
 21
29.383584601
 31
0.0
  0
SPLINE
  5
93
330
1F
100
AcDbEntity
  8
0
  6
Continuous
 62
     7
370
    25
100
AcDbSpline
210
0.0
220
0.0
230
1.0
 70
     8
 71
     3
 72
    16
 73
    12
 74
     0
 42
0.000000001
 43
0.00000001
 40
0.0
 40
0.0
 40
0.0
 40
0.0
 40
0.2500000000000001
 40
0.2500000000000001
 40
0.5000000000000001
 40
0.5000000000000001
 40
0.6250000000000001
 40
0.6250000000000001
 40
0.7500000000000002
 40
0.7500000000000002
 40
1.0
 40
1.0
 40
1.0
 40
1.0
 10
88.11090633601542
 20
37.17781323504963
 30
0.0
 10
87.7435239733294
 20
36.54148831707277
 30
0.0
 10
87.44073441293523
 20
35.90052416612012
 30
0.0
 10
87.0212726046299
 20
34.60522840618851
 30
0.0
 10
86.90598397917532
 20
33.95079742163365
 30
0.0
 10
86.90471758231142
 20
32.95682138096351
 30
0.0
 10
86.93290113940041
 20
32.62393665435891
 30
0.0
 10
87.0428023084424
 20
31.96545562079866
 30
0.0
 10
87.12440837051533
 20
31.63842274451991
 30
0.0
 10
87.43952696540615
 20
30.66314648480629
 30
0.0
 10
87.74306598174233
 20
30.02070278366498
 30
0.0
 10
88.11090633601553
 20
29.38358460098965
 30
0.0
  0
LINE
  5
94
330
1F
100
AcDbEntity
  8
0
  6
Continuous
 62
     7
370
    25
100
AcDbLine
 10
88.110906336
 20
37.177813235
 30
0.0
 11
90.7392843303
 21
37.177813235
 31
0.0
  0
SPLINE
  5
95
330
1F
100
AcDbEntity
  8
0
  6
Continuous
 62
     7
370
    25
100
AcDbSpline
210
0.0
220
0.0
230
1.0
 70
     8
 71
     3
 72
     8
 73
     4
 74
     0
 42
0.000000001
 43
0.00000001
 40
0.0
 40
0.0
 40
0.0
 40
0.0
 40
1.0
 40
1.0
 40
1.0
 40
1.0
 10
90.73928433031031
 20
37.17781323504961
 30
0.0
 10
90.76690738640413
 20
37.07472258624716
 30
0.0
 10
90.79371923352143
 20
36.9715918268266
 30
0.0
 10
90.81966908803965
 20
36.86841844576732
 30
0.0
  0
SPLINE
  5
96
330
1F
100
AcDbEntity
  8
0
  6
Continuous
 62
     7
370
    25
100
AcDbSpline
210
0.0
220
0.0
230
1.0
 70
     8
 71
     3
 72
     8
 73
     4
 74
     0
 42
0.000000001
 43
0.00000001
 40
0.0
 40
0.0
 40
0.0
 40
0.0
 40
1.0
 40
1.0
 40
1.0
 40
1.0
 10
90.81966908803965
 20
36.86841844576732
 30
0.0
 10
90.84562615168409
 20
36.97162048941221
 30
0.0
 10
90.87243830577853
 20
37.07475063672678
 30
0.0
 10
90.900053845769
 20
37.17781323504961
 30
0.0
  0
SPLINE
  5
97
330
1F
100
AcDbEntity
  8
0
  6
Continuous
 62
     7
370
    25
100
AcDbSpline
210
0.0
220
0.0
230
1.0
 70
     8
 71
     3
 72
    19
 73
    15
 74
     0
 42
0.000000001
 43
0.00000001
 40
0.0
 40
0.0
 40
0.0
 40
0.0
 40
0.1227280999764557
 40
0.2397165235883926
 40
0.3518621792202465
 40
0.463201981803224
 40
0.520261154154164
 40
0.5794324380306666
 40
0.6405963441586369
 40
0.7052982290880198
 40
0.7732361059084532
 40
0.8446489293403163
 40
0.9200459817773702
 40
1.0
 40
1.0
 40
1.0
 40
1.0
 10
91.83623308099338
 20
46.53253866398135
 30
0.0
 10
91.83524117874708
 20
46.56100508179012
 30
0.0
 10
91.83330376296155
 20
46.61660661654413
 30
0.0
 10
91.81627475149462
 20
46.69674702255617
 30
0.0
 10
91.78929403827532
 20
46.77117147093792
 30
0.0
 10
91.75671490708663
 20
46.82786788773505
 30
0.0
 10
91.72466576981532
 20
46.86980556238779
 30
0.0
 10
91.69709389707023
 20
46.90034839902923
 30
0.0
 10
91.66583304061159
 20
46.92979482223327
 30
0.0
 10
91.63002575032866
 20
46.95698932764851
 30
0.0
 10
91.5909032940075
 20
46.98356146762661
 30
0.0
 10
91.5482501997258
 20
47.0092575179504
 30
0.0
 10
91.50145836200937
 20
47.03325212088856
 30
0.0
 10
91.46855299304772
 20
47.04785802857241
 30
0.0
 10
91.451617696378
 20
47.05537520244289
 30
0.0
  0
SPLINE
  5
98
330
1F
100
AcDbEntity
  8
0
  6
Continuous
 62
     7
370
    25
100
AcDbSpline
210
0.0
220
0.0
230
1.0
 70
     8
 71
     3
 72
    23
 73
    19
 74
     0
 42
0.000000001
 43
0.00000001
 40
0.0
 40
0.0
 40
0.0
 40
0.0
 40
0.0552698294993251
 40
0.109956704485094
 40
0.1632335040550558
 40
0.2180575651623567
 40
0.2732775387226746
 40
0.3308810454954968
 40
0.3904799376860886
 40
0.4536559730386416
 40
0.5189026226022312
 40
0.5833461108214766
 40
0.6485466930814432
 40
0.7150552190344911
 40
0.7825206438000538
 40
0.852335294426451
 40
0.9249348997257086
 40
1.0
 40
1.0
 40
1.0
 40
1.0
 10
91.44410567714722
 20
46.02973417680186
 30
0.0
 10
91.45716124077786
 20
46.03003015017104
 30
0.0
 10
91.4831346654297
 20
46.03061897515179
 30
0.0
 10
91.52108068252201
 20
46.03804610779819
 30
0.0
 10
91.5578687916387
 20
46.04920424948769
 30
0.0
 10
91.59333207019976
 20
46.06455414435765
 30
0.0
 10
91.6272646728405
 20
46.08506226149104
 30
0.0
 10
91.65970822821879
 20
46.10967883392588
 30
0.0
 10
91.69120645672432
 20
46.13841574290142
 30
0.0
 10
91.72025244456367
 20
46.17202402683366
 30
0.0
 10
91.74765024905099
 20
46.20840857858862
 30
0.0
 10
91.77133463184597
 20
46.2479117538952
 30
0.0
 10
91.79140949887508
 20
46.28966226200133
 30
0.0
 10
91.80799561849184
 20
46.33369849547017
 30
0.0
 10
91.82046436243986
 20
46.38019686202642
 30
0.0
 10
91.82941914452935
 20
46.42892968069434
 30
0.0
 10
91.8350172996855
 20
46.47999243332526
 30
0.0
 10
91.83582333454999
 20
46.51482936792095
 30
0.0
 10
91.83623308099338
 20
46.53253866398135
 30
0.0
  0
SPLINE
  5
99
330
1F
100
AcDbEntity
  8
0
  6
Continuous
 62
     7
370
    25
100
AcDbSpline
210
0.0
220
0.0
230
1.0
 70
     8
 71
     3
 72
    19
 73
    15
 74
     0
 42
0.000000001
 43
0.00000001
 40
0.0
 40
0.0
 40
0.0
 40
0.0
 40
0.1101423815503172
 40
0.2157418685830273
 40
0.3179605426392306
 40
0.4180517606815226
 40
0.5115631470355316
 40
0.5965727584443461
 40
0.6733290469034968
 40
0.7440491927238596
 40
0.8107168223002834
 40
0.8740854521098848
 40
0.93670961689667
 40
1.0
 40
1.0
 40
1.0
 40
1.0
 10
91.03495102971134
 20
46.6707598178275
 30
0.0
 10
91.03547817799233
 20
46.63983126860722
 30
0.0
 10
91.03651073197892
 20
46.57924983839457
 30
0.0
 10
91.0489128104966
 20
46.49074187259688
 30
0.0
 10
91.06626168686304
 20
46.40600595654416
 30
0.0
 10
91.09222197293218
 20
46.32697628308615
 30
0.0
 10
91.12338172576553
 20
46.25517841958906
 30
0.0
 10
91.15851662263653
 20
46.19254602733405
 30
0.0
 10
91.19832288437122
 20
46.14056346951626
 30
0.0
 10
91.24227809195158
 20
46.09910087234719
 30
0.0
 10
91.28997107427077
 20
46.06866879826065
 30
0.0
 10
91.3391592865388
 20
46.04582651250161
 30
0.0
 10
91.39098717520878
 20
46.03243543908026
 30
0.0
 10
91.42633716382198
 20
46.0306377680749
 30
0.0
 10
91.44410567714722
 20
46.02973417680186
 30
0.0
  0
LINE
  5
9A
330
1F
100
AcDbEntity
  8
0
  6
Continuous
 62
     7
370
    25
100
AcDbLine
 10
90.7785407733
 20
46.6707598178
 30
0.0
 11
91.0349510297
 21
46.6707598178
 31
0.0
  0
SPLINE
  5
9B
330
1F
100
AcDbEntity
  8
0
  6
Continuous
 62
     7
370
    25
100
AcDbSpline
210
0.0
220
0.0
230
1.0
 70
     8
 71
     3
 72
    23
 73
    19
 74
     0
 42
0.000000001
 43
0.00000001
 40
0.0
 40
0.0
 40
0.0
 40
0.0
 40
0.0669051223273615
 40
0.1334773340846823
 40
0.2010229080576287
 40
0.2712178684297487
 40
0.3428591616573977
 40
0.4138109980627168
 40
0.4855518488903452
 40
0.5598002749200528
 40
0.599899964903578
 40
0.6436094423977957
 40
0.6919106424505658
 40
0.7447030291556901
 40
0.8015038302285952
 40
0.8628660266331953
 40
0.9293326711591617
 40
1.0
 40
1.0
 40
1.0
 40
1.0
 10
90.24969461945493
 20
45.90152904859673
 30
0.0
 10
90.27298845925915
 20
45.9026221017051
 30
0.0
 10
90.31946023196517
 20
45.9048027690418
 30
0.0
 10
90.38782953356524
 20
45.92145204508358
 30
0.0
 10
90.45370493751858
 20
45.94883581416652
 30
0.0
 10
90.51595304785867
 20
45.98717776482196
 30
0.0
 10
90.57367316121753
 20
46.03382915426832
 30
0.0
 10
90.62497219281178
 20
46.08833839971239
 30
0.0
 10
90.66772697746521
 20
46.15083921219378
 30
0.0
 10
90.69715776785814
 20
46.20873398083497
 30
0.0
 10
90.71677215196758
 20
46.26013898375994
 30
0.0
 10
90.7305253909092
 20
46.3040429403968
 30
0.0
 10
90.7415194864158
 20
46.35323823757538
 30
0.0
 10
90.75215408762189
 20
46.40713429647015
 30
0.0
 10
90.76106946240206
 20
46.46595842346176
 30
0.0
 10
90.76853643821751
 20
46.52976361537851
 30
0.0
 10
90.77450180629091
 20
46.59857554153534
 30
0.0
 10
90.77716723518148
 20
46.64621199288279
 30
0.0
 10
90.77854077330107
 20
46.6707598178275
 30
0.0
  0
SPLINE
  5
9C
330
1F
100
AcDbEntity
  8
0
  6
Continuous
 62
     7
370
    25
100
AcDbSpline
210
0.0
220
0.0
230
1.0
 70
     8
 71
     3
 72
    23
 73
    19
 74
     0
 42
0.000000001
 43
0.00000001
 40
0.0
 40
0.0
 40
0.0
 40
0.0
 40
0.0760618905628338
 40
0.1487324608035361
 40
0.2183745247439721
 40
0.2857225935927384
 40
0.3510576941824568
 40
0.4149349157293191
 40
0.4784859417740854
 40
0.5421690352812158
 40
0.6047501165431387
 40
0.6641185017301124
 40
0.7214996756099116
 40
0.777615916385255
 40
0.8326661086975489
 40
0.887858028113574
 40
0.9434676608977686
 40
1.0
 40
1.0
 40
1.0
 40
1.0
 10
89.72084846560877
 20
46.53804747808391
 30
0.0
 10
89.72128768245753
 20
46.51465180235759
 30
0.0
 10
89.72214653308903
 20
46.46890357815243
 30
0.0
 10
89.7300677481274
 20
46.40215453171294
 30
0.0
 10
89.74155375667053
 20
46.33863340318809
 30
0.0
 10
89.75952010727391
 20
46.278988425502
 30
0.0
 10
89.78107371281455
 20
46.22240797687445
 30
0.0
 10
89.80929133826905
 20
46.17015509638433
 30
0.0
 10
89.84115858432867
 20
46.1206936139025
 30
0.0
 10
89.87822632052193
 20
46.07547252227867
 30
0.0
 10
89.91829253106313
 20
46.03470349699387
 30
0.0
 10
89.96079920983333
 20
45.99947455473922
 30
0.0
 10
90.00442837317156
 20
45.96896226163332
 30
0.0
 10
90.0501978012693
 20
45.9444354699983
 30
0.0
 10
90.0976585328308
 20
45.92503362663697
 30
0.0
 10
90.14698821379467
 20
45.91183363433211
 30
0.0
 10
90.19777145738111
 20
45.9026533700109
 30
0.0
 10
90.2322922195968
 20
45.90190587254267
 30
0.0
 10
90.24969461945493
 20
45.90152904859673
 30
0.0
  0
SPLINE
  5
9D
330
1F
100
AcDbEntity
  8
0
  6
Continuous
 62
     7
370
    25
100
AcDbSpline
210
0.0
220
0.0
230
1.0
 70
     8
 71
     3
 72
    15
 73
    11
 74
     0
 42
0.000000001
 43
0.00000001
 40
0.0
 40
0.0
 40
0.0
 40
0.0
 40
0.1182713048357264
 40
0.2361775330837636
 40
0.3556629329485097
 40
0.475904164670683
 40
0.6001273417110831
 40
0.7286081161551196
 40
0.8613134756739419
 40
1.0
 40
1.0
 40
1.0
 40
1.0
 10
89.85606481176262
 20
46.95571574731468
 30
0.0
 10
89.84527314470154
 20
46.94171819265386
 30
0.0
 10
89.82372312199834
 20
46.91376629059621
 30
0.0
 10
89.79622195875707
 20
46.86821755409732
 30
0.0
 10
89.77239265494653
 20
46.82031406403609
 30
0.0
 10
89.75419001514918
 20
46.76901786816401
 30
0.0
 10
89.73877740029977
 20
46.71543588926827
 30
0.0
 10
89.72869131520514
 20
46.65870205695983
 30
0.0
 10
89.72177119281713
 20
46.59931690188001
 30
0.0
 10
89.72116052746543
 20
46.5587684993921
 30
0.0
 10
89.72084846560877
 20
46.53804747808391
 30
0.0
  0
SPLINE
  5
9E
330
1F
100
AcDbEntity
  8
0
  6
Continuous
 62
     7
370
    25
100
AcDbSpline
210
0.0
220
0.0
230
1.0
 70
     8
 71
     3
 72
    15
 73
    11
 74
     0
 42
0.000000001
 43
0.00000001
 40
0.0
 40
0.0
 40
0.0
 40
0.0
 40
0.149770386031968
 40
0.2913164099952444
 40
0.4259663731047428
 40
0.5521595739695285
 40
0.6715274135235931
 40
0.7861216286916591
 40
0.8953250730704452
 40
1.0
 40
1.0
 40
1.0
 40
1.0
 10
90.201617696378
 20
47.15152904859673
 30
0.0
 10
90.18236840118611
 20
47.14568384042511
 30
0.0
 10
90.14492685003033
 20
47.13431440281231
 30
0.0
 10
90.09104091740541
 20
47.11496133278724
 30
0.0
 10
90.04164230795912
 20
47.09291256702262
 30
0.0
 10
89.99636864940342
 20
47.06925931085401
 30
0.0
 10
89.95477407621473
 20
47.04441756369491
 30
0.0
 10
89.9179584554761
 20
47.01662118859748
 30
0.0
 10
89.88430473961196
 20
46.98792894206369
 30
0.0
 10
89.86534430251182
 20
46.96630083252703
 30
0.0
 10
89.85606481176262
 20
46.95571574731468
 30
0.0
  0
LINE
  5
9F
330
1F
100
AcDbEntity
  8
0
  6
Continuous
 62
     7
370
    25
100
AcDbLine
 10
90.2016176964
 20
47.375888023
 30
0.0
 11
90.2016176964
 21
47.1515290486
 31
0.0
  0
SPLINE
  5
A0
330
1F
100
AcDbEntity
  8
0
  6
Continuous
 62
     7
370
    25
100
AcDbSpline
210
0.0
220
0.0
230
1.0
 70
     8
 71
     3
 72
    23
 73
    19
 74
     0
 42
0.000000001
 43
0.00000001
 40
0.0
 40
0.0
 40
0.0
 40
0.0
 40
0.0655411703374035
 40
0.1289631677825933
 40
0.1903771361885609
 40
0.2500923616690527
 40
0.308548432459201
 40
0.3663979630552959
 40
0.42454218926668
 40
0.4831699964229057
 40
0.5422433998311202
 40
0.6017393520173302
 40
0.6625060022496067
 40
0.724855513448847
 40
0.7891278292811812
 40
0.8563463998785101
 40
0.9262952349869055
 40
1.0
 40
1.0
 40
1.0
 40
1.0
 10
89.46443820919852
 20
46.54205388834032
 30
0.0
 10
89.465058361526
 20
46.56878195997113
 30
0.0
 10
89.46627861450973
 20
46.62137389216404
 30
0.0
 10
89.4746204725073
 20
46.69869067672571
 30
0.0
 10
89.4898561905343
 20
46.7724918905575
 30
0.0
 10
89.51035855151008
 20
46.84287731759799
 30
0.0
 10
89.53635265299614
 20
46.90990948645052
 30
0.0
 10
89.5687231515828
 20
46.97338384729174
 30
0.0
 10
89.60680279590555
 20
47.03369091409182
 30
0.0
 10
89.65104107291023
 20
47.0902615934808
 30
0.0
 10
89.70052774416507
 20
47.1430891418424
 30
0.0
 10
89.7561413227134
 20
47.19076965914963
 30
0.0
 10
89.81685375408559
 20
47.2340980826797
 30
0.0
 10
89.88337022279896
 20
47.27191425318792
 30
0.0
 10
89.95483112085451
 20
47.30594064791352
 30
0.0
 10
90.0321514768414
 20
47.33392704551874
 30
0.0
 10
90.11464006397641
 20
47.35855959454466
 30
0.0
 10
90.172124164102
 20
47.37001206900614
 30
0.0
 10
90.201617696378
 20
47.37588802295571
 30
0.0
  0
SPLINE
  5
A1
330
1F
100
AcDbEntity
  8
0
  6
Continuous
 62
     7
370
    25
100
AcDbSpline
210
0.0
220
0.0
230
1.0
 70
     8
 71
     3
 72
    19
 73
    15
 74
     0
 42
0.000000001
 43
0.00000001
 40
0.0
 40
0.0
 40
0.0
 40
0.0
 40
0.0796417041949911
 40
0.158908613257856
 40
0.2395997983184508
 40
0.3224093988203484
 40
0.405827748173513
 40
0.4876442139503137
 40
0.5697199979738973
 40
0.6530646649976933
 40
0.7374573001733064
 40
0.8224924079539123
 40
0.9097550737466981
 40
0.9999999999999999
 40
0.9999999999999999
 40
0.9999999999999999
 40
0.9999999999999999
 10
90.27122907458313
 20
45.67717007423776
 30
0.0
 10
90.23622352291093
 20
45.67845469209028
 30
0.0
 10
90.16637715625188
 20
45.68101788236318
 30
0.0
 10
90.06316004618077
 20
45.70383559853494
 30
0.0
 10
89.96243808941031
 20
45.73941327236864
 30
0.0
 10
89.86570365786866
 20
45.78905317853601
 30
0.0
 10
89.77538467393595
 20
45.85047078251876
 30
0.0
 10
89.69494036720837
 20
45.92394435841776
 30
0.0
 10
89.62532685679614
 20
46.00768777532205
 30
0.0
 10
89.56735067970189
 20
46.10115294927346
 30
0.0
 10
89.52097223957303
 20
46.2023705811873
 30
0.0
 10
89.48879066349974
 20
46.31064127972013
 30
0.0
 10
89.46782860545352
 20
46.42439065944763
 30
0.0
 10
89.4655809288336
 20
46.50239596287396
 30
0.0
 10
89.46443820919852
 20
46.54205388834032
 30
0.0
  0
SPLINE
  5
A2
330
1F
100
AcDbEntity
  8
0
  6
Continuous
 62
     7
370
    25
100
AcDbSpline
210
0.0
220
0.0
230
1.0
 70
     8
 71
     3
 72
    15
 73
    11
 74
     0
 42
0.000000001
 43
0.00000001
 40
0.0
 40
0.0
 40
0.0
 40
0.0
 40
0.1281455049994642
 40
0.254192538628042
 40
0.378141139713589
 40
0.5013808330744056
 40
0.6239569784447038
 40
0.7470758858273291
 40
0.8728647202442611
 40
1.0
 40
1.0
 40
1.0
 40
1.0
 10
90.71543981176261
 20
45.82640885628904
 30
0.0
 10
90.6989717443876
 20
45.81437442930978
 30
0.0
 10
90.66630528564318
 20
45.79050264742555
 30
0.0
 10
90.61375362470054
 20
45.76112023298568
 30
0.0
 10
90.56079345930802
 20
45.73415988728385
 30
0.0
 10
90.5053424640683
 20
45.71431785326702
 30
0.0
 10
90.44918182303411
 20
45.69719496420358
 30
0.0
 10
90.39110891242424
 20
45.68592867334969
 30
0.0
 10
90.33167547404497
 20
45.67869616527353
 30
0.0
 10
90.29144925602998
 20
45.67768057342253
 30
0.0
 10
90.27122907458313
 20
45.67717007423776
 30
0.0
  0
SPLINE
  5
A3
330
1F
100
AcDbEntity
  8
0
  6
Continuous
 62
     7
370
    25
100
AcDbSpline
210
0.0
220
0.0
230
1.0
 70
     8
 71
     3
 72
    11
 73
     7
 74
     0
 42
0.000000001
 43
0.00000001
 40
0.0
 40
0.0
 40
0.0
 40
0.0
 40
0.2538796003266561
 40
0.5030089172783634
 40
0.7502910806899732
 40
1.0
 40
1.0
 40
1.0
 40
1.0
 10
90.92878115791646
 20
46.09734234987878
 30
0.0
 10
90.9159396068154
 20
46.07074823946926
 30
0.0
 10
90.89049677995098
 20
46.01805761499268
 30
0.0
 10
90.8405998102958
 20
45.94623580818347
 30
0.0
 10
90.78298813361445
 20
45.88103732578563
 30
0.0
 10
90.73802909581904
 20
45.84467752649721
 30
0.0
 10
90.71543981176261
 20
45.82640885628904
 30
0.0
  0
SPLINE
  5
A4
330
1F
100
AcDbEntity
  8
0
  6
Continuous
 62
     7
370
    25
100
AcDbSpline
210
0.0
220
0.0
230
1.0
 70
     8
 71
     3
 72
    15
 73
    11
 74
     0
 42
0.000000001
 43
0.00000001
 40
0.0
 40
0.0
 40
0.0
 40
0.0
 40
0.1280675485958908
 40
0.2506083188676689
 40
0.3706301659145033
 40
0.4900722467299491
 40
0.6103747641546201
 40
0.7343130699115257
 40
0.8632165042449896
 40
1.0
 40
1.0
 40
1.0
 40
1.0
 10
91.44310407458313
 20
45.80537520244288
 30
0.0
 10
91.41667064979342
 20
45.80620633890507
 30
0.0
 10
91.36494453946264
 20
45.80783274398444
 30
0.0
 10
91.28942918436393
 20
45.82164253367183
 30
0.0
 10
91.2182566127338
 20
45.84488272144056
 30
0.0
 10
91.15112721121702
 20
45.87707540899618
 30
0.0
 10
91.08846661134338
 20
45.91874794488209
 30
0.0
 10
91.0301338321573
 20
45.96922844266089
 30
0.0
 10
90.97587014777997
 20
46.02887320107196
 30
0.0
 10
90.94478480994036
 20
46.07407244251717
 30
0.0
 10
90.92878115791646
 20
46.09734234987878
 30
0.0
  0
SPLINE
  5
A5
330
1F
100
AcDbEntity
  8
0
  6
Continuous
 62
     7
370
    25
100
AcDbSpline
210
0.0
220
0.0
230
1.0
 70
     8
 71
     3
 72
    19
 73
    15
 74
     0
 42
0.000000001
 43
0.00000001
 40
0.0
 40
0.0
 40
0.0
 40
0.0
 40
0.0902542493426765
 40
0.1785397915286845
 40
0.2660930338538199
 40
0.3546309779571733
 40
0.4418861533505625
 40
0.5257469151636482
 40
0.6081136336036366
 40
0.6901972728278825
 40
0.7708214843303354
 40
0.8483261812554111
 40
0.9240117400247433
 40
1.0
 40
1.0
 40
1.0
 40
1.0
 10
92.09264333740363
 20
46.53554347167365
 30
0.0
 10
92.09165817294296
 20
46.50291294162002
 30
0.0
 10
92.08970933331808
 20
46.43836364808898
 30
0.0
 10
92.07191330726161
 20
46.3435329002672
 30
0.0
 10
92.04375249843719
 20
46.25208517233712
 30
0.0
 10
92.00484269333931
 20
46.16502142389687
 30
0.0
 10
91.9568517553664
 20
46.08415111489954
 30
0.0
 10
91.89973408615585
 20
46.01219669579447
 30
0.0
 10
91.8345917279506
 20
45.95013347379164
 30
0.0
 10
91.76263989629447
 20
45.89806606117727
 30
0.0
 10
91.68574310387523
 20
45.85729820471035
 30
0.0
 10
91.60660013448431
 20
45.82723650936769
 30
0.0
 10
91.52539872634938
 20
45.80893530865437
 30
0.0
 10
91.4705720983671
 20
45.80656348236135
 30
0.0
 10
91.44310407458313
 20
45.80537520244288
 30
0.0
  0
SPLINE
  5
A6
330
1F
100
AcDbEntity
  8
0
  6
Continuous
 62
     7
370
    25
100
AcDbSpline
210
0.0
220
0.0
230
1.0
 70
     8
 71
     3
 72
    23
 73
    19
 74
     0
 42
0.000000001
 43
0.00000001
 40
0.0
 40
0.0
 40
0.0
 40
0.0
 40
0.0726253460834355
 40
0.1419766113262344
 40
0.2089849284189386
 40
0.2739568703644447
 40
0.3368893473968406
 40
0.3987449534945902
 40
0.4601158852788613
 40
0.5208249225900291
 40
0.5809944586324854
 40
0.640151927601465
 40
0.6986224507562546
 40
0.7572710809271643
 40
0.8164266940046601
 40
0.8762540482034703
 40
0.937165293062537
 40
1.0
 40
1.0
 40
1.0
 40
1.0
 10
91.451617696378
 20
47.27973417680186
 30
0.0
 10
91.4767837563604
 20
47.27365592631543
 30
0.0
 10
91.52598134521088
 20
47.26177344377464
 30
0.0
 10
91.59627224581611
 20
47.23698946272543
 30
0.0
 10
91.66278904680948
 20
47.20998999472928
 30
0.0
 10
91.72428624230619
 20
47.17756920575445
 30
0.0
 10
91.7819997442581
 20
47.14220580987865
 30
0.0
 10
91.83462054744963
 20
47.10168958021018
 30
0.0
 10
91.88348695135471
 20
47.05788977837737
 30
0.0
 10
91.92685354960986
 20
47.00944338601896
 30
0.0
 10
91.96612335618607
 20
46.95863719913267
 30
0.0
 10
91.99960554000205
 20
46.90475532788216
 30
0.0
 10
92.02840850633383
 20
46.84888183240315
 30
0.0
 10
92.05213724338768
 20
46.79062959458273
 30
0.0
 10
92.07001261743488
 20
46.7298251862313
 30
0.0
 10
92.08298176428545
 20
46.66701831243072
 30
0.0
 10
92.09140398872434
 20
46.6020443837774
 30
0.0
 10
92.09222596235745
 20
46.55793896192149
 30
0.0
 10
92.09264333740363
 20
46.53554347167365
 30
0.0
  0
LINE
  5
A7
330
1F
100
AcDbEntity
  8
0
  6
Continuous
 62
     7
370
    25
100
AcDbLine
 10
91.4516176964
 20
47.0553752024
 30
0.0
 11
91.4516176964
 21
47.2797341768
 31
0.0
  0
LINE
  5
A8
330
1F
100
AcDbEntity
  8
0
  6
Continuous
 62
     7
370
    25
100
AcDbLine
 10
92.0926433374
 20
43.3719166139
 30
0.0
 11
91.95692619
 21
43.1991401715
 31
0.0
  0
LINE
  5
A9
330
1F
100
AcDbEntity
  8
0
  6
Continuous
 62
     7
370
    25
100
AcDbLine
 10
90.9518180169
 20
44.1181105241
 30
0.0
 11
92.0926433374
 21
43.3719166139
 31
0.0
  0
SPLINE
  5
AA
330
1F
100
AcDbEntity
  8
0
  6
Continuous
 62
     7
370
    25
100
AcDbSpline
210
0.0
220
0.0
230
1.0
 70
     8
 71
     3
 72
    19
 73
    15
 74
     0
 42
0.000000001
 43
0.00000001
 40
0.0
 40
0.0
 40
0.0
 40
0.0
 40
0.0978059775289526
 40
0.1996122522918969
 40
0.3052960258330043
 40
0.4158173591641855
 40
0.4742405666184931
 40
0.5372869128296534
 40
0.6033858352934853
 40
0.6743111580696057
 40
0.749530467357482
 40
0.8286083142695118
 40
0.9120427387714449
 40
1.0
 40
1.0
 40
1.0
 40
1.0
 10
90.22565615791646
 20
44.39755763949407
 30
0.0
 10
90.251392914522
 20
44.39665160499325
 30
0.0
 10
90.30391906969695
 20
44.39480247887708
 30
0.0
 10
90.3837015264676
 20
44.38376710725542
 30
0.0
 10
90.46501621510477
 20
44.36352688742369
 30
0.0
 10
90.5339488245148
 20
44.34162254580779
 30
0.0
 10
90.59103751419013
 20
44.31988682673273
 30
0.0
 10
90.63611894436858
 20
44.29973296787152
 30
0.0
 10
90.68372638216402
 20
44.27719849797241
 30
0.0
 10
90.73295904800668
 20
44.25078496110704
 30
0.0
 10
90.78522362579487
 20
44.22278448044087
 30
0.0
 10
90.83858459865603
 20
44.19007674152696
 30
0.0
 10
90.89499087408873
 20
44.15594571339306
 30
0.0
 10
90.9325452960916
 20
44.13094219227881
 30
0.0
 10
90.95181801689081
 20
44.11811052410946
 30
0.0
  0
SPLINE
  5
AB
330
1F
100
AcDbEntity
  8
0
  6
Continuous
 62
     7
370
    25
100
AcDbSpline
210
0.0
220
0.0
230
1.0
 70
     8
 71
     3
 72
    19
 73
    15
 74
     0
 42
0.000000001
 43
0.00000001
 40
0.0
 40
0.0
 40
0.0
 40
0.0
 40
0.0843261511037433
 40
0.1670353409858405
 40
0.2495407139852792
 40
0.3327066655796642
 40
0.4158726171740492
 40
0.4977774155681173
 40
0.5803136056784763
 40
0.6645325781316562
 40
0.7495711764063214
 40
0.8324741628544073
 40
0.9156738488962567
 40
1.0
 40
1.0
 40
1.0
 40
1.0
 10
89.46443820919852
 20
43.64034610103253
 30
0.0
 10
89.46552978197377
 20
43.67398660798543
 30
0.0
 10
89.46769199652215
 20
43.74062256226847
 30
0.0
 10
89.48695342102687
 20
43.83864589184905
 30
0.0
 10
89.51817262755046
 20
43.93283412054627
 30
0.0
 10
89.56118340096303
 20
44.02252518338866
 30
0.0
 10
89.61550832334888
 20
44.10561636502506
 30
0.0
 10
89.68091782899577
 20
44.17993042073098
 30
0.0
 10
89.75596629274474
 20
44.24520879630023
 30
0.0
 10
89.84088393581341
 20
44.29924774186678
 30
0.0
 10
89.93154583787643
 20
44.34328962917326
 30
0.0
 10
90.02694185245083
 20
44.37435300916815
 30
0.0
 10
90.12515209688827
 20
44.39444177809379
 30
0.0
 10
90.19200496184803
 20
44.39651437356203
 30
0.0
 10
90.22565615791646
 20
44.39755763949407
 30
0.0
  0
SPLINE
  5
AC
330
1F
100
AcDbEntity
  8
0
  6
Continuous
 62
     7
370
    25
100
AcDbSpline
210
0.0
220
0.0
230
1.0
 70
     8
 71
     3
 72
    19
 73
    15
 74
     0
 42
0.000000001
 43
0.00000001
 40
0.0
 40
0.0
 40
0.0
 40
0.0
 40
0.0859901205637197
 40
0.1691084375726415
 40
0.2505285789581879
 40
0.3322556961768449
 40
0.4135763652356403
 40
0.4941261456201216
 40
0.5763059341204169
 40
0.6607126719045471
 40
0.7461272722239101
 40
0.8300149859609741
 40
0.914419725928851
 40
1.0
 40
1.0
 40
1.0
 40
1.0
 10
90.23016336945493
 20
42.85909610103253
 30
0.0
 10
90.19519866397806
 20
42.86040076437109
 30
0.0
 10
90.12643696583625
 20
42.86296651933568
 30
0.0
 10
90.02586738393335
 20
42.88164412572448
 30
0.0
 10
89.9308258918986
 20
42.91387750121809
 30
0.0
 10
89.84093899236031
 20
42.957001892352
 30
0.0
 10
89.75882194991743
 20
43.01295239893979
 30
0.0
 10
89.68461016320029
 20
43.07925682536561
 30
0.0
 10
89.61992368919795
 20
43.15654193382306
 30
0.0
 10
89.56443185776835
 20
43.24297759588334
 30
0.0
 10
89.52034366757218
 20
43.33652782554503
 30
0.0
 10
89.48774836867042
 20
43.43461830142146
 30
0.0
 10
89.46827184920394
 20
43.53641059905764
 30
0.0
 10
89.4657219671172
 20
43.60554157491513
 30
0.0
 10
89.46443820919852
 20
43.64034610103253
 30
0.0
  0
SPLINE
  5
AD
330
1F
100
AcDbEntity
  8
0
  6
Continuous
 62
     7
370
    25
100
AcDbSpline
210
0.0
220
0.0
230
1.0
 70
     8
 71
     3
 72
    23
 73
    19
 74
     0
 42
0.000000001
 43
0.00000001
 40
0.0
 40
0.0
 40
0.0
 40
0.0
 40
0.0652308037420295
 40
0.128404896003223
 40
0.1900670715964783
 40
0.2509433657682803
 40
0.3115458328521435
 40
0.3728628021568293
 40
0.4350236738562387
 40
0.4990717247070434
 40
0.5630910750496626
 40
0.625510106330375
 40
0.6866800359296493
 40
0.7472825030135126
 40
0.8085634952159588
 40
0.8707421035159857
 40
0.9343409515059125
 40
1.0
 40
1.0
 40
1.0
 40
1.0
 10
90.97084846560877
 20
43.60078279975048
 30
0.0
 10
90.97016552868321
 20
43.5753738737968
 30
0.0
 10
90.96882118766835
 20
43.5253571591854
 30
0.0
 10
90.95847558003132
 20
43.45192372906112
 30
0.0
 10
90.94217192865732
 20
43.381360203366
 30
0.0
 10
90.91840603155147
 20
43.31395905175498
 30
0.0
 10
90.88804720700696
 20
43.24947835042672
 30
0.0
 10
90.85166229966377
 20
43.18754806749206
 30
0.0
 10
90.80737252798036
 20
43.12933234598762
 30
0.0
 10
90.75789755956332
 20
43.07408150369341
 30
0.0
 10
90.70309971349536
 20
43.02391929126987
 30
0.0
 10
90.64495590156247
 20
42.97950782301449
 30
0.0
 10
90.58352670084946
 20
42.94220297177584
 30
0.0
 10
90.5188432251828
 20
42.91193588490828
 30
0.0
 10
90.45100518263956
 20
42.88843240019551
 30
0.0
 10
90.38009936871927
 20
42.87129836802151
 30
0.0
 10
90.3060768891049
 20
42.8611700874359
 30
0.0
 10
90.25573533534335
 20
42.85979473692512
 30
0.0
 10
90.23016336945493
 20
42.85909610103253
 30
0.0
  0
SPLINE
  5
AE
330
1F
100
AcDbEntity
  8
0
  6
Continuous
 62
     7
370
    25
100
AcDbSpline
210
0.0
220
0.0
230
1.0
 70
     8
 71
     3
 72
     9
 73
     5
 74
     0
 42
0.000000001
 43
0.00000001
 40
0.0
 40
0.0
 40
0.0
 40
0.0
 40
0.5126593363417816
 40
1.0
 40
1.0
 40
1.0
 40
1.0
 10
90.9468100040703
 20
43.859697062571
 30
0.0
 10
90.95381990453716
 20
43.81571829329719
 30
0.0
 10
90.96749350798086
 20
43.72993273131439
 30
0.0
 10
90.96974918330118
 20
43.64309994665411
 30
0.0
 10
90.97084846560877
 20
43.60078279975048
 30
0.0
  0
LINE
  5
AF
330
1F
100
AcDbEntity
  8
0
  6
Continuous
 62
     7
370
    25
100
AcDbLine
 10
91.95692619
 20
43.1991401715
 30
0.0
 11
90.9468100041
 21
43.8596970626
 31
0.0
  0
LINE
  5
B0
330
1F
100
AcDbEntity
  8
0
  6
Continuous
 62
     7
370
    25
100
AcDbLine
 10
92.0285407733
 20
45.3118787928
 30
0.0
 11
92.0285407733
 21
44.8496392095
 31
0.0
  0
LINE
  5
B1
330
1F
100
AcDbEntity
  8
0
  6
Continuous
 62
     7
370
    25
100
AcDbLine
 10
91.7721305169
 20
45.4586135685
 30
0.0
 11
92.0285407733
 21
45.3118787928
 31
0.0
  0
LINE
  5
B2
330
1F
100
AcDbEntity
  8
0
  6
Continuous
 62
     7
370
    25
100
AcDbLine
 10
91.7721305169
 20
45.0739981839
 30
0.0
 11
91.7721305169
 21
45.4586135685
 31
0.0
  0
LINE
  5
B3
330
1F
100
AcDbEntity
  8
0
  6
Continuous
 62
     7
370
    25
100
AcDbLine
 10
89.5285407733
 20
45.0739981839
 30
0.0
 11
91.7721305169
 21
45.0739981839
 31
0.0
  0
LINE
  5
B4
330
1F
100
AcDbEntity
  8
0
  6
Continuous
 62
     7
370
    25
100
AcDbLine
 10
89.5285407733
 20
44.8496392095
 30
0.0
 11
89.5285407733
 21
45.0739981839
 31
0.0
  0
LINE
  5
B5
330
1F
100
AcDbEntity
  8
0
  6
Continuous
 62
     7
370
    25
100
AcDbLine
 10
92.0285407733
 20
44.8496392095
 30
0.0
 11
89.5285407733
 21
44.8496392095
 31
0.0
  0
LINE
  5
B6
330
1F
100
AcDbEntity
  8
0
  6
Continuous
 62
     7
370
    25
100
AcDbLine
 10
90.9000538458
 20
52.7662705032
 30
0.0
 11
93.5284318401
 21
52.7662705032
 31
0.0
  0
SPLINE
  5
B7
330
1F
100
AcDbEntity
  8
0
  6
Continuous
 62
     7
370
    25
100
AcDbSpline
210
0.0
220
0.0
230
1.0
 70
     8
 71
     3
 72
    16
 73
    12
 74
     0
 42
0.000000001
 43
0.00000001
 40
0.0
 40
0.0
 40
0.0
 40
0.0
 40
0.2499999999999999
 40
0.2499999999999999
 40
0.4999999999999999
 40
0.4999999999999999
 40
0.6249999999999999
 40
0.6249999999999999
 40
0.7499999999999998
 40
0.7499999999999998
 40
1.0
 40
1.0
 40
1.0
 40
1.0
 10
93.52843184006366
 20
37.1778132350496
 30
0.0
 10
93.89465113281803
 20
38.44643407857461
 30
0.0
 10
94.20156176510581
 20
39.74504154515097
 30
0.0
 10
94.62112009428523
 20
42.34754691088364
 30
0.0
 10
94.7343473331042
 20
43.65653347669689
 30
0.0
 10
94.73413093235865
 20
45.63363504165574
 30
0.0
 10
94.70604749648825
 20
46.29491262333478
 30
0.0
 10
94.59452016917685
 20
47.62190220143762
 30
0.0
 10
94.51189251339335
 20
48.27874340215769
 30
0.0
 10
94.19501131965399
 20
50.2299843861014
 30
0.0
 10
93.89215988296347
 20
51.50627960228925
 30
0.0
 10
93.52843184006362
 20
52.76627050316951
 30
0.0
  0
SPLINE
  5
B8
330
1F
100
AcDbEntity
  8
0
  6
Continuous
 62
     7
370
    25
100
AcDbSpline
210
0.0
220
0.0
230
1.0
 70
     8
 71
     3
 72
     8
 73
     4
 74
     0
 42
0.000000001
 43
0.00000001
 40
0.0
 40
0.0
 40
0.0
 40
0.0
 40
1.0
 40
1.0
 40
1.0
 40
1.0
 10
90.90005384576898
 20
37.17781323504961
 30
0.0
 10
90.87242968696657
 20
37.38400276338351
 30
0.0
 10
90.84561788555345
 20
37.59026445653066
 30
0.0
 10
90.81966908803965
 20
37.79660281361419
 30
0.0
  0
SPLINE
  5
B9
330
1F
100
AcDbEntity
  8
0
  6
Continuous
 62
     7
370
    25
100
AcDbSpline
210
0.0
220
0.0
230
1.0
 70
     8
 71
     3
 72
     8
 73
     4
 74
     0
 42
0.000000001
 43
0.00000001
 40
0.0
 40
0.0
 40
0.0
 40
0.0
 40
1.0
 40
1.0
 40
1.0
 40
1.0
 10
90.81966908803965
 20
37.79660281361419
 30
0.0
 10
90.79371239530917
 20
37.59020167573961
 30
0.0
 10
90.76690025680722
 20
37.38394131661879
 30
0.0
 10
90.73928433031031
 20
37.17781323504961
 30
0.0
  0
SPLINE
  5
BA
330
1F
100
AcDbEntity
  8
0
  6
Continuous
 62
     7
370
    25
100
AcDbSpline
210
0.0
220
0.0
230
1.0
 70
     8
 71
     3
 72
    16
 73
    12
 74
     0
 42
0.000000001
 43
0.00000001
 40
0.0
 40
0.0
 40
0.0
 40
0.0
 40
0.25
 40
0.25
 40
0.5
 40
0.5
 40
0.625
 40
0.625
 40
0.75
 40
0.75
 40
1.0
 40
1.0
 40
1.0
 40
1.0
 10
88.11090633601563
 20
37.17781323504961
 30
0.0
 10
87.74452351197378
 20
38.44700056757169
 30
0.0
 10
87.43772955879811
 20
39.74535129304841
 30
0.0
 10
87.01828511657114
 20
42.34711197194736
 30
0.0
 10
86.90497806052518
 20
43.65616224968412
 30
0.0
 10
86.90521367368119
 20
45.63415959283044
 30
0.0
 10
86.93338848368224
 20
46.29655827291234
 30
0.0
 10
87.04496841685996
 20
47.62320881223669
 30
0.0
 10
87.1275505774626
 20
48.27946261756841
 30
0.0
 10
87.44435279297366
 20
50.22999763682116
 30
0.0
 10
87.74714924291544
 20
51.50617896944318
 30
0.0
 10
88.11090633601567
 20
52.76627050316951
 30
0.0
  0
LINE
  5
BB
330
1F
100
AcDbEntity
  8
0
  6
Continuous
 62
     7
370
    25
100
AcDbLine
 10
88.110906336
 20
52.7662705032
 30
0.0
 11
90.7392843303
 21
52.7662705032
 31
0.0
  0
SPLINE
  5
BC
330
1F
100
AcDbEntity
  8
0
  6
Continuous
 62
     7
370
    25
100
AcDbSpline
210
0.0
220
0.0
230
1.0
 70
     8
 71
     3
 72
     8
 73
     4
 74
     0
 42
0.000000001
 43
0.00000001
 40
0.0
 40
0.0
 40
0.0
 40
0.0
 40
1.0
 40
1.0
 40
1.0
 40
1.0
 10
90.73928433031031
 20
52.76627050316952
 30
0.0
 10
90.76690848911272
 20
52.5600809748356
 30
0.0
 10
90.79372029052584
 20
52.35381928168845
 30
0.0
 10
90.81966908803965
 20
52.14748092460491
 30
0.0
  0
SPLINE
  5
BD
330
1F
100
AcDbEntity
  8
0
  6
Continuous
 62
     7
370
    25
100
AcDbSpline
210
0.0
220
0.0
230
1.0
 70
     8
 71
     3
 72
     8
 73
     4
 74
     0
 42
0.000000001
 43
0.00000001
 40
0.0
 40
0.0
 40
0.0
 40
0.0
 40
1.0
 40
1.0
 40
1.0
 40
1.0
 10
90.81966908803965
 20
52.14748092460491
 30
0.0
 10
90.84562578077012
 20
52.35388206247949
 30
0.0
 10
90.87243791927206
 20
52.56014242160032
 30
0.0
 10
90.900053845769
 20
52.76627050316951
 30
0.0
  0
LINE
  5
BE
330
1F
100
AcDbEntity
  8
0
  6
Continuous
 62
     7
370
    25
100
AcDbLine
 10
90.819669088
 20
36.8684184458
 30
0.0
 11
90.819669088
 21
37.7966028136
 31
0.0
  0
LINE
  5
BF
330
1F
100
AcDbEntity
  8
0
  6
Continuous
 62
     7
370
    25
100
AcDbLine
 10
90.9000538458
 20
60.5604991372
 30
0.0
 11
93.5284318401
 21
60.5604991372
 31
0.0
  0
SPLINE
  5
C0
330
1F
100
AcDbEntity
  8
0
  6
Continuous
 62
     7
370
    25
100
AcDbSpline
210
0.0
220
0.0
230
1.0
 70
     8
 71
     3
 72
    16
 73
    12
 74
     0
 42
0.000000001
 43
0.00000001
 40
0.0
 40
0.0
 40
0.0
 40
0.0
 40
0.25
 40
0.25
 40
0.5
 40
0.5
 40
0.625
 40
0.625
 40
0.75
 40
0.75
 40
1.0
 40
1.0
 40
1.0
 40
1.0
 10
93.52843184006387
 20
52.76627050316949
 30
0.0
 10
93.89581420274988
 20
53.40259542114634
 30
0.0
 10
94.19860376314405
 20
54.043559572099
 30
0.0
 10
94.6180655714494
 20
55.3388553320306
 30
0.0
 10
94.73335419690399
 20
55.99328631658546
 30
0.0
 10
94.73462059376789
 20
56.98726235725561
 30
0.0
 10
94.70643703667888
 20
57.3201470838602
 30
0.0
 10
94.59653586763689
 20
57.97862811742046
 30
0.0
 10
94.51492980556398
 20
58.30566099369921
 30
0.0
 10
94.19981121067315
 20
59.28093725341282
 30
0.0
 10
93.89627219433697
 20
59.92338095455413
 30
0.0
 10
93.52843184006375
 20
60.56049913722946
 30
0.0
  0
SPLINE
  5
C1
330
1F
100
AcDbEntity
  8
0
  6
Continuous
 62
     7
370
    25
100
AcDbSpline
210
0.0
220
0.0
230
1.0
 70
     8
 71
     3
 72
     8
 73
     4
 74
     0
 42
0.000000001
 43
0.00000001
 40
0.0
 40
0.0
 40
0.0
 40
0.0
 40
1.0
 40
1.0
 40
1.0
 40
1.0
 10
90.900053845769
 20
52.76627050316951
 30
0.0
 10
90.87243078967516
 20
52.86936115197197
 30
0.0
 10
90.84561894255785
 20
52.97249191139252
 30
0.0
 10
90.81966908803965
 20
53.0756652924518
 30
0.0
  0
SPLINE
  5
C2
330
1F
100
AcDbEntity
  8
0
  6
Continuous
 62
     7
370
    25
100
AcDbSpline
210
0.0
220
0.0
230
1.0
 70
     8
 71
     3
 72
     8
 73
     4
 74
     0
 42
0.000000001
 43
0.00000001
 40
0.0
 40
0.0
 40
0.0
 40
0.0
 40
1.0
 40
1.0
 40
1.0
 40
1.0
 10
90.81966908803963
 20
53.07566529245181
 30
0.0
 10
90.7937120243952
 20
52.97246324880691
 30
0.0
 10
90.76689987030076
 20
52.86933310149233
 30
0.0
 10
90.73928433031031
 20
52.76627050316951
 30
0.0
  0
SPLINE
  5
C3
330
1F
100
AcDbEntity
  8
0
  6
Continuous
 62
     7
370
    25
100
AcDbSpline
210
0.0
220
0.0
230
1.0
 70
     8
 71
     3
 72
    16
 73
    12
 74
     0
 42
0.000000001
 43
0.00000001
 40
0.0
 40
0.0
 40
0.0
 40
0.0
 40
0.25
 40
0.25
 40
0.5
 40
0.5
 40
0.625
 40
0.625
 40
0.75
 40
0.75
 40
1.0
 40
1.0
 40
1.0
 40
1.0
 10
88.11090633601542
 20
60.56049913722947
 30
0.0
 10
87.7435239733294
 20
59.92417421925261
 30
0.0
 10
87.44073441293523
 20
59.28321006829997
 30
0.0
 10
87.0212726046299
 20
57.98791430836835
 30
0.0
 10
86.90598397917532
 20
57.3334833238135
 30
0.0
 10
86.90471758231142
 20
56.33950728314336
 30
0.0
 10
86.93290113940041
 20
56.00662255653876
 30
0.0
 10
87.0428023084424
 20
55.3481415229785
 30
0.0
 10
87.12440837051533
 20
55.02110864669976
 30
0.0
 10
87.43952696540615
 20
54.04583238698615
 30
0.0
 10
87.74306598174233
 20
53.40338868584483
 30
0.0
 10
88.11090633601553
 20
52.76627050316949
 30
0.0
  0
LINE
  5
C4
330
1F
100
AcDbEntity
  8
0
  6
Continuous
 62
     7
370
    25
100
AcDbLine
 10
88.110906336
 20
60.5604991372
 30
0.0
 11
90.7392843303
 21
60.5604991372
 31
0.0
  0
SPLINE
  5
C5
330
1F
100
AcDbEntity
  8
0
  6
Continuous
 62
     7
370
    25
100
AcDbSpline
210
0.0
220
0.0
230
1.0
 70
     8
 71
     3
 72
     8
 73
     4
 74
     0
 42
0.000000001
 43
0.00000001
 40
0.0
 40
0.0
 40
0.0
 40
0.0
 40
1.0
 40
1.0
 40
1.0
 40
1.0
 10
90.73928433031031
 20
60.56049913722946
 30
0.0
 10
90.76690738640413
 20
60.45740848842699
 30
0.0
 10
90.79371923352143
 20
60.35427772900644
 30
0.0
 10
90.81966908803965
 20
60.25110434794716
 30
0.0
  0
SPLINE
  5
C6
330
1F
100
AcDbEntity
  8
0
  6
Continuous
 62
     7
370
    25
100
AcDbSpline
210
0.0
220
0.0
230
1.0
 70
     8
 71
     3
 72
     8
 73
     4
 74
     0
 42
0.000000001
 43
0.00000001
 40
0.0
 40
0.0
 40
0.0
 40
0.0
 40
1.0
 40
1.0
 40
1.0
 40
1.0
 10
90.81966908803965
 20
60.25110434794716
 30
0.0
 10
90.84562615168409
 20
60.35430639159205
 30
0.0
 10
90.87243830577853
 20
60.45743653890663
 30
0.0
 10
90.900053845769
 20
60.56049913722946
 30
0.0
  0
LINE
  5
C7
330
1F
100
AcDbEntity
  8
0
  6
Continuous
 62
     7
370
    25
100
AcDbLine
 10
86.8785407733
 20
44.9720418691
 30
0.0
 11
86.8785407733
 21
58.4259793691
 31
0.0
  0
LINE
  5
C8
330
1F
100
AcDbEntity
  8
0
  6
Continuous
 62
     7
370
    25
100
AcDbLine
 10
86.8785407733
 20
31.5181043691
 30
0.0
 11
86.8785407733
 21
44.9720418691
 31
0.0
  0
LINE
  5
C9
330
1F
100
AcDbEntity
  8
0
  6
Continuous
 62
     7
370
    25
100
AcDbLine
 10
94.8785407733
 20
58.2220418691
 30
0.0
 11
94.8785407733
 21
31.7220418691
 31
0.0
  0
LINE
  5
CA
330
1F
100
AcDbEntity
  8
0
  6
Continuous
 62
     7
370
    25
100
AcDbLine
 10
90.819669088
 20
52.1474809246
 30
0.0
 11
90.819669088
 21
53.0756652925
 31
0.0
  0
SPLINE
  5
CB
330
1F
100
AcDbEntity
  8
0
  6
Continuous
 62
     7
370
    25
100
AcDbSpline
210
0.0
220
0.0
230
1.0
 70
     8
 71
     3
 72
    23
 73
    19
 74
     0
 42
0.000000001
 43
0.00000001
 40
0.0
 40
0.0
 40
0.0
 40
0.0
 40
0.0611415679303345
 40
0.1200010135310723
 40
0.1782359705414084
 40
0.236495543407017
 40
0.294887248704973
 40
0.3546771928192958
 40
0.4166948132897783
 40
0.4806333779628394
 40
0.5458046334786406
 40
0.6097347883178744
 40
0.6729516883751544
 40
0.7360010960706833
 40
0.799827438516525
 40
0.8647672769393869
 40
0.9310835057306723
 40
1.0
 40
1.0
 40
1.0
 40
1.0
 10
90.21664173483954
 20
43.08345507539151
 30
0.0
 10
90.23371125225644
 20
43.08384356046324
 30
0.0
 10
90.26721316363775
 20
43.08460603031686
 30
0.0
 10
90.31624751964283
 20
43.09339698874385
 30
0.0
 10
90.36378886753204
 20
43.10527064114687
 30
0.0
 10
90.40876626174003
 20
43.12445955170911
 30
0.0
 10
90.45242350812396
 20
43.14731511048186
 30
0.0
 10
90.49351284997576
 20
43.17643159097415
 30
0.0
 10
90.53319835571574
 20
43.20981434853745
 30
0.0
 10
90.57001904526597
 20
43.24847482097888
 30
0.0
 10
90.60369824470686
 20
43.29053395406147
 30
0.0
 10
90.6334257822664
 20
43.33526077698351
 30
0.0
 10
90.65851524000907
 20
43.38205181707359
 30
0.0
 10
90.67944883412355
 20
43.43086187463252
 30
0.0
 10
90.69455561504923
 20
43.48224962113401
 30
0.0
 10
90.70645078491408
 20
43.53538558505305
 30
0.0
 10
90.7127807985979
 20
43.59094932779549
 30
0.0
 10
90.71387870213965
 20
43.62864690544075
 30
0.0
 10
90.71443820919852
 20
43.6478581202633
 30
0.0
  0
SPLINE
  5
CC
330
1F
100
AcDbEntity
  8
0
  6
Continuous
 62
     7
370
    25
100
AcDbSpline
210
0.0
220
0.0
230
1.0
 70
     8
 71
     3
 72
    23
 73
    19
 74
     0
 42
0.000000001
 43
0.00000001
 40
0.0
 40
0.0
 40
0.0
 40
0.0
 40
0.0679503475997536
 40
0.1332598223836994
 40
0.197800296759647
 40
0.2608458295516823
 40
0.3233192927503669
 40
0.386281722459572
 40
0.4500615162333126
 40
0.515207584485815
 40
0.5796407692199315
 40
0.6418172023841521
 40
0.7016924412115348
 40
0.7607690981778943
 40
0.8192540511346831
 40
0.8787376269055533
 40
0.9381582970160908
 40
0.9999999999999999
 40
0.9999999999999999
 40
0.9999999999999999
 40
0.9999999999999999
 10
89.72084846560877
 20
43.62832687026331
 30
0.0
 10
89.72139778067731
 20
43.60978005522433
 30
0.0
 10
89.72247506182528
 20
43.57340724235168
 30
0.0
 10
89.72896115182233
 20
43.51971234554385
 30
0.0
 10
89.7404336370067
 20
43.46822623551098
 30
0.0
 10
89.75673669904039
 20
43.41891310410548
 30
0.0
 10
89.77660176876714
 20
43.37136208833754
 30
0.0
 10
89.80194903548013
 20
43.32624783129681
 30
0.0
 10
89.8315777879928
 20
43.28296125807832
 30
0.0
 10
89.8654753766898
 20
43.24244457023642
 30
0.0
 10
89.90190499913749
 20
43.20469176063084
 30
0.0
 10
89.9419193349184
 20
43.17310834217948
 30
0.0
 10
89.98244453882684
 20
43.14460453918731
 30
0.0
 10
90.02594190884996
 20
43.12301390478383
 30
0.0
 10
90.0708359079814
 20
43.10491362202608
 30
0.0
 10
90.11781084255466
 20
43.0927457060806
 30
0.0
 10
90.16662454224706
 20
43.08477976331731
 30
0.0
 10
90.19974889206595
 20
43.08390247644892
 30
0.0
 10
90.21664173483954
 20
43.08345507539151
 30
0.0
  0
SPLINE
  5
CD
330
1F
100
AcDbEntity
  8
0
  6
Continuous
 62
     7
370
    25
100
AcDbSpline
210
0.0
220
0.0
230
1.0
 70
     8
 71
     3
 72
    23
 73
    19
 74
     0
 42
0.000000001
 43
0.00000001
 40
0.0
 40
0.0
 40
0.0
 40
0.0
 40
0.0618526459466919
 40
0.12128383061537
 40
0.1807779320756125
 40
0.2392732340142804
 40
0.2986414352139415
 40
0.3581858222417119
 40
0.4207600867589708
 40
0.4852046730216432
 40
0.5503622689482868
 40
0.613649924530912
 40
0.6766234955168249
 40
0.7391080134690126
 40
0.8021647022429446
 40
0.8667165971324776
 40
0.9320376285055444
 40
1.0
 40
1.0
 40
1.0
 40
1.0
 10
90.21664173483954
 20
44.1731986651351
 30
0.0
 10
90.19974953507801
 20
44.17275011128933
 30
0.0
 10
90.16662644611006
 20
44.1718705639746
 30
0.0
 10
90.11780357042089
 20
44.16392107188593
 30
0.0
 10
90.07086305333593
 20
44.15169145246383
 30
0.0
 10
90.02577056216778
 20
44.13379053009417
 30
0.0
 10
89.98277206939544
 20
44.11133753933141
 30
0.0
 10
89.94156214416171
 20
44.08370665844489
 30
0.0
 10
89.90211234242824
 20
44.05136574496483
 30
0.0
 10
89.86541744817656
 20
44.0137700747226
 30
0.0
 10
89.8317599994442
 20
43.97322678933169
 30
0.0
 10
89.80179134390752
 20
43.93034957965647
 30
0.0
 10
89.77662568695091
 20
43.88527477857773
 30
0.0
 10
89.7567302515308
 20
43.83774518495925
 30
0.0
 10
89.74043541562698
 20
43.78842625024865
 30
0.0
 10
89.72896066710393
 20
43.73694173693806
 30
0.0
 10
89.72247518936102
 20
43.68324640820202
 30
0.0
 10
89.7213978237472
 20
43.64687365491768
 30
0.0
 10
89.72084846560877
 20
43.62832687026331
 30
0.0
  0
SPLINE
  5
CE
330
1F
100
AcDbEntity
  8
0
  6
Continuous
 62
     7
370
    25
100
AcDbSpline
210
0.0
220
0.0
230
1.0
 70
     8
 71
     3
 72
    23
 73
    19
 74
     0
 42
0.000000001
 43
0.00000001
 40
0.0
 40
0.0
 40
0.0
 40
0.0
 40
0.0705921865358073
 40
0.1385012886049301
 40
0.2037899961427013
 40
0.2667875726696012
 40
0.3290979656467186
 40
0.3911745246039659
 40
0.4531677986176574
 40
0.5157967602265847
 40
0.5779688050530403
 40
0.6389663383752914
 40
0.698381066162843
 40
0.7573204555574266
 40
0.8164122397216688
 40
0.8762793582308311
 40
0.9368234656501931
 40
0.9999999999999999
 40
0.9999999999999999
 40
0.9999999999999999
 40
0.9999999999999999
 10
90.71443820919852
 20
43.6478581202633
 30
0.0
 10
90.71387510177419
 20
43.66690198332633
 30
0.0
 10
90.71277028964525
 20
43.70426588581583
 30
0.0
 10
90.70653030278032
 20
43.75901497950787
 30
0.0
 10
90.694707238413
 20
43.81069153565071
 30
0.0
 10
90.67941383248588
 20
43.85988578479095
 30
0.0
 10
90.65859079015786
 20
43.90608499370345
 30
0.0
 10
90.63359723591732
 20
43.94981615808402
 30
0.0
 10
90.60388153379598
 20
43.99064533799556
 30
0.0
 10
90.56977500656923
 20
44.02785550221586
 30
0.0
 10
90.53297874943608
 20
44.06202362293978
 30
0.0
 10
90.493330543205
 20
44.09141378639806
 30
0.0
 10
90.45204170990368
 20
44.11679338824526
 30
0.0
 10
90.40872418459728
 20
44.13742155608355
 30
0.0
 10
90.36340575380613
 20
44.15348635324666
 30
0.0
 10
90.31629186904601
 20
44.16510640815113
 30
0.0
 10
90.26706740112093
 20
44.17157340681754
 30
0.0
 10
90.23368703698958
 20
44.17264928183216
 30
0.0
 10
90.21664173483954
 20
44.1731986651351
 30
0.0
  0
LINE
  5
CF
330
1F
100
AcDbEntity
  8
0
  6
Continuous
 62
     7
370
    25
100
AcDbLine
 10
72.4837171123
 20
57.9761411297
 30
0.0
 11
72.4837171123
 21
31.9679426085
 31
0.0
  0
LINE
  5
D0
330
1F
100
AcDbEntity
  8
0
  6
Continuous
 62
     7
370
    25
100
AcDbLine
 10
69.8785407733
 20
33.4720418691
 30
0.0
 11
69.8785407733
 21
56.4720418691
 31
0.0
  0
LINE
  5
D1
330
1F
100
AcDbEntity
  8
0
  6
Continuous
 62
     7
370
    25
100
AcDbLine
 10
103.8785407733
 20
52.9720418691
 30
0.0
 11
103.8785407733
 21
36.9720418691
 31
0.0
  0
LINE
  5
D2
330
1F
100
AcDbEntity
  8
0
  6
Continuous
 62
     7
370
    25
100
AcDbLine
 10
121.8785407733
 20
52.9720418691
 30
0.0
 11
121.8785407733
 21
36.9720418691
 31
0.0
  0
LINE
  5
D3
330
1F
100
AcDbEntity
  8
0
  6
Continuous
 62
     7
370
    25
100
AcDbLine
 10
109.8785407733
 20
52.9720418691
 30
0.0
 11
109.8785407733
 21
36.9720418691
 31
0.0
  0
LINE
  5
D4
330
1F
100
AcDbEntity
  8
0
  6
Continuous
 62
     7
370
    25
100
AcDbLine
 10
115.8785407733
 20
52.9720418691
 30
0.0
 11
115.8785407733
 21
36.9720418691
 31
0.0
  0
LINE
  5
D5
330
1F
100
AcDbEntity
  8
0
  6
Continuous
 62
     7
370
    25
100
AcDbLine
 10
129.8785407733
 20
38.4134329784
 30
0.0
 11
129.8785407733
 21
51.5306507598
 31
0.0
  0
LINE
  5
D6
330
1F
100
AcDbEntity
  8
0
  6
Continuous
 62
     7
370
    25
100
AcDbLine
 10
90.819669088
 20
60.2511043479
 30
0.0
 11
90.819669088
 21
60.2604991372
 31
0.0
  0
LINE
  5
D7
330
1F
100
AcDbEntity
  8
0
  6
Continuous
 62
     7
370
    25
100
AcDbLine
 10
90.819669088
 20
29.683584601
 30
0.0
 11
90.819669088
 21
29.6929793903
 31
0.0
  0
LINE
  5
D8
330
1F
100
AcDbEntity
  8
0
  6
Continuous
 62
     8
370
    25
100
AcDbLine
 10
129.4405581406
 20
37.91729404
 30
0.0
 11
129.4405581406
 21
52.0267896982
 31
0.0
  0
LINE
  5
D9
330
1F
100
AcDbEntity
  8
0
  6
Continuous
 62
     7
370
    18
100
AcDbLine
 10
70.9012467332
 20
57.0625014304
 30
0.0
 11
86.3785407733
 21
57.5461668691
 31
0.0
  0
LINE
  5
DA
330
1F
100
AcDbEntity
  8
0
  6
Continuous
 62
     7
370
    18
100
AcDbLine
 10
70.9012467332
 20
32.8815823079
 30
0.0
 11
86.3785407733
 21
32.3979168691
 31
0.0
  0
LINE
  5
DB
330
1F
100
AcDbEntity
  8
0
  6
Continuous
 62
     7
370
    18
100
AcDbLine
 10
86.3785407733
 20
31.5337293691
 30
0.0
 11
86.3785407733
 21
58.4103543691
 31
0.0
  0
LINE
  5
DC
330
1F
100
AcDbEntity
  8
0
  6
CENTERX2
 62
     7
370
    18
100
AcDbLine
 10
130.8785407733
 20
44.9720418691
 30
0.0
 11
68.4339212494
 21
44.9720418691
 31
0.0
  0
CIRCLE
  5
DD
330
1F
100
AcDbEntity
  8
0
  6
Continuous
 62
     7
370
    25
100
AcDbCircle
 10
155.5718361644
 20
44.9720418691
 30
0.0
 40
6.558608890731335
  0
CIRCLE
  5
DE
330
1F
100
AcDbEntity
  8
0
  6
Continuous
 62
     7
370
    25
100
AcDbCircle
 10
155.5718361644
 20
44.9720418691
 30
0.0
 40
7.054747829088171
  0
CIRCLE
  5
DF
330
1F
100
AcDbEntity
  8
0
  6
Continuous
 62
     7
370
    25
100
AcDbCircle
 10
155.5718361644
 20
44.9720418691
 30
0.0
 40
5.700000000000024
  0
CIRCLE
  5
E0
330
1F
100
AcDbEntity
  8
0
  6
Continuous
 62
     7
370
    25
100
AcDbCircle
 10
155.5718361644
 20
44.9720418691
 30
0.0
 40
5.499999999999972
  0
CIRCLE
  5
E1
330
1F
100
AcDbEntity
  8
0
  6
Continuous
 62
     7
370
    25
100
AcDbCircle
 10
155.5718361644
 20
44.9720418691
 30
0.0
 40
8.0
  0
CIRCLE
  5
E2
330
1F
100
AcDbEntity
  8
0
  6
Continuous
 62
     7
370
    25
100
AcDbCircle
 10
155.5718361644
 20
44.9720418691
 30
0.0
 40
13.25
  0
SPLINE
  5
E3
330
1F
100
AcDbEntity
  8
0
  6
Continuous
 62
     7
370
    25
100
AcDbSpline
210
0.0
220
0.0
230
1.0
 70
    24
 71
     3
 72
    16
 73
    12
 74
     0
 42
0.000000001
 43
0.00000001
 40
0.0
 40
0.0
 40
0.0
 40
0.0
 40
0.2500000000000002
 40
0.2500000000000002
 40
0.5000000000000003
 40
0.5000000000000003
 40
0.6250000000000003
 40
0.6250000000000003
 40
0.7500000000000004
 40
0.7500000000000004
 40
1.0
 40
1.0
 40
1.0
 40
1.0
 10
155.5718361643785
 20
29.38358460098964
 30
0.0
 10
154.4696890763205
 20
30.0199095189665
 30
0.0
 10
153.3595066010403
 20
30.66087366991915
 30
0.0
 10
151.1159885340102
 20
31.95616942985076
 30
0.0
 10
149.9824808187138
 20
32.61060041440562
 30
0.0
 10
148.260863814767
 20
33.60457645507577
 30
0.0
 10
147.6842905552242
 20
33.93746118168036
 30
0.0
 10
146.5437679492774
 20
34.59594221524061
 30
0.0
 10
145.9773303918172
 20
34.92297509151936
 30
0.0
 10
144.2881023585775
 20
35.89825135123298
 30
0.0
 10
143.1753572271981
 20
36.54069505237429
 30
0.0
 10
142.0718361643785
 20
37.17781323504962
 30
0.0
  0
SPLINE
  5
E4
330
1F
100
AcDbEntity
  8
0
  6
Continuous
 62
     7
370
    25
100
AcDbSpline
210
0.0
220
0.0
230
1.0
 70
    24
 71
     3
 72
    16
 73
    12
 74
     0
 42
0.000000001
 43
0.00000001
 40
0.0
 40
0.0
 40
0.0
 40
0.0
 40
0.2499999999999999
 40
0.2499999999999999
 40
0.4999999999999999
 40
0.4999999999999999
 40
0.6249999999999999
 40
0.6249999999999999
 40
0.7499999999999998
 40
0.7499999999999998
 40
1.0
 40
1.0
 40
1.0
 40
1.0
 10
142.0718361643785
 20
37.1778132350496
 30
0.0
 10
142.0718361643785
 20
38.44643407857461
 30
0.0
 10
142.0718361643785
 20
39.74504154515097
 30
0.0
 10
142.0718361643785
 20
42.34754691088364
 30
0.0
 10
142.0718361643785
 20
43.65653347669689
 30
0.0
 10
142.0718361643785
 20
45.63363504165574
 30
0.0
 10
142.0718361643785
 20
46.29491262333478
 30
0.0
 10
142.0718361643785
 20
47.62190220143762
 30
0.0
 10
142.0718361643785
 20
48.27874340215769
 30
0.0
 10
142.0718361643785
 20
50.2299843861014
 30
0.0
 10
142.0718361643785
 20
51.50627960228925
 30
0.0
 10
142.0718361643785
 20
52.76627050316951
 30
0.0
  0
SPLINE
  5
E5
330
1F
100
AcDbEntity
  8
0
  6
Continuous
 62
     7
370
    25
100
AcDbSpline
210
0.0
220
0.0
230
1.0
 70
    24
 71
     3
 72
    16
 73
    12
 74
     0
 42
0.000000001
 43
0.00000001
 40
0.0
 40
0.0
 40
0.0
 40
0.0
 40
0.25
 40
0.25
 40
0.5
 40
0.5
 40
0.625
 40
0.625
 40
0.75
 40
0.75
 40
1.0
 40
1.0
 40
1.0
 40
1.0
 10
142.0718361643785
 20
52.76627050316949
 30
0.0
 10
143.1739832524365
 20
53.40259542114634
 30
0.0
 10
144.2841657277168
 20
54.043559572099
 30
0.0
 10
146.5276837947468
 20
55.3388553320306
 30
0.0
 10
147.6611915100432
 20
55.99328631658546
 30
0.0
 10
149.38280851399
 20
56.98726235725561
 30
0.0
 10
149.9593817735328
 20
57.3201470838602
 30
0.0
 10
151.0999043794797
 20
57.97862811742046
 30
0.0
 10
151.6663419369398
 20
58.30566099369921
 30
0.0
 10
153.3555699701795
 20
59.28093725341282
 30
0.0
 10
154.4683151015589
 20
59.92338095455413
 30
0.0
 10
155.5718361643785
 20
60.56049913722946
 30
0.0
  0
SPLINE
  5
E6
330
1F
100
AcDbEntity
  8
0
  6
Continuous
 62
     7
370
    25
100
AcDbSpline
210
0.0
220
0.0
230
1.0
 70
    24
 71
     3
 72
    16
 73
    12
 74
     0
 42
0.000000001
 43
0.00000001
 40
0.0
 40
0.0
 40
0.0
 40
0.0
 40
0.2500000000000002
 40
0.2500000000000002
 40
0.5000000000000004
 40
0.5000000000000004
 40
0.6250000000000003
 40
0.6250000000000003
 40
0.7500000000000002
 40
0.7500000000000002
 40
1.0
 40
1.0
 40
1.0
 40
1.0
 10
155.5718361643785
 20
60.56049913722947
 30
0.0
 10
156.6739832524365
 20
59.92417421925263
 30
0.0
 10
157.7841657277167
 20
59.28321006829997
 30
0.0
 10
160.0276837947468
 20
57.98791430836835
 30
0.0
 10
161.1611915100432
 20
57.3334833238135
 30
0.0
 10
162.88280851399
 20
56.33950728314336
 30
0.0
 10
163.4593817735328
 20
56.00662255653877
 30
0.0
 10
164.5999043794797
 20
55.3481415229785
 30
0.0
 10
165.1663419369398
 20
55.02110864669976
 30
0.0
 10
166.8555699701795
 20
54.04583238698615
 30
0.0
 10
167.9683151015589
 20
53.40338868584483
 30
0.0
 10
169.0718361643785
 20
52.76627050316949
 30
0.0
  0
SPLINE
  5
E7
330
1F
100
AcDbEntity
  8
0
  6
Continuous
 62
     7
370
    25
100
AcDbSpline
210
0.0
220
0.0
230
1.0
 70
    24
 71
     3
 72
    16
 73
    12
 74
     0
 42
0.000000001
 43
0.00000001
 40
0.0
 40
0.0
 40
0.0
 40
0.0
 40
0.2499999999999999
 40
0.2499999999999999
 40
0.4999999999999999
 40
0.4999999999999999
 40
0.6249999999999999
 40
0.6249999999999999
 40
0.7499999999999998
 40
0.7499999999999998
 40
1.0
 40
1.0
 40
1.0
 40
1.0
 10
169.0718361643785
 20
37.17781323504959
 30
0.0
 10
169.0718361643785
 20
38.44643407857462
 30
0.0
 10
169.0718361643785
 20
39.745041545151
 30
0.0
 10
169.0718361643785
 20
42.34754691088352
 30
0.0
 10
169.0718361643785
 20
43.65653347669663
 30
0.0
 10
169.0718361643785
 20
45.6336350416552
 30
0.0
 10
169.0718361643785
 20
46.29491262333414
 30
0.0
 10
169.0718361643785
 20
47.62190220143673
 30
0.0
 10
169.0718361643785
 20
48.27874340215721
 30
0.0
 10
169.0718361643785
 20
50.22998438610124
 30
0.0
 10
169.0718361643785
 20
51.5062796022892
 30
0.0
 10
169.0718361643785
 20
52.76627050316951
 30
0.0
  0
SPLINE
  5
E8
330
1F
100
AcDbEntity
  8
0
  6
Continuous
 62
     7
370
    25
100
AcDbSpline
210
0.0
220
0.0
230
1.0
 70
    24
 71
     3
 72
    16
 73
    12
 74
     0
 42
0.000000001
 43
0.00000001
 40
0.0
 40
0.0
 40
0.0
 40
0.0
 40
0.2500000000000002
 40
0.2500000000000002
 40
0.5000000000000003
 40
0.5000000000000003
 40
0.6250000000000003
 40
0.6250000000000003
 40
0.7500000000000002
 40
0.7500000000000002
 40
1.0
 40
1.0
 40
1.0
 40
1.0
 10
169.0718361643785
 20
37.17781323504962
 30
0.0
 10
167.9696890763205
 20
36.54148831707277
 30
0.0
 10
166.8595066010403
 20
35.90052416612011
 30
0.0
 10
164.6159885340102
 20
34.60522840618851
 30
0.0
 10
163.4824808187139
 20
33.95079742163365
 30
0.0
 10
161.760863814767
 20
32.95682138096351
 30
0.0
 10
161.1842905552242
 20
32.62393665435891
 30
0.0
 10
160.0437679492774
 20
31.96545562079866
 30
0.0
 10
159.4773303918172
 20
31.6384227445199
 30
0.0
 10
157.7881023585774
 20
30.66314648480629
 30
0.0
 10
156.6753572271981
 20
30.02070278366498
 30
0.0
 10
155.5718361643785
 20
29.38358460098965
 30
0.0
  0
INSERT
  5
F4
330
1F
100
AcDbEntity
  8
0
  6
Continuous
 62
     7
370
    18
100
AcDbBlockReference
  2
SW_CENTERMARKSYMBOL_0
 10
155.5718361644
 20
44.9720418691
 30
0.0
  0
INSERT
  5
100
330
1F
100
AcDbEntity
  8
0
  6
Continuous
 62
     7
370
    18
100
AcDbBlockReference
  2
SW_CENTERMARKSYMBOL_1
 10
155.5718361644
 20
44.9720418691
 30
0.0
  0
LINE
  5
101
330
1F
100
AcDbEntity
  8
0
  6
Continuous
 62
     7
370
    25
100
AcDbLine
 10
94.734203206
 20
73.95592883
 30
0.0
 11
94.8785407733
 21
74.20592883
 31
0.0
  0
LINE
  5
102
330
1F
100
AcDbEntity
  8
0
  6
Continuous
 62
     7
370
    25
100
AcDbLine
 10
94.8785407733
 20
100.70592883
 30
0.0
 11
94.734203206
 21
100.95592883
 31
0.0
  0
LINE
  5
103
330
1F
100
AcDbEntity
  8
0
  6
Continuous
 62
     7
370
    25
100
AcDbLine
 10
86.9051349701
 20
100.95592883
 30
0.0
 11
86.8785407733
 21
100.90986633
 31
0.0
  0
LINE
  5
104
330
1F
100
AcDbEntity
  8
0
  6
Continuous
 62
     7
370
    25
100
AcDbLine
 10
86.8785407733
 20
74.00199133
 30
0.0
 11
86.9051349701
 21
73.95592883
 31
0.0
  0
LINE
  5
105
330
1F
100
AcDbEntity
  8
0
  6
Continuous
 62
     7
370
    25
100
AcDbLine
 10
86.8785407733
 20
100.90986633
 30
0.0
 11
72.4837171123
 21
100.4600280906
 31
0.0
  0
LINE
  5
106
330
1F
100
AcDbEntity
  8
0
  6
Continuous
 62
     7
370
    25
100
AcDbLine
 10
72.4837171123
 20
74.4518295694
 30
0.0
 11
86.8785407733
 21
74.00199133
 31
0.0
  0
LINE
  5
107
330
1F
100
AcDbEntity
  8
0
  6
Continuous
 62
     7
370
    25
100
AcDbLine
 10
72.4837171123
 20
100.4600280906
 30
0.0
 11
69.8785407733
 21
98.95592883
 31
0.0
  0
LINE
  5
108
330
1F
100
AcDbEntity
  8
0
  6
Continuous
 62
     7
370
    25
100
AcDbLine
 10
69.8785407733
 20
75.95592883
 30
0.0
 11
72.4837171123
 21
74.4518295694
 31
0.0
  0
LINE
  5
109
330
1F
100
AcDbEntity
  8
0
  6
Continuous
 62
     7
370
    25
100
AcDbLine
 10
121.8785407733
 20
79.45592883
 30
0.0
 11
129.4405581406
 21
80.4011810009
 31
0.0
  0
LINE
  5
10A
330
1F
100
AcDbEntity
  8
0
  6
Continuous
 62
     7
370
    25
100
AcDbLine
 10
129.4405581406
 20
94.5106766591
 30
0.0
 11
121.8785407733
 21
95.45592883
 31
0.0
  0
LINE
  5
10B
330
1F
100
AcDbEntity
  8
0
  6
Continuous
 62
     7
370
    25
100
AcDbLine
 10
103.8785407733
 20
95.45592883
 30
0.0
 11
94.8785407733
 21
95.45592883
 31
0.0
  0
LINE
  5
10C
330
1F
100
AcDbEntity
  8
0
  6
Continuous
 62
     7
370
    25
100
AcDbLine
 10
94.8785407733
 20
79.45592883
 30
0.0
 11
103.8785407733
 21
79.45592883
 31
0.0
  0
LINE
  5
10D
330
1F
100
AcDbEntity
  8
0
  6
Continuous
 62
     7
370
    25
100
AcDbLine
 10
103.8785407733
 20
79.45592883
 30
0.0
 11
109.8785407733
 21
80.45592883
 31
0.0
  0
LINE
  5
10E
330
1F
100
AcDbEntity
  8
0
  6
Continuous
 62
     7
370
    25
100
AcDbLine
 10
109.8785407733
 20
94.45592883
 30
0.0
 11
103.8785407733
 21
95.45592883
 31
0.0
  0
LINE
  5
10F
330
1F
100
AcDbEntity
  8
0
  6
Continuous
 62
     7
370
    25
100
AcDbLine
 10
109.8785407733
 20
79.45592883
 30
0.0
 11
115.8785407733
 21
80.45592883
 31
0.0
  0
LINE
  5
110
330
1F
100
AcDbEntity
  8
0
  6
Continuous
 62
     7
370
    25
100
AcDbLine
 10
115.8785407733
 20
94.45592883
 30
0.0
 11
109.8785407733
 21
95.45592883
 31
0.0
  0
LINE
  5
111
330
1F
100
AcDbEntity
  8
0
  6
Continuous
 62
     7
370
    25
100
AcDbLine
 10
115.8785407733
 20
79.45592883
 30
0.0
 11
121.8785407733
 21
80.45592883
 31
0.0
  0
LINE
  5
112
330
1F
100
AcDbEntity
  8
0
  6
Continuous
 62
     7
370
    25
100
AcDbLine
 10
121.8785407733
 20
94.45592883
 30
0.0
 11
115.8785407733
 21
95.45592883
 31
0.0
  0
ARC
  5
113
330
1F
100
AcDbEntity
  8
0
  6
Continuous
 62
     7
370
    25
100
AcDbCircle
 10
129.3785407733
 20
80.8973199392
 30
0.0
 40
0.5
100
AcDbArc
 50
277.1250163489
 51
0.0
  0
ARC
  5
114
330
1F
100
AcDbEntity
  8
0
  6
Continuous
 62
     7
370
    25
100
AcDbCircle
 10
129.3785407733
 20
94.0145377207
 30
0.0
 40
0.5000000000000052
100
AcDbArc
 50
0.0
 51
82.8749836511
  0
LINE
  5
115
330
1F
100
AcDbEntity
  8
0
  6
Continuous
 62
     7
370
    25
100
AcDbLine
 10
90.9000538458
 20
100.95592883
 30
0.0
 11
93.5284318401
 21
100.95592883
 31
0.0
  0
SPLINE
  5
116
330
1F
100
AcDbEntity
  8
0
  6
Continuous
 62
     7
370
    25
100
AcDbSpline
210
0.0
220
0.0
230
1.0
 70
     8
 71
     3
 72
    16
 73
    12
 74
     0
 42
0.000000001
 43
0.00000001
 40
0.0
 40
0.0
 40
0.0
 40
0.0
 40
0.2500000000000002
 40
0.2500000000000002
 40
0.5000000000000004
 40
0.5000000000000004
 40
0.6250000000000003
 40
0.6250000000000003
 40
0.7500000000000002
 40
0.7500000000000002
 40
1.0
 40
1.0
 40
1.0
 40
1.0
 10
93.52843184006387
 20
87.45592882997566
 30
0.0
 10
93.89581420274988
 20
88.55807591803368
 30
0.0
 10
94.19860376314405
 20
89.6682583933139
 30
0.0
 10
94.6180655714494
 20
91.911776460344
 30
0.0
 10
94.73335419690399
 20
93.04528417564035
 30
0.0
 10
94.73462059376789
 20
94.76690117958718
 30
0.0
 10
94.70643703667888
 20
95.34347443912999
 30
0.0
 10
94.5965358676369
 20
96.48399704507683
 30
0.0
 10
94.51492980556398
 20
97.05043460253701
 30
0.0
 10
94.19981121067315
 20
98.73966263577671
 30
0.0
 10
93.89627219433697
 20
99.85240776715608
 30
0.0
 10
93.52843184006376
 20
100.9559288299757
 30
0.0
  0
LINE
  5
117
330
1F
100
AcDbEntity
  8
0
  6
Continuous
 62
     7
370
    25
100
AcDbLine
 10
90.9000538458
 20
87.45592883
 30
0.0
 11
93.5284318401
 21
87.45592883
 31
0.0
  0
SPLINE
  5
118
330
1F
100
AcDbEntity
  8
0
  6
Continuous
 62
     7
370
    25
100
AcDbSpline
210
0.0
220
0.0
230
1.0
 70
     8
 71
     3
 72
     8
 73
     4
 74
     0
 42
0.000000001
 43
0.00000001
 40
0.0
 40
0.0
 40
0.0
 40
0.0
 40
1.0
 40
1.0
 40
1.0
 40
1.0
 10
90.900053845769
 20
87.45592882997569
 30
0.0
 10
90.87243078967516
 20
87.63448707148679
 30
0.0
 10
90.84561894255785
 20
87.81311478662634
 30
0.0
 10
90.81966908803965
 20
87.99181632460969
 30
0.0
  0
SPLINE
  5
119
330
1F
100
AcDbEntity
  8
0
  6
Continuous
 62
     7
370
    25
100
AcDbSpline
210
0.0
220
0.0
230
1.0
 70
     8
 71
     3
 72
     8
 73
     4
 74
     0
 42
0.000000001
 43
0.00000001
 40
0.0
 40
0.0
 40
0.0
 40
0.0
 40
1.0
 40
1.0
 40
1.0
 40
1.0
 10
90.81966908803963
 20
87.99181632460969
 30
0.0
 10
90.7937120243952
 20
87.8130651415718
 30
0.0
 10
90.76689987030076
 20
87.63443848663088
 30
0.0
 10
90.73928433031031
 20
87.45592882997569
 30
0.0
  0
LINE
  5
11A
330
1F
100
AcDbEntity
  8
0
  6
Continuous
 62
     7
370
    25
100
AcDbLine
 10
88.110906336
 20
87.45592883
 30
0.0
 11
90.7392843303
 21
87.45592883
 31
0.0
  0
SPLINE
  5
11B
330
1F
100
AcDbEntity
  8
0
  6
Continuous
 62
     7
370
    25
100
AcDbSpline
210
0.0
220
0.0
230
1.0
 70
     8
 71
     3
 72
    16
 73
    12
 74
     0
 42
0.000000001
 43
0.00000001
 40
0.0
 40
0.0
 40
0.0
 40
0.0
 40
0.2499999999999999
 40
0.2499999999999999
 40
0.4999999999999999
 40
0.4999999999999999
 40
0.6249999999999999
 40
0.6249999999999999
 40
0.7499999999999998
 40
0.7499999999999998
 40
1.0
 40
1.0
 40
1.0
 40
1.0
 10
88.11090633601542
 20
100.9559288299757
 30
0.0
 10
87.7435239733294
 20
99.8537817419177
 30
0.0
 10
87.44073441293523
 20
98.74359926663746
 30
0.0
 10
87.02127260462989
 20
96.50008119960738
 30
0.0
 10
86.90598397917532
 20
95.36657348431105
 30
0.0
 10
86.90471758231142
 20
93.64495648036421
 30
0.0
 10
86.93290113940041
 20
93.06838322082137
 30
0.0
 10
87.0428023084424
 20
91.92786061487455
 30
0.0
 10
87.12440837051533
 20
91.36142305741436
 30
0.0
 10
87.43952696540615
 20
89.67219502417464
 30
0.0
 10
87.74306598174233
 20
88.5594498927953
 30
0.0
 10
88.11090633601553
 20
87.45592882997568
 30
0.0
  0
LINE
  5
11C
330
1F
100
AcDbEntity
  8
0
  6
Continuous
 62
     7
370
    25
100
AcDbLine
 10
88.110906336
 20
100.95592883
 30
0.0
 11
90.7392843303
 21
100.95592883
 31
0.0
  0
SPLINE
  5
11D
330
1F
100
AcDbEntity
  8
0
  6
Continuous
 62
     7
370
    25
100
AcDbSpline
210
0.0
220
0.0
230
1.0
 70
     8
 71
     3
 72
     8
 73
     4
 74
     0
 42
0.000000001
 43
0.00000001
 40
0.0
 40
0.0
 40
0.0
 40
0.0
 40
1.0
 40
1.0
 40
1.0
 40
1.0
 10
90.73928433031031
 20
100.9559288299757
 30
0.0
 10
90.76690738640413
 20
100.7773705884646
 30
0.0
 10
90.79371923352143
 20
100.598742873325
 30
0.0
 10
90.81966908803965
 20
100.4200413353417
 30
0.0
  0
SPLINE
  5
11E
330
1F
100
AcDbEntity
  8
0
  6
Continuous
 62
     7
370
    25
100
AcDbSpline
210
0.0
220
0.0
230
1.0
 70
     8
 71
     3
 72
     8
 73
     4
 74
     0
 42
0.000000001
 43
0.00000001
 40
0.0
 40
0.0
 40
0.0
 40
0.0
 40
1.0
 40
1.0
 40
1.0
 40
1.0
 10
90.81966908803965
 20
100.4200413353417
 30
0.0
 10
90.84562615168409
 20
100.5987925183796
 30
0.0
 10
90.87243830577853
 20
100.7774191733205
 30
0.0
 10
90.90005384576898
 20
100.9559288299757
 30
0.0
  0
LINE
  5
11F
330
1F
100
AcDbEntity
  8
0
  6
Continuous
 62
     7
370
    25
100
AcDbLine
 10
94.8785407733
 20
100.70592883
 30
0.0
 11
94.8785407733
 21
74.20592883
 31
0.0
  0
SPLINE
  5
120
330
1F
100
AcDbEntity
  8
0
  6
Continuous
 62
     7
370
    25
100
AcDbSpline
210
0.0
220
0.0
230
1.0
 70
    24
 71
     3
 72
    12
 73
     8
 74
     0
 42
0.000000001
 43
0.00000001
 40
0.0
 40
0.0
 40
0.0
 40
0.0
 40
0.2548952602317417
 40
0.439918559559427
 40
0.6255232731917001
 40
0.8125798341053733
 40
1.0
 40
1.0
 40
1.0
 40
1.0
 10
94.73326101771586
 20
73.95592882997569
 30
0.0
 10
94.71713888345356
 20
73.95592882997569
 30
0.0
 10
94.68931401893764
 20
73.95592882997569
 30
0.0
 10
94.49296811031266
 20
73.95592882997568
 30
0.0
 10
94.24425055333192
 20
73.95592882997569
 30
0.0
 10
93.92442101047637
 20
73.95592882997568
 30
0.0
 10
93.66051364541802
 20
73.95592882997569
 30
0.0
 10
93.52843184006362
 20
73.95592882997569
 30
0.0
  0
SPLINE
  5
121
330
1F
100
AcDbEntity
  8
0
  6
Continuous
 62
     7
370
    25
100
AcDbSpline
210
0.0
220
0.0
230
1.0
 70
     8
 71
     3
 72
    16
 73
    12
 74
     0
 42
0.000000001
 43
0.00000001
 40
0.0
 40
0.0
 40
0.0
 40
0.0
 40
0.25
 40
0.25
 40
0.5
 40
0.5
 40
0.625
 40
0.625
 40
0.75
 40
0.75
 40
1.0
 40
1.0
 40
1.0
 40
1.0
 10
93.52843184006387
 20
73.95592882997565
 30
0.0
 10
93.89581420274988
 20
75.05807591803367
 30
0.0
 10
94.19860376314405
 20
76.1682583933139
 30
0.0
 10
94.6180655714494
 20
78.411776460344
 30
0.0
 10
94.73335419690399
 20
79.54528417564033
 30
0.0
 10
94.73462059376789
 20
81.26690117958718
 30
0.0
 10
94.70643703667888
 20
81.84347443913
 30
0.0
 10
94.59653586763689
 20
82.98399704507683
 30
0.0
 10
94.51492980556398
 20
83.55043460253701
 30
0.0
 10
94.19981121067315
 20
85.23966263577672
 30
0.0
 10
93.89627219433697
 20
86.35240776715608
 30
0.0
 10
93.52843184006375
 20
87.45592882997572
 30
0.0
  0
SPLINE
  5
122
330
1F
100
AcDbEntity
  8
0
  6
Continuous
 62
     7
370
    25
100
AcDbSpline
210
0.0
220
0.0
230
1.0
 70
    24
 71
     3
 72
    13
 73
     9
 74
     0
 42
0.000000001
 43
0.00000001
 40
0.0
 40
0.0
 40
0.0
 40
0.0
 40
0.1852917298383032
 40
0.3709014145284597
 40
0.5577472837880131
 40
0.7451514664625281
 40
0.9945824924508236
 40
1.0
 40
1.0
 40
1.0
 40
1.0
 10
93.52843184006362
 20
100.9559288299757
 30
0.0
 10
93.65913637338552
 20
100.9559288299757
 30
0.0
 10
93.92076972494782
 20
100.9559288299757
 30
0.0
 10
94.23912292106088
 20
100.9559288299757
 30
0.0
 10
94.49443726535704
 20
100.9559288299757
 30
0.0
 10
94.67250498857648
 20
100.9559288299757
 30
0.0
 10
94.76071719590242
 20
100.9559288299756
 30
0.0
 10
94.73302139072767
 20
100.9559288299757
 30
0.0
 10
94.73243264010183
 20
100.9559288299757
 30
0.0
  0
LINE
  5
123
330
1F
100
AcDbEntity
  8
0
  6
Continuous
 62
     7
370
    25
100
AcDbLine
 10
86.8785407733
 20
74.00199133
 30
0.0
 11
86.8785407733
 21
100.90986633
 31
0.0
  0
SPLINE
  5
124
330
1F
100
AcDbEntity
  8
0
  6
Continuous
 62
     7
370
    25
100
AcDbSpline
210
0.0
220
0.0
230
1.0
 70
    24
 71
     3
 72
    12
 73
     8
 74
     0
 42
0.000000001
 43
0.00000001
 40
0.0
 40
0.0
 40
0.0
 40
0.0
 40
0.2416481335353986
 40
0.4299028472038076
 40
0.6187765127099388
 40
0.8091952269991516
 40
1.0
 40
1.0
 40
1.0
 40
1.0
 10
86.91057247973585
 20
100.9559288299757
 30
0.0
 10
86.92313865466413
 20
100.9559288299757
 30
0.0
 10
86.94549444240016
 20
100.9559288299757
 30
0.0
 10
87.13488671489505
 20
100.9559288299757
 30
0.0
 10
87.38429300228182
 20
100.9559288299757
 30
0.0
 10
87.70806522366958
 20
100.9559288299757
 30
0.0
 10
87.97653534015349
 20
100.9559288299757
 30
0.0
 10
88.11090633601566
 20
100.9559288299757
 30
0.0
  0
SPLINE
  5
125
330
1F
100
AcDbEntity
  8
0
  6
Continuous
 62
     7
370
    25
100
AcDbSpline
210
0.0
220
0.0
230
1.0
 70
     8
 71
     3
 72
    16
 73
    12
 74
     0
 42
0.000000001
 43
0.00000001
 40
0.0
 40
0.0
 40
0.0
 40
0.0
 40
0.25
 40
0.25
 40
0.5
 40
0.5
 40
0.625
 40
0.625
 40
0.75
 40
0.75
 40
1.0
 40
1.0
 40
1.0
 40
1.0
 10
88.11090633601542
 20
87.45592882997573
 30
0.0
 10
87.7435239733294
 20
86.35378174191771
 30
0.0
 10
87.44073441293523
 20
85.24359926663746
 30
0.0
 10
87.0212726046299
 20
83.0000811996074
 30
0.0
 10
86.90598397917532
 20
81.86657348431105
 30
0.0
 10
86.90471758231142
 20
80.14495648036421
 30
0.0
 10
86.93290113940041
 20
79.56838322082137
 30
0.0
 10
87.0428023084424
 20
78.42786061487455
 30
0.0
 10
87.12440837051533
 20
77.86142305741437
 30
0.0
 10
87.43952696540615
 20
76.17219502417464
 30
0.0
 10
87.74306598174233
 20
75.0594498927953
 30
0.0
 10
88.11090633601553
 20
73.95592882997568
 30
0.0
  0
SPLINE
  5
126
330
1F
100
AcDbEntity
  8
0
  6
Continuous
 62
     7
370
    25
100
AcDbSpline
210
0.0
220
0.0
230
1.0
 70
    24
 71
     3
 72
    12
 73
     8
 74
     0
 42
0.000000001
 43
0.00000001
 40
0.0
 40
0.0
 40
0.0
 40
0.0
 40
0.1885294093501802
 40
0.3773953527529332
 40
0.5675745867769598
 40
0.758348914443257
 40
1.0
 40
1.0
 40
1.0
 40
1.0
 10
88.11090633601567
 20
73.95592882997569
 30
0.0
 10
87.97807542932121
 20
73.95592882997569
 30
0.0
 10
87.71217650638266
 20
73.95592882997569
 30
0.0
 10
87.38876243681347
 20
73.95592882997569
 30
0.0
 10
87.13685046930479
 20
73.95592882997569
 30
0.0
 10
86.94621771840599
 20
73.95592882997569
 30
0.0
 10
86.92164045789657
 20
73.95592882997569
 30
0.0
 10
86.90790601607031
 20
73.95592882997569
 30
0.0
  0
LINE
  5
127
330
1F
100
AcDbEntity
  8
0
  6
Continuous
 62
     7
370
    25
100
AcDbLine
 10
90.819669088
 20
86.9200413353
 30
0.0
 11
90.819669088
 21
87.9918163246
 31
0.0
  0
SPLINE
  5
128
330
1F
100
AcDbEntity
  8
0
  6
Continuous
 62
     7
370
    25
100
AcDbSpline
210
0.0
220
0.0
230
1.0
 70
     8
 71
     3
 72
     8
 73
     4
 74
     0
 42
0.000000001
 43
0.00000001
 40
0.0
 40
0.0
 40
0.0
 40
0.0
 40
1.0
 40
1.0
 40
1.0
 40
1.0
 10
90.73928433031031
 20
87.45592882997569
 30
0.0
 10
90.76690738640413
 20
87.27737058846459
 30
0.0
 10
90.79371923352143
 20
87.09874287332504
 30
0.0
 10
90.81966908803965
 20
86.9200413353417
 30
0.0
  0
LINE
  5
129
330
1F
100
AcDbEntity
  8
0
  6
Continuous
 62
     7
370
    25
100
AcDbLine
 10
90.9000538458
 20
73.95592883
 30
0.0
 11
93.5284318401
 21
73.95592883
 31
0.0
  0
SPLINE
  5
12A
330
1F
100
AcDbEntity
  8
0
  6
Continuous
 62
     7
370
    25
100
AcDbSpline
210
0.0
220
0.0
230
1.0
 70
     8
 71
     3
 72
     8
 73
     4
 74
     0
 42
0.000000001
 43
0.00000001
 40
0.0
 40
0.0
 40
0.0
 40
0.0
 40
1.0
 40
1.0
 40
1.0
 40
1.0
 10
90.900053845769
 20
73.95592882997569
 30
0.0
 10
90.87243078967516
 20
74.13448707148679
 30
0.0
 10
90.84561894255785
 20
74.31311478662633
 30
0.0
 10
90.81966908803965
 20
74.49181632460967
 30
0.0
  0
SPLINE
  5
12B
330
1F
100
AcDbEntity
  8
0
  6
Continuous
 62
     7
370
    25
100
AcDbSpline
210
0.0
220
0.0
230
1.0
 70
     8
 71
     3
 72
     8
 73
     4
 74
     0
 42
0.000000001
 43
0.00000001
 40
0.0
 40
0.0
 40
0.0
 40
0.0
 40
1.0
 40
1.0
 40
1.0
 40
1.0
 10
90.81966908803963
 20
74.49181632460969
 30
0.0
 10
90.7937120243952
 20
74.3130651415718
 30
0.0
 10
90.76689987030076
 20
74.13443848663088
 30
0.0
 10
90.73928433031031
 20
73.95592882997569
 30
0.0
  0
LINE
  5
12C
330
1F
100
AcDbEntity
  8
0
  6
Continuous
 62
     7
370
    25
100
AcDbLine
 10
88.110906336
 20
73.95592883
 30
0.0
 11
90.7392843303
 21
73.95592883
 31
0.0
  0
SPLINE
  5
12D
330
1F
100
AcDbEntity
  8
0
  6
Continuous
 62
     7
370
    25
100
AcDbSpline
210
0.0
220
0.0
230
1.0
 70
     8
 71
     3
 72
     8
 73
     4
 74
     0
 42
0.000000001
 43
0.00000001
 40
0.0
 40
0.0
 40
0.0
 40
0.0
 40
1.0
 40
1.0
 40
1.0
 40
1.0
 10
90.81966908803965
 20
86.9200413353417
 30
0.0
 10
90.84562615168409
 20
87.09879251837958
 30
0.0
 10
90.87243830577853
 20
87.2774191733205
 30
0.0
 10
90.900053845769
 20
87.45592882997569
 30
0.0
  0
LINE
  5
12E
330
1F
100
AcDbEntity
  8
0
  6
Continuous
 62
     7
370
    25
100
AcDbLine
 10
72.4837171123
 20
87.45592883
 30
0.0
 11
72.4837171123
 21
74.4518295694
 31
0.0
  0
LINE
  5
12F
330
1F
100
AcDbEntity
  8
0
  6
Continuous
 62
     7
370
    25
100
AcDbLine
 10
72.4837171123
 20
100.4600280906
 30
0.0
 11
72.4837171123
 21
87.45592883
 31
0.0
  0
LINE
  5
130
330
1F
100
AcDbEntity
  8
0
  6
Continuous
 62
     7
370
    25
100
AcDbLine
 10
69.8785407733
 20
75.95592883
 30
0.0
 11
69.8785407733
 21
98.95592883
 31
0.0
  0
SPLINE
  5
131
330
1F
100
AcDbEntity
  8
0
  6
Continuous
 62
     7
370
    25
100
AcDbSpline
210
0.0
220
0.0
230
1.0
 70
    24
 71
     3
 72
     8
 73
     4
 74
     0
 42
0.000000001
 43
0.00000001
 40
0.0
 40
0.0
 40
0.0
 40
0.0
 40
1.0
 40
1.0
 40
1.0
 40
1.0
 10
90.81966908803965
 20
100.9559288299757
 30
0.0
 10
90.79371239530917
 20
100.9559288299757
 30
0.0
 10
90.76690025680722
 20
100.9559288299757
 30
0.0
 10
90.73928433031031
 20
100.9559288299757
 30
0.0
  0
LINE
  5
132
330
1F
100
AcDbEntity
  8
0
  6
Continuous
 62
     7
370
    25
100
AcDbLine
 10
90.819669088
 20
100.4200413353
 30
0.0
 11
90.819669088
 21
100.95592883
 31
0.0
  0
SPLINE
  5
133
330
1F
100
AcDbEntity
  8
0
  6
Continuous
 62
     7
370
    25
100
AcDbSpline
210
0.0
220
0.0
230
1.0
 70
    24
 71
     3
 72
     8
 73
     4
 74
     0
 42
0.000000001
 43
0.00000001
 40
0.0
 40
0.0
 40
0.0
 40
0.0
 40
1.0
 40
1.0
 40
1.0
 40
1.0
 10
90.900053845769
 20
100.9559288299757
 30
0.0
 10
90.87242968696657
 20
100.9559288299757
 30
0.0
 10
90.84561788555345
 20
100.9559288299757
 30
0.0
 10
90.81966908803965
 20
100.9559288299757
 30
0.0
  0
LINE
  5
134
330
1F
100
AcDbEntity
  8
0
  6
Continuous
 62
     7
370
    25
100
AcDbLine
 10
90.819669088
 20
73.95592883
 30
0.0
 11
90.819669088
 21
74.4918163246
 31
0.0
  0
SPLINE
  5
135
330
1F
100
AcDbEntity
  8
0
  6
Continuous
 62
     7
370
    25
100
AcDbSpline
210
0.0
220
0.0
230
1.0
 70
    24
 71
     3
 72
     8
 73
     4
 74
     0
 42
0.000000001
 43
0.00000001
 40
0.0
 40
0.0
 40
0.0
 40
0.0
 40
1.0
 40
1.0
 40
1.0
 40
1.0
 10
90.73928433031031
 20
73.95592882997569
 30
0.0
 10
90.76690848911272
 20
73.95592882997569
 30
0.0
 10
90.79372029052584
 20
73.95592882997569
 30
0.0
 10
90.81966908803965
 20
73.95592882997569
 30
0.0
  0
SPLINE
  5
136
330
1F
100
AcDbEntity
  8
0
  6
Continuous
 62
     7
370
    25
100
AcDbSpline
210
0.0
220
0.0
230
1.0
 70
    24
 71
     3
 72
     8
 73
     4
 74
     0
 42
0.000000001
 43
0.00000001
 40
0.0
 40
0.0
 40
0.0
 40
0.0
 40
1.0
 40
1.0
 40
1.0
 40
1.0
 10
90.81966908803965
 20
73.95592882997569
 30
0.0
 10
90.84562578077012
 20
73.95592882997569
 30
0.0
 10
90.87243791927206
 20
73.95592882997569
 30
0.0
 10
90.900053845769
 20
73.95592882997569
 30
0.0
  0
LINE
  5
137
330
1F
100
AcDbEntity
  8
0
  6
Continuous
 62
     7
370
    25
100
AcDbLine
 10
121.8785407733
 20
87.45592883
 30
0.0
 11
121.8785407733
 21
79.45592883
 31
0.0
  0
LINE
  5
138
330
1F
100
AcDbEntity
  8
0
  6
Continuous
 62
     7
370
    25
100
AcDbLine
 10
121.8785407733
 20
95.45592883
 30
0.0
 11
121.8785407733
 21
87.45592883
 31
0.0
  0
LINE
  5
139
330
1F
100
AcDbEntity
  8
0
  6
Continuous
 62
     7
370
    25
100
AcDbLine
 10
103.8785407733
 20
87.45592883
 30
0.0
 11
103.8785407733
 21
79.45592883
 31
0.0
  0
LINE
  5
13A
330
1F
100
AcDbEntity
  8
0
  6
Continuous
 62
     7
370
    25
100
AcDbLine
 10
103.8785407733
 20
95.45592883
 30
0.0
 11
103.8785407733
 21
87.45592883
 31
0.0
  0
LINE
  5
13B
330
1F
100
AcDbEntity
  8
0
  6
Continuous
 62
     7
370
    25
100
AcDbLine
 10
109.8785407733
 20
87.45592883
 30
0.0
 11
109.8785407733
 21
79.45592883
 31
0.0
  0
LINE
  5
13C
330
1F
100
AcDbEntity
  8
0
  6
Continuous
 62
     7
370
    25
100
AcDbLine
 10
109.8785407733
 20
95.45592883
 30
0.0
 11
109.8785407733
 21
87.45592883
 31
0.0
  0
LINE
  5
13D
330
1F
100
AcDbEntity
  8
0
  6
Continuous
 62
     7
370
    25
100
AcDbLine
 10
115.8785407733
 20
87.45592883
 30
0.0
 11
115.8785407733
 21
79.45592883
 31
0.0
  0
LINE
  5
13E
330
1F
100
AcDbEntity
  8
0
  6
Continuous
 62
     7
370
    25
100
AcDbLine
 10
115.8785407733
 20
95.45592883
 30
0.0
 11
115.8785407733
 21
87.45592883
 31
0.0
  0
LINE
  5
13F
330
1F
100
AcDbEntity
  8
0
  6
Continuous
 62
     7
370
    25
100
AcDbLine
 10
129.8785407733
 20
94.0145377207
 30
0.0
 11
129.8785407733
 21
80.8973199392
 31
0.0
  0
LINE
  5
140
330
1F
100
AcDbEntity
  8
0
  6
Continuous
 62
     8
370
    25
100
AcDbLine
 10
129.4405581406
 20
87.45592883
 30
0.0
 11
129.4405581406
 21
94.5106766591
 31
0.0
  0
LINE
  5
141
330
1F
100
AcDbEntity
  8
0
  6
Continuous
 62
     8
370
    25
100
AcDbLine
 10
129.4405581406
 20
80.4011810009
 30
0.0
 11
129.4405581406
 21
87.45592883
 31
0.0
  0
LINE
  5
142
330
1F
100
AcDbEntity
  8
0
  6
Continuous
 62
     7
370
    18
100
AcDbLine
 10
70.9012467332
 20
99.5463883912
 30
0.0
 11
86.3785407733
 21
100.03005383
 31
0.0
  0
LINE
  5
143
330
1F
100
AcDbEntity
  8
0
  6
Continuous
 62
     7
370
    18
100
AcDbLine
 10
70.9012467332
 20
75.3654692687
 30
0.0
 11
86.3785407733
 21
74.88180383
 31
0.0
  0
LINE
  5
144
330
1F
100
AcDbEntity
  8
0
  6
Continuous
 62
     7
370
    18
100
AcDbLine
 10
86.3785407733
 20
74.01761633
 30
0.0
 11
86.3785407733
 21
100.89424133
 31
0.0
  0
LINE
  5
145
330
1F
100
AcDbEntity
  8
0
  6
CENTERX2
 62
     7
370
    18
100
AcDbLine
 10
130.8785407733
 20
87.45592883
 30
0.0
 11
68.5460899278
 21
87.45592883
 31
0.0
  0
ENDSEC
  0
SECTION
  2
OBJECTS
  0
DICTIONARY
  5
C
330
0
100
AcDbDictionary
281
     1
  3
ACAD_GROUP
350
D
  3
ACAD_LAYOUT
350
1A
  3
ACAD_MLINESTYLE
350
17
  3
ACAD_PLOTSETTINGS
350
19
  3
ACAD_PLOTSTYLENAME
350
E
  3
ACAD_SCALELIST
350
47
  0
DICTIONARY
  5
D
102
{ACAD_REACTORS
330
C
102
}
330
C
100
AcDbDictionary
281
     1
  0
DICTIONARY
  5
1A
102
{ACAD_REACTORS
330
C
102
}
330
C
100
AcDbDictionary
281
     1
  3
Layout1
350
1E
  3
Layout2
350
26
  3
Model
350
22
  0
DICTIONARY
  5
17
102
{ACAD_REACTORS
330
C
102
}
330
C
100
AcDbDictionary
281
     1
  3
Standard
350
18
  0
DICTIONARY
  5
19
102
{ACAD_REACTORS
330
C
102
}
330
C
100
AcDbDictionary
281
     1
  0
ACDBDICTIONARYWDFLT
  5
E
102
{ACAD_REACTORS
330
C
102
}
330
C
100
AcDbDictionary
281
     1
  3
Normal
350
F
100
AcDbDictionaryWithDefault
340
F
  0
DICTIONARY
  5
47
102
{ACAD_REACTORS
330
C
102
}
330
C
100
AcDbDictionary
281
     1
  3
A0
350
48
  3
A1
350
49
  3
A2
350
4A
  3
A3
350
4B
  3
A4
350
4C
  3
A5
350
4D
  3
A6
350
4E
  3
A7
350
4F
  3
A8
350
50
  3
A9
350
51
  3
B0
350
52
  3
B1
350
53
  3
B2
350
54
  3
B3
350
55
  3
B4
350
56
  3
B5
350
57
  3
B6
350
58
  3
B7
350
59
  3
B8
350
5A
  3
B9
350
5B
  3
C0
350
5C
  3
C1
350
5D
  3
C2
350
5E
  3
C3
350
5F
  3
C4
350
60
  3
C5
350
61
  3
C6
350
62
  3
C7
350
63
  3
C8
350
64
  3
C9
350
65
  3
D0
350
66
  3
D1
350
67
  3
D2
350
68
  0
LAYOUT
  5
1E
102
{ACAD_REACTORS
330
1A
102
}
330
1A
100
AcDbPlotSettings
  1

  2
none_device
  4

  6

 40
0.0
 41
0.0
 42
0.0
 43
0.0
 44
0.0
 45
0.0
 46
0.0
 47
0.0
 48
0.0
 49
0.0
140
0.0
141
0.0
142
1.0
143
1.0
 70
   688
 72
     1
 73
     0
 74
     5
  7

 75
    16
147
1.0
148
0.0
149
0.0
100
AcDbLayout
  1
Layout1
 70
     1
 71
     1
 10
0.0
 20
0.0
 11
420.0
 21
297.0
 12
0.0
 22
0.0
 32
0.0
 14
1.0000000000E+20
 24
1.0000000000E+20
 34
1.0000000000E+20
 15
-1.0000000000E+20
 25
-1.0000000000E+20
 35
-1.0000000000E+20
146
0.0
 13
0.0
 23
0.0
 33
0.0
 16
1.0
 26
0.0
 36
0.0
 17
0.0
 27
1.0
 37
0.0
 76
     0
330
1B
  0
LAYOUT
  5
26
102
{ACAD_REACTORS
330
1A
102
}
330
1A
100
AcDbPlotSettings
  1

  2
none_device
  4

  6

 40
0.0
 41
0.0
 42
0.0
 43
0.0
 44
0.0
 45
0.0
 46
0.0
 47
0.0
 48
0.0
 49
0.0
140
0.0
141
0.0
142
1.0
143
1.0
 70
   688
 72
     1
 73
     0
 74
     5
  7

 75
    16
147
1.0
148
0.0
149
0.0
100
AcDbLayout
  1
Layout2
 70
     1
 71
     2
 10
0.0
 20
0.0
 11
0.0
 21
0.0
 12
0.0
 22
0.0
 32
0.0
 14
0.0
 24
0.0
 34
0.0
 15
0.0
 25
0.0
 35
0.0
146
0.0
 13
0.0
 23
0.0
 33
0.0
 16
1.0
 26
0.0
 36
0.0
 17
0.0
 27
1.0
 37
0.0
 76
     0
330
23
  0
LAYOUT
  5
22
102
{ACAD_REACTORS
330
1A
102
}
330
1A
100
AcDbPlotSettings
  1

  2
none_device
  4
Letter_(8.50_x_11.00_Inches)
  6

 40
6.35
 41
6.35
 42
6.35000508
 43
6.35000508
 44
215.9
 45
279.4
 46
0.0
 47
0.0
 48
0.0
 49
0.0
140
0.0
141
0.0
142
1.0
143
1.0
 70
  1712
 72
     1
 73
     0
 74
     0
  7

 75
     0
147
1.0
148
0.0
149
0.0
100
AcDbLayout
  1
Model
 70
     1
 71
     0
 10
0.0
 20
0.0
 11
215.9
 21
139.7
 12
0.0
 22
0.0
 32
0.0
 14
0.0
 24
0.0
 34
0.0
 15
215.9
 25
139.7
 35
0.0
146
0.0
 13
0.0
 23
0.0
 33
0.0
 16
1.0
 26
0.0
 36
0.0
 17
0.0
 27
1.0
 37
0.0
 76
     0
330
1F
331
29
  0
MLINESTYLE
  5
18
102
{ACAD_REACTORS
330
17
102
}
330
17
100
AcDbMlineStyle
  2
Standard
 70
     0
  3

 62
   256
 51
90.0
 52
90.0
 71
     2
 49
0.5
 62
   256
  6
BYLAYER
 49
-0.5
 62
   256
  6
BYLAYER
  0
ACDBPLACEHOLDER
  5
F
102
{ACAD_REACTORS
330
E
102
}
330
E
  0
SCALE
  5
48
102
{ACAD_REACTORS
330
47
102
}
330
47
100
AcDbScale
 70
     0
300
1:1
140
1.0
141
1.0
290
     1
  0
SCALE
  5
49
102
{ACAD_REACTORS
330
47
102
}
330
47
100
AcDbScale
 70
     0
300
1:2
140
1.0
141
2.0
290
     0
  0
SCALE
  5
4A
102
{ACAD_REACTORS
330
47
102
}
330
47
100
AcDbScale
 70
     0
300
1:4
140
1.0
141
4.0
290
     0
  0
SCALE
  5
4B
102
{ACAD_REACTORS
330
47
102
}
330
47
100
AcDbScale
 70
     0
300
1:5
140
1.0
141
5.0
290
     0
  0
SCALE
  5
4C
102
{ACAD_REACTORS
330
47
102
}
330
47
100
AcDbScale
 70
     0
300
1:8
140
1.0
141
8.0
290
     0
  0
SCALE
  5
4D
102
{ACAD_REACTORS
330
47
102
}
330
47
100
AcDbScale
 70
     0
300
1:10
140
1.0
141
10.0
290
     0
  0
SCALE
  5
4E
102
{ACAD_REACTORS
330
47
102
}
330
47
100
AcDbScale
 70
     0
300
1:16
140
1.0
141
16.0
290
     0
  0
SCALE
  5
4F
102
{ACAD_REACTORS
330
47
102
}
330
47
100
AcDbScale
 70
     0
300
1:20
140
1.0
141
20.0
290
     0
  0
SCALE
  5
50
102
{ACAD_REACTORS
330
47
102
}
330
47
100
AcDbScale
 70
     0
300
1:30
140
1.0
141
30.0
290
     0
  0
SCALE
  5
51
102
{ACAD_REACTORS
330
47
102
}
330
47
100
AcDbScale
 70
     0
300
1:40
140
1.0
141
40.0
290
     0
  0
SCALE
  5
52
102
{ACAD_REACTORS
330
47
102
}
330
47
100
AcDbScale
 70
     0
300
1:50
140
1.0
141
50.0
290
     0
  0
SCALE
  5
53
102
{ACAD_REACTORS
330
47
102
}
330
47
100
AcDbScale
 70
     0
300
1:100
140
1.0
141
100.0
290
     0
  0
SCALE
  5
54
102
{ACAD_REACTORS
330
47
102
}
330
47
100
AcDbScale
 70
     0
300
2:1
140
2.0
141
1.0
290
     0
  0
SCALE
  5
55
102
{ACAD_REACTORS
330
47
102
}
330
47
100
AcDbScale
 70
     0
300
4:1
140
4.0
141
1.0
290
     0
  0
SCALE
  5
56
102
{ACAD_REACTORS
330
47
102
}
330
47
100
AcDbScale
 70
     0
300
8:1
140
8.0
141
1.0
290
     0
  0
SCALE
  5
57
102
{ACAD_REACTORS
330
47
102
}
330
47
100
AcDbScale
 70
     0
300
10:1
140
10.0
141
1.0
290
     0
  0
SCALE
  5
58
102
{ACAD_REACTORS
330
47
102
}
330
47
100
AcDbScale
 70
     0
300
100:1
140
100.0
141
1.0
290
     0
  0
SCALE
  5
59
102
{ACAD_REACTORS
330
47
102
}
330
47
100
AcDbScale
 70
     0
300
1/128" = 1'-0"
140
0.0078125
141
12.0
290
     0
  0
SCALE
  5
5A
102
{ACAD_REACTORS
330
47
102
}
330
47
100
AcDbScale
 70
     0
300
1/64" = 1'-0"
140
0.015625
141
12.0
290
     0
  0
SCALE
  5
5B
102
{ACAD_REACTORS
330
47
102
}
330
47
100
AcDbScale
 70
     0
300
1/32" = 1'-0"
140
0.03125
141
12.0
290
     0
  0
SCALE
  5
5C
102
{ACAD_REACTORS
330
47
102
}
330
47
100
AcDbScale
 70
     0
300
1/16" = 1'-0"
140
0.0625
141
12.0
290
     0
  0
SCALE
  5
5D
102
{ACAD_REACTORS
330
47
102
}
330
47
100
AcDbScale
 70
     0
300
3/32" = 1'-0"
140
0.09375
141
12.0
290
     0
  0
SCALE
  5
5E
102
{ACAD_REACTORS
330
47
102
}
330
47
100
AcDbScale
 70
     0
300
1/8" = 1'-0"
140
0.125
141
12.0
290
     0
  0
SCALE
  5
5F
102
{ACAD_REACTORS
330
47
102
}
330
47
100
AcDbScale
 70
     0
300
3/16" = 1'-0"
140
0.1875
141
12.0
290
     0
  0
SCALE
  5
60
102
{ACAD_REACTORS
330
47
102
}
330
47
100
AcDbScale
 70
     0
300
1/4" = 1'-0"
140
0.25
141
12.0
290
     0
  0
SCALE
  5
61
102
{ACAD_REACTORS
330
47
102
}
330
47
100
AcDbScale
 70
     0
300
3/8" = 1'-0"
140
0.375
141
12.0
290
     0
  0
SCALE
  5
62
102
{ACAD_REACTORS
330
47
102
}
330
47
100
AcDbScale
 70
     0
300
1/2" = 1'-0"
140
0.5
141
12.0
290
     0
  0
SCALE
  5
63
102
{ACAD_REACTORS
330
47
102
}
330
47
100
AcDbScale
 70
     0
300
3/4" = 1'-0"
140
0.75
141
12.0
290
     0
  0
SCALE
  5
64
102
{ACAD_REACTORS
330
47
102
}
330
47
100
AcDbScale
 70
     0
300
1" = 1'-0"
140
1.0
141
12.0
290
     0
  0
SCALE
  5
65
102
{ACAD_REACTORS
330
47
102
}
330
47
100
AcDbScale
 70
     0
300
1-1/2" = 1'-0"
140
1.5
141
12.0
290
     0
  0
SCALE
  5
66
102
{ACAD_REACTORS
330
47
102
}
330
47
100
AcDbScale
 70
     0
300
3" = 1'-0"
140
3.0
141
12.0
290
     0
  0
SCALE
  5
67
102
{ACAD_REACTORS
330
47
102
}
330
47
100
AcDbScale
 70
     0
300
6" = 1'-0"
140
6.0
141
12.0
290
     0
  0
SCALE
  5
68
102
{ACAD_REACTORS
330
47
102
}
330
47
100
AcDbScale
 70
     0
300
1'-0" = 1'-0"
140
12.0
141
12.0
290
     0
  0
ENDSEC
  0
EOF
