  0
SECTION
  2
HEADER
  9
$ACADVER
  1
AC1015
  9
$ACADMAINTVER
 70
     6
  9
$DWGCODEPAGE
  3
DOS932
  9
$INSBASE
 10
0.0
 20
0.0
 30
0.0
  9
$EXTMIN
 10
0.0
 20
0.0
 30
0.0
  9
$EXTMAX
 10
215.9
 20
139.7
 30
0.0
  9
$LIMMIN
 10
0.0
 20
0.0
  9
$LIMMAX
 10
215.9
 20
139.7
  9
$ORTHOMODE
 70
     0
  9
$REGENMODE
 70
     1
  9
$FILLMODE
 70
     1
  9
$QTEXTMODE
 70
     0
  9
$MIRRTEXT
 70
     1
  9
$LTSCALE
 40
0.5
  9
$ATTMODE
 70
     1
  9
$TEXTSIZE
 40
1.75
  9
$TRACEWID
 40
1.0
  9
$TEXTSTYLE
  7
Standard
  9
$CLAYER
  8
0
  9
$CELTYPE
  6
ByLayer
  9
$CECOLOR
 62
   256
  9
$CELTSCALE
 40
1.0
  9
$DISPSILH
 70
     0
  9
$DIMSCALE
 40
1.0
  9
$DIMASZ
 40
1.651
  9
$DIMEXO
 40
0.5
  9
$DIMDLI
 40
3.75
  9
$DIMRND
 40
0.0
  9
$DIMDLE
 40
0.0
  9
$DIMEXE
 40
0.5
  9
$DIMTP
 40
0.0
  9
$DIMTM
 40
0.0
  9
$DIMTXT
 40
1.75
  9
$DIMCEN
 40
2.5
  9
$DIMTSZ
 40
0.0
  9
$DIMTOL
 70
     0
  9
$DIMLIM
 70
     0
  9
$DIMTIH
 70
     1
  9
$DIMTOH
 70
     1
  9
$DIMSE1
 70
     0
  9
$DIMSE2
 70
     0
  9
$DIMTAD
 70
     1
  9
$DIMZIN
 70
     1
  9
$DIMBLK
  1

  9
$DIMASO
 70
     1
  9
$DIMSHO
 70
     1
  9
$DIMPOST
  1

  9
$DIMAPOST
  1

  9
$DIMALT
 70
     0
  9
$DIMALTD
 70
     3
  9
$DIMALTF
 40
0.0393700787
  9
$DIMLFAC
 40
1.0
  9
$DIMTOFL
 70
     1
  9
$DIMTVP
 40
0.0
  9
$DIMTIX
 70
     0
  9
$DIMSOXD
 70
     0
  9
$DIMSAH
 70
     0
  9
$DIMBLK1
  1

  9
$DIMBLK2
  1

  9
$DIMSTYLE
  2
ISO-25
  9
$DIMCLRD
 70
     0
  9
$DIMCLRE
 70
     0
  9
$DIMCLRT
 70
     0
  9
$DIMTFAC
 40
1.0
  9
$DIMGAP
 40
0.762
  9
$DIMJUST
 70
     0
  9
$DIMSD1
 70
     0
  9
$DIMSD2
 70
     0
  9
$DIMTOLJ
 70
     0
  9
$DIMTZIN
 70
     1
  9
$DIMALTZ
 70
     0
  9
$DIMALTTZ
 70
     0
  9
$DIMUPT
 70
     0
  9
$DIMDEC
 70
     2
  9
$DIMTDEC
 70
     2
  9
$DIMALTU
 70
     2
  9
$DIMALTTD
 70
     3
  9
$DIMTXSTY
  7
Standard
  9
$DIMAUNIT
 70
     0
  9
$DIMADEC
 70
     2
  9
$DIMALTRND
 40
0.0
  9
$DIMAZIN
 70
     0
  9
$DIMDSEP
 70
    44
  9
$DIMATFIT
 70
     3
  9
$DIMFRAC
 70
     0
  9
$DIMLDRBLK
  1

  9
$DIMLUNIT
 70
     2
  9
$DIMLWD
 70
    -2
  9
$DIMLWE
 70
    -2
  9
$DIMTMOVE
 70
     0
  9
$LUNITS
 70
     2
  9
$LUPREC
 70
     2
  9
$SKETCHINC
 40
1.0
  9
$FILLETRAD
 40
10.0
  9
$AUNITS
 70
     0
  9
$AUPREC
 70
     2
  9
$MENU
  1
.
  9
$ELEVATION
 40
0.0
  9
$PELEVATION
 40
0.0
  9
$THICKNESS
 40
0.0
  9
$LIMCHECK
 70
     0
  9
$CHAMFERA
 40
0.0
  9
$CHAMFERB
 40
0.0
  9
$CHAMFERC
 40
0.0
  9
$CHAMFERD
 40
0.0
  9
$SKPOLY
 70
     0
  9
$TDCREATE
 40
2460082.691559757
  9
$TDUCREATE
 40
2460082.316559757
  9
$TDUPDATE
 40
2460082.691560521
  9
$TDUUPDATE
 40
2460082.316560521
  9
$TDINDWG
 40
0.0000000116
  9
$TDUSRTIMER
 40
0.0000000116
  9
$USRTIMER
 70
     1
  9
$ANGBASE
 50
0.0
  9
$ANGDIR
 70
     0
  9
$PDMODE
 70
     0
  9
$PDSIZE
 40
-1.0
  9
$PLINEWID
 40
0.0
  9
$SPLFRAME
 70
     0
  9
$SPLINETYPE
 70
     6
  9
$SPLINESEGS
 70
     8
  9
$HANDSEED
  5
160
  9
$SURFTAB1
 70
     6
  9
$SURFTAB2
 70
     6
  9
$SURFTYPE
 70
     6
  9
$SURFU
 70
     6
  9
$SURFV
 70
     6
  9
$UCSBASE
  2

  9
$UCSNAME
  2

  9
$UCSORG
 10
0.0
 20
0.0
 30
0.0
  9
$UCSXDIR
 10
1.0
 20
0.0
 30
0.0
  9
$UCSYDIR
 10
0.0
 20
1.0
 30
0.0
  9
$UCSORTHOREF
  2

  9
$UCSORTHOVIEW
 70
     0
  9
$UCSORGTOP
 10
0.0
 20
0.0
 30
0.0
  9
$UCSORGBOTTOM
 10
0.0
 20
0.0
 30
0.0
  9
$UCSORGLEFT
 10
0.0
 20
0.0
 30
0.0
  9
$UCSORGRIGHT
 10
0.0
 20
0.0
 30
0.0
  9
$UCSORGFRONT
 10
0.0
 20
0.0
 30
0.0
  9
$UCSORGBACK
 10
0.0
 20
0.0
 30
0.0
  9
$PUCSBASE
  2

  9
$PUCSNAME
  2

  9
$PUCSORG
 10
0.0
 20
0.0
 30
0.0
  9
$PUCSXDIR
 10
1.0
 20
0.0
 30
0.0
  9
$PUCSYDIR
 10
0.0
 20
1.0
 30
0.0
  9
$PUCSORTHOREF
  2

  9
$PUCSORTHOVIEW
 70
     0
  9
$PUCSORGTOP
 10
0.0
 20
0.0
 30
0.0
  9
$PUCSORGBOTTOM
 10
0.0
 20
0.0
 30
0.0
  9
$PUCSORGLEFT
 10
0.0
 20
0.0
 30
0.0
  9
$PUCSORGRIGHT
 10
0.0
 20
0.0
 30
0.0
  9
$PUCSORGFRONT
 10
0.0
 20
0.0
 30
0.0
  9
$PUCSORGBACK
 10
0.0
 20
0.0
 30
0.0
  9
$USERI1
 70
     0
  9
$USERI2
 70
     0
  9
$USERI3
 70
     0
  9
$USERI4
 70
     0
  9
$USERI5
 70
     0
  9
$USERR1
 40
0.0
  9
$USERR2
 40
0.0
  9
$USERR3
 40
0.0
  9
$USERR4
 40
0.0
  9
$USERR5
 40
0.0
  9
$WORLDVIEW
 70
     1
  9
$SHADEDGE
 70
     3
  9
$SHADEDIF
 70
    70
  9
$TILEMODE
 70
     1
  9
$MAXACTVP
 70
    64
  9
$PINSBASE
 10
0.0
 20
0.0
 30
0.0
  9
$PLIMCHECK
 70
     0
  9
$PEXTMIN
 10
1.0000000000E+20
 20
1.0000000000E+20
 30
1.0000000000E+20
  9
$PEXTMAX
 10
-1.0000000000E+20
 20
-1.0000000000E+20
 30
-1.0000000000E+20
  9
$PLIMMIN
 10
0.0
 20
0.0
  9
$PLIMMAX
 10
420.0
 20
297.0
  9
$UNITMODE
 70
     0
  9
$VISRETAIN
 70
     1
  9
$PLINEGEN
 70
     0
  9
$PSLTSCALE
 70
     1
  9
$TREEDEPTH
 70
  3020
  9
$CMLSTYLE
  2
Standard
  9
$CMLJUST
 70
     0
  9
$CMLSCALE
 40
20.0
  9
$PROXYGRAPHICS
 70
     1
  9
$MEASUREMENT
 70
     1
  9
$CELWEIGHT
370
    -1
  9
$ENDCAPS
280
     0
  9
$JOINSTYLE
280
     0
  9
$LWDISPLAY
290
     1
  9
$INSUNITS
 70
     4
  9
$HYPERLINKBASE
  1

  9
$STYLESHEET
  1

  9
$XEDIT
290
     1
  9
$CEPSNTYPE
380
     0
  9
$PSTYLEMODE
290
     1
  9
$FINGERPRINTGUID
  2
{32B05D5E-47F5-4014-930B-17C5E5E0FFE4}
  9
$VERSIONGUID
  2
{FAEB1C32-E019-11D5-929B-00C0DF256EC4}
  9
$EXTNAMES
290
     1
  9
$PSVPSCALE
 40
0.0
  9
$OLESTARTUP
290
     0
  0
ENDSEC
  0
SECTION
  2
CLASSES
  0
CLASS
  1
ACDBDICTIONARYWDFLT
  2
AcDbDictionaryWithDefault
  3
ObjectDBX Classes
 90
        0
280
     0
281
     0
  0
CLASS
  1
VISUALSTYLE
  2
AcDbVisualStyle
  3
ObjectDBX Classes
 90
     4095
280
     0
281
     0
  0
CLASS
  1
MATERIAL
  2
AcDbMaterial
  3
ObjectDBX Classes
 90
     1153
280
     0
281
     0
  0
CLASS
  1
SCALE
  2
AcDbScale
  3
ObjectDBX Classes
 90
     1153
280
     0
281
     0
  0
CLASS
  1
TABLESTYLE
  2
AcDbTableStyle
  3
ObjectDBX Classes
 90
     4095
280
     0
281
     0
  0
CLASS
  1
MLEADERSTYLE
  2
AcDbMLeaderStyle
  3
ACDB_MLEADERSTYLE_CLASS
 90
     4095
280
     0
281
     0
  0
CLASS
  1
SUN
  2
AcDbSun
  3
SCENEOE
 90
     1153
280
     0
281
     0
  0
CLASS
  1
ACDBPLACEHOLDER
  2
AcDbPlaceHolder
  3
ObjectDBX Classes
 90
        0
280
     0
281
     0
  0
CLASS
  1
LAYOUT
  2
AcDbLayout
  3
ObjectDBX Classes
 90
        0
280
     0
281
     0
  0
ENDSEC
  0
SECTION
  2
TABLES
  0
TABLE
  2
VPORT
  5
8
330
0
100
AcDbSymbolTable
 70
     1
  0
VPORT
  5
29
330
8
100
AcDbSymbolTableRecord
100
AcDbViewportTableRecord
  2
*Active
 70
     0
 10
0.0
 20
0.0
 11
1.0
 21
1.0
 12
107.95
 22
69.85
 13
0.0
 23
0.0
 14
10.0
 24
10.0
 15
10.0
 25
10.0
 16
0.0
 26
0.0
 36
1.0
 17
0.0
 27
0.0
 37
0.0
 40
139.7
 41
1.5454545455
 42
50.0
 43
0.0
 44
0.0
 50
0.0
 51
0.0
 71
     0
 72
  2000
 73
     1
 74
     3
 75
     0
 76
     0
 77
     0
 78
     0
281
     0
 65
     1
110
0.0
120
0.0
130
0.0
111
1.0
121
0.0
131
0.0
112
0.0
122
1.0
132
0.0
 79
     0
146
0.0
  0
ENDTAB
  0
TABLE
  2
LTYPE
  5
5
330
0
100
AcDbSymbolTable
 70
     6
  0
LTYPE
  5
14
330
5
100
AcDbSymbolTableRecord
100
AcDbLinetypeTableRecord
  2
ByBlock
 70
     0
  3

 72
    65
 73
     0
 40
0.0
  0
LTYPE
  5
15
330
5
100
AcDbSymbolTableRecord
100
AcDbLinetypeTableRecord
  2
ByLayer
 70
     0
  3

 72
    65
 73
     0
 40
0.0
  0
LTYPE
  5
16
330
5
100
AcDbSymbolTableRecord
100
AcDbLinetypeTableRecord
  2
Continuous
 70
     0
  3
Solid line
 72
    65
 73
     0
 40
0.0
  0
LTYPE
  5
6E
330
5
100
AcDbSymbolTableRecord
100
AcDbLinetypeTableRecord
  2
HIDDEN
 70
     0
  3
Hidden __ __ __ __ __ __ __ __ __ __ __ __ __ __
 72
    65
 73
     2
 40
1.905
 49
1.27
 74
     0
 49
-0.635
 74
     0
  0
LTYPE
  5
6F
330
5
100
AcDbSymbolTableRecord
100
AcDbLinetypeTableRecord
  2
PHANTOM
 70
     0
  3
Phantom ______  __  __  ______  __  __  ______
 72
    65
 73
     6
 40
12.7
 49
6.35
 74
     0
 49
-1.27
 74
     0
 49
1.27
 74
     0
 49
-1.27
 74
     0
 49
1.27
 74
     0
 49
-1.27
 74
     0
  0
LTYPE
  5
70
330
5
100
AcDbSymbolTableRecord
100
AcDbLinetypeTableRecord
  2
CENTER
 70
     0
  3
Center ____ _ ____ _ ____ _ ____ _ ____ _ ____
 72
    65
 73
     4
 40
10.16
 49
6.35
 74
     0
 49
-1.27
 74
     0
 49
1.27
 74
     0
 49
-1.27
 74
     0
  0
LTYPE
  5
71
330
5
100
AcDbSymbolTableRecord
100
AcDbLinetypeTableRecord
  2
CENTERX2
 70
     0
  3
Center (2x) ________  __  ________  __  _____
 72
    65
 73
     4
 40
20.32
 49
12.7
 74
     0
 49
-2.54
 74
     0
 49
2.54
 74
     0
 49
-2.54
 74
     0
  0
LTYPE
  5
72
330
5
100
AcDbSymbolTableRecord
100
AcDbLinetypeTableRecord
  2
DOT2
 70
     0
  3
Dot (.5x) ........................................
 72
    65
 73
     2
 40
0.635
 49
0.0
 74
     0
 49
-0.635
 74
     0
  0
ENDTAB
  0
TABLE
  2
LAYER
  5
2
330
0
100
AcDbSymbolTable
 70
     1
  0
LAYER
  5
10
330
2
100
AcDbSymbolTableRecord
100
AcDbLayerTableRecord
  2
0
 70
     0
 62
     7
  6
Continuous
370
    -3
390
F
  0
ENDTAB
  0
TABLE
  2
STYLE
  5
3
330
0
100
AcDbSymbolTable
 70
     2
  0
STYLE
  5
11
330
3
100
AcDbSymbolTableRecord
100
AcDbTextStyleTableRecord
  2
Standard
 70
     0
 40
0.0
 41
1.0
 50
0.0
 71
     0
 42
1.75
  3
txt
  4
bigfont
  0
STYLE
  5
73
330
3
100
AcDbSymbolTableRecord
100
AcDbTextStyleTableRecord
  2
SLDTEXTSTYLE0
 70
     0
 40
0.0
 41
0.7
 50
0.0
 71
     0
 42
1.75
  3
TXT
  4
bigfont
  0
ENDTAB
  0
TABLE
  2
VIEW
  5
6
330
0
100
AcDbSymbolTable
 70
     0
  0
ENDTAB
  0
TABLE
  2
UCS
  5
7
330
0
100
AcDbSymbolTable
 70
     0
  0
ENDTAB
  0
TABLE
  2
APPID
  5
9
330
0
100
AcDbSymbolTable
 70
     1
  0
APPID
  5
12
330
9
100
AcDbSymbolTableRecord
100
AcDbRegAppTableRecord
  2
ACAD
 70
     0
  0
ENDTAB
  0
TABLE
  2
DIMSTYLE
  5
A
330
0
100
AcDbSymbolTable
 70
     1
100
AcDbDimStyleTable
  0
DIMSTYLE
105
27
330
A
100
AcDbSymbolTableRecord
100
AcDbDimStyleTableRecord
  2
ISO-25
 70
     0
 41
2.5
 42
0.625
 43
3.75
 44
1.25
 73
     0
 74
     0
 77
     1
 78
     8
140
2.5
141
2.5
143
0.0393700787
147
0.625
171
     3
172
     1
178
     0
271
     2
272
     2
274
     3
278
    44
283
     0
284
     8
340
11
  0
ENDTAB
  0
TABLE
  2
BLOCK_RECORD
  5
1
330
0
100
AcDbSymbolTable
 70
     3
  0
BLOCK_RECORD
  5
1F
330
1
100
AcDbSymbolTableRecord
100
AcDbBlockTableRecord
  2
*Model_Space
340
22
  0
BLOCK_RECORD
  5
1B
330
1
100
AcDbSymbolTableRecord
100
AcDbBlockTableRecord
  2
*Paper_Space
340
1E
  0
BLOCK_RECORD
  5
23
330
1
100
AcDbSymbolTableRecord
100
AcDbBlockTableRecord
  2
*Paper_Space0
340
26
  0
BLOCK_RECORD
  5
FF
330
1
100
AcDbSymbolTableRecord
100
AcDbBlockTableRecord
  2
SW_CENTERMARKSYMBOL_0
340
0
102
{BLKREFS
331
10A
102
}
  0
BLOCK_RECORD
  5
10B
330
1
100
AcDbSymbolTableRecord
100
AcDbBlockTableRecord
  2
SW_CENTERMARKSYMBOL_1
340
0
102
{BLKREFS
331
116
102
}
  0
ENDTAB
  0
ENDSEC
  0
SECTION
  2
BLOCKS
  0
BLOCK
  5
20
330
1F
100
AcDbEntity
  8
0
100
AcDbBlockBegin
  2
*Model_Space
 70
     0
 10
0.0
 20
0.0
 30
0.0
  3
*Model_Space
  1

  0
ENDBLK
  5
21
330
1F
100
AcDbEntity
  8
0
100
AcDbBlockEnd
  0
BLOCK
  5
1C
330
1B
100
AcDbEntity
 67
     1
  8
0
100
AcDbBlockBegin
  2
*Paper_Space
 70
     0
 10
0.0
 20
0.0
 30
0.0
  3
*Paper_Space
  1

  0
ENDBLK
  5
1D
330
1B
100
AcDbEntity
 67
     1
  8
0
100
AcDbBlockEnd
  0
BLOCK
  5
24
330
23
100
AcDbEntity
  8
0
100
AcDbBlockBegin
  2
*Paper_Space0
 70
     0
 10
0.0
 20
0.0
 30
0.0
  3
*Paper_Space0
  1

  0
ENDBLK
  5
25
330
23
100
AcDbEntity
  8
0
100
AcDbBlockEnd
  0
BLOCK
  5
100
330
FF
100
AcDbEntity
  8
0
100
AcDbBlockBegin
  2
SW_CENTERMARKSYMBOL_0
 70
     0
 10
0.0
 20
0.0
 30
0.0
  3
SW_CENTERMARKSYMBOL_0
  1

  0
LINE
  5
102
330
FF
100
AcDbEntity
  8
0
  6
Continuous
 62
     0
370
    18
100
AcDbLine
 10
0.0
 20
0.0
 30
0.0
 11
0.0
 21
2.5
 31
0.0
  0
LINE
  5
103
330
FF
100
AcDbEntity
  8
0
  6
Continuous
 62
     0
370
    18
100
AcDbLine
 10
0.0
 20
0.0
 30
0.0
 11
-2.5
 21
0.0
 31
0.0
  0
LINE
  5
104
330
FF
100
AcDbEntity
  8
0
  6
Continuous
 62
     0
370
    18
100
AcDbLine
 10
0.0
 20
0.0
 30
0.0
 11
0.0
 21
-2.5
 31
0.0
  0
LINE
  5
105
330
FF
100
AcDbEntity
  8
0
  6
Continuous
 62
     0
370
    18
100
AcDbLine
 10
0.0
 20
0.0
 30
0.0
 11
2.5
 21
0.0
 31
0.0
  0
LINE
  5
106
330
FF
100
AcDbEntity
  8
0
  6
Continuous
 62
     0
370
    18
100
AcDbLine
 10
0.0
 20
5.0
 30
0.0
 11
0.0
 21
6.85
 31
0.0
  0
LINE
  5
107
330
FF
100
AcDbEntity
  8
0
  6
Continuous
 62
     0
370
    18
100
AcDbLine
 10
-5.0
 20
0.0
 30
0.0
 11
-6.85
 21
0.0
 31
0.0
  0
LINE
  5
108
330
FF
100
AcDbEntity
  8
0
  6
Continuous
 62
     0
370
    18
100
AcDbLine
 10
0.0
 20
-5.0
 30
0.0
 11
0.0
 21
-6.85
 31
0.0
  0
LINE
  5
109
330
FF
100
AcDbEntity
  8
0
  6
Continuous
 62
     0
370
    18
100
AcDbLine
 10
5.0
 20
0.0
 30
0.0
 11
6.85
 21
0.0
 31
0.0
  0
ENDBLK
  5
101
330
FF
100
AcDbEntity
  8
0
100
AcDbBlockEnd
  0
BLOCK
  5
10C
330
10B
100
AcDbEntity
  8
0
100
AcDbBlockBegin
  2
SW_CENTERMARKSYMBOL_1
 70
     0
 10
0.0
 20
0.0
 30
0.0
  3
SW_CENTERMARKSYMBOL_1
  1

  0
LINE
  5
10E
330
10B
100
AcDbEntity
  8
0
  6
Continuous
 62
     0
370
    18
100
AcDbLine
 10
0.0
 20
0.0
 30
0.0
 11
0.0
 21
2.5
 31
0.0
  0
LINE
  5
10F
330
10B
100
AcDbEntity
  8
0
  6
Continuous
 62
     0
370
    18
100
AcDbLine
 10
0.0
 20
0.0
 30
0.0
 11
-2.5
 21
0.0
 31
0.0
  0
LINE
  5
110
330
10B
100
AcDbEntity
  8
0
  6
Continuous
 62
     0
370
    18
100
AcDbLine
 10
0.0
 20
0.0
 30
0.0
 11
0.0
 21
-2.5
 31
0.0
  0
LINE
  5
111
330
10B
100
AcDbEntity
  8
0
  6
Continuous
 62
     0
370
    18
100
AcDbLine
 10
0.0
 20
0.0
 30
0.0
 11
2.5
 21
0.0
 31
0.0
  0
LINE
  5
112
330
10B
100
AcDbEntity
  8
0
  6
Continuous
 62
     0
370
    18
100
AcDbLine
 10
0.0
 20
5.0
 30
0.0
 11
0.0
 21
13.5
 31
0.0
  0
LINE
  5
113
330
10B
100
AcDbEntity
  8
0
  6
Continuous
 62
     0
370
    18
100
AcDbLine
 10
-5.0
 20
0.0
 30
0.0
 11
-13.5
 21
0.0
 31
0.0
  0
LINE
  5
114
330
10B
100
AcDbEntity
  8
0
  6
Continuous
 62
     0
370
    18
100
AcDbLine
 10
0.0
 20
-5.0
 30
0.0
 11
0.0
 21
-13.5
 31
0.0
  0
LINE
  5
115
330
10B
100
AcDbEntity
  8
0
  6
Continuous
 62
     0
370
    18
100
AcDbLine
 10
5.0
 20
0.0
 30
0.0
 11
13.5
 21
0.0
 31
0.0
  0
ENDBLK
  5
10D
330
10B
100
AcDbEntity
  8
0
100
AcDbBlockEnd
  0
ENDSEC
  0
SECTION
  2
ENTITIES
  0
MTEXT
  5
74
330
1F
100
AcDbEntity
  8
0
  6
Continuous
 62
     7
370
     0
100
AcDbMText
 10
124.0640059846
 20
69.6870204608
 30
0.0
 40
2.38125
 41
0.0
 71
     1
 72
     1
  1
エースニップル　HN-8440
  7
SLDTEXTSTYLE0
 73
     1
 44
1.0
  0
LINE
  5
75
330
1F
100
AcDbEntity
  8
0
  6
Continuous
 62
     7
370
    25
100
AcDbLine
 10
92.9418488701
 20
59.8062308971
 30
0.0
 11
78.6382401431
 21
59.3592431244
 31
0.0
  0
LINE
  5
76
330
1F
100
AcDbEntity
  8
0
  6
Continuous
 62
     7
370
    25
100
AcDbLine
 10
78.6382401431
 20
38.7457186698
 30
0.0
 11
92.9418488701
 21
38.2987308971
 31
0.0
  0
LINE
  5
77
330
1F
100
AcDbEntity
  8
0
  6
Continuous
 62
     7
370
    25
100
AcDbLine
 10
78.6382401431
 20
59.3592431244
 30
0.0
 11
75.9418488701
 21
57.8024808971
 31
0.0
  0
LINE
  5
78
330
1F
100
AcDbEntity
  8
0
  6
Continuous
 62
     7
370
    25
100
AcDbLine
 10
75.9418488701
 20
40.3024808971
 30
0.0
 11
78.6382401431
 21
38.7457186698
 31
0.0
  0
LINE
  5
79
330
1F
100
AcDbEntity
  8
0
  6
Continuous
 62
     7
370
    25
100
AcDbLine
 10
122.4418488701
 20
42.7024808971
 30
0.0
 11
128.525278022
 21
43.731984292
 31
0.0
  0
LINE
  5
7A
330
1F
100
AcDbEntity
  8
0
  6
Continuous
 62
     7
370
    25
100
AcDbLine
 10
128.525278022
 20
54.3729775022
 30
0.0
 11
122.4418488701
 21
55.4024808971
 31
0.0
  0
LINE
  5
7B
330
1F
100
AcDbEntity
  8
0
  6
Continuous
 62
     7
370
    25
100
AcDbLine
 10
105.9418488701
 20
55.4024808971
 30
0.0
 11
98.9418488701
 21
55.4024808971
 31
0.0
  0
LINE
  5
7C
330
1F
100
AcDbEntity
  8
0
  6
Continuous
 62
     7
370
    25
100
AcDbLine
 10
98.9418488701
 20
42.7024808971
 30
0.0
 11
105.9418488701
 21
42.7024808971
 31
0.0
  0
LINE
  5
7D
330
1F
100
AcDbEntity
  8
0
  6
Continuous
 62
     7
370
    25
100
AcDbLine
 10
111.4418488701
 20
42.7024808971
 30
0.0
 11
116.9418488701
 21
43.8024808971
 31
0.0
  0
LINE
  5
7E
330
1F
100
AcDbEntity
  8
0
  6
Continuous
 62
     7
370
    25
100
AcDbLine
 10
116.9418488701
 20
54.3024808971
 30
0.0
 11
111.4418488701
 21
55.4024808971
 31
0.0
  0
LINE
  5
7F
330
1F
100
AcDbEntity
  8
0
  6
Continuous
 62
     7
370
    25
100
AcDbLine
 10
116.9418488701
 20
42.7024808971
 30
0.0
 11
122.4418488701
 21
43.8024808971
 31
0.0
  0
LINE
  5
80
330
1F
100
AcDbEntity
  8
0
  6
Continuous
 62
     7
370
    25
100
AcDbLine
 10
122.4418488701
 20
54.3024808971
 30
0.0
 11
116.9418488701
 21
55.4024808971
 31
0.0
  0
LINE
  5
81
330
1F
100
AcDbEntity
  8
0
  6
Continuous
 62
     7
370
    25
100
AcDbLine
 10
105.9418488701
 20
42.7024808971
 30
0.0
 11
111.4418488701
 21
43.8024808971
 31
0.0
  0
LINE
  5
82
330
1F
100
AcDbEntity
  8
0
  6
Continuous
 62
     7
370
    25
100
AcDbLine
 10
111.4418488701
 20
54.3024808971
 30
0.0
 11
105.9418488701
 21
55.4024808971
 31
0.0
  0
LINE
  5
83
330
1F
100
AcDbEntity
  8
0
  6
Continuous
 62
     7
370
    25
100
AcDbLine
 10
92.9418488701
 20
38.0524808971
 30
0.0
 11
93.9243292424
 21
36.3507749749
 31
0.0
  0
LINE
  5
84
330
1F
100
AcDbEntity
  8
0
  6
Continuous
 62
     7
370
    25
100
AcDbLine
 10
97.9593684979
 20
36.3507749749
 30
0.0
 11
98.9418488701
 21
38.0524808971
 31
0.0
  0
LINE
  5
85
330
1F
100
AcDbEntity
  8
0
  6
Continuous
 62
     7
370
    25
100
AcDbLine
 10
93.9243292424
 20
61.7541868193
 30
0.0
 11
92.9418488701
 21
60.0524808971
 31
0.0
  0
LINE
  5
86
330
1F
100
AcDbEntity
  8
0
  6
Continuous
 62
     7
370
    25
100
AcDbLine
 10
98.9418488701
 20
60.0524808971
 30
0.0
 11
97.9593684979
 21
61.7541868193
 31
0.0
  0
ARC
  5
87
330
1F
100
AcDbEntity
  8
0
  6
Continuous
 62
     7
370
    25
100
AcDbCircle
 10
128.4418488701
 20
44.2249747348
 30
0.0
 40
0.5
100
AcDbArc
 50
279.605204155
 51
0.0
  0
ARC
  5
88
330
1F
100
AcDbEntity
  8
0
  6
Continuous
 62
     7
370
    25
100
AcDbCircle
 10
128.4418488701
 20
53.8799870594
 30
0.0
 40
0.5000000000000042
100
AcDbArc
 50
0.0
 51
80.394795845
  0
LINE
  5
89
330
1F
100
AcDbEntity
  8
0
  6
Continuous
 62
     7
370
    25
100
AcDbLine
 10
96.0222336278
 20
61.7541868193
 30
0.0
 11
95.9418488701
 21
61.4541868193
 31
0.0
  0
LINE
  5
8A
330
1F
100
AcDbEntity
  8
0
  6
Continuous
 62
     7
370
    25
100
AcDbLine
 10
95.9418488701
 20
61.4541868193
 30
0.0
 11
95.8614641124
 21
61.7541868193
 31
0.0
  0
LINE
  5
8B
330
1F
100
AcDbEntity
  8
0
  6
Continuous
 62
     7
370
    25
100
AcDbLine
 10
95.8614641124
 20
36.3507749749
 30
0.0
 11
95.9418488701
 21
36.6507749749
 31
0.0
  0
LINE
  5
8C
330
1F
100
AcDbEntity
  8
0
  6
Continuous
 62
     7
370
    25
100
AcDbLine
 10
95.9418488701
 20
36.6507749749
 30
0.0
 11
96.0222336278
 21
36.3507749749
 31
0.0
  0
SPLINE
  5
8D
330
1F
100
AcDbEntity
  8
0
  6
Continuous
 62
     7
370
    25
100
AcDbSpline
210
0.0
220
0.0
230
1.0
 70
     8
 71
     3
 72
    19
 73
    15
 74
     0
 42
0.000000001
 43
0.00000001
 40
0.0
 40
0.0
 40
0.0
 40
0.0
 40
0.1227280999764553
 40
0.239716523588393
 40
0.3518621792202463
 40
0.4632019818032239
 40
0.5202611541541643
 40
0.5794324380306665
 40
0.6405963441586369
 40
0.70529822908802
 40
0.7732361059084537
 40
0.844648929340316
 40
0.9200459817773698
 40
1.0
 40
1.0
 40
1.0
 40
1.0
 10
96.52646425472142
 20
49.98877897402467
 30
0.0
 10
96.52586911337363
 20
50.00585882470994
 30
0.0
 10
96.52470666390231
 20
50.03921974556234
 30
0.0
 10
96.51448925702216
 20
50.08730398916957
 30
0.0
 10
96.49830082909058
 20
50.13195865819862
 30
0.0
 10
96.47875335037736
 20
50.16597650827689
 30
0.0
 10
96.45952386801459
 20
50.19113911306854
 30
0.0
 10
96.44298074436752
 20
50.2094648150534
 30
0.0
 10
96.42422423049234
 20
50.22713266897583
 30
0.0
 10
96.40273985632258
 20
50.24344937222497
 30
0.0
 10
96.37926638252989
 20
50.25939265621184
 30
0.0
 10
96.35367452596087
 20
50.2748102864061
 30
0.0
 10
96.32559942333101
 20
50.289207048169
 30
0.0
 10
96.30585620195401
 20
50.29797059277931
 30
0.0
 10
96.29569502395219
 20
50.3024808971016
 30
0.0
  0
SPLINE
  5
8E
330
1F
100
AcDbEntity
  8
0
  6
Continuous
 62
     7
370
    25
100
AcDbSpline
210
0.0
220
0.0
230
1.0
 70
     8
 71
     3
 72
    23
 73
    19
 74
     0
 42
0.000000001
 43
0.00000001
 40
0.0
 40
0.0
 40
0.0
 40
0.0
 40
0.0552698294993248
 40
0.1099567044850939
 40
0.1632335040550556
 40
0.2180575651623569
 40
0.2732775387226747
 40
0.330881045495497
 40
0.3904799376860887
 40
0.4536559730386418
 40
0.5189026226022312
 40
0.5833461108214767
 40
0.6485466930814432
 40
0.7150552190344911
 40
0.7825206438000537
 40
0.8523352944264511
 40
0.9249348997257085
 40
1.0
 40
1.0
 40
1.0
 40
1.0
 10
96.29118781241372
 20
49.68709628171698
 30
0.0
 10
96.29902115059211
 20
49.68727386573849
 30
0.0
 10
96.3146052053832
 20
49.68762716072694
 30
0.0
 10
96.3373728156386
 20
49.69208344031478
 30
0.0
 10
96.3594456811086
 20
49.69877832532848
 30
0.0
 10
96.38072364824525
 20
49.70798826225046
 30
0.0
 10
96.40108320982968
 20
49.72029313253049
 30
0.0
 10
96.42054934305666
 20
49.7350630759914
 30
0.0
 10
96.43944828015998
 20
49.75230522137671
 30
0.0
 10
96.45687587286359
 20
49.77247019173606
 30
0.0
 10
96.47331455555599
 20
49.79430092278904
 30
0.0
 10
96.48752518523297
 20
49.81800282797298
 30
0.0
 10
96.49957010545043
 20
49.84305313283667
 30
0.0
 10
96.5095217772205
 20
49.86947487291796
 30
0.0
 10
96.5170030235893
 20
49.89737389285172
 30
0.0
 10
96.522375892843
 20
49.92661358405247
 30
0.0
 10
96.52573478593669
 20
49.95725123563102
 30
0.0
 10
96.52621840685536
 20
49.97815339638844
 30
0.0
 10
96.52646425472142
 20
49.98877897402467
 30
0.0
  0
SPLINE
  5
8F
330
1F
100
AcDbEntity
  8
0
  6
Continuous
 62
     7
370
    25
100
AcDbSpline
210
0.0
220
0.0
230
1.0
 70
     8
 71
     3
 72
    19
 73
    15
 74
     0
 42
0.000000001
 43
0.00000001
 40
0.0
 40
0.0
 40
0.0
 40
0.0
 40
0.1101423815503174
 40
0.2157418685830274
 40
0.3179605426392306
 40
0.4180517606815226
 40
0.5115631470355316
 40
0.5965727584443461
 40
0.6733290469034968
 40
0.7440491927238595
 40
0.8107168223002833
 40
0.8740854521098849
 40
0.9367096168966699
 40
1.0
 40
1.0
 40
1.0
 40
1.0
 10
96.04569502395219
 20
50.07171166633237
 30
0.0
 10
96.04601131292078
 20
50.0531545368002
 30
0.0
 10
96.04663084531275
 20
50.01680567867261
 30
0.0
 10
96.05407209242335
 20
49.96370089919399
 30
0.0
 10
96.06448141824322
 20
49.91285934956236
 30
0.0
 10
96.08005758988469
 20
49.86544154548756
 30
0.0
 10
96.09875344158469
 20
49.8223628273893
 30
0.0
 10
96.1198343797073
 20
49.78478339203629
 30
0.0
 10
96.14371813674813
 20
49.75359385734562
 30
0.0
 10
96.17009126129634
 20
49.72871629904418
 30
0.0
 10
96.19870705068786
 20
49.71045705459226
 30
0.0
 10
96.22821997804866
 20
49.69675168313683
 30
0.0
 10
96.25931671125065
 20
49.68871703908402
 30
0.0
 10
96.28052670441858
 20
49.68763843648081
 30
0.0
 10
96.29118781241372
 20
49.68709628171698
 30
0.0
  0
LINE
  5
90
330
1F
100
AcDbEntity
  8
0
  6
Continuous
 62
     7
370
    25
100
AcDbLine
 10
95.8918488701
 20
50.0717116663
 30
0.0
 11
96.045695024
 21
50.0717116663
 31
0.0
  0
SPLINE
  5
91
330
1F
100
AcDbEntity
  8
0
  6
Continuous
 62
     7
370
    25
100
AcDbSpline
210
0.0
220
0.0
230
1.0
 70
     8
 71
     3
 72
    23
 73
    19
 74
     0
 42
0.000000001
 43
0.00000001
 40
0.0
 40
0.0
 40
0.0
 40
0.0
 40
0.0669051223273616
 40
0.1334773340846825
 40
0.2010229080576287
 40
0.2712178684297488
 40
0.3428591616573978
 40
0.4138109980627169
 40
0.4855518488903453
 40
0.5598002749200529
 40
0.5998999649035781
 40
0.6436094423977958
 40
0.6919106424505659
 40
0.7447030291556902
 40
0.8015038302285953
 40
0.8628660266331954
 40
0.9293326711591618
 40
1.0
 40
1.0
 40
1.0
 40
1.0
 10
95.57454117779834
 20
49.6101732047939
 30
0.0
 10
95.58851748168088
 20
49.61082903665893
 30
0.0
 10
95.61640054530449
 20
49.61213743706095
 30
0.0
 10
95.65742212626454
 20
49.62212700268602
 30
0.0
 10
95.69694736863653
 20
49.63855726413578
 30
0.0
 10
95.73429623484058
 20
49.66156243452905
 30
0.0
 10
95.76892830285591
 20
49.68955326819686
 30
0.0
 10
95.79970772181245
 20
49.72225881546331
 30
0.0
 10
95.82536059260453
 20
49.75975930295213
 30
0.0
 10
95.84301906684027
 20
49.79449616413685
 30
0.0
 10
95.85478769730594
 20
49.82533916589183
 30
0.0
 10
95.8630396406709
 20
49.85168153987394
 30
0.0
 10
95.86963609797488
 20
49.88119871818109
 30
0.0
 10
95.87601685869852
 20
49.91353635351796
 30
0.0
 10
95.88136608356662
 20
49.94883082971293
 30
0.0
 10
95.8858462690559
 20
49.98711394486297
 30
0.0
 10
95.88942548989993
 20
50.02840110055707
 30
0.0
 10
95.89102474723427
 20
50.05698297136554
 30
0.0
 10
95.89184887010603
 20
50.07171166633237
 30
0.0
  0
SPLINE
  5
92
330
1F
100
AcDbEntity
  8
0
  6
Continuous
 62
     7
370
    25
100
AcDbSpline
210
0.0
220
0.0
230
1.0
 70
     8
 71
     3
 72
    23
 73
    19
 74
     0
 42
0.000000001
 43
0.00000001
 40
0.0
 40
0.0
 40
0.0
 40
0.0
 40
0.0760618905628339
 40
0.1487324608035361
 40
0.2183745247439722
 40
0.2857225935927383
 40
0.3510576941824569
 40
0.414934915729319
 40
0.4784859417740854
 40
0.542169035281216
 40
0.6047501165431387
 40
0.6641185017301124
 40
0.7214996756099116
 40
0.7776159163852548
 40
0.8326661086975489
 40
0.8878580281135741
 40
0.9434676608977686
 40
1.0
 40
1.0
 40
1.0
 40
1.0
 10
95.25723348549064
 20
49.99208426248621
 30
0.0
 10
95.25749701559991
 20
49.97804685705042
 30
0.0
 10
95.2580123259788
 20
49.95059792252732
 30
0.0
 10
95.26276505500182
 20
49.91054849466363
 30
0.0
 10
95.26965666012771
 20
49.87243581754872
 30
0.0
 10
95.28043647048975
 20
49.83664883093707
 30
0.0
 10
95.29336863381411
 20
49.80270056176053
 30
0.0
 10
95.31029920908682
 20
49.77134883346647
 30
0.0
 10
95.32941955672258
 20
49.74167194397737
 30
0.0
 10
95.35166019843855
 20
49.71453928900306
 30
0.0
 10
95.37569992476327
 20
49.69007787383219
 30
0.0
 10
95.40120393202538
 20
49.6689405084794
 30
0.0
 10
95.42738143002832
 20
49.65063313261587
 30
0.0
 10
95.45484308688697
 20
49.63591705763484
 30
0.0
 10
95.48331952582387
 20
49.62427595161805
 30
0.0
 10
95.51291733440219
 20
49.61635595623513
 30
0.0
 10
95.54338728055406
 20
49.6108477976424
 30
0.0
 10
95.56409973788348
 20
49.61039929916146
 30
0.0
 10
95.57454117779834
 20
49.6101732047939
 30
0.0
  0
SPLINE
  5
93
330
1F
100
AcDbEntity
  8
0
  6
Continuous
 62
     7
370
    25
100
AcDbSpline
210
0.0
220
0.0
230
1.0
 70
     8
 71
     3
 72
    15
 73
    11
 74
     0
 42
0.000000001
 43
0.00000001
 40
0.0
 40
0.0
 40
0.0
 40
0.0
 40
0.1182713048357256
 40
0.2361775330837632
 40
0.355662932948509
 40
0.4759041646706825
 40
0.6001273417110832
 40
0.7286081161551193
 40
0.8613134756739422
 40
1.0
 40
1.0
 40
1.0
 40
1.0
 10
95.33836329318297
 20
50.24268522402468
 30
0.0
 10
95.3318882929463
 20
50.23428669122818
 30
0.0
 10
95.31895827932439
 20
50.21751554999359
 30
0.0
 10
95.30245758137963
 20
50.19018630809426
 30
0.0
 10
95.28815999909331
 20
50.16144421405752
 30
0.0
 10
95.2772384152149
 20
50.13066649653427
 30
0.0
 10
95.26799084630524
 20
50.09851730919683
 30
0.0
 10
95.26193919524847
 20
50.06447700981177
 30
0.0
 10
95.25778712181567
 20
50.02884591676387
 30
0.0
 10
95.25742072260464
 20
50.00451687527113
 30
0.0
 10
95.25723348549064
 20
49.99208426248621
 30
0.0
  0
SPLINE
  5
94
330
1F
100
AcDbEntity
  8
0
  6
Continuous
 62
     7
370
    25
100
AcDbSpline
210
0.0
220
0.0
230
1.0
 70
     8
 71
     3
 72
    15
 73
    11
 74
     0
 42
0.000000001
 43
0.00000001
 40
0.0
 40
0.0
 40
0.0
 40
0.0
 40
0.1497703860319679
 40
0.2913164099952444
 40
0.4259663731047425
 40
0.5521595739695284
 40
0.6715274135235927
 40
0.7861216286916589
 40
0.8953250730704446
 40
1.0
 40
1.0
 40
1.0
 40
1.0
 10
95.54569502395219
 20
50.3601732047939
 30
0.0
 10
95.53414544683706
 20
50.35666607989093
 30
0.0
 10
95.51168051614357
 20
50.34984441732325
 30
0.0
 10
95.47934895656863
 20
50.3382325753082
 30
0.0
 10
95.44970979090087
 20
50.32500331584944
 30
0.0
 10
95.42254559576745
 20
50.31081136214827
 30
0.0
 10
95.39758885185422
 20
50.29590631385281
 30
0.0
 10
95.37549947941105
 20
50.27922848879435
 30
0.0
 10
95.35530724989256
 20
50.26201314087408
 30
0.0
 10
95.34393098763249
 20
50.24903627515208
 30
0.0
 10
95.33836329318297
 20
50.24268522402468
 30
0.0
  0
LINE
  5
95
330
1F
100
AcDbEntity
  8
0
  6
Continuous
 62
     7
370
    25
100
AcDbLine
 10
95.545695024
 20
50.4947885894
 30
0.0
 11
95.545695024
 21
50.3601732048
 31
0.0
  0
SPLINE
  5
96
330
1F
100
AcDbEntity
  8
0
  6
Continuous
 62
     7
370
    25
100
AcDbSpline
210
0.0
220
0.0
230
1.0
 70
     8
 71
     3
 72
    23
 73
    19
 74
     0
 42
0.000000001
 43
0.00000001
 40
0.0
 40
0.0
 40
0.0
 40
0.0
 40
0.0655411703374033
 40
0.1289631677825933
 40
0.1903771361885609
 40
0.2500923616690527
 40
0.308548432459201
 40
0.3663979630552958
 40
0.42454218926668
 40
0.4831699964229055
 40
0.5422433998311199
 40
0.6017393520173299
 40
0.6625060022496068
 40
0.7248555134488469
 40
0.7891278292811811
 40
0.8563463998785099
 40
0.9262952349869055
 40
1.0
 40
1.0
 40
1.0
 40
1.0
 10
95.10338733164448
 20
49.99448810864006
 30
0.0
 10
95.10375942304098
 20
50.01052495161854
 30
0.0
 10
95.10449157483123
 20
50.04208011093429
 30
0.0
 10
95.10949668962976
 20
50.08847018167129
 30
0.0
 10
95.11863812044597
 20
50.13275090997037
 30
0.0
 10
95.13093953703144
 20
50.17498216619465
 30
0.0
 10
95.14653599792308
 20
50.21520146750618
 30
0.0
 10
95.16595829707506
 20
50.25328608401091
 30
0.0
 10
95.18880608366871
 20
50.28947032409096
 30
0.0
 10
95.21534904987153
 20
50.32341273172435
 30
0.0
 10
95.24504105262442
 20
50.35510926074131
 30
0.0
 10
95.27840919975343
 20
50.38371757112565
 30
0.0
 10
95.31483665857674
 20
50.40971462524369
 30
0.0
 10
95.35474653980476
 20
50.43240432754861
 30
0.0
 10
95.39762307863809
 20
50.45282016438398
 30
0.0
 10
95.44401529223023
 20
50.46961200294711
 30
0.0
 10
95.49350844451122
 20
50.48439153236266
 30
0.0
 10
95.5279989045866
 20
50.49126301703955
 30
0.0
 10
95.54569502395219
 20
50.49478858940929
 30
0.0
  0
SPLINE
  5
97
330
1F
100
AcDbEntity
  8
0
  6
Continuous
 62
     7
370
    25
100
AcDbSpline
210
0.0
220
0.0
230
1.0
 70
     8
 71
     3
 72
    19
 73
    15
 74
     0
 42
0.000000001
 43
0.00000001
 40
0.0
 40
0.0
 40
0.0
 40
0.0
 40
0.079641704194991
 40
0.158908613257856
 40
0.2395997983184508
 40
0.3224093988203483
 40
0.405827748173513
 40
0.4876442139503136
 40
0.5697199979738973
 40
0.6530646649976933
 40
0.7374573001733064
 40
0.8224924079539123
 40
0.9097550737466982
 40
1.0
 40
1.0
 40
1.0
 40
1.0
 10
95.58746185087526
 20
49.47555782017852
 30
0.0
 10
95.56645851987194
 20
49.47632859089003
 30
0.0
 10
95.52455069987651
 20
49.47786650505378
 30
0.0
 10
95.46262043383385
 20
49.49155713475682
 30
0.0
 10
95.40218725977158
 20
49.51290373905705
 30
0.0
 10
95.34414660084659
 20
49.54268768275747
 30
0.0
 10
95.28995521048695
 20
49.57953824514712
 30
0.0
 10
95.24168862645041
 20
49.62362239068652
 30
0.0
 10
95.19992052020307
 20
49.6738684408291
 30
0.0
 10
95.16513481394652
 20
49.72994754519994
 30
0.0
 10
95.1373077498692
 20
49.79067812434825
 30
0.0
 10
95.11799880422524
 20
49.85564054346794
 30
0.0
 10
95.10542156939749
 20
49.92389017130444
 30
0.0
 10
95.10407296342555
 20
49.97069335336025
 30
0.0
 10
95.10338733164448
 20
49.99448810864006
 30
0.0
  0
SPLINE
  5
98
330
1F
100
AcDbEntity
  8
0
  6
Continuous
 62
     7
370
    25
100
AcDbSpline
210
0.0
220
0.0
230
1.0
 70
     8
 71
     3
 72
    15
 73
    11
 74
     0
 42
0.000000001
 43
0.00000001
 40
0.0
 40
0.0
 40
0.0
 40
0.0
 40
0.1281455049994643
 40
0.2541925386280419
 40
0.3781411397135888
 40
0.5013808330744057
 40
0.6239569784447038
 40
0.7470758858273289
 40
0.8728647202442611
 40
1.0
 40
1.0
 40
1.0
 40
1.0
 10
95.85398829318295
 20
49.56510108940929
 30
0.0
 10
95.84410745275795
 20
49.55788043322173
 30
0.0
 10
95.8245075775113
 20
49.5435573640912
 30
0.0
 10
95.7929765809457
 20
49.52592791542727
 30
0.0
 10
95.7612004817102
 20
49.50975170800618
 30
0.0
 10
95.72792988456636
 20
49.49784648759607
 30
0.0
 10
95.69423349994585
 20
49.48757275415802
 30
0.0
 10
95.65938975357993
 20
49.48081297964568
 30
0.0
 10
95.62372969055237
 20
49.47647347479998
 30
0.0
 10
95.59959395974336
 20
49.47586411968938
 30
0.0
 10
95.58746185087526
 20
49.47555782017852
 30
0.0
  0
SPLINE
  5
99
330
1F
100
AcDbEntity
  8
0
  6
Continuous
 62
     7
370
    25
100
AcDbSpline
210
0.0
220
0.0
230
1.0
 70
     8
 71
     3
 72
    11
 73
     7
 74
     0
 42
0.000000001
 43
0.00000001
 40
0.0
 40
0.0
 40
0.0
 40
0.0
 40
0.253879600326656
 40
0.5030089172783633
 40
0.7502910806899731
 40
1.0
 40
1.0
 40
1.0
 40
1.0
 10
95.98199310087527
 20
49.72766118556314
 30
0.0
 10
95.97428817021462
 20
49.71170471931742
 30
0.0
 10
95.95902247409597
 20
49.68009034463147
 30
0.0
 10
95.92908429230286
 20
49.63699726054594
 30
0.0
 10
95.89451728629406
 20
49.59787817110725
 30
0.0
 10
95.86754186361682
 20
49.57606229153419
 30
0.0
 10
95.85398829318295
 20
49.56510108940929
 30
0.0
  0
SPLINE
  5
9A
330
1F
100
AcDbEntity
  8
0
  6
Continuous
 62
     7
370
    25
100
AcDbSpline
210
0.0
220
0.0
230
1.0
 70
     8
 71
     3
 72
    15
 73
    11
 74
     0
 42
0.000000001
 43
0.00000001
 40
0.0
 40
0.0
 40
0.0
 40
0.0
 40
0.1280675485958904
 40
0.2506083188676684
 40
0.3706301659145029
 40
0.4900722467299488
 40
0.6103747641546199
 40
0.7343130699115256
 40
0.8632165042449895
 40
1.0
 40
1.0
 40
1.0
 40
1.0
 10
96.29058685087526
 20
49.5524808971016
 30
0.0
 10
96.27472679600143
 20
49.55297957897891
 30
0.0
 10
96.24369112980297
 20
49.55395542202653
 30
0.0
 10
96.19838191674376
 20
49.56224129583897
 30
0.0
 10
96.15567837376567
 20
49.5761854085002
 30
0.0
 10
96.1154007328556
 20
49.59550102103357
 30
0.0
 10
96.07780437293141
 20
49.62050454256512
 30
0.0
 10
96.04280470541975
 20
49.6507928412324
 30
0.0
 10
96.01024649479336
 20
49.68657969627904
 30
0.0
 10
95.99159529208958
 20
49.71369924114617
 30
0.0
 10
95.98199310087527
 20
49.72766118556314
 30
0.0
  0
SPLINE
  5
9B
330
1F
100
AcDbEntity
  8
0
  6
Continuous
 62
     7
370
    25
100
AcDbSpline
210
0.0
220
0.0
230
1.0
 70
     8
 71
     3
 72
    19
 73
    15
 74
     0
 42
0.000000001
 43
0.00000001
 40
0.0
 40
0.0
 40
0.0
 40
0.0
 40
0.0902542493426766
 40
0.1785397915286845
 40
0.2660930338538198
 40
0.3546309779571733
 40
0.4418861533505626
 40
0.5257469151636484
 40
0.6081136336036366
 40
0.6901972728278825
 40
0.770821484330335
 40
0.8483261812554109
 40
0.9240117400247433
 40
1.0
 40
1.0
 40
1.0
 40
1.0
 10
96.68031040856758
 20
49.99058185864006
 30
0.0
 10
96.67971930989117
 20
49.97100354060788
 30
0.0
 10
96.67855000611624
 20
49.93227396448926
 30
0.0
 10
96.66787239048234
 20
49.87537551579619
 30
0.0
 10
96.65097590518769
 20
49.82050687903813
 30
0.0
 10
96.62763002212897
 20
49.768268629974
 30
0.0
 10
96.59883545934522
 20
49.71974644457559
 30
0.0
 10
96.5645648578189
 20
49.67657379311255
 30
0.0
 10
96.52547944289574
 20
49.63933585991085
 30
0.0
 10
96.48230834390208
 20
49.60809541234223
 30
0.0
 10
96.43617026845052
 20
49.58363469846208
 30
0.0
 10
96.38868448681598
 20
49.56559768125648
 30
0.0
 10
96.339963641935
 20
49.55461696082849
 30
0.0
 10
96.30706766514564
 20
49.55319386505267
 30
0.0
 10
96.29058685087526
 20
49.5524808971016
 30
0.0
  0
SPLINE
  5
9C
330
1F
100
AcDbEntity
  8
0
  6
Continuous
 62
     7
370
    25
100
AcDbSpline
210
0.0
220
0.0
230
1.0
 70
     8
 71
     3
 72
    23
 73
    19
 74
     0
 42
0.000000001
 43
0.00000001
 40
0.0
 40
0.0
 40
0.0
 40
0.0
 40
0.0726253460834355
 40
0.1419766113262345
 40
0.2089849284189386
 40
0.2739568703644447
 40
0.336889347396841
 40
0.3987449534945902
 40
0.4601158852788617
 40
0.5208249225900291
 40
0.5809944586324857
 40
0.6401519276014648
 40
0.6986224507562546
 40
0.7572710809271643
 40
0.8164266940046602
 40
0.8762540482034705
 40
0.9371652930625374
 40
1.0
 40
1.0
 40
1.0
 40
1.0
 10
96.29569502395219
 20
50.43709628171698
 30
0.0
 10
96.31079465994164
 20
50.43344933142512
 30
0.0
 10
96.34031321325192
 20
50.42631984190065
 30
0.0
 10
96.38248775361505
 20
50.41144945327112
 30
0.0
 10
96.42239783421107
 20
50.39524977247343
 30
0.0
 10
96.4592961515091
 20
50.37579729908854
 30
0.0
 10
96.49392425268024
 20
50.35457926156306
 30
0.0
 10
96.52549673459517
 20
50.33026952376197
 30
0.0
 10
96.55481657693822
 20
50.30398964266229
 30
0.0
 10
96.58083653589131
 20
50.27492180724724
 30
0.0
 10
96.60439841983704
 20
50.24443809511547
 30
0.0
 10
96.62448773012662
 20
50.21210897236516
 30
0.0
 10
96.64176950992568
 20
50.17858487507776
 30
0.0
 10
96.65600675215799
 20
50.1436335323855
 30
0.0
 10
96.66673197658632
 20
50.10715088737464
 30
0.0
 10
96.67451346469666
 20
50.0694667630943
 30
0.0
 10
96.67956679935999
 20
50.0304824059023
 30
0.0
 10
96.68005998353986
 20
50.00401915278876
 30
0.0
 10
96.68031040856758
 20
49.99058185864006
 30
0.0
  0
LINE
  5
9D
330
1F
100
AcDbEntity
  8
0
  6
Continuous
 62
     7
370
    25
100
AcDbLine
 10
96.295695024
 20
50.3024808971
 30
0.0
 11
96.295695024
 21
50.4370962817
 31
0.0
  0
LINE
  5
9E
330
1F
100
AcDbEntity
  8
0
  6
Continuous
 62
     7
370
    25
100
AcDbLine
 10
96.6803104086
 20
48.0150802966
 30
0.0
 11
96.5988801201
 21
47.9114144312
 31
0.0
  0
LINE
  5
9F
330
1F
100
AcDbEntity
  8
0
  6
Continuous
 62
     7
370
    25
100
AcDbLine
 10
95.9958152163
 20
48.4627966428
 30
0.0
 11
96.6803104086
 21
48.0150802966
 31
0.0
  0
SPLINE
  5
A0
330
1F
100
AcDbEntity
  8
0
  6
Continuous
 62
     7
370
    25
100
AcDbSpline
210
0.0
220
0.0
230
1.0
 70
     8
 71
     3
 72
    19
 73
    15
 74
     0
 42
0.000000001
 43
0.00000001
 40
0.0
 40
0.0
 40
0.0
 40
0.0
 40
0.0978059775289525
 40
0.1996122522918967
 40
0.3052960258330042
 40
0.4158173591641855
 40
0.4742405666184931
 40
0.5372869128296535
 40
0.6033858352934857
 40
0.6743111580696057
 40
0.7495304673574823
 40
0.828608314269512
 40
0.9120427387714449
 40
1.0
 40
1.0
 40
1.0
 40
1.0
 10
95.56011810087527
 20
48.63046491199852
 30
0.0
 10
95.57556015483858
 20
48.62992129129802
 30
0.0
 10
95.60707584794355
 20
48.62881181562832
 30
0.0
 10
95.65494532200594
 20
48.62219059265533
 30
0.0
 10
95.70373413518824
 20
48.61004646075629
 30
0.0
 10
95.74509370083427
 20
48.59690385578674
 30
0.0
 10
95.77934691463946
 20
48.58386242434171
 30
0.0
 10
95.80639577274653
 20
48.57177010902499
 30
0.0
 10
95.83496023542381
 20
48.55824942708552
 30
0.0
 10
95.86449983492939
 20
48.5424013049663
 30
0.0
 10
95.89585858160231
 20
48.5256010165666
 30
0.0
 10
95.92787516531901
 20
48.50597637321825
 30
0.0
 10
95.96171893057863
 20
48.48549775633792
 30
0.0
 10
95.98425158378033
 20
48.47049564366937
 30
0.0
 10
95.99581521625989
 20
48.46279664276775
 30
0.0
  0
SPLINE
  5
A1
330
1F
100
AcDbEntity
  8
0
  6
Continuous
 62
     7
370
    25
100
AcDbSpline
210
0.0
220
0.0
230
1.0
 70
     8
 71
     3
 72
    19
 73
    15
 74
     0
 42
0.000000001
 43
0.00000001
 40
0.0
 40
0.0
 40
0.0
 40
0.0
 40
0.0843261511037431
 40
0.1670353409858404
 40
0.2495407139852791
 40
0.3327066655796642
 40
0.4158726171740491
 40
0.4977774155681173
 40
0.5803136056784763
 40
0.6645325781316562
 40
0.7495711764063213
 40
0.8324741628544072
 40
0.9156738488962566
 40
0.9999999999999999
 40
0.9999999999999999
 40
0.9999999999999999
 40
0.9999999999999999
 10
95.10338733164448
 20
48.1761379889216
 30
0.0
 10
95.10404227530965
 20
48.19632229309333
 30
0.0
 10
95.10533960403868
 20
48.23630386566315
 30
0.0
 10
95.11689645874151
 20
48.29511786341151
 30
0.0
 10
95.13562798265566
 20
48.35163080062984
 30
0.0
 10
95.16143444670321
 20
48.40544543833527
 30
0.0
 10
95.1940294001347
 20
48.45530014731712
 30
0.0
 10
95.23327510352284
 20
48.49988858074067
 30
0.0
 10
95.27830418177224
 20
48.53905560608221
 30
0.0
 10
95.32925476761343
 20
48.57147897342215
 30
0.0
 10
95.38365190885125
 20
48.59790410580604
 30
0.0
 10
95.44088951759588
 20
48.61654213380296
 30
0.0
 10
95.49981566425835
 20
48.62859539515835
 30
0.0
 10
95.5399273832342
 20
48.62983895243929
 30
0.0
 10
95.56011810087527
 20
48.63046491199852
 30
0.0
  0
SPLINE
  5
A2
330
1F
100
AcDbEntity
  8
0
  6
Continuous
 62
     7
370
    25
100
AcDbSpline
210
0.0
220
0.0
230
1.0
 70
     8
 71
     3
 72
    19
 73
    15
 74
     0
 42
0.000000001
 43
0.00000001
 40
0.0
 40
0.0
 40
0.0
 40
0.0
 40
0.0859901205637197
 40
0.1691084375726415
 40
0.2505285789581879
 40
0.332255696176845
 40
0.4135763652356401
 40
0.4941261456201216
 40
0.5763059341204168
 40
0.660712671904547
 40
0.7461272722239101
 40
0.830014985960974
 40
0.9144197259288509
 40
1.0
 40
1.0
 40
1.0
 40
1.0
 10
95.56282242779834
 20
47.7073879889216
 30
0.0
 10
95.54184360451222
 20
47.70817078692473
 30
0.0
 10
95.50058658562715
 20
47.70971023990349
 30
0.0
 10
95.44024483648539
 20
47.72091680373676
 30
0.0
 10
95.38321994126454
 20
47.74025682903293
 30
0.0
 10
95.32928780154157
 20
47.76613146371328
 30
0.0
 10
95.28001757607585
 20
47.79970176766595
 30
0.0
 10
95.23549050404556
 20
47.83948442352144
 30
0.0
 10
95.19667861964415
 20
47.88585548859592
 30
0.0
 10
95.16338352078641
 20
47.93771688583208
 30
0.0
 10
95.1369306066687
 20
47.9938470236291
 30
0.0
 10
95.11737342732764
 20
48.05270130915495
 30
0.0
 10
95.10568751564776
 20
48.11377668773665
 30
0.0
 10
95.1041575863957
 20
48.15525527325115
 30
0.0
 10
95.10338733164448
 20
48.1761379889216
 30
0.0
  0
SPLINE
  5
A3
330
1F
100
AcDbEntity
  8
0
  6
Continuous
 62
     7
370
    25
100
AcDbSpline
210
0.0
220
0.0
230
1.0
 70
     8
 71
     3
 72
    23
 73
    19
 74
     0
 42
0.000000001
 43
0.00000001
 40
0.0
 40
0.0
 40
0.0
 40
0.0
 40
0.0652308037420297
 40
0.128404896003223
 40
0.1900670715964782
 40
0.2509433657682801
 40
0.3115458328521434
 40
0.3728628021568294
 40
0.4350236738562386
 40
0.4990717247070431
 40
0.5630910750496624
 40
0.6255101063303751
 40
0.6866800359296492
 40
0.7472825030135124
 40
0.8085634952159588
 40
0.8707421035159856
 40
0.9343409515059125
 40
1.0
 40
1.0
 40
1.0
 40
1.0
 10
96.00723348549064
 20
48.15240000815236
 30
0.0
 10
96.00682372333532
 20
48.13715465258015
 30
0.0
 10
96.0060171187264
 20
48.10714462381332
 30
0.0
 10
95.99980975414418
 20
48.06308456573876
 30
0.0
 10
95.99002756331977
 20
48.02074645032167
 30
0.0
 10
95.97576802505627
 20
47.98030575935508
 30
0.0
 10
95.95755273032957
 20
47.94161733855811
 30
0.0
 10
95.93572178592365
 20
47.90445916879731
 30
0.0
 10
95.9091479229136
 20
47.86952973589464
 30
0.0
 10
95.87946294186338
 20
47.83637923051812
 30
0.0
 10
95.8465842342226
 20
47.806281903064
 30
0.0
 10
95.81169794706285
 20
47.77963502211077
 30
0.0
 10
95.77484042663507
 20
47.75725211136758
 30
0.0
 10
95.73603034123506
 20
47.73909185924705
 30
0.0
 10
95.69532751570912
 20
47.72498976841938
 30
0.0
 10
95.65278402735696
 20
47.71470934911498
 30
0.0
 10
95.60837053958834
 20
47.70863238076362
 30
0.0
 10
95.57816560733139
 20
47.70780717045714
 30
0.0
 10
95.56282242779834
 20
47.7073879889216
 30
0.0
  0
SPLINE
  5
A4
330
1F
100
AcDbEntity
  8
0
  6
Continuous
 62
     7
370
    25
100
AcDbSpline
210
0.0
220
0.0
230
1.0
 70
     8
 71
     3
 72
     9
 73
     5
 74
     0
 42
0.000000001
 43
0.00000001
 40
0.0
 40
0.0
 40
0.0
 40
0.0
 40
0.5126593363417812
 40
1.0
 40
1.0
 40
1.0
 40
1.0
 10
95.99281040856756
 20
48.30774856584468
 30
0.0
 10
95.99701634884768
 20
48.28136130428039
 30
0.0
 10
96.00522051091392
 20
48.22988996709071
 30
0.0
 10
96.00657391610609
 20
48.17779029629455
 30
0.0
 10
96.00723348549064
 20
48.15240000815236
 30
0.0
  0
LINE
  5
A5
330
1F
100
AcDbEntity
  8
0
  6
Continuous
 62
     7
370
    25
100
AcDbLine
 10
96.5988801201
 20
47.9114144312
 30
0.0
 11
95.9928104086
 21
48.3077485658
 31
0.0
  0
LINE
  5
A6
330
1F
100
AcDbEntity
  8
0
  6
Continuous
 62
     7
370
    25
100
AcDbLine
 10
96.6418488701
 20
49.2448133521
 30
0.0
 11
96.6418488701
 21
48.9674696021
 31
0.0
  0
LINE
  5
A7
330
1F
100
AcDbEntity
  8
0
  6
Continuous
 62
     7
370
    25
100
AcDbLine
 10
96.4880027163
 20
49.3328542175
 30
0.0
 11
96.6418488701
 21
49.2448133521
 31
0.0
  0
LINE
  5
A8
330
1F
100
AcDbEntity
  8
0
  6
Continuous
 62
     7
370
    25
100
AcDbLine
 10
95.1418488701
 20
49.1020849867
 30
0.0
 11
96.4880027163
 21
49.1020849867
 31
0.0
  0
LINE
  5
A9
330
1F
100
AcDbEntity
  8
0
  6
Continuous
 62
     7
370
    25
100
AcDbLine
 10
95.1418488701
 20
48.9674696021
 30
0.0
 11
95.1418488701
 21
49.1020849867
 31
0.0
  0
LINE
  5
AA
330
1F
100
AcDbEntity
  8
0
  6
Continuous
 62
     7
370
    25
100
AcDbLine
 10
96.6418488701
 20
48.9674696021
 30
0.0
 11
95.1418488701
 21
48.9674696021
 31
0.0
  0
LINE
  5
AB
330
1F
100
AcDbEntity
  8
0
  6
Continuous
 62
     7
370
    25
100
AcDbLine
 10
96.0222336278
 20
55.4033338582
 30
0.0
 11
97.9593684979
 21
55.4033338582
 31
0.0
  0
SPLINE
  5
AC
330
1F
100
AcDbEntity
  8
0
  6
Continuous
 62
     7
370
    25
100
AcDbSpline
210
0.0
220
0.0
230
1.0
 70
     8
 71
     3
 72
    12
 73
     8
 74
     0
 42
0.000000001
 43
0.00000001
 40
0.0
 40
0.0
 40
0.0
 40
0.0
 40
0.2499999999999999
 40
0.2499999999999999
 40
0.4999999999999999
 40
0.4999999999999999
 40
1.0
 40
1.0
 40
1.0
 40
1.0
 10
98.94184887010603
 20
49.0524808971016
 30
0.0
 10
98.94184887010603
 20
49.59001452000654
 30
0.0
 10
98.91890467554806
 20
50.13038126383807
 30
0.0
 10
98.82804797467492
 20
51.21147304865523
 30
0.0
 10
98.76077936224496
 20
51.74629116739725
 30
0.0
 10
98.5026597164026
 20
53.33597680199401
 30
0.0
 10
98.25588302880236
 20
54.37617739263333
 30
0.0
 10
97.95936849785858
 20
55.40333385818749
 30
0.0
  0
SPLINE
  5
AD
330
1F
100
AcDbEntity
  8
0
  6
Continuous
 62
     7
370
    25
100
AcDbSpline
210
0.0
220
0.0
230
1.0
 70
     8
 71
     3
 72
    10
 73
     6
 74
     0
 42
0.000000001
 43
0.00000001
 40
0.0
 40
0.0
 40
0.0
 40
0.0
 40
0.5
 40
0.5
 40
1.0
 40
1.0
 40
1.0
 40
1.0
 10
97.9593684978586
 20
42.70162793601571
 30
0.0
 10
98.25785105618216
 20
43.73560184839478
 30
0.0
 10
98.50771196955658
 20
44.79300388765492
 30
0.0
 10
98.84943475206714
 20
46.91193094783136
 30
0.0
 10
98.94184887010603
 20
47.97819831962345
 30
0.0
 10
98.94184887010603
 20
49.0524808971016
 30
0.0
  0
LINE
  5
AE
330
1F
100
AcDbEntity
  8
0
  6
Continuous
 62
     7
370
    25
100
AcDbLine
 10
96.0222336278
 20
42.701627936
 30
0.0
 11
97.9593684979
 21
42.701627936
 31
0.0
  0
SPLINE
  5
AF
330
1F
100
AcDbEntity
  8
0
  6
Continuous
 62
     7
370
    25
100
AcDbSpline
210
0.0
220
0.0
230
1.0
 70
     8
 71
     3
 72
     8
 73
     4
 74
     0
 42
0.000000001
 43
0.00000001
 40
0.0
 40
0.0
 40
0.0
 40
0.0
 40
1.0
 40
1.0
 40
1.0
 40
1.0
 10
96.02223362783536
 20
42.70162793601573
 30
0.0
 10
95.99440057427947
 20
42.90937667601651
 30
0.0
 10
95.96757958650917
 20
43.11721532248952
 30
0.0
 10
95.94184887010604
 20
43.32515082279733
 30
0.0
  0
SPLINE
  5
B0
330
1F
100
AcDbEntity
  8
0
  6
Continuous
 62
     7
370
    25
100
AcDbSpline
210
0.0
220
0.0
230
1.0
 70
     8
 71
     3
 72
     8
 73
     4
 74
     0
 42
0.000000001
 43
0.00000001
 40
0.0
 40
0.0
 40
0.0
 40
0.0
 40
1.0
 40
1.0
 40
1.0
 40
1.0
 10
95.94184887010604
 20
43.32515082279733
 30
0.0
 10
95.91610837953641
 20
43.11713633533011
 30
0.0
 10
95.889286859887
 20
42.90929975064495
 30
0.0
 10
95.8614641123767
 20
42.70162793601572
 30
0.0
  0
LINE
  5
B1
330
1F
100
AcDbEntity
  8
0
  6
Continuous
 62
     7
370
    25
100
AcDbLine
 10
93.9243292424
 20
42.701627936
 30
0.0
 11
95.8614641124
 21
42.701627936
 31
0.0
  0
SPLINE
  5
B2
330
1F
100
AcDbEntity
  8
0
  6
Continuous
 62
     7
370
    25
100
AcDbSpline
210
0.0
220
0.0
230
1.0
 70
     8
 71
     3
 72
    10
 73
     6
 74
     0
 42
0.000000001
 43
0.00000001
 40
0.0
 40
0.0
 40
0.0
 40
0.0
 40
0.5
 40
0.5
 40
1.0
 40
1.0
 40
1.0
 40
1.0
 10
93.92432924235345
 20
42.70162793601571
 30
0.0
 10
93.6258466840299
 20
43.73560184839478
 30
0.0
 10
93.37598577065548
 20
44.79300388765492
 30
0.0
 10
93.03426298814492
 20
46.91193094783136
 30
0.0
 10
92.94184887010604
 20
47.97819831962345
 30
0.0
 10
92.94184887010604
 20
49.0524808971016
 30
0.0
  0
SPLINE
  5
B3
330
1F
100
AcDbEntity
  8
0
  6
Continuous
 62
     7
370
    25
100
AcDbSpline
210
0.0
220
0.0
230
1.0
 70
     8
 71
     3
 72
    12
 73
     8
 74
     0
 42
0.000000001
 43
0.00000001
 40
0.0
 40
0.0
 40
0.0
 40
0.0
 40
0.2499999999999999
 40
0.2499999999999999
 40
0.4999999999999999
 40
0.4999999999999999
 40
1.0
 40
1.0
 40
1.0
 40
1.0
 10
92.94184887010604
 20
49.0524808971016
 30
0.0
 10
92.94184887010604
 20
49.59001452000654
 30
0.0
 10
92.964793064664
 20
50.13038126383807
 30
0.0
 10
93.05564976553715
 20
51.21147304865523
 30
0.0
 10
93.1229183779671
 20
51.74629116739725
 30
0.0
 10
93.38103802380945
 20
53.33597680199401
 30
0.0
 10
93.6278147114097
 20
54.37617739263333
 30
0.0
 10
93.92432924235347
 20
55.40333385818749
 30
0.0
  0
LINE
  5
B4
330
1F
100
AcDbEntity
  8
0
  6
Continuous
 62
     7
370
    25
100
AcDbLine
 10
93.9243292424
 20
55.4033338582
 30
0.0
 11
95.8614641124
 21
55.4033338582
 31
0.0
  0
SPLINE
  5
B5
330
1F
100
AcDbEntity
  8
0
  6
Continuous
 62
     7
370
    25
100
AcDbSpline
210
0.0
220
0.0
230
1.0
 70
     8
 71
     3
 72
     8
 73
     4
 74
     0
 42
0.000000001
 43
0.00000001
 40
0.0
 40
0.0
 40
0.0
 40
0.0
 40
1.0
 40
1.0
 40
1.0
 40
1.0
 10
95.8614641123767
 20
55.40333385818749
 30
0.0
 10
95.8892971659326
 20
55.19558511818669
 30
0.0
 10
95.9161181537029
 20
54.98774647171368
 30
0.0
 10
95.94184887010604
 20
54.77981097140587
 30
0.0
  0
SPLINE
  5
B6
330
1F
100
AcDbEntity
  8
0
  6
Continuous
 62
     7
370
    25
100
AcDbSpline
210
0.0
220
0.0
230
1.0
 70
     8
 71
     3
 72
     8
 73
     4
 74
     0
 42
0.000000001
 43
0.00000001
 40
0.0
 40
0.0
 40
0.0
 40
0.0
 40
1.0
 40
1.0
 40
1.0
 40
1.0
 10
95.94184887010603
 20
54.77981097140587
 30
0.0
 10
95.96758936067565
 20
54.98782545887308
 30
0.0
 10
95.99441088032506
 20
55.19566204355824
 30
0.0
 10
96.02223362783536
 20
55.40333385818748
 30
0.0
  0
LINE
  5
B7
330
1F
100
AcDbEntity
  8
0
  6
Continuous
 62
     7
370
    25
100
AcDbLine
 10
96.4880027163
 20
49.1020849867
 30
0.0
 11
96.4880027163
 21
49.3328542175
 31
0.0
  0
SPLINE
  5
B8
330
1F
100
AcDbEntity
  8
0
  6
Continuous
 62
     7
370
    25
100
AcDbSpline
210
0.0
220
0.0
230
1.0
 70
     8
 71
     3
 72
    10
 73
     6
 74
     0
 42
0.000000001
 43
0.00000001
 40
0.0
 40
0.0
 40
0.0
 40
0.0
 40
0.5
 40
0.5
 40
1.0
 40
1.0
 40
1.0
 40
1.0
 10
93.92432924235317
 20
55.40333385818746
 30
0.0
 10
93.62441999073286
 20
55.92279191965378
 30
0.0
 10
93.37733933136693
 20
56.44604432185024
 30
0.0
 10
93.03548451733454
 20
57.50348833074562
 30
0.0
 10
92.94184887010603
 20
58.03776170917001
 30
0.0
 10
92.94184887010603
 20
58.57876033873043
 30
0.0
  0
LINE
  5
B9
330
1F
100
AcDbEntity
  8
0
  6
Continuous
 62
     7
370
    25
100
AcDbLine
 10
92.9418488701
 20
49.0524808971
 30
0.0
 11
92.9418488701
 21
58.5787603387
 31
0.0
  0
SPLINE
  5
BA
330
1F
100
AcDbEntity
  8
0
  6
Continuous
 62
     7
370
    25
100
AcDbSpline
210
0.0
220
0.0
230
1.0
 70
     8
 71
     3
 72
    12
 73
     8
 74
     0
 42
0.000000001
 43
0.00000001
 40
0.0
 40
0.0
 40
0.0
 40
0.0
 40
0.25
 40
0.25
 40
0.5
 40
0.5
 40
1.0
 40
1.0
 40
1.0
 40
1.0
 10
98.94184887010604
 20
39.52620145547277
 30
0.0
 10
98.94184887010604
 20
39.79568934969982
 30
0.0
 10
98.91862671577887
 20
40.06638623086685
 30
0.0
 10
98.82875956591812
 20
40.60188106179915
 30
0.0
 10
98.76220097683043
 20
40.86783746515108
 30
0.0
 10
98.50549150270875
 20
41.66098306859276
 30
0.0
 10
98.25852882968634
 20
42.18346704168115
 30
0.0
 10
97.95936849785875
 20
42.70162793601573
 30
0.0
  0
SPLINE
  5
BB
330
1F
100
AcDbEntity
  8
0
  6
Continuous
 62
     7
370
    25
100
AcDbSpline
210
0.0
220
0.0
230
1.0
 70
     8
 71
     3
 72
    10
 73
     6
 74
     0
 42
0.000000001
 43
0.00000001
 40
0.0
 40
0.0
 40
0.0
 40
0.0
 40
0.5
 40
0.5
 40
1.0
 40
1.0
 40
1.0
 40
1.0
 10
97.95936849785892
 20
36.35077497492981
 30
0.0
 10
98.25927774947921
 20
36.87023303639612
 30
0.0
 10
98.50635840884514
 20
37.39348543859259
 30
0.0
 10
98.84821322287753
 20
38.45092944748797
 30
0.0
 10
98.94184887010604
 20
38.98520282591237
 30
0.0
 10
98.94184887010604
 20
39.52620145547277
 30
0.0
  0
LINE
  5
BC
330
1F
100
AcDbEntity
  8
0
  6
Continuous
 62
     7
370
    25
100
AcDbLine
 10
96.0222336278
 20
36.3507749749
 30
0.0
 11
97.9593684979
 21
36.3507749749
 31
0.0
  0
SPLINE
  5
BD
330
1F
100
AcDbEntity
  8
0
  6
Continuous
 62
     7
370
    25
100
AcDbSpline
210
0.0
220
0.0
230
1.0
 70
     8
 71
     3
 72
     8
 73
     4
 74
     0
 42
0.000000001
 43
0.00000001
 40
0.0
 40
0.0
 40
0.0
 40
0.0
 40
1.0
 40
1.0
 40
1.0
 40
1.0
 10
96.02223362783536
 20
36.35077497492983
 30
0.0
 10
95.99440195477827
 20
36.45464419283859
 30
0.0
 10
95.96758089491222
 20
36.55856338142232
 30
0.0
 10
95.94184887010604
 20
36.66253641832063
 30
0.0
  0
SPLINE
  5
BE
330
1F
100
AcDbEntity
  8
0
  6
Continuous
 62
     7
370
    25
100
AcDbSpline
210
0.0
220
0.0
230
1.0
 70
     8
 71
     3
 72
     8
 73
     4
 74
     0
 42
0.000000001
 43
0.00000001
 40
0.0
 40
0.0
 40
0.0
 40
0.0
 40
1.0
 40
1.0
 40
1.0
 40
1.0
 10
95.94184887010604
 20
36.66253641832063
 30
0.0
 10
95.91610792027272
 20
36.55852731888228
 30
0.0
 10
95.88928637601181
 20
36.45460907639767
 30
0.0
 10
95.8614641123767
 20
36.35077497492983
 30
0.0
  0
LINE
  5
BF
330
1F
100
AcDbEntity
  8
0
  6
Continuous
 62
     7
370
    25
100
AcDbLine
 10
93.9243292424
 20
36.3507749749
 30
0.0
 11
95.8614641124
 21
36.3507749749
 31
0.0
  0
SPLINE
  5
C0
330
1F
100
AcDbEntity
  8
0
  6
Continuous
 62
     7
370
    25
100
AcDbSpline
210
0.0
220
0.0
230
1.0
 70
     8
 71
     3
 72
    10
 73
     6
 74
     0
 42
0.000000001
 43
0.00000001
 40
0.0
 40
0.0
 40
0.0
 40
0.0
 40
0.5
 40
0.5
 40
1.0
 40
1.0
 40
1.0
 40
1.0
 10
93.92432924235317
 20
36.35077497492981
 30
0.0
 10
93.62441999073286
 20
36.87023303639612
 30
0.0
 10
93.37733933136693
 20
37.39348543859259
 30
0.0
 10
93.03548451733454
 20
38.45092944748797
 30
0.0
 10
92.94184887010603
 20
38.98520282591237
 30
0.0
 10
92.94184887010603
 20
39.52620145547277
 30
0.0
  0
SPLINE
  5
C1
330
1F
100
AcDbEntity
  8
0
  6
Continuous
 62
     7
370
    25
100
AcDbSpline
210
0.0
220
0.0
230
1.0
 70
     8
 71
     3
 72
    12
 73
     8
 74
     0
 42
0.000000001
 43
0.00000001
 40
0.0
 40
0.0
 40
0.0
 40
0.0
 40
0.25
 40
0.25
 40
0.5
 40
0.5
 40
1.0
 40
1.0
 40
1.0
 40
1.0
 10
92.94184887010603
 20
39.52620145547277
 30
0.0
 10
92.94184887010603
 20
39.79568934969982
 30
0.0
 10
92.96507102443319
 20
40.06638623086685
 30
0.0
 10
93.05493817429394
 20
40.60188106179915
 30
0.0
 10
93.12149676338163
 20
40.86783746515108
 30
0.0
 10
93.37820623750332
 20
41.66098306859276
 30
0.0
 10
93.62516891052572
 20
42.18346704168115
 30
0.0
 10
93.92432924235332
 20
42.70162793601573
 30
0.0
  0
SPLINE
  5
C2
330
1F
100
AcDbEntity
  8
0
  6
Continuous
 62
     7
370
    25
100
AcDbSpline
210
0.0
220
0.0
230
1.0
 70
     8
 71
     3
 72
     8
 73
     4
 74
     0
 42
0.000000001
 43
0.00000001
 40
0.0
 40
0.0
 40
0.0
 40
0.0
 40
1.0
 40
1.0
 40
1.0
 40
1.0
 10
95.8614641123767
 20
42.70162793601572
 30
0.0
 10
95.8892957854338
 20
42.59775871810696
 30
0.0
 10
95.91611684529985
 20
42.49383952952322
 30
0.0
 10
95.94184887010604
 20
42.38986649262491
 30
0.0
  0
SPLINE
  5
C3
330
1F
100
AcDbEntity
  8
0
  6
Continuous
 62
     7
370
    25
100
AcDbSpline
210
0.0
220
0.0
230
1.0
 70
     8
 71
     3
 72
     8
 73
     4
 74
     0
 42
0.000000001
 43
0.00000001
 40
0.0
 40
0.0
 40
0.0
 40
0.0
 40
1.0
 40
1.0
 40
1.0
 40
1.0
 10
95.94184887010604
 20
42.38986649262491
 30
0.0
 10
95.96758981993935
 20
42.49387559206327
 30
0.0
 10
95.99441136420026
 20
42.59779383454789
 30
0.0
 10
96.02223362783536
 20
42.70162793601572
 30
0.0
  0
LINE
  5
C4
330
1F
100
AcDbEntity
  8
0
  6
Continuous
 62
     7
370
    25
100
AcDbLine
 10
96.0222336278
 20
61.7541868193
 30
0.0
 11
97.9593684979
 21
61.7541868193
 31
0.0
  0
SPLINE
  5
C5
330
1F
100
AcDbEntity
  8
0
  6
Continuous
 62
     7
370
    25
100
AcDbSpline
210
0.0
220
0.0
230
1.0
 70
     8
 71
     3
 72
    12
 73
     8
 74
     0
 42
0.000000001
 43
0.00000001
 40
0.0
 40
0.0
 40
0.0
 40
0.0
 40
0.2500000000000002
 40
0.2500000000000002
 40
0.5000000000000001
 40
0.5000000000000001
 40
1.0
 40
1.0
 40
1.0
 40
1.0
 10
98.94184887010604
 20
58.57876033873043
 30
0.0
 10
98.94184887010604
 20
58.84824823295747
 30
0.0
 10
98.91862671577887
 20
59.11894511412451
 30
0.0
 10
98.82875956591812
 20
59.6544399450568
 30
0.0
 10
98.76220097683043
 20
59.92039634840872
 30
0.0
 10
98.50549150270875
 20
60.71354195185042
 30
0.0
 10
98.25852882968634
 20
61.2360259249388
 30
0.0
 10
97.95936849785875
 20
61.75418681927337
 30
0.0
  0
SPLINE
  5
C6
330
1F
100
AcDbEntity
  8
0
  6
Continuous
 62
     7
370
    25
100
AcDbSpline
210
0.0
220
0.0
230
1.0
 70
     8
 71
     3
 72
    10
 73
     6
 74
     0
 42
0.000000001
 43
0.00000001
 40
0.0
 40
0.0
 40
0.0
 40
0.0
 40
0.5
 40
0.5
 40
1.0
 40
1.0
 40
1.0
 40
1.0
 10
97.9593684978589
 20
55.40333385818746
 30
0.0
 10
98.25927774947921
 20
55.92279191965378
 30
0.0
 10
98.50635840884514
 20
56.44604432185024
 30
0.0
 10
98.84821322287753
 20
57.50348833074562
 30
0.0
 10
98.94184887010604
 20
58.03776170917001
 30
0.0
 10
98.94184887010604
 20
58.57876033873043
 30
0.0
  0
SPLINE
  5
C7
330
1F
100
AcDbEntity
  8
0
  6
Continuous
 62
     7
370
    25
100
AcDbSpline
210
0.0
220
0.0
230
1.0
 70
     8
 71
     3
 72
     8
 73
     4
 74
     0
 42
0.000000001
 43
0.00000001
 40
0.0
 40
0.0
 40
0.0
 40
0.0
 40
1.0
 40
1.0
 40
1.0
 40
1.0
 10
96.02223362783536
 20
55.40333385818749
 30
0.0
 10
95.99440195477827
 20
55.50720307609623
 30
0.0
 10
95.96758089491223
 20
55.61112226467997
 30
0.0
 10
95.94184887010604
 20
55.71509530157828
 30
0.0
  0
SPLINE
  5
C8
330
1F
100
AcDbEntity
  8
0
  6
Continuous
 62
     7
370
    25
100
AcDbSpline
210
0.0
220
0.0
230
1.0
 70
     8
 71
     3
 72
     8
 73
     4
 74
     0
 42
0.000000001
 43
0.00000001
 40
0.0
 40
0.0
 40
0.0
 40
0.0
 40
1.0
 40
1.0
 40
1.0
 40
1.0
 10
95.94184887010603
 20
55.71509530157828
 30
0.0
 10
95.91610792027272
 20
55.61108620213994
 30
0.0
 10
95.88928637601181
 20
55.50716795965531
 30
0.0
 10
95.8614641123767
 20
55.40333385818749
 30
0.0
  0
SPLINE
  5
C9
330
1F
100
AcDbEntity
  8
0
  6
Continuous
 62
     7
370
    25
100
AcDbSpline
210
0.0
220
0.0
230
1.0
 70
     8
 71
     3
 72
    12
 73
     8
 74
     0
 42
0.000000001
 43
0.00000001
 40
0.0
 40
0.0
 40
0.0
 40
0.0
 40
0.2500000000000002
 40
0.2500000000000002
 40
0.5000000000000001
 40
0.5000000000000001
 40
1.0
 40
1.0
 40
1.0
 40
1.0
 10
92.94184887010603
 20
58.57876033873043
 30
0.0
 10
92.94184887010603
 20
58.84824823295747
 30
0.0
 10
92.96507102443319
 20
59.11894511412451
 30
0.0
 10
93.05493817429394
 20
59.6544399450568
 30
0.0
 10
93.12149676338163
 20
59.92039634840872
 30
0.0
 10
93.37820623750332
 20
60.71354195185042
 30
0.0
 10
93.62516891052572
 20
61.2360259249388
 30
0.0
 10
93.92432924235332
 20
61.75418681927337
 30
0.0
  0
LINE
  5
CA
330
1F
100
AcDbEntity
  8
0
  6
Continuous
 62
     7
370
    25
100
AcDbLine
 10
93.9243292424
 20
61.7541868193
 30
0.0
 11
95.8614641124
 21
61.7541868193
 31
0.0
  0
SPLINE
  5
CB
330
1F
100
AcDbEntity
  8
0
  6
Continuous
 62
     7
370
    25
100
AcDbSpline
210
0.0
220
0.0
230
1.0
 70
     8
 71
     3
 72
     8
 73
     4
 74
     0
 42
0.000000001
 43
0.00000001
 40
0.0
 40
0.0
 40
0.0
 40
0.0
 40
1.0
 40
1.0
 40
1.0
 40
1.0
 10
95.8614641123767
 20
61.75418681927336
 30
0.0
 10
95.8892957854338
 20
61.65031760136461
 30
0.0
 10
95.91611684529985
 20
61.54639841278087
 30
0.0
 10
95.94184887010604
 20
61.44242537588256
 30
0.0
  0
SPLINE
  5
CC
330
1F
100
AcDbEntity
  8
0
  6
Continuous
 62
     7
370
    25
100
AcDbSpline
210
0.0
220
0.0
230
1.0
 70
     8
 71
     3
 72
     8
 73
     4
 74
     0
 42
0.000000001
 43
0.00000001
 40
0.0
 40
0.0
 40
0.0
 40
0.0
 40
1.0
 40
1.0
 40
1.0
 40
1.0
 10
95.94184887010604
 20
61.44242537588256
 30
0.0
 10
95.96758981993935
 20
61.54643447532091
 30
0.0
 10
95.99441136420026
 20
61.65035271780554
 30
0.0
 10
96.02223362783536
 20
61.75418681927336
 30
0.0
  0
LINE
  5
CD
330
1F
100
AcDbEntity
  8
0
  6
Continuous
 62
     7
370
    25
100
AcDbLine
 10
98.9418488701
 20
49.0524808971
 30
0.0
 11
98.9418488701
 21
39.5262014555
 31
0.0
  0
LINE
  5
CE
330
1F
100
AcDbEntity
  8
0
  6
Continuous
 62
     7
370
    25
100
AcDbLine
 10
98.9418488701
 20
58.5787603387
 30
0.0
 11
98.9418488701
 21
49.0524808971
 31
0.0
  0
LINE
  5
CF
330
1F
100
AcDbEntity
  8
0
  6
Continuous
 62
     7
370
    25
100
AcDbLine
 10
92.9418488701
 20
39.5262014555
 30
0.0
 11
92.9418488701
 21
49.0524808971
 31
0.0
  0
LINE
  5
D0
330
1F
100
AcDbEntity
  8
0
  6
Continuous
 62
     7
370
    25
100
AcDbLine
 10
95.9418488701
 20
54.7798109714
 30
0.0
 11
95.9418488701
 21
55.7150953016
 31
0.0
  0
SPLINE
  5
D1
330
1F
100
AcDbEntity
  8
0
  6
Continuous
 62
     7
370
    25
100
AcDbSpline
210
0.0
220
0.0
230
1.0
 70
     8
 71
     3
 72
    23
 73
    19
 74
     0
 42
0.000000001
 43
0.00000001
 40
0.0
 40
0.0
 40
0.0
 40
0.0
 40
0.0611415679303346
 40
0.1200010135310724
 40
0.1782359705414084
 40
0.236495543407017
 40
0.294887248704973
 40
0.3546771928192958
 40
0.4166948132897785
 40
0.4806333779628396
 40
0.5458046334786409
 40
0.6097347883178745
 40
0.6729516883751544
 40
0.7360010960706833
 40
0.7998274385165253
 40
0.8647672769393869
 40
0.9310835057306723
 40
1.0
 40
1.0
 40
1.0
 40
1.0
 10
95.55470944702911
 20
47.84200337353698
 30
0.0
 10
95.56495115747926
 20
47.84223646458003
 30
0.0
 10
95.58505230430804
 20
47.8426939464922
 30
0.0
 10
95.61447291791109
 20
47.84796852154839
 30
0.0
 10
95.64299772664461
 20
47.8550927129902
 30
0.0
 10
95.66998416316939
 20
47.86660605932754
 30
0.0
 10
95.69617851099976
 20
47.88031939459119
 30
0.0
 10
95.72083211611084
 20
47.89778928288656
 30
0.0
 10
95.74464341955482
 20
47.91781893742454
 30
0.0
 10
95.76673583328495
 20
47.9410152208894
 30
0.0
 10
95.7869433529495
 20
47.96625070073895
 30
0.0
 10
95.80477987548522
 20
47.99308679449219
 30
0.0
 10
95.81983355013082
 20
48.02116141854623
 30
0.0
 10
95.83239370659952
 20
48.05044745308159
 30
0.0
 10
95.84145777515494
 20
48.08128010098248
 30
0.0
 10
95.84859487707384
 20
48.11316167933391
 30
0.0
 10
95.85239288528413
 20
48.14649992497937
 30
0.0
 10
95.85305162740917
 20
48.16911847156653
 30
0.0
 10
95.85338733164448
 20
48.18064520046006
 30
0.0
  0
SPLINE
  5
D2
330
1F
100
AcDbEntity
  8
0
  6
Continuous
 62
     7
370
    25
100
AcDbSpline
210
0.0
220
0.0
230
1.0
 70
     8
 71
     3
 72
    23
 73
    19
 74
     0
 42
0.000000001
 43
0.00000001
 40
0.0
 40
0.0
 40
0.0
 40
0.0
 40
0.0679503475997533
 40
0.1332598223836994
 40
0.1978002967596469
 40
0.2608458295516821
 40
0.3233192927503666
 40
0.3862817224595717
 40
0.4500615162333125
 40
0.5152075844858149
 40
0.5796407692199315
 40
0.6418172023841521
 40
0.7016924412115346
 40
0.7607690981778942
 40
0.8192540511346831
 40
0.8787376269055535
 40
0.938158297016091
 40
1.0
 40
1.0
 40
1.0
 40
1.0
 10
95.25723348549064
 20
48.16892645046006
 30
0.0
 10
95.25756307453177
 20
48.15779836143668
 30
0.0
 10
95.25820944322055
 20
48.13597467371309
 30
0.0
 10
95.26210109721877
 20
48.10375773562839
 30
0.0
 10
95.26898458832942
 20
48.07286606960866
 30
0.0
 10
95.2787664255496
 20
48.04327819076537
 30
0.0
 10
95.29068546738567
 20
48.0147475813046
 30
0.0
 10
95.30589382741346
 20
47.98767902708016
 30
0.0
 10
95.32367107892107
 20
47.96170708314907
 30
0.0
 10
95.34400963213926
 20
47.93739707044394
 30
0.0
 10
95.36586740560787
 20
47.91474538468058
 30
0.0
 10
95.38987600707642
 20
47.89579533360976
 30
0.0
 10
95.41419112942148
 20
47.87869305181447
 30
0.0
 10
95.44028955143536
 20
47.86573867117237
 30
0.0
 10
95.46722595091423
 20
47.85487850151772
 30
0.0
 10
95.49541091165818
 20
47.84757775195043
 30
0.0
 10
95.52469913147362
 20
47.84279818629247
 30
0.0
 10
95.54457374136496
 20
47.84227181417143
 30
0.0
 10
95.55470944702911
 20
47.84200337353698
 30
0.0
  0
SPLINE
  5
D3
330
1F
100
AcDbEntity
  8
0
  6
Continuous
 62
     7
370
    25
100
AcDbSpline
210
0.0
220
0.0
230
1.0
 70
     8
 71
     3
 72
    23
 73
    19
 74
     0
 42
0.000000001
 43
0.00000001
 40
0.0
 40
0.0
 40
0.0
 40
0.0
 40
0.0618526459466918
 40
0.12128383061537
 40
0.1807779320756124
 40
0.2392732340142805
 40
0.2986414352139417
 40
0.3581858222417117
 40
0.4207600867589708
 40
0.4852046730216432
 40
0.5503622689482868
 40
0.6136499245309119
 40
0.6766234955168248
 40
0.7391080134690123
 40
0.8021647022429443
 40
0.8667165971324775
 40
0.9320376285055445
 40
1.0
 40
1.0
 40
1.0
 40
1.0
 10
95.55470944702911
 20
48.49584952738314
 30
0.0
 10
95.5445741271722
 20
48.49558039507568
 30
0.0
 10
95.52470027379142
 20
48.49505266668683
 30
0.0
 10
95.49540654837791
 20
48.49028297143363
 30
0.0
 10
95.46724223812694
 20
48.48294519978037
 30
0.0
 10
95.44018674342605
 20
48.47220464635858
 30
0.0
 10
95.41438764776264
 20
48.45873285190092
 30
0.0
 10
95.38966169262241
 20
48.442154323369
 30
0.0
 10
95.36599181158235
 20
48.42274977528097
 30
0.0
 10
95.34397487503132
 20
48.40019237313564
 30
0.0
 10
95.32378040579191
 20
48.37586640190109
 30
0.0
 10
95.30579921246989
 20
48.35014007609595
 30
0.0
 10
95.29069981829593
 20
48.32309519544872
 30
0.0
 10
95.27876255704388
 20
48.29457743927762
 30
0.0
 10
95.26898565550157
 20
48.26498607845127
 30
0.0
 10
95.26210080638775
 20
48.23409537046491
 30
0.0
 10
95.258209519742
 20
48.20187817322329
 30
0.0
 10
95.2575631003737
 20
48.18005452125269
 30
0.0
 10
95.25723348549064
 20
48.16892645046006
 30
0.0
  0
SPLINE
  5
D4
330
1F
100
AcDbEntity
  8
0
  6
Continuous
 62
     7
370
    25
100
AcDbSpline
210
0.0
220
0.0
230
1.0
 70
     8
 71
     3
 72
    23
 73
    19
 74
     0
 42
0.000000001
 43
0.00000001
 40
0.0
 40
0.0
 40
0.0
 40
0.0
 40
0.0705921865358075
 40
0.1385012886049303
 40
0.2037899961427016
 40
0.2667875726696014
 40
0.3290979656467185
 40
0.391174524603966
 40
0.4531677986176575
 40
0.5157967602265847
 40
0.5779688050530403
 40
0.6389663383752915
 40
0.698381066162843
 40
0.7573204555574266
 40
0.8164122397216688
 40
0.876279358230831
 40
0.9368234656501931
 40
1.0
 40
1.0
 40
1.0
 40
1.0
 10
95.85338733164448
 20
48.18064520046006
 30
0.0
 10
95.85304946718989
 20
48.19207151829787
 30
0.0
 10
95.85238657991255
 20
48.21448985979158
 30
0.0
 10
95.84864258779358
 20
48.2473393160068
 30
0.0
 10
95.84154874917319
 20
48.27834524969251
 30
0.0
 10
95.8323727056169
 20
48.30786179917665
 30
0.0
 10
95.8198788802201
 20
48.33558132452415
 30
0.0
 10
95.80488274767578
 20
48.36182002315249
 30
0.0
 10
95.78705332640298
 20
48.38631753109942
 30
0.0
 10
95.76658941006693
 20
48.40864362963159
 30
0.0
 10
95.74451165578704
 20
48.42914450206595
 30
0.0
 10
95.72072273204839
 20
48.4467786001409
 30
0.0
 10
95.6959494320676
 20
48.46200636124924
 30
0.0
 10
95.66995891688374
 20
48.47438326195221
 30
0.0
 10
95.64276785840907
 20
48.48402214025007
 30
0.0
 10
95.614499527553
 20
48.49099417319275
 30
0.0
 10
95.58496484679793
 20
48.4948743723926
 30
0.0
 10
95.56493662831913
 20
48.49551989740137
 30
0.0
 10
95.55470944702911
 20
48.49584952738314
 30
0.0
  0
LINE
  5
D5
330
1F
100
AcDbEntity
  8
0
  6
Continuous
 62
     7
370
    25
100
AcDbLine
 10
95.9418488701
 20
42.3898664926
 30
0.0
 11
95.9418488701
 21
43.3251508228
 31
0.0
  0
LINE
  5
D6
330
1F
100
AcDbEntity
  8
0
  6
Continuous
 62
     7
370
    25
100
AcDbLine
 10
78.6382401431
 20
59.3592431244
 30
0.0
 11
78.6382401431
 21
38.7457186698
 31
0.0
  0
LINE
  5
D7
330
1F
100
AcDbEntity
  8
0
  6
Continuous
 62
     7
370
    25
100
AcDbLine
 10
75.9418488701
 20
40.3024808971
 30
0.0
 11
75.9418488701
 21
57.8024808971
 31
0.0
  0
LINE
  5
D8
330
1F
100
AcDbEntity
  8
0
  6
Continuous
 62
     7
370
    25
100
AcDbLine
 10
122.4418488701
 20
55.4024808971
 30
0.0
 11
122.4418488701
 21
42.7024808971
 31
0.0
  0
LINE
  5
D9
330
1F
100
AcDbEntity
  8
0
  6
Continuous
 62
     7
370
    25
100
AcDbLine
 10
105.9418488701
 20
55.4024808971
 30
0.0
 11
105.9418488701
 21
42.7024808971
 31
0.0
  0
LINE
  5
DA
330
1F
100
AcDbEntity
  8
0
  6
Continuous
 62
     7
370
    25
100
AcDbLine
 10
111.4418488701
 20
55.4024808971
 30
0.0
 11
111.4418488701
 21
42.7024808971
 31
0.0
  0
LINE
  5
DB
330
1F
100
AcDbEntity
  8
0
  6
Continuous
 62
     7
370
    25
100
AcDbLine
 10
116.9418488701
 20
55.4024808971
 30
0.0
 11
116.9418488701
 21
42.7024808971
 31
0.0
  0
LINE
  5
DC
330
1F
100
AcDbEntity
  8
0
  6
Continuous
 62
     7
370
    25
100
AcDbLine
 10
92.9418488701
 20
38.0524808971
 30
0.0
 11
92.9418488701
 21
39.5262014555
 31
0.0
  0
LINE
  5
DD
330
1F
100
AcDbEntity
  8
0
  6
Continuous
 62
     7
370
    25
100
AcDbLine
 10
98.9418488701
 20
39.5262014555
 30
0.0
 11
98.9418488701
 21
38.0524808971
 31
0.0
  0
LINE
  5
DE
330
1F
100
AcDbEntity
  8
0
  6
Continuous
 62
     7
370
    25
100
AcDbLine
 10
92.9418488701
 20
58.5787603387
 30
0.0
 11
92.9418488701
 21
60.0524808971
 31
0.0
  0
LINE
  5
DF
330
1F
100
AcDbEntity
  8
0
  6
Continuous
 62
     7
370
    25
100
AcDbLine
 10
98.9418488701
 20
60.0524808971
 30
0.0
 11
98.9418488701
 21
58.5787603387
 31
0.0
  0
LINE
  5
E0
330
1F
100
AcDbEntity
  8
0
  6
Continuous
 62
     7
370
    25
100
AcDbLine
 10
128.9418488701
 20
53.8799870552
 30
0.0
 11
128.9418488701
 21
44.2249747348
 31
0.0
  0
LINE
  5
E1
330
1F
100
AcDbEntity
  8
0
  6
Continuous
 62
     7
370
    25
100
AcDbLine
 10
95.9418488701
 20
61.4424253759
 30
0.0
 11
95.9418488701
 21
61.4541868193
 31
0.0
  0
LINE
  5
E2
330
1F
100
AcDbEntity
  8
0
  6
Continuous
 62
     7
370
    25
100
AcDbLine
 10
95.9418488701
 20
36.6507749749
 30
0.0
 11
95.9418488701
 21
36.6625364183
 31
0.0
  0
LINE
  5
E3
330
1F
100
AcDbEntity
  8
0
  6
Continuous
 62
     8
370
    25
100
AcDbLine
 10
128.525278022
 20
43.731984292
 30
0.0
 11
128.525278022
 21
54.3729775022
 31
0.0
  0
LINE
  5
E4
330
1F
100
AcDbEntity
  8
0
  6
Continuous
 62
     7
370
    18
100
AcDbLine
 10
76.8230749011
 20
58.3112569833
 30
0.0
 11
92.4418488701
 21
58.7993436698
 31
0.0
  0
LINE
  5
E5
330
1F
100
AcDbEntity
  8
0
  6
Continuous
 62
     7
370
    18
100
AcDbLine
 10
76.8230749011
 20
39.7937048109
 30
0.0
 11
92.4418488701
 21
39.3056181244
 31
0.0
  0
LINE
  5
E6
330
1F
100
AcDbEntity
  8
0
  6
Continuous
 62
     7
370
    18
100
AcDbLine
 10
92.4418488701
 20
38.3143558971
 30
0.0
 11
92.4418488701
 21
59.7906058971
 31
0.0
  0
LINE
  5
E7
330
1F
100
AcDbEntity
  8
0
  6
CENTERX2
 62
     7
370
    18
100
AcDbLine
 10
129.9418488701
 20
49.0524808971
 30
0.0
 11
74.3062053603
 21
49.0524808971
 31
0.0
  0
CIRCLE
  5
E8
330
1F
100
AcDbEntity
  8
0
  6
Continuous
 62
     7
370
    25
100
AcDbCircle
 10
152.0764890818
 20
49.0524808971
 30
0.0
 40
4.827506162343091
  0
CIRCLE
  5
E9
330
1F
100
AcDbEntity
  8
0
  6
Continuous
 62
     7
370
    25
100
AcDbCircle
 10
152.0764890818
 20
49.0524808971
 30
0.0
 40
5.320496605072144
  0
CIRCLE
  5
EA
330
1F
100
AcDbEntity
  8
0
  6
Continuous
 62
     7
370
    25
100
AcDbCircle
 10
152.0764890818
 20
49.0524808971
 30
0.0
 40
4.54999999999999
  0
CIRCLE
  5
EB
330
1F
100
AcDbEntity
  8
0
  6
Continuous
 62
     7
370
    25
100
AcDbCircle
 10
152.0764890818
 20
49.0524808971
 30
0.0
 40
4.349999999999994
  0
CIRCLE
  5
EC
330
1F
100
AcDbEntity
  8
0
  6
Continuous
 62
     7
370
    25
100
AcDbCircle
 10
152.0764890818
 20
49.0524808971
 30
0.0
 40
6.349999999999994
  0
SPLINE
  5
ED
330
1F
100
AcDbEntity
  8
0
  6
Continuous
 62
     7
370
    25
100
AcDbSpline
210
0.0
220
0.0
230
1.0
 70
    24
 71
     3
 72
    12
 73
     8
 74
     0
 42
0.000000001
 43
0.00000001
 40
0.0
 40
0.0
 40
0.0
 40
0.0
 40
0.2500000000000001
 40
0.2500000000000001
 40
0.5000000000000001
 40
0.5000000000000001
 40
1.0
 40
1.0
 40
1.0
 40
1.0
 10
157.576489081811
 20
58.57876033873043
 30
0.0
 10
158.043255806637
 20
58.30927244450338
 30
0.0
 10
158.5121165582688
 20
58.03857556333634
 30
0.0
 10
159.439620812634
 20
57.50308073240404
 30
0.0
 10
159.9002708158378
 20
57.23712432905212
 30
0.0
 10
161.2740392987987
 20
56.44397872561044
 30
0.0
 10
162.1790080863282
 20
55.92149475252204
 30
0.0
 10
163.076489081811
 20
55.40333385818747
 30
0.0
  0
SPLINE
  5
EE
330
1F
100
AcDbEntity
  8
0
  6
Continuous
 62
     7
370
    25
100
AcDbSpline
210
0.0
220
0.0
230
1.0
 70
    24
 71
     3
 72
    12
 73
     8
 74
     0
 42
0.000000001
 43
0.00000001
 40
0.0
 40
0.0
 40
0.0
 40
0.0
 40
0.25
 40
0.25
 40
0.5
 40
0.5
 40
1.0
 40
1.0
 40
1.0
 40
1.0
 10
163.076489081811
 20
49.0524808971016
 30
0.0
 10
163.076489081811
 20
49.59001452000654
 30
0.0
 10
163.076489081811
 20
50.13038126383807
 30
0.0
 10
163.076489081811
 20
51.21147304865523
 30
0.0
 10
163.076489081811
 20
51.74629116739724
 30
0.0
 10
163.076489081811
 20
53.33597680199401
 30
0.0
 10
163.076489081811
 20
54.37617739263333
 30
0.0
 10
163.076489081811
 20
55.40333385818749
 30
0.0
  0
ARC
  5
EF
330
1F
100
AcDbEntity
  8
0
  6
Continuous
 62
     7
370
    25
100
AcDbCircle
 10
152.0764890818
 20
49.0524808971
 30
0.0
 40
11.0
100
AcDbArc
 50
0.0
 51
60.0
  0
ARC
  5
F0
330
1F
100
AcDbEntity
  8
0
  6
Continuous
 62
     7
370
    25
100
AcDbCircle
 10
152.0764890818
 20
49.0524808971
 30
0.0
 40
11.0
100
AcDbArc
 50
240.0
 51
300.0
  0
ARC
  5
F1
330
1F
100
AcDbEntity
  8
0
  6
Continuous
 62
     7
370
    25
100
AcDbCircle
 10
152.0764890818
 20
49.0524808971
 30
0.0
 40
11.00000000000003
100
AcDbArc
 50
180.0
 51
240.0
  0
ARC
  5
F2
330
1F
100
AcDbEntity
  8
0
  6
Continuous
 62
     7
370
    25
100
AcDbCircle
 10
152.0764890818
 20
49.0524808971
 30
0.0
 40
11.00000000000003
100
AcDbArc
 50
120.0
 51
180.0
  0
ARC
  5
F3
330
1F
100
AcDbEntity
  8
0
  6
Continuous
 62
     7
370
    25
100
AcDbCircle
 10
152.0764890818
 20
49.0524808971
 30
0.0
 40
11.0
100
AcDbArc
 50
60.0
 51
120.0
  0
ARC
  5
F4
330
1F
100
AcDbEntity
  8
0
  6
Continuous
 62
     7
370
    25
100
AcDbCircle
 10
152.0764890818
 20
49.0524808971
 30
0.0
 40
10.99999999999999
100
AcDbArc
 50
300.0
 51
0.0
  0
SPLINE
  5
F5
330
1F
100
AcDbEntity
  8
0
  6
Continuous
 62
     7
370
    25
100
AcDbSpline
210
0.0
220
0.0
230
1.0
 70
    24
 71
     3
 72
    10
 73
     6
 74
     0
 42
0.000000001
 43
0.00000001
 40
0.0
 40
0.0
 40
0.0
 40
0.0
 40
0.5000000000000001
 40
0.5000000000000001
 40
1.0
 40
1.0
 40
1.0
 40
1.0
 10
163.076489081811
 20
42.7016279360157
 30
0.0
 10
163.076489081811
 20
43.73560184839477
 30
0.0
 10
163.076489081811
 20
44.79300388765491
 30
0.0
 10
163.076489081811
 20
46.91193094783136
 30
0.0
 10
163.076489081811
 20
47.97819831962345
 30
0.0
 10
163.076489081811
 20
49.0524808971016
 30
0.0
  0
SPLINE
  5
F6
330
1F
100
AcDbEntity
  8
0
  6
Continuous
 62
     7
370
    25
100
AcDbSpline
210
0.0
220
0.0
230
1.0
 70
    24
 71
     3
 72
    10
 73
     6
 74
     0
 42
0.000000001
 43
0.00000001
 40
0.0
 40
0.0
 40
0.0
 40
0.0
 40
0.5
 40
0.5
 40
1.0
 40
1.0
 40
1.0
 40
1.0
 10
163.076489081811
 20
42.70162793601573
 30
0.0
 10
162.1767613269501
 20
42.18216987454942
 30
0.0
 10
161.2704615811634
 20
41.65891747235295
 30
0.0
 10
159.4389148315973
 20
40.60147346345757
 30
0.0
 10
158.5135261950348
 20
40.06720008503317
 30
0.0
 10
157.576489081811
 20
39.52620145547277
 30
0.0
  0
SPLINE
  5
F7
330
1F
100
AcDbEntity
  8
0
  6
Continuous
 62
     7
370
    25
100
AcDbSpline
210
0.0
220
0.0
230
1.0
 70
    24
 71
     3
 72
    10
 73
     6
 74
     0
 42
0.000000001
 43
0.00000001
 40
0.0
 40
0.0
 40
0.0
 40
0.0
 40
0.5
 40
0.5
 40
1.0
 40
1.0
 40
1.0
 40
1.0
 10
152.076489081811
 20
36.35077497492981
 30
0.0
 10
151.1767613269502
 20
36.87023303639612
 30
0.0
 10
150.2704615811634
 20
37.39348543859259
 30
0.0
 10
148.4389148315973
 20
38.45092944748797
 30
0.0
 10
147.5135261950348
 20
38.98520282591237
 30
0.0
 10
146.576489081811
 20
39.52620145547277
 30
0.0
  0
SPLINE
  5
F8
330
1F
100
AcDbEntity
  8
0
  6
Continuous
 62
     7
370
    25
100
AcDbSpline
210
0.0
220
0.0
230
1.0
 70
    24
 71
     3
 72
    12
 73
     8
 74
     0
 42
0.000000001
 43
0.00000001
 40
0.0
 40
0.0
 40
0.0
 40
0.0
 40
0.2500000000000002
 40
0.2500000000000002
 40
0.5000000000000002
 40
0.5000000000000002
 40
1.0
 40
1.0
 40
1.0
 40
1.0
 10
157.576489081811
 20
39.52620145547277
 30
0.0
 10
157.109722356985
 20
39.25671356124572
 30
0.0
 10
156.6408616053533
 20
38.98601668007869
 30
0.0
 10
155.713357350988
 20
38.45052184914639
 30
0.0
 10
155.2527073477842
 20
38.18456544579448
 30
0.0
 10
153.8789388648233
 20
37.39141984235278
 30
0.0
 10
152.9739700772938
 20
36.8689358692644
 30
0.0
 10
152.076489081811
 20
36.35077497492982
 30
0.0
  0
SPLINE
  5
F9
330
1F
100
AcDbEntity
  8
0
  6
Continuous
 62
     7
370
    25
100
AcDbSpline
210
0.0
220
0.0
230
1.0
 70
    24
 71
     3
 72
    12
 73
     8
 74
     0
 42
0.000000001
 43
0.00000001
 40
0.0
 40
0.0
 40
0.0
 40
0.0
 40
0.2500000000000002
 40
0.2500000000000002
 40
0.5000000000000001
 40
0.5000000000000001
 40
1.0
 40
1.0
 40
1.0
 40
1.0
 10
146.576489081811
 20
58.57876033873043
 30
0.0
 10
147.043255806637
 20
58.84824823295747
 30
0.0
 10
147.5121165582687
 20
59.11894511412451
 30
0.0
 10
148.439620812634
 20
59.6544399450568
 30
0.0
 10
148.9002708158378
 20
59.92039634840872
 30
0.0
 10
150.2740392987987
 20
60.71354195185042
 30
0.0
 10
151.1790080863282
 20
61.2360259249388
 30
0.0
 10
152.076489081811
 20
61.75418681927337
 30
0.0
  0
SPLINE
  5
FA
330
1F
100
AcDbEntity
  8
0
  6
Continuous
 62
     7
370
    25
100
AcDbSpline
210
0.0
220
0.0
230
1.0
 70
    24
 71
     3
 72
    10
 73
     6
 74
     0
 42
0.000000001
 43
0.00000001
 40
0.0
 40
0.0
 40
0.0
 40
0.0
 40
0.5
 40
0.5
 40
1.0
 40
1.0
 40
1.0
 40
1.0
 10
152.076489081811
 20
61.75418681927339
 30
0.0
 10
152.9762168366719
 20
61.23472875780707
 30
0.0
 10
153.8825165824586
 20
60.71147635561061
 30
0.0
 10
155.7140633320247
 20
59.65403234671522
 30
0.0
 10
156.6394519685873
 20
59.11975896829083
 30
0.0
 10
157.576489081811
 20
58.57876033873043
 30
0.0
  0
SPLINE
  5
FB
330
1F
100
AcDbEntity
  8
0
  6
Continuous
 62
     7
370
    25
100
AcDbSpline
210
0.0
220
0.0
230
1.0
 70
    24
 71
     3
 72
    10
 73
     6
 74
     0
 42
0.000000001
 43
0.00000001
 40
0.0
 40
0.0
 40
0.0
 40
0.0
 40
0.5
 40
0.5
 40
1.0
 40
1.0
 40
1.0
 40
1.0
 10
141.076489081811
 20
42.70162793601571
 30
0.0
 10
141.076489081811
 20
43.73560184839478
 30
0.0
 10
141.076489081811
 20
44.79300388765492
 30
0.0
 10
141.076489081811
 20
46.91193094783136
 30
0.0
 10
141.076489081811
 20
47.97819831962345
 30
0.0
 10
141.076489081811
 20
49.0524808971016
 30
0.0
  0
SPLINE
  5
FC
330
1F
100
AcDbEntity
  8
0
  6
Continuous
 62
     7
370
    25
100
AcDbSpline
210
0.0
220
0.0
230
1.0
 70
    24
 71
     3
 72
    12
 73
     8
 74
     0
 42
0.000000001
 43
0.00000001
 40
0.0
 40
0.0
 40
0.0
 40
0.0
 40
0.25
 40
0.25
 40
0.5
 40
0.5
 40
1.0
 40
1.0
 40
1.0
 40
1.0
 10
146.576489081811
 20
39.52620145547277
 30
0.0
 10
146.109722356985
 20
39.79568934969982
 30
0.0
 10
145.6408616053533
 20
40.06638623086685
 30
0.0
 10
144.713357350988
 20
40.60188106179915
 30
0.0
 10
144.2527073477842
 20
40.86783746515108
 30
0.0
 10
142.8789388648233
 20
41.66098306859276
 30
0.0
 10
141.9739700772938
 20
42.18346704168115
 30
0.0
 10
141.076489081811
 20
42.70162793601573
 30
0.0
  0
SPLINE
  5
FD
330
1F
100
AcDbEntity
  8
0
  6
Continuous
 62
     7
370
    25
100
AcDbSpline
210
0.0
220
0.0
230
1.0
 70
    24
 71
     3
 72
    12
 73
     8
 74
     0
 42
0.000000001
 43
0.00000001
 40
0.0
 40
0.0
 40
0.0
 40
0.0
 40
0.2499999999999999
 40
0.2499999999999999
 40
0.4999999999999999
 40
0.4999999999999999
 40
1.0
 40
1.0
 40
1.0
 40
1.0
 10
141.076489081811
 20
49.0524808971016
 30
0.0
 10
141.076489081811
 20
49.59001452000654
 30
0.0
 10
141.076489081811
 20
50.13038126383807
 30
0.0
 10
141.076489081811
 20
51.21147304865523
 30
0.0
 10
141.076489081811
 20
51.74629116739725
 30
0.0
 10
141.076489081811
 20
53.33597680199401
 30
0.0
 10
141.076489081811
 20
54.37617739263333
 30
0.0
 10
141.076489081811
 20
55.40333385818749
 30
0.0
  0
SPLINE
  5
FE
330
1F
100
AcDbEntity
  8
0
  6
Continuous
 62
     7
370
    25
100
AcDbSpline
210
0.0
220
0.0
230
1.0
 70
    24
 71
     3
 72
    10
 73
     6
 74
     0
 42
0.000000001
 43
0.00000001
 40
0.0
 40
0.0
 40
0.0
 40
0.0
 40
0.5
 40
0.5
 40
1.0
 40
1.0
 40
1.0
 40
1.0
 10
141.076489081811
 20
55.40333385818746
 30
0.0
 10
141.9762168366719
 20
55.92279191965378
 30
0.0
 10
142.8825165824586
 20
56.44604432185024
 30
0.0
 10
144.7140633320247
 20
57.50348833074562
 30
0.0
 10
145.6394519685873
 20
58.03776170917001
 30
0.0
 10
146.576489081811
 20
58.57876033873043
 30
0.0
  0
INSERT
  5
10A
330
1F
100
AcDbEntity
  8
0
  6
Continuous
 62
     7
370
    18
100
AcDbBlockReference
  2
SW_CENTERMARKSYMBOL_0
 10
152.0764890818
 20
49.0524808971
 30
0.0
  0
INSERT
  5
116
330
1F
100
AcDbEntity
  8
0
  6
Continuous
 62
     7
370
    18
100
AcDbBlockReference
  2
SW_CENTERMARKSYMBOL_1
 10
152.0764890818
 20
49.0524808971
 30
0.0
  0
LINE
  5
117
330
1F
100
AcDbEntity
  8
0
  6
Continuous
 62
     7
370
    25
100
AcDbLine
 10
92.9418488701
 20
94.1111517214
 30
0.0
 11
78.6382401431
 21
93.6641639487
 31
0.0
  0
LINE
  5
118
330
1F
100
AcDbEntity
  8
0
  6
Continuous
 62
     7
370
    25
100
AcDbLine
 10
78.6382401431
 20
73.0506394941
 30
0.0
 11
92.9418488701
 21
72.6036517214
 31
0.0
  0
LINE
  5
119
330
1F
100
AcDbEntity
  8
0
  6
Continuous
 62
     7
370
    25
100
AcDbLine
 10
78.6382401431
 20
93.6641639487
 30
0.0
 11
75.9418488701
 21
92.1074017214
 31
0.0
  0
LINE
  5
11A
330
1F
100
AcDbEntity
  8
0
  6
Continuous
 62
     7
370
    25
100
AcDbLine
 10
75.9418488701
 20
74.6074017214
 30
0.0
 11
78.6382401431
 21
73.0506394941
 31
0.0
  0
LINE
  5
11B
330
1F
100
AcDbEntity
  8
0
  6
Continuous
 62
     7
370
    25
100
AcDbLine
 10
122.4418488701
 20
77.0074017214
 30
0.0
 11
128.525278022
 21
78.0369051163
 31
0.0
  0
LINE
  5
11C
330
1F
100
AcDbEntity
  8
0
  6
Continuous
 62
     7
370
    25
100
AcDbLine
 10
128.525278022
 20
88.6778983265
 30
0.0
 11
122.4418488701
 21
89.7074017214
 31
0.0
  0
LINE
  5
11D
330
1F
100
AcDbEntity
  8
0
  6
Continuous
 62
     7
370
    25
100
AcDbLine
 10
105.9418488701
 20
89.7074017214
 30
0.0
 11
98.9418488701
 21
89.7074017214
 31
0.0
  0
LINE
  5
11E
330
1F
100
AcDbEntity
  8
0
  6
Continuous
 62
     7
370
    25
100
AcDbLine
 10
98.9418488701
 20
77.0074017214
 30
0.0
 11
105.9418488701
 21
77.0074017214
 31
0.0
  0
LINE
  5
11F
330
1F
100
AcDbEntity
  8
0
  6
Continuous
 62
     7
370
    25
100
AcDbLine
 10
105.9418488701
 20
77.0074017214
 30
0.0
 11
111.4418488701
 21
78.1074017214
 31
0.0
  0
LINE
  5
120
330
1F
100
AcDbEntity
  8
0
  6
Continuous
 62
     7
370
    25
100
AcDbLine
 10
111.4418488701
 20
88.6074017214
 30
0.0
 11
105.9418488701
 21
89.7074017214
 31
0.0
  0
LINE
  5
121
330
1F
100
AcDbEntity
  8
0
  6
Continuous
 62
     7
370
    25
100
AcDbLine
 10
111.4418488701
 20
77.0074017214
 30
0.0
 11
116.9418488701
 21
78.1074017214
 31
0.0
  0
LINE
  5
122
330
1F
100
AcDbEntity
  8
0
  6
Continuous
 62
     7
370
    25
100
AcDbLine
 10
116.9418488701
 20
88.6074017214
 30
0.0
 11
111.4418488701
 21
89.7074017214
 31
0.0
  0
LINE
  5
123
330
1F
100
AcDbEntity
  8
0
  6
Continuous
 62
     7
370
    25
100
AcDbLine
 10
116.9418488701
 20
77.0074017214
 30
0.0
 11
122.4418488701
 21
78.1074017214
 31
0.0
  0
LINE
  5
124
330
1F
100
AcDbEntity
  8
0
  6
Continuous
 62
     7
370
    25
100
AcDbLine
 10
122.4418488701
 20
88.6074017214
 30
0.0
 11
116.9418488701
 21
89.7074017214
 31
0.0
  0
ARC
  5
125
330
1F
100
AcDbEntity
  8
0
  6
Continuous
 62
     7
370
    25
100
AcDbCircle
 10
128.4418488701
 20
78.529895559
 30
0.0
 40
0.5000000000000042
100
AcDbArc
 50
279.605204155
 51
0.0
  0
ARC
  5
126
330
1F
100
AcDbEntity
  8
0
  6
Continuous
 62
     7
370
    25
100
AcDbCircle
 10
128.4418488701
 20
88.1849078837
 30
0.0
 40
0.5
100
AcDbArc
 50
0.0
 51
80.394795845
  0
LINE
  5
127
330
1F
100
AcDbEntity
  8
0
  6
Continuous
 62
     7
370
    25
100
AcDbLine
 10
96.0222336278
 20
94.3574017214
 30
0.0
 11
97.9593684979
 21
94.3574017214
 31
0.0
  0
SPLINE
  5
128
330
1F
100
AcDbEntity
  8
0
  6
Continuous
 62
     7
370
    25
100
AcDbSpline
210
0.0
220
0.0
230
1.0
 70
     8
 71
     3
 72
    12
 73
     8
 74
     0
 42
0.000000001
 43
0.00000001
 40
0.0
 40
0.0
 40
0.0
 40
0.0
 40
0.2500000000000001
 40
0.2500000000000001
 40
0.5000000000000001
 40
0.5000000000000001
 40
1.0
 40
1.0
 40
1.0
 40
1.0
 10
98.94184887010604
 20
88.85740172138732
 30
0.0
 10
98.94184887010604
 20
89.32416844621329
 30
0.0
 10
98.91862671577887
 20
89.79302919784503
 30
0.0
 10
98.82875956591812
 20
90.72053345221029
 30
0.0
 10
98.76220097683043
 20
91.1811834554141
 30
0.0
 10
98.50549150270875
 20
92.55495193837497
 30
0.0
 10
98.25852882968634
 20
93.45992072590452
 30
0.0
 10
97.95936849785875
 20
94.35740172138733
 30
0.0
  0
SPLINE
  5
129
330
1F
100
AcDbEntity
  8
0
  6
Continuous
 62
     7
370
    25
100
AcDbSpline
210
0.0
220
0.0
230
1.0
 70
     8
 71
     3
 72
    10
 73
     6
 74
     0
 42
0.000000001
 43
0.00000001
 40
0.0
 40
0.0
 40
0.0
 40
0.0
 40
0.5
 40
0.5
 40
1.0
 40
1.0
 40
1.0
 40
1.0
 10
97.9593684978589
 20
83.35740172138726
 30
0.0
 10
98.25927774947921
 20
84.25712947624817
 30
0.0
 10
98.50635840884514
 20
85.16342922203492
 30
0.0
 10
98.84821322287753
 20
86.99497597160102
 30
0.0
 10
98.94184887010604
 20
87.92036460816355
 30
0.0
 10
98.94184887010604
 20
88.85740172138732
 30
0.0
  0
LINE
  5
12A
330
1F
100
AcDbEntity
  8
0
  6
Continuous
 62
     7
370
    25
100
AcDbLine
 10
96.0222336278
 20
83.3574017214
 30
0.0
 11
97.9593684979
 21
83.3574017214
 31
0.0
  0
SPLINE
  5
12B
330
1F
100
AcDbEntity
  8
0
  6
Continuous
 62
     7
370
    25
100
AcDbSpline
210
0.0
220
0.0
230
1.0
 70
     8
 71
     3
 72
     8
 73
     4
 74
     0
 42
0.000000001
 43
0.00000001
 40
0.0
 40
0.0
 40
0.0
 40
0.0
 40
1.0
 40
1.0
 40
1.0
 40
1.0
 10
96.02223362783536
 20
83.3574017213873
 30
0.0
 10
95.99440195477827
 20
83.5373084841477
 30
0.0
 10
95.96758089491222
 20
83.71730179865607
 30
0.0
 10
95.94184887010604
 20
83.89738838118119
 30
0.0
  0
SPLINE
  5
12C
330
1F
100
AcDbEntity
  8
0
  6
Continuous
 62
     7
370
    25
100
AcDbSpline
210
0.0
220
0.0
230
1.0
 70
     8
 71
     3
 72
     8
 73
     4
 74
     0
 42
0.000000001
 43
0.00000001
 40
0.0
 40
0.0
 40
0.0
 40
0.0
 40
1.0
 40
1.0
 40
1.0
 40
1.0
 10
95.94184887010604
 20
83.89738838118119
 30
0.0
 10
95.91610792027272
 20
83.71723933650448
 30
0.0
 10
95.88928637601181
 20
83.53724766068785
 30
0.0
 10
95.8614641123767
 20
83.3574017213873
 30
0.0
  0
LINE
  5
12D
330
1F
100
AcDbEntity
  8
0
  6
Continuous
 62
     7
370
    25
100
AcDbLine
 10
93.9243292424
 20
83.3574017214
 30
0.0
 11
95.8614641124
 21
83.3574017214
 31
0.0
  0
SPLINE
  5
12E
330
1F
100
AcDbEntity
  8
0
  6
Continuous
 62
     7
370
    25
100
AcDbSpline
210
0.0
220
0.0
230
1.0
 70
     8
 71
     3
 72
    10
 73
     6
 74
     0
 42
0.000000001
 43
0.00000001
 40
0.0
 40
0.0
 40
0.0
 40
0.0
 40
0.5
 40
0.5
 40
1.0
 40
1.0
 40
1.0
 40
1.0
 10
93.92432924235317
 20
83.35740172138726
 30
0.0
 10
93.62441999073286
 20
84.25712947624817
 30
0.0
 10
93.37733933136693
 20
85.16342922203492
 30
0.0
 10
93.03548451733454
 20
86.99497597160102
 30
0.0
 10
92.94184887010603
 20
87.92036460816355
 30
0.0
 10
92.94184887010603
 20
88.85740172138732
 30
0.0
  0
SPLINE
  5
12F
330
1F
100
AcDbEntity
  8
0
  6
Continuous
 62
     7
370
    25
100
AcDbSpline
210
0.0
220
0.0
230
1.0
 70
     8
 71
     3
 72
    12
 73
     8
 74
     0
 42
0.000000001
 43
0.00000001
 40
0.0
 40
0.0
 40
0.0
 40
0.0
 40
0.2500000000000001
 40
0.2500000000000001
 40
0.5000000000000001
 40
0.5000000000000001
 40
1.0
 40
1.0
 40
1.0
 40
1.0
 10
92.94184887010603
 20
88.85740172138732
 30
0.0
 10
92.94184887010603
 20
89.32416844621329
 30
0.0
 10
92.96507102443319
 20
89.79302919784503
 30
0.0
 10
93.05493817429394
 20
90.72053345221029
 30
0.0
 10
93.12149676338163
 20
91.1811834554141
 30
0.0
 10
93.37820623750332
 20
92.55495193837497
 30
0.0
 10
93.62516891052572
 20
93.45992072590452
 30
0.0
 10
93.92432924235332
 20
94.35740172138733
 30
0.0
  0
LINE
  5
130
330
1F
100
AcDbEntity
  8
0
  6
Continuous
 62
     7
370
    25
100
AcDbLine
 10
93.9243292424
 20
94.3574017214
 30
0.0
 11
95.8614641124
 21
94.3574017214
 31
0.0
  0
SPLINE
  5
131
330
1F
100
AcDbEntity
  8
0
  6
Continuous
 62
     7
370
    25
100
AcDbSpline
210
0.0
220
0.0
230
1.0
 70
     8
 71
     3
 72
     8
 73
     4
 74
     0
 42
0.000000001
 43
0.00000001
 40
0.0
 40
0.0
 40
0.0
 40
0.0
 40
1.0
 40
1.0
 40
1.0
 40
1.0
 10
95.8614641123767
 20
94.3574017213873
 30
0.0
 10
95.8892957854338
 20
94.1774949586269
 30
0.0
 10
95.91611684529985
 20
93.99750164411854
 30
0.0
 10
95.94184887010604
 20
93.81741506159342
 30
0.0
  0
SPLINE
  5
132
330
1F
100
AcDbEntity
  8
0
  6
Continuous
 62
     7
370
    25
100
AcDbSpline
210
0.0
220
0.0
230
1.0
 70
     8
 71
     3
 72
     8
 73
     4
 74
     0
 42
0.000000001
 43
0.00000001
 40
0.0
 40
0.0
 40
0.0
 40
0.0
 40
1.0
 40
1.0
 40
1.0
 40
1.0
 10
95.94184887010604
 20
93.81741506159342
 30
0.0
 10
95.96758981993935
 20
93.99756410627013
 30
0.0
 10
95.99441136420026
 20
94.17755578208677
 30
0.0
 10
96.02223362783536
 20
94.3574017213873
 30
0.0
  0
LINE
  5
133
330
1F
100
AcDbEntity
  8
0
  6
Continuous
 62
     7
370
    25
100
AcDbLine
 10
92.9418488701
 20
77.8574017214
 30
0.0
 11
92.9418488701
 21
88.8574017214
 31
0.0
  0
SPLINE
  5
134
330
1F
100
AcDbEntity
  8
0
  6
Continuous
 62
     7
370
    25
100
AcDbSpline
210
0.0
220
0.0
230
1.0
 70
     8
 71
     3
 72
    12
 73
     8
 74
     0
 42
0.000000001
 43
0.00000001
 40
0.0
 40
0.0
 40
0.0
 40
0.0
 40
0.2500000000000002
 40
0.2500000000000002
 40
0.5000000000000001
 40
0.5000000000000001
 40
1.0
 40
1.0
 40
1.0
 40
1.0
 10
92.94184887010603
 20
77.8574017213873
 30
0.0
 10
92.94184887010603
 20
78.3241684462133
 30
0.0
 10
92.96507102443319
 20
78.79302919784503
 30
0.0
 10
93.05493817429394
 20
79.72053345221028
 30
0.0
 10
93.12149676338163
 20
80.1811834554141
 30
0.0
 10
93.37820623750332
 20
81.55495193837497
 30
0.0
 10
93.62516891052572
 20
82.45992072590452
 30
0.0
 10
93.92432924235332
 20
83.35740172138733
 30
0.0
  0
SPLINE
  5
135
330
1F
100
AcDbEntity
  8
0
  6
Continuous
 62
     7
370
    25
100
AcDbSpline
210
0.0
220
0.0
230
1.0
 70
     8
 71
     3
 72
    12
 73
     8
 74
     0
 42
0.000000001
 43
0.00000001
 40
0.0
 40
0.0
 40
0.0
 40
0.0
 40
0.2500000000000002
 40
0.2500000000000002
 40
0.5000000000000001
 40
0.5000000000000001
 40
1.0
 40
1.0
 40
1.0
 40
1.0
 10
98.94184887010604
 20
77.8574017213873
 30
0.0
 10
98.94184887010604
 20
78.3241684462133
 30
0.0
 10
98.91862671577887
 20
78.79302919784503
 30
0.0
 10
98.82875956591812
 20
79.72053345221028
 30
0.0
 10
98.76220097683043
 20
80.1811834554141
 30
0.0
 10
98.50549150270875
 20
81.55495193837497
 30
0.0
 10
98.25852882968634
 20
82.45992072590452
 30
0.0
 10
97.95936849785875
 20
83.35740172138733
 30
0.0
  0
LINE
  5
136
330
1F
100
AcDbEntity
  8
0
  6
Continuous
 62
     7
370
    25
100
AcDbLine
 10
98.9418488701
 20
88.8574017214
 30
0.0
 11
98.9418488701
 21
77.8574017214
 31
0.0
  0
LINE
  5
137
330
1F
100
AcDbEntity
  8
0
  6
Continuous
 62
     7
370
    25
100
AcDbLine
 10
95.9418488701
 20
82.8174150616
 30
0.0
 11
95.9418488701
 21
83.8973883812
 31
0.0
  0
SPLINE
  5
138
330
1F
100
AcDbEntity
  8
0
  6
Continuous
 62
     7
370
    25
100
AcDbSpline
210
0.0
220
0.0
230
1.0
 70
     8
 71
     3
 72
     8
 73
     4
 74
     0
 42
0.000000001
 43
0.00000001
 40
0.0
 40
0.0
 40
0.0
 40
0.0
 40
1.0
 40
1.0
 40
1.0
 40
1.0
 10
95.8614641123767
 20
83.3574017213873
 30
0.0
 10
95.8892957854338
 20
83.17749495862691
 30
0.0
 10
95.91611684529985
 20
82.99750164411854
 30
0.0
 10
95.94184887010604
 20
82.81741506159344
 30
0.0
  0
SPLINE
  5
139
330
1F
100
AcDbEntity
  8
0
  6
Continuous
 62
     7
370
    25
100
AcDbSpline
210
0.0
220
0.0
230
1.0
 70
     8
 71
     3
 72
     8
 73
     4
 74
     0
 42
0.000000001
 43
0.00000001
 40
0.0
 40
0.0
 40
0.0
 40
0.0
 40
1.0
 40
1.0
 40
1.0
 40
1.0
 10
95.94184887010604
 20
82.81741506159344
 30
0.0
 10
95.96758981993935
 20
82.99756410627015
 30
0.0
 10
95.99441136420026
 20
83.17755578208677
 30
0.0
 10
96.02223362783536
 20
83.3574017213873
 30
0.0
  0
SPLINE
  5
13A
330
1F
100
AcDbEntity
  8
0
  6
Continuous
 62
     7
370
    25
100
AcDbSpline
210
0.0
220
0.0
230
1.0
 70
     8
 71
     3
 72
    10
 73
     6
 74
     0
 42
0.000000001
 43
0.00000001
 40
0.0
 40
0.0
 40
0.0
 40
0.0
 40
0.5
 40
0.5
 40
1.0
 40
1.0
 40
1.0
 40
1.0
 10
97.9593684978589
 20
72.35740172138728
 30
0.0
 10
98.25927774947921
 20
73.25712947624817
 30
0.0
 10
98.50635840884514
 20
74.1634292220349
 30
0.0
 10
98.84821322287753
 20
75.99497597160102
 30
0.0
 10
98.94184887010604
 20
76.92036460816355
 30
0.0
 10
98.94184887010604
 20
77.8574017213873
 30
0.0
  0
LINE
  5
13B
330
1F
100
AcDbEntity
  8
0
  6
Continuous
 62
     7
370
    25
100
AcDbLine
 10
96.0222336278
 20
72.3574017214
 30
0.0
 11
97.9593684979
 21
72.3574017214
 31
0.0
  0
SPLINE
  5
13C
330
1F
100
AcDbEntity
  8
0
  6
Continuous
 62
     7
370
    25
100
AcDbSpline
210
0.0
220
0.0
230
1.0
 70
     8
 71
     3
 72
     8
 73
     4
 74
     0
 42
0.000000001
 43
0.00000001
 40
0.0
 40
0.0
 40
0.0
 40
0.0
 40
1.0
 40
1.0
 40
1.0
 40
1.0
 10
96.02223362783536
 20
72.35740172138732
 30
0.0
 10
95.99440195477827
 20
72.5373084841477
 30
0.0
 10
95.96758089491223
 20
72.71730179865607
 30
0.0
 10
95.94184887010604
 20
72.89738838118117
 30
0.0
  0
SPLINE
  5
13D
330
1F
100
AcDbEntity
  8
0
  6
Continuous
 62
     7
370
    25
100
AcDbSpline
210
0.0
220
0.0
230
1.0
 70
     8
 71
     3
 72
     8
 73
     4
 74
     0
 42
0.000000001
 43
0.00000001
 40
0.0
 40
0.0
 40
0.0
 40
0.0
 40
1.0
 40
1.0
 40
1.0
 40
1.0
 10
95.94184887010603
 20
72.89738838118119
 30
0.0
 10
95.91610792027272
 20
72.71723933650448
 30
0.0
 10
95.88928637601181
 20
72.53724766068785
 30
0.0
 10
95.8614641123767
 20
72.35740172138732
 30
0.0
  0
LINE
  5
13E
330
1F
100
AcDbEntity
  8
0
  6
Continuous
 62
     7
370
    25
100
AcDbLine
 10
93.9243292424
 20
72.3574017214
 30
0.0
 11
95.8614641124
 21
72.3574017214
 31
0.0
  0
SPLINE
  5
13F
330
1F
100
AcDbEntity
  8
0
  6
Continuous
 62
     7
370
    25
100
AcDbSpline
210
0.0
220
0.0
230
1.0
 70
     8
 71
     3
 72
    10
 73
     6
 74
     0
 42
0.000000001
 43
0.00000001
 40
0.0
 40
0.0
 40
0.0
 40
0.0
 40
0.5
 40
0.5
 40
1.0
 40
1.0
 40
1.0
 40
1.0
 10
93.92432924235317
 20
72.35740172138728
 30
0.0
 10
93.62441999073286
 20
73.25712947624817
 30
0.0
 10
93.37733933136693
 20
74.1634292220349
 30
0.0
 10
93.03548451733454
 20
75.99497597160102
 30
0.0
 10
92.94184887010603
 20
76.92036460816355
 30
0.0
 10
92.94184887010603
 20
77.8574017213873
 30
0.0
  0
LINE
  5
140
330
1F
100
AcDbEntity
  8
0
  6
Continuous
 62
     7
370
    25
100
AcDbLine
 10
78.6382401431
 20
83.3574017214
 30
0.0
 11
78.6382401431
 21
73.0506394941
 31
0.0
  0
LINE
  5
141
330
1F
100
AcDbEntity
  8
0
  6
Continuous
 62
     7
370
    25
100
AcDbLine
 10
78.6382401431
 20
93.6641639487
 30
0.0
 11
78.6382401431
 21
83.3574017214
 31
0.0
  0
LINE
  5
142
330
1F
100
AcDbEntity
  8
0
  6
Continuous
 62
     7
370
    25
100
AcDbLine
 10
75.9418488701
 20
74.6074017214
 30
0.0
 11
75.9418488701
 21
92.1074017214
 31
0.0
  0
SPLINE
  5
143
330
1F
100
AcDbEntity
  8
0
  6
Continuous
 62
     7
370
    25
100
AcDbSpline
210
0.0
220
0.0
230
1.0
 70
    24
 71
     3
 72
    12
 73
     8
 74
     0
 42
0.000000001
 43
0.00000001
 40
0.0
 40
0.0
 40
0.0
 40
0.0
 40
0.25
 40
0.25
 40
0.5
 40
0.5
 40
1.0
 40
1.0
 40
1.0
 40
1.0
 10
98.94184887010603
 20
94.3574017213873
 30
0.0
 10
98.94184887010603
 20
94.3574017213873
 30
0.0
 10
98.91890467554806
 20
94.3574017213873
 30
0.0
 10
98.82804797467492
 20
94.3574017213873
 30
0.0
 10
98.76077936224496
 20
94.3574017213873
 30
0.0
 10
98.5026597164026
 20
94.3574017213873
 30
0.0
 10
98.25588302880236
 20
94.3574017213873
 30
0.0
 10
97.95936849785858
 20
94.3574017213873
 30
0.0
  0
LINE
  5
144
330
1F
100
AcDbEntity
  8
0
  6
Continuous
 62
     7
370
    25
100
AcDbLine
 10
98.9418488701
 20
94.3574017214
 30
0.0
 11
98.9418488701
 21
88.8574017214
 31
0.0
  0
SPLINE
  5
145
330
1F
100
AcDbEntity
  8
0
  6
Continuous
 62
     7
370
    25
100
AcDbSpline
210
0.0
220
0.0
230
1.0
 70
    24
 71
     3
 72
    12
 73
     8
 74
     0
 42
0.000000001
 43
0.00000001
 40
0.0
 40
0.0
 40
0.0
 40
0.0
 40
0.25
 40
0.25
 40
0.5
 40
0.5
 40
1.0
 40
1.0
 40
1.0
 40
1.0
 10
92.94184887010604
 20
94.3574017213873
 30
0.0
 10
92.94184887010604
 20
94.3574017213873
 30
0.0
 10
92.964793064664
 20
94.3574017213873
 30
0.0
 10
93.05564976553715
 20
94.3574017213873
 30
0.0
 10
93.1229183779671
 20
94.3574017213873
 30
0.0
 10
93.38103802380945
 20
94.3574017213873
 30
0.0
 10
93.6278147114097
 20
94.3574017213873
 30
0.0
 10
93.92432924235347
 20
94.3574017213873
 30
0.0
  0
LINE
  5
146
330
1F
100
AcDbEntity
  8
0
  6
Continuous
 62
     7
370
    25
100
AcDbLine
 10
92.9418488701
 20
94.3574017214
 30
0.0
 11
92.9418488701
 21
88.8574017214
 31
0.0
  0
SPLINE
  5
147
330
1F
100
AcDbEntity
  8
0
  6
Continuous
 62
     7
370
    25
100
AcDbSpline
210
0.0
220
0.0
230
1.0
 70
    24
 71
     3
 72
    12
 73
     8
 74
     0
 42
0.000000001
 43
0.00000001
 40
0.0
 40
0.0
 40
0.0
 40
0.0
 40
0.2499999999999999
 40
0.2499999999999999
 40
0.4999999999999999
 40
0.4999999999999999
 40
1.0
 40
1.0
 40
1.0
 40
1.0
 10
92.94184887010604
 20
72.35740172138732
 30
0.0
 10
92.94184887010604
 20
72.35740172138732
 30
0.0
 10
92.964793064664
 20
72.35740172138732
 30
0.0
 10
93.05564976553715
 20
72.35740172138732
 30
0.0
 10
93.1229183779671
 20
72.35740172138732
 30
0.0
 10
93.38103802380945
 20
72.35740172138732
 30
0.0
 10
93.6278147114097
 20
72.35740172138732
 30
0.0
 10
93.92432924235347
 20
72.35740172138732
 30
0.0
  0
LINE
  5
148
330
1F
100
AcDbEntity
  8
0
  6
Continuous
 62
     7
370
    25
100
AcDbLine
 10
92.9418488701
 20
72.3574017214
 30
0.0
 11
92.9418488701
 21
77.8574017214
 31
0.0
  0
SPLINE
  5
149
330
1F
100
AcDbEntity
  8
0
  6
Continuous
 62
     7
370
    25
100
AcDbSpline
210
0.0
220
0.0
230
1.0
 70
    24
 71
     3
 72
    12
 73
     8
 74
     0
 42
0.000000001
 43
0.00000001
 40
0.0
 40
0.0
 40
0.0
 40
0.0
 40
0.2499999999999999
 40
0.2499999999999999
 40
0.4999999999999999
 40
0.4999999999999999
 40
1.0
 40
1.0
 40
1.0
 40
1.0
 10
98.94184887010603
 20
72.35740172138732
 30
0.0
 10
98.94184887010603
 20
72.35740172138732
 30
0.0
 10
98.91890467554806
 20
72.35740172138732
 30
0.0
 10
98.82804797467492
 20
72.35740172138732
 30
0.0
 10
98.76077936224496
 20
72.35740172138732
 30
0.0
 10
98.5026597164026
 20
72.35740172138732
 30
0.0
 10
98.25588302880236
 20
72.35740172138732
 30
0.0
 10
97.95936849785858
 20
72.35740172138732
 30
0.0
  0
LINE
  5
14A
330
1F
100
AcDbEntity
  8
0
  6
Continuous
 62
     7
370
    25
100
AcDbLine
 10
98.9418488701
 20
77.8574017214
 30
0.0
 11
98.9418488701
 21
72.3574017214
 31
0.0
  0
SPLINE
  5
14B
330
1F
100
AcDbEntity
  8
0
  6
Continuous
 62
     7
370
    25
100
AcDbSpline
210
0.0
220
0.0
230
1.0
 70
    24
 71
     3
 72
     8
 73
     4
 74
     0
 42
0.000000001
 43
0.00000001
 40
0.0
 40
0.0
 40
0.0
 40
0.0
 40
1.0
 40
1.0
 40
1.0
 40
1.0
 10
95.94184887010604
 20
94.3574017213873
 30
0.0
 10
95.91610837953641
 20
94.3574017213873
 30
0.0
 10
95.889286859887
 20
94.3574017213873
 30
0.0
 10
95.8614641123767
 20
94.3574017213873
 30
0.0
  0
LINE
  5
14C
330
1F
100
AcDbEntity
  8
0
  6
Continuous
 62
     7
370
    25
100
AcDbLine
 10
95.9418488701
 20
93.8174150616
 30
0.0
 11
95.9418488701
 21
94.3574017214
 31
0.0
  0
SPLINE
  5
14D
330
1F
100
AcDbEntity
  8
0
  6
Continuous
 62
     7
370
    25
100
AcDbSpline
210
0.0
220
0.0
230
1.0
 70
    24
 71
     3
 72
     8
 73
     4
 74
     0
 42
0.000000001
 43
0.00000001
 40
0.0
 40
0.0
 40
0.0
 40
0.0
 40
1.0
 40
1.0
 40
1.0
 40
1.0
 10
96.02223362783536
 20
94.3574017213873
 30
0.0
 10
95.99440057427947
 20
94.3574017213873
 30
0.0
 10
95.96757958650917
 20
94.3574017213873
 30
0.0
 10
95.94184887010604
 20
94.3574017213873
 30
0.0
  0
LINE
  5
14E
330
1F
100
AcDbEntity
  8
0
  6
Continuous
 62
     7
370
    25
100
AcDbLine
 10
95.9418488701
 20
72.3574017214
 30
0.0
 11
95.9418488701
 21
72.8973883812
 31
0.0
  0
SPLINE
  5
14F
330
1F
100
AcDbEntity
  8
0
  6
Continuous
 62
     7
370
    25
100
AcDbSpline
210
0.0
220
0.0
230
1.0
 70
    24
 71
     3
 72
     8
 73
     4
 74
     0
 42
0.000000001
 43
0.00000001
 40
0.0
 40
0.0
 40
0.0
 40
0.0
 40
1.0
 40
1.0
 40
1.0
 40
1.0
 10
95.8614641123767
 20
72.35740172138732
 30
0.0
 10
95.8892971659326
 20
72.35740172138732
 30
0.0
 10
95.9161181537029
 20
72.35740172138732
 30
0.0
 10
95.94184887010604
 20
72.35740172138732
 30
0.0
  0
SPLINE
  5
150
330
1F
100
AcDbEntity
  8
0
  6
Continuous
 62
     7
370
    25
100
AcDbSpline
210
0.0
220
0.0
230
1.0
 70
    24
 71
     3
 72
     8
 73
     4
 74
     0
 42
0.000000001
 43
0.00000001
 40
0.0
 40
0.0
 40
0.0
 40
0.0
 40
1.0
 40
1.0
 40
1.0
 40
1.0
 10
95.94184887010603
 20
72.35740172138732
 30
0.0
 10
95.96758936067565
 20
72.35740172138732
 30
0.0
 10
95.99441088032506
 20
72.35740172138732
 30
0.0
 10
96.02223362783536
 20
72.35740172138732
 30
0.0
  0
LINE
  5
151
330
1F
100
AcDbEntity
  8
0
  6
Continuous
 62
     7
370
    25
100
AcDbLine
 10
122.4418488701
 20
83.3574017214
 30
0.0
 11
122.4418488701
 21
77.0074017214
 31
0.0
  0
LINE
  5
152
330
1F
100
AcDbEntity
  8
0
  6
Continuous
 62
     7
370
    25
100
AcDbLine
 10
122.4418488701
 20
89.7074017214
 30
0.0
 11
122.4418488701
 21
83.3574017214
 31
0.0
  0
LINE
  5
153
330
1F
100
AcDbEntity
  8
0
  6
Continuous
 62
     7
370
    25
100
AcDbLine
 10
105.9418488701
 20
83.3574017214
 30
0.0
 11
105.9418488701
 21
77.0074017214
 31
0.0
  0
LINE
  5
154
330
1F
100
AcDbEntity
  8
0
  6
Continuous
 62
     7
370
    25
100
AcDbLine
 10
105.9418488701
 20
89.7074017214
 30
0.0
 11
105.9418488701
 21
83.3574017214
 31
0.0
  0
LINE
  5
155
330
1F
100
AcDbEntity
  8
0
  6
Continuous
 62
     7
370
    25
100
AcDbLine
 10
111.4418488701
 20
83.3574017214
 30
0.0
 11
111.4418488701
 21
77.0074017214
 31
0.0
  0
LINE
  5
156
330
1F
100
AcDbEntity
  8
0
  6
Continuous
 62
     7
370
    25
100
AcDbLine
 10
111.4418488701
 20
89.7074017214
 30
0.0
 11
111.4418488701
 21
83.3574017214
 31
0.0
  0
LINE
  5
157
330
1F
100
AcDbEntity
  8
0
  6
Continuous
 62
     7
370
    25
100
AcDbLine
 10
116.9418488701
 20
83.3574017214
 30
0.0
 11
116.9418488701
 21
77.0074017214
 31
0.0
  0
LINE
  5
158
330
1F
100
AcDbEntity
  8
0
  6
Continuous
 62
     7
370
    25
100
AcDbLine
 10
116.9418488701
 20
89.7074017214
 30
0.0
 11
116.9418488701
 21
83.3574017214
 31
0.0
  0
LINE
  5
159
330
1F
100
AcDbEntity
  8
0
  6
Continuous
 62
     7
370
    25
100
AcDbLine
 10
128.9418488701
 20
88.1849078837
 30
0.0
 11
128.9418488701
 21
78.529895559
 31
0.0
  0
LINE
  5
15A
330
1F
100
AcDbEntity
  8
0
  6
Continuous
 62
     8
370
    25
100
AcDbLine
 10
128.525278022
 20
83.3574017214
 30
0.0
 11
128.525278022
 21
88.6778983265
 31
0.0
  0
LINE
  5
15B
330
1F
100
AcDbEntity
  8
0
  6
Continuous
 62
     8
370
    25
100
AcDbLine
 10
128.525278022
 20
78.0369051163
 30
0.0
 11
128.525278022
 21
83.3574017214
 31
0.0
  0
LINE
  5
15C
330
1F
100
AcDbEntity
  8
0
  6
Continuous
 62
     7
370
    18
100
AcDbLine
 10
76.8230749011
 20
92.6161778076
 30
0.0
 11
92.4418488701
 21
93.1042644941
 31
0.0
  0
LINE
  5
15D
330
1F
100
AcDbEntity
  8
0
  6
Continuous
 62
     7
370
    18
100
AcDbLine
 10
76.8230749011
 20
74.0986256352
 30
0.0
 11
92.4418488701
 21
73.6105389487
 31
0.0
  0
LINE
  5
15E
330
1F
100
AcDbEntity
  8
0
  6
Continuous
 62
     7
370
    18
100
AcDbLine
 10
92.4418488701
 20
72.6192767214
 30
0.0
 11
92.4418488701
 21
94.0955267214
 31
0.0
  0
LINE
  5
15F
330
1F
100
AcDbEntity
  8
0
  6
CENTERX2
 62
     7
370
    18
100
AcDbLine
 10
129.9418488701
 20
83.3574017214
 30
0.0
 11
74.4931531577
 21
83.3574017214
 31
0.0
  0
ENDSEC
  0
SECTION
  2
OBJECTS
  0
DICTIONARY
  5
C
330
0
100
AcDbDictionary
281
     1
  3
ACAD_GROUP
350
D
  3
ACAD_LAYOUT
350
1A
  3
ACAD_MLINESTYLE
350
17
  3
ACAD_PLOTSETTINGS
350
19
  3
ACAD_PLOTSTYLENAME
350
E
  3
ACAD_SCALELIST
350
47
  0
DICTIONARY
  5
D
102
{ACAD_REACTORS
330
C
102
}
330
C
100
AcDbDictionary
281
     1
  0
DICTIONARY
  5
1A
102
{ACAD_REACTORS
330
C
102
}
330
C
100
AcDbDictionary
281
     1
  3
Layout1
350
1E
  3
Layout2
350
26
  3
Model
350
22
  0
DICTIONARY
  5
17
102
{ACAD_REACTORS
330
C
102
}
330
C
100
AcDbDictionary
281
     1
  3
Standard
350
18
  0
DICTIONARY
  5
19
102
{ACAD_REACTORS
330
C
102
}
330
C
100
AcDbDictionary
281
     1
  0
ACDBDICTIONARYWDFLT
  5
E
102
{ACAD_REACTORS
330
C
102
}
330
C
100
AcDbDictionary
281
     1
  3
Normal
350
F
100
AcDbDictionaryWithDefault
340
F
  0
DICTIONARY
  5
47
102
{ACAD_REACTORS
330
C
102
}
330
C
100
AcDbDictionary
281
     1
  3
A0
350
48
  3
A1
350
49
  3
A2
350
4A
  3
A3
350
4B
  3
A4
350
4C
  3
A5
350
4D
  3
A6
350
4E
  3
A7
350
4F
  3
A8
350
50
  3
A9
350
51
  3
B0
350
52
  3
B1
350
53
  3
B2
350
54
  3
B3
350
55
  3
B4
350
56
  3
B5
350
57
  3
B6
350
58
  3
B7
350
59
  3
B8
350
5A
  3
B9
350
5B
  3
C0
350
5C
  3
C1
350
5D
  3
C2
350
5E
  3
C3
350
5F
  3
C4
350
60
  3
C5
350
61
  3
C6
350
62
  3
C7
350
63
  3
C8
350
64
  3
C9
350
65
  3
D0
350
66
  3
D1
350
67
  3
D2
350
68
  0
LAYOUT
  5
1E
102
{ACAD_REACTORS
330
1A
102
}
330
1A
100
AcDbPlotSettings
  1

  2
none_device
  4

  6

 40
0.0
 41
0.0
 42
0.0
 43
0.0
 44
0.0
 45
0.0
 46
0.0
 47
0.0
 48
0.0
 49
0.0
140
0.0
141
0.0
142
1.0
143
1.0
 70
   688
 72
     1
 73
     0
 74
     5
  7

 75
    16
147
1.0
148
0.0
149
0.0
100
AcDbLayout
  1
Layout1
 70
     1
 71
     1
 10
0.0
 20
0.0
 11
420.0
 21
297.0
 12
0.0
 22
0.0
 32
0.0
 14
1.0000000000E+20
 24
1.0000000000E+20
 34
1.0000000000E+20
 15
-1.0000000000E+20
 25
-1.0000000000E+20
 35
-1.0000000000E+20
146
0.0
 13
0.0
 23
0.0
 33
0.0
 16
1.0
 26
0.0
 36
0.0
 17
0.0
 27
1.0
 37
0.0
 76
     0
330
1B
  0
LAYOUT
  5
26
102
{ACAD_REACTORS
330
1A
102
}
330
1A
100
AcDbPlotSettings
  1

  2
none_device
  4

  6

 40
0.0
 41
0.0
 42
0.0
 43
0.0
 44
0.0
 45
0.0
 46
0.0
 47
0.0
 48
0.0
 49
0.0
140
0.0
141
0.0
142
1.0
143
1.0
 70
   688
 72
     1
 73
     0
 74
     5
  7

 75
    16
147
1.0
148
0.0
149
0.0
100
AcDbLayout
  1
Layout2
 70
     1
 71
     2
 10
0.0
 20
0.0
 11
0.0
 21
0.0
 12
0.0
 22
0.0
 32
0.0
 14
0.0
 24
0.0
 34
0.0
 15
0.0
 25
0.0
 35
0.0
146
0.0
 13
0.0
 23
0.0
 33
0.0
 16
1.0
 26
0.0
 36
0.0
 17
0.0
 27
1.0
 37
0.0
 76
     0
330
23
  0
LAYOUT
  5
22
102
{ACAD_REACTORS
330
1A
102
}
330
1A
100
AcDbPlotSettings
  1

  2
none_device
  4
Letter_(8.50_x_11.00_Inches)
  6

 40
6.35
 41
6.35
 42
6.35000508
 43
6.35000508
 44
215.9
 45
279.4
 46
0.0
 47
0.0
 48
0.0
 49
0.0
140
0.0
141
0.0
142
1.0
143
1.0
 70
  1712
 72
     1
 73
     0
 74
     0
  7

 75
     0
147
1.0
148
0.0
149
0.0
100
AcDbLayout
  1
Model
 70
     1
 71
     0
 10
0.0
 20
0.0
 11
215.9
 21
139.7
 12
0.0
 22
0.0
 32
0.0
 14
0.0
 24
0.0
 34
0.0
 15
215.9
 25
139.7
 35
0.0
146
0.0
 13
0.0
 23
0.0
 33
0.0
 16
1.0
 26
0.0
 36
0.0
 17
0.0
 27
1.0
 37
0.0
 76
     0
330
1F
331
29
  0
MLINESTYLE
  5
18
102
{ACAD_REACTORS
330
17
102
}
330
17
100
AcDbMlineStyle
  2
Standard
 70
     0
  3

 62
   256
 51
90.0
 52
90.0
 71
     2
 49
0.5
 62
   256
  6
BYLAYER
 49
-0.5
 62
   256
  6
BYLAYER
  0
ACDBPLACEHOLDER
  5
F
102
{ACAD_REACTORS
330
E
102
}
330
E
  0
SCALE
  5
48
102
{ACAD_REACTORS
330
47
102
}
330
47
100
AcDbScale
 70
     0
300
1:1
140
1.0
141
1.0
290
     1
  0
SCALE
  5
49
102
{ACAD_REACTORS
330
47
102
}
330
47
100
AcDbScale
 70
     0
300
1:2
140
1.0
141
2.0
290
     0
  0
SCALE
  5
4A
102
{ACAD_REACTORS
330
47
102
}
330
47
100
AcDbScale
 70
     0
300
1:4
140
1.0
141
4.0
290
     0
  0
SCALE
  5
4B
102
{ACAD_REACTORS
330
47
102
}
330
47
100
AcDbScale
 70
     0
300
1:5
140
1.0
141
5.0
290
     0
  0
SCALE
  5
4C
102
{ACAD_REACTORS
330
47
102
}
330
47
100
AcDbScale
 70
     0
300
1:8
140
1.0
141
8.0
290
     0
  0
SCALE
  5
4D
102
{ACAD_REACTORS
330
47
102
}
330
47
100
AcDbScale
 70
     0
300
1:10
140
1.0
141
10.0
290
     0
  0
SCALE
  5
4E
102
{ACAD_REACTORS
330
47
102
}
330
47
100
AcDbScale
 70
     0
300
1:16
140
1.0
141
16.0
290
     0
  0
SCALE
  5
4F
102
{ACAD_REACTORS
330
47
102
}
330
47
100
AcDbScale
 70
     0
300
1:20
140
1.0
141
20.0
290
     0
  0
SCALE
  5
50
102
{ACAD_REACTORS
330
47
102
}
330
47
100
AcDbScale
 70
     0
300
1:30
140
1.0
141
30.0
290
     0
  0
SCALE
  5
51
102
{ACAD_REACTORS
330
47
102
}
330
47
100
AcDbScale
 70
     0
300
1:40
140
1.0
141
40.0
290
     0
  0
SCALE
  5
52
102
{ACAD_REACTORS
330
47
102
}
330
47
100
AcDbScale
 70
     0
300
1:50
140
1.0
141
50.0
290
     0
  0
SCALE
  5
53
102
{ACAD_REACTORS
330
47
102
}
330
47
100
AcDbScale
 70
     0
300
1:100
140
1.0
141
100.0
290
     0
  0
SCALE
  5
54
102
{ACAD_REACTORS
330
47
102
}
330
47
100
AcDbScale
 70
     0
300
2:1
140
2.0
141
1.0
290
     0
  0
SCALE
  5
55
102
{ACAD_REACTORS
330
47
102
}
330
47
100
AcDbScale
 70
     0
300
4:1
140
4.0
141
1.0
290
     0
  0
SCALE
  5
56
102
{ACAD_REACTORS
330
47
102
}
330
47
100
AcDbScale
 70
     0
300
8:1
140
8.0
141
1.0
290
     0
  0
SCALE
  5
57
102
{ACAD_REACTORS
330
47
102
}
330
47
100
AcDbScale
 70
     0
300
10:1
140
10.0
141
1.0
290
     0
  0
SCALE
  5
58
102
{ACAD_REACTORS
330
47
102
}
330
47
100
AcDbScale
 70
     0
300
100:1
140
100.0
141
1.0
290
     0
  0
SCALE
  5
59
102
{ACAD_REACTORS
330
47
102
}
330
47
100
AcDbScale
 70
     0
300
1/128" = 1'-0"
140
0.0078125
141
12.0
290
     0
  0
SCALE
  5
5A
102
{ACAD_REACTORS
330
47
102
}
330
47
100
AcDbScale
 70
     0
300
1/64" = 1'-0"
140
0.015625
141
12.0
290
     0
  0
SCALE
  5
5B
102
{ACAD_REACTORS
330
47
102
}
330
47
100
AcDbScale
 70
     0
300
1/32" = 1'-0"
140
0.03125
141
12.0
290
     0
  0
SCALE
  5
5C
102
{ACAD_REACTORS
330
47
102
}
330
47
100
AcDbScale
 70
     0
300
1/16" = 1'-0"
140
0.0625
141
12.0
290
     0
  0
SCALE
  5
5D
102
{ACAD_REACTORS
330
47
102
}
330
47
100
AcDbScale
 70
     0
300
3/32" = 1'-0"
140
0.09375
141
12.0
290
     0
  0
SCALE
  5
5E
102
{ACAD_REACTORS
330
47
102
}
330
47
100
AcDbScale
 70
     0
300
1/8" = 1'-0"
140
0.125
141
12.0
290
     0
  0
SCALE
  5
5F
102
{ACAD_REACTORS
330
47
102
}
330
47
100
AcDbScale
 70
     0
300
3/16" = 1'-0"
140
0.1875
141
12.0
290
     0
  0
SCALE
  5
60
102
{ACAD_REACTORS
330
47
102
}
330
47
100
AcDbScale
 70
     0
300
1/4" = 1'-0"
140
0.25
141
12.0
290
     0
  0
SCALE
  5
61
102
{ACAD_REACTORS
330
47
102
}
330
47
100
AcDbScale
 70
     0
300
3/8" = 1'-0"
140
0.375
141
12.0
290
     0
  0
SCALE
  5
62
102
{ACAD_REACTORS
330
47
102
}
330
47
100
AcDbScale
 70
     0
300
1/2" = 1'-0"
140
0.5
141
12.0
290
     0
  0
SCALE
  5
63
102
{ACAD_REACTORS
330
47
102
}
330
47
100
AcDbScale
 70
     0
300
3/4" = 1'-0"
140
0.75
141
12.0
290
     0
  0
SCALE
  5
64
102
{ACAD_REACTORS
330
47
102
}
330
47
100
AcDbScale
 70
     0
300
1" = 1'-0"
140
1.0
141
12.0
290
     0
  0
SCALE
  5
65
102
{ACAD_REACTORS
330
47
102
}
330
47
100
AcDbScale
 70
     0
300
1-1/2" = 1'-0"
140
1.5
141
12.0
290
     0
  0
SCALE
  5
66
102
{ACAD_REACTORS
330
47
102
}
330
47
100
AcDbScale
 70
     0
300
3" = 1'-0"
140
3.0
141
12.0
290
     0
  0
SCALE
  5
67
102
{ACAD_REACTORS
330
47
102
}
330
47
100
AcDbScale
 70
     0
300
6" = 1'-0"
140
6.0
141
12.0
290
     0
  0
SCALE
  5
68
102
{ACAD_REACTORS
330
47
102
}
330
47
100
AcDbScale
 70
     0
300
1'-0" = 1'-0"
140
12.0
141
12.0
290
     0
  0
ENDSEC
  0
EOF
