  0
SECTION
  2
HEADER
  9
$ACADVER
  1
AC1015
  9
$ACADMAINTVER
 70
     6
  9
$DWGCODEPAGE
  3
DOS932
  9
$INSBASE
 10
0.0
 20
0.0
 30
0.0
  9
$EXTMIN
 10
0.0
 20
0.0
 30
0.0
  9
$EXTMAX
 10
215.9
 20
139.7
 30
0.0
  9
$LIMMIN
 10
0.0
 20
0.0
  9
$LIMMAX
 10
215.9
 20
139.7
  9
$ORTHOMODE
 70
     0
  9
$REGENMODE
 70
     1
  9
$FILLMODE
 70
     1
  9
$QTEXTMODE
 70
     0
  9
$MIRRTEXT
 70
     1
  9
$LTSCALE
 40
0.5
  9
$ATTMODE
 70
     1
  9
$TEXTSIZE
 40
1.75
  9
$TRACEWID
 40
1.0
  9
$TEXTSTYLE
  7
Standard
  9
$CLAYER
  8
0
  9
$CELTYPE
  6
ByLayer
  9
$CECOLOR
 62
   256
  9
$CELTSCALE
 40
1.0
  9
$DISPSILH
 70
     0
  9
$DIMSCALE
 40
1.0
  9
$DIMASZ
 40
1.651
  9
$DIMEXO
 40
0.5
  9
$DIMDLI
 40
3.75
  9
$DIMRND
 40
0.0
  9
$DIMDLE
 40
0.0
  9
$DIMEXE
 40
0.5
  9
$DIMTP
 40
0.0
  9
$DIMTM
 40
0.0
  9
$DIMTXT
 40
1.75
  9
$DIMCEN
 40
2.5
  9
$DIMTSZ
 40
0.0
  9
$DIMTOL
 70
     0
  9
$DIMLIM
 70
     0
  9
$DIMTIH
 70
     1
  9
$DIMTOH
 70
     1
  9
$DIMSE1
 70
     0
  9
$DIMSE2
 70
     0
  9
$DIMTAD
 70
     1
  9
$DIMZIN
 70
     1
  9
$DIMBLK
  1

  9
$DIMASO
 70
     1
  9
$DIMSHO
 70
     1
  9
$DIMPOST
  1

  9
$DIMAPOST
  1

  9
$DIMALT
 70
     0
  9
$DIMALTD
 70
     3
  9
$DIMALTF
 40
0.0393700787
  9
$DIMLFAC
 40
1.0
  9
$DIMTOFL
 70
     1
  9
$DIMTVP
 40
0.0
  9
$DIMTIX
 70
     0
  9
$DIMSOXD
 70
     0
  9
$DIMSAH
 70
     0
  9
$DIMBLK1
  1

  9
$DIMBLK2
  1

  9
$DIMSTYLE
  2
ISO-25
  9
$DIMCLRD
 70
     0
  9
$DIMCLRE
 70
     0
  9
$DIMCLRT
 70
     0
  9
$DIMTFAC
 40
1.0
  9
$DIMGAP
 40
0.762
  9
$DIMJUST
 70
     0
  9
$DIMSD1
 70
     0
  9
$DIMSD2
 70
     0
  9
$DIMTOLJ
 70
     0
  9
$DIMTZIN
 70
     1
  9
$DIMALTZ
 70
     0
  9
$DIMALTTZ
 70
     0
  9
$DIMUPT
 70
     0
  9
$DIMDEC
 70
     2
  9
$DIMTDEC
 70
     2
  9
$DIMALTU
 70
     2
  9
$DIMALTTD
 70
     3
  9
$DIMTXSTY
  7
Standard
  9
$DIMAUNIT
 70
     0
  9
$DIMADEC
 70
     2
  9
$DIMALTRND
 40
0.0
  9
$DIMAZIN
 70
     0
  9
$DIMDSEP
 70
    44
  9
$DIMATFIT
 70
     3
  9
$DIMFRAC
 70
     0
  9
$DIMLDRBLK
  1

  9
$DIMLUNIT
 70
     2
  9
$DIMLWD
 70
    -2
  9
$DIMLWE
 70
    -2
  9
$DIMTMOVE
 70
     0
  9
$LUNITS
 70
     2
  9
$LUPREC
 70
     2
  9
$SKETCHINC
 40
1.0
  9
$FILLETRAD
 40
10.0
  9
$AUNITS
 70
     0
  9
$AUPREC
 70
     2
  9
$MENU
  1
.
  9
$ELEVATION
 40
0.0
  9
$PELEVATION
 40
0.0
  9
$THICKNESS
 40
0.0
  9
$LIMCHECK
 70
     0
  9
$CHAMFERA
 40
0.0
  9
$CHAMFERB
 40
0.0
  9
$CHAMFERC
 40
0.0
  9
$CHAMFERD
 40
0.0
  9
$SKPOLY
 70
     0
  9
$TDCREATE
 40
2460082.69072743
  9
$TDUCREATE
 40
2460082.31572743
  9
$TDUPDATE
 40
2460082.690728079
  9
$TDUUPDATE
 40
2460082.315728079
  9
$TDINDWG
 40
0.0000000116
  9
$TDUSRTIMER
 40
0.0000000116
  9
$USRTIMER
 70
     1
  9
$ANGBASE
 50
0.0
  9
$ANGDIR
 70
     0
  9
$PDMODE
 70
     0
  9
$PDSIZE
 40
-1.0
  9
$PLINEWID
 40
0.0
  9
$SPLFRAME
 70
     0
  9
$SPLINETYPE
 70
     6
  9
$SPLINESEGS
 70
     8
  9
$HANDSEED
  5
160
  9
$SURFTAB1
 70
     6
  9
$SURFTAB2
 70
     6
  9
$SURFTYPE
 70
     6
  9
$SURFU
 70
     6
  9
$SURFV
 70
     6
  9
$UCSBASE
  2

  9
$UCSNAME
  2

  9
$UCSORG
 10
0.0
 20
0.0
 30
0.0
  9
$UCSXDIR
 10
1.0
 20
0.0
 30
0.0
  9
$UCSYDIR
 10
0.0
 20
1.0
 30
0.0
  9
$UCSORTHOREF
  2

  9
$UCSORTHOVIEW
 70
     0
  9
$UCSORGTOP
 10
0.0
 20
0.0
 30
0.0
  9
$UCSORGBOTTOM
 10
0.0
 20
0.0
 30
0.0
  9
$UCSORGLEFT
 10
0.0
 20
0.0
 30
0.0
  9
$UCSORGRIGHT
 10
0.0
 20
0.0
 30
0.0
  9
$UCSORGFRONT
 10
0.0
 20
0.0
 30
0.0
  9
$UCSORGBACK
 10
0.0
 20
0.0
 30
0.0
  9
$PUCSBASE
  2

  9
$PUCSNAME
  2

  9
$PUCSORG
 10
0.0
 20
0.0
 30
0.0
  9
$PUCSXDIR
 10
1.0
 20
0.0
 30
0.0
  9
$PUCSYDIR
 10
0.0
 20
1.0
 30
0.0
  9
$PUCSORTHOREF
  2

  9
$PUCSORTHOVIEW
 70
     0
  9
$PUCSORGTOP
 10
0.0
 20
0.0
 30
0.0
  9
$PUCSORGBOTTOM
 10
0.0
 20
0.0
 30
0.0
  9
$PUCSORGLEFT
 10
0.0
 20
0.0
 30
0.0
  9
$PUCSORGRIGHT
 10
0.0
 20
0.0
 30
0.0
  9
$PUCSORGFRONT
 10
0.0
 20
0.0
 30
0.0
  9
$PUCSORGBACK
 10
0.0
 20
0.0
 30
0.0
  9
$USERI1
 70
     0
  9
$USERI2
 70
     0
  9
$USERI3
 70
     0
  9
$USERI4
 70
     0
  9
$USERI5
 70
     0
  9
$USERR1
 40
0.0
  9
$USERR2
 40
0.0
  9
$USERR3
 40
0.0
  9
$USERR4
 40
0.0
  9
$USERR5
 40
0.0
  9
$WORLDVIEW
 70
     1
  9
$SHADEDGE
 70
     3
  9
$SHADEDIF
 70
    70
  9
$TILEMODE
 70
     1
  9
$MAXACTVP
 70
    64
  9
$PINSBASE
 10
0.0
 20
0.0
 30
0.0
  9
$PLIMCHECK
 70
     0
  9
$PEXTMIN
 10
1.0000000000E+20
 20
1.0000000000E+20
 30
1.0000000000E+20
  9
$PEXTMAX
 10
-1.0000000000E+20
 20
-1.0000000000E+20
 30
-1.0000000000E+20
  9
$PLIMMIN
 10
0.0
 20
0.0
  9
$PLIMMAX
 10
420.0
 20
297.0
  9
$UNITMODE
 70
     0
  9
$VISRETAIN
 70
     1
  9
$PLINEGEN
 70
     0
  9
$PSLTSCALE
 70
     1
  9
$TREEDEPTH
 70
  3020
  9
$CMLSTYLE
  2
Standard
  9
$CMLJUST
 70
     0
  9
$CMLSCALE
 40
20.0
  9
$PROXYGRAPHICS
 70
     1
  9
$MEASUREMENT
 70
     1
  9
$CELWEIGHT
370
    -1
  9
$ENDCAPS
280
     0
  9
$JOINSTYLE
280
     0
  9
$LWDISPLAY
290
     1
  9
$INSUNITS
 70
     4
  9
$HYPERLINKBASE
  1

  9
$STYLESHEET
  1

  9
$XEDIT
290
     1
  9
$CEPSNTYPE
380
     0
  9
$PSTYLEMODE
290
     1
  9
$FINGERPRINTGUID
  2
{76808193-CF2A-4987-B5BA-5B22B4F22D80}
  9
$VERSIONGUID
  2
{FAEB1C32-E019-11D5-929B-00C0DF256EC4}
  9
$EXTNAMES
290
     1
  9
$PSVPSCALE
 40
0.0
  9
$OLESTARTUP
290
     0
  0
ENDSEC
  0
SECTION
  2
CLASSES
  0
CLASS
  1
ACDBDICTIONARYWDFLT
  2
AcDbDictionaryWithDefault
  3
ObjectDBX Classes
 90
        0
280
     0
281
     0
  0
CLASS
  1
VISUALSTYLE
  2
AcDbVisualStyle
  3
ObjectDBX Classes
 90
     4095
280
     0
281
     0
  0
CLASS
  1
MATERIAL
  2
AcDbMaterial
  3
ObjectDBX Classes
 90
     1153
280
     0
281
     0
  0
CLASS
  1
SCALE
  2
AcDbScale
  3
ObjectDBX Classes
 90
     1153
280
     0
281
     0
  0
CLASS
  1
TABLESTYLE
  2
AcDbTableStyle
  3
ObjectDBX Classes
 90
     4095
280
     0
281
     0
  0
CLASS
  1
MLEADERSTYLE
  2
AcDbMLeaderStyle
  3
ACDB_MLEADERSTYLE_CLASS
 90
     4095
280
     0
281
     0
  0
CLASS
  1
SUN
  2
AcDbSun
  3
SCENEOE
 90
     1153
280
     0
281
     0
  0
CLASS
  1
ACDBPLACEHOLDER
  2
AcDbPlaceHolder
  3
ObjectDBX Classes
 90
        0
280
     0
281
     0
  0
CLASS
  1
LAYOUT
  2
AcDbLayout
  3
ObjectDBX Classes
 90
        0
280
     0
281
     0
  0
ENDSEC
  0
SECTION
  2
TABLES
  0
TABLE
  2
VPORT
  5
8
330
0
100
AcDbSymbolTable
 70
     1
  0
VPORT
  5
29
330
8
100
AcDbSymbolTableRecord
100
AcDbViewportTableRecord
  2
*Active
 70
     0
 10
0.0
 20
0.0
 11
1.0
 21
1.0
 12
107.95
 22
69.85
 13
0.0
 23
0.0
 14
10.0
 24
10.0
 15
10.0
 25
10.0
 16
0.0
 26
0.0
 36
1.0
 17
0.0
 27
0.0
 37
0.0
 40
139.7
 41
1.5454545455
 42
50.0
 43
0.0
 44
0.0
 50
0.0
 51
0.0
 71
     0
 72
  2000
 73
     1
 74
     3
 75
     0
 76
     0
 77
     0
 78
     0
281
     0
 65
     1
110
0.0
120
0.0
130
0.0
111
1.0
121
0.0
131
0.0
112
0.0
122
1.0
132
0.0
 79
     0
146
0.0
  0
ENDTAB
  0
TABLE
  2
LTYPE
  5
5
330
0
100
AcDbSymbolTable
 70
     6
  0
LTYPE
  5
14
330
5
100
AcDbSymbolTableRecord
100
AcDbLinetypeTableRecord
  2
ByBlock
 70
     0
  3

 72
    65
 73
     0
 40
0.0
  0
LTYPE
  5
15
330
5
100
AcDbSymbolTableRecord
100
AcDbLinetypeTableRecord
  2
ByLayer
 70
     0
  3

 72
    65
 73
     0
 40
0.0
  0
LTYPE
  5
16
330
5
100
AcDbSymbolTableRecord
100
AcDbLinetypeTableRecord
  2
Continuous
 70
     0
  3
Solid line
 72
    65
 73
     0
 40
0.0
  0
LTYPE
  5
6E
330
5
100
AcDbSymbolTableRecord
100
AcDbLinetypeTableRecord
  2
HIDDEN
 70
     0
  3
Hidden __ __ __ __ __ __ __ __ __ __ __ __ __ __
 72
    65
 73
     2
 40
1.905
 49
1.27
 74
     0
 49
-0.635
 74
     0
  0
LTYPE
  5
6F
330
5
100
AcDbSymbolTableRecord
100
AcDbLinetypeTableRecord
  2
PHANTOM
 70
     0
  3
Phantom ______  __  __  ______  __  __  ______
 72
    65
 73
     6
 40
12.7
 49
6.35
 74
     0
 49
-1.27
 74
     0
 49
1.27
 74
     0
 49
-1.27
 74
     0
 49
1.27
 74
     0
 49
-1.27
 74
     0
  0
LTYPE
  5
70
330
5
100
AcDbSymbolTableRecord
100
AcDbLinetypeTableRecord
  2
CENTER
 70
     0
  3
Center ____ _ ____ _ ____ _ ____ _ ____ _ ____
 72
    65
 73
     4
 40
10.16
 49
6.35
 74
     0
 49
-1.27
 74
     0
 49
1.27
 74
     0
 49
-1.27
 74
     0
  0
LTYPE
  5
71
330
5
100
AcDbSymbolTableRecord
100
AcDbLinetypeTableRecord
  2
CENTERX2
 70
     0
  3
Center (2x) ________  __  ________  __  _____
 72
    65
 73
     4
 40
20.32
 49
12.7
 74
     0
 49
-2.54
 74
     0
 49
2.54
 74
     0
 49
-2.54
 74
     0
  0
LTYPE
  5
72
330
5
100
AcDbSymbolTableRecord
100
AcDbLinetypeTableRecord
  2
DOT2
 70
     0
  3
Dot (.5x) ........................................
 72
    65
 73
     2
 40
0.635
 49
0.0
 74
     0
 49
-0.635
 74
     0
  0
ENDTAB
  0
TABLE
  2
LAYER
  5
2
330
0
100
AcDbSymbolTable
 70
     1
  0
LAYER
  5
10
330
2
100
AcDbSymbolTableRecord
100
AcDbLayerTableRecord
  2
0
 70
     0
 62
     7
  6
Continuous
370
    -3
390
F
  0
ENDTAB
  0
TABLE
  2
STYLE
  5
3
330
0
100
AcDbSymbolTable
 70
     2
  0
STYLE
  5
11
330
3
100
AcDbSymbolTableRecord
100
AcDbTextStyleTableRecord
  2
Standard
 70
     0
 40
0.0
 41
1.0
 50
0.0
 71
     0
 42
1.75
  3
txt
  4
bigfont
  0
STYLE
  5
73
330
3
100
AcDbSymbolTableRecord
100
AcDbTextStyleTableRecord
  2
SLDTEXTSTYLE0
 70
     0
 40
0.0
 41
0.7
 50
0.0
 71
     0
 42
1.75
  3
TXT
  4
bigfont
  0
ENDTAB
  0
TABLE
  2
VIEW
  5
6
330
0
100
AcDbSymbolTable
 70
     0
  0
ENDTAB
  0
TABLE
  2
UCS
  5
7
330
0
100
AcDbSymbolTable
 70
     0
  0
ENDTAB
  0
TABLE
  2
APPID
  5
9
330
0
100
AcDbSymbolTable
 70
     1
  0
APPID
  5
12
330
9
100
AcDbSymbolTableRecord
100
AcDbRegAppTableRecord
  2
ACAD
 70
     0
  0
ENDTAB
  0
TABLE
  2
DIMSTYLE
  5
A
330
0
100
AcDbSymbolTable
 70
     1
100
AcDbDimStyleTable
  0
DIMSTYLE
105
27
330
A
100
AcDbSymbolTableRecord
100
AcDbDimStyleTableRecord
  2
ISO-25
 70
     0
 41
2.5
 42
0.625
 43
3.75
 44
1.25
 73
     0
 74
     0
 77
     1
 78
     8
140
2.5
141
2.5
143
0.0393700787
147
0.625
171
     3
172
     1
178
     0
271
     2
272
     2
274
     3
278
    44
283
     0
284
     8
340
11
  0
ENDTAB
  0
TABLE
  2
BLOCK_RECORD
  5
1
330
0
100
AcDbSymbolTable
 70
     3
  0
BLOCK_RECORD
  5
1F
330
1
100
AcDbSymbolTableRecord
100
AcDbBlockTableRecord
  2
*Model_Space
340
22
  0
BLOCK_RECORD
  5
1B
330
1
100
AcDbSymbolTableRecord
100
AcDbBlockTableRecord
  2
*Paper_Space
340
1E
  0
BLOCK_RECORD
  5
23
330
1
100
AcDbSymbolTableRecord
100
AcDbBlockTableRecord
  2
*Paper_Space0
340
26
  0
BLOCK_RECORD
  5
FF
330
1
100
AcDbSymbolTableRecord
100
AcDbBlockTableRecord
  2
SW_CENTERMARKSYMBOL_0
340
0
102
{BLKREFS
331
10A
102
}
  0
BLOCK_RECORD
  5
10B
330
1
100
AcDbSymbolTableRecord
100
AcDbBlockTableRecord
  2
SW_CENTERMARKSYMBOL_1
340
0
102
{BLKREFS
331
116
102
}
  0
ENDTAB
  0
ENDSEC
  0
SECTION
  2
BLOCKS
  0
BLOCK
  5
20
330
1F
100
AcDbEntity
  8
0
100
AcDbBlockBegin
  2
*Model_Space
 70
     0
 10
0.0
 20
0.0
 30
0.0
  3
*Model_Space
  1

  0
ENDBLK
  5
21
330
1F
100
AcDbEntity
  8
0
100
AcDbBlockEnd
  0
BLOCK
  5
1C
330
1B
100
AcDbEntity
 67
     1
  8
0
100
AcDbBlockBegin
  2
*Paper_Space
 70
     0
 10
0.0
 20
0.0
 30
0.0
  3
*Paper_Space
  1

  0
ENDBLK
  5
1D
330
1B
100
AcDbEntity
 67
     1
  8
0
100
AcDbBlockEnd
  0
BLOCK
  5
24
330
23
100
AcDbEntity
  8
0
100
AcDbBlockBegin
  2
*Paper_Space0
 70
     0
 10
0.0
 20
0.0
 30
0.0
  3
*Paper_Space0
  1

  0
ENDBLK
  5
25
330
23
100
AcDbEntity
  8
0
100
AcDbBlockEnd
  0
BLOCK
  5
100
330
FF
100
AcDbEntity
  8
0
100
AcDbBlockBegin
  2
SW_CENTERMARKSYMBOL_0
 70
     0
 10
0.0
 20
0.0
 30
0.0
  3
SW_CENTERMARKSYMBOL_0
  1

  0
LINE
  5
102
330
FF
100
AcDbEntity
  8
0
  6
Continuous
 62
     0
370
    18
100
AcDbLine
 10
0.0
 20
0.0
 30
0.0
 11
0.0
 21
2.5
 31
0.0
  0
LINE
  5
103
330
FF
100
AcDbEntity
  8
0
  6
Continuous
 62
     0
370
    18
100
AcDbLine
 10
0.0
 20
0.0
 30
0.0
 11
-2.5
 21
0.0
 31
0.0
  0
LINE
  5
104
330
FF
100
AcDbEntity
  8
0
  6
Continuous
 62
     0
370
    18
100
AcDbLine
 10
0.0
 20
0.0
 30
0.0
 11
0.0
 21
-2.5
 31
0.0
  0
LINE
  5
105
330
FF
100
AcDbEntity
  8
0
  6
Continuous
 62
     0
370
    18
100
AcDbLine
 10
0.0
 20
0.0
 30
0.0
 11
2.5
 21
0.0
 31
0.0
  0
LINE
  5
106
330
FF
100
AcDbEntity
  8
0
  6
Continuous
 62
     0
370
    18
100
AcDbLine
 10
0.0
 20
5.0
 30
0.0
 11
0.0
 21
9.75
 31
0.0
  0
LINE
  5
107
330
FF
100
AcDbEntity
  8
0
  6
Continuous
 62
     0
370
    18
100
AcDbLine
 10
-5.0
 20
0.0
 30
0.0
 11
-9.75
 21
0.0
 31
0.0
  0
LINE
  5
108
330
FF
100
AcDbEntity
  8
0
  6
Continuous
 62
     0
370
    18
100
AcDbLine
 10
0.0
 20
-5.0
 30
0.0
 11
0.0
 21
-9.75
 31
0.0
  0
LINE
  5
109
330
FF
100
AcDbEntity
  8
0
  6
Continuous
 62
     0
370
    18
100
AcDbLine
 10
5.0
 20
0.0
 30
0.0
 11
9.75
 21
0.0
 31
0.0
  0
ENDBLK
  5
101
330
FF
100
AcDbEntity
  8
0
100
AcDbBlockEnd
  0
BLOCK
  5
10C
330
10B
100
AcDbEntity
  8
0
100
AcDbBlockBegin
  2
SW_CENTERMARKSYMBOL_1
 70
     0
 10
0.0
 20
0.0
 30
0.0
  3
SW_CENTERMARKSYMBOL_1
  1

  0
LINE
  5
10E
330
10B
100
AcDbEntity
  8
0
  6
Continuous
 62
     0
370
    18
100
AcDbLine
 10
0.0
 20
0.0
 30
0.0
 11
0.0
 21
2.5
 31
0.0
  0
LINE
  5
10F
330
10B
100
AcDbEntity
  8
0
  6
Continuous
 62
     0
370
    18
100
AcDbLine
 10
0.0
 20
0.0
 30
0.0
 11
-2.5
 21
0.0
 31
0.0
  0
LINE
  5
110
330
10B
100
AcDbEntity
  8
0
  6
Continuous
 62
     0
370
    18
100
AcDbLine
 10
0.0
 20
0.0
 30
0.0
 11
0.0
 21
-2.5
 31
0.0
  0
LINE
  5
111
330
10B
100
AcDbEntity
  8
0
  6
Continuous
 62
     0
370
    18
100
AcDbLine
 10
0.0
 20
0.0
 30
0.0
 11
2.5
 21
0.0
 31
0.0
  0
LINE
  5
112
330
10B
100
AcDbEntity
  8
0
  6
Continuous
 62
     0
370
    18
100
AcDbLine
 10
0.0
 20
5.0
 30
0.0
 11
0.0
 21
13.5
 31
0.0
  0
LINE
  5
113
330
10B
100
AcDbEntity
  8
0
  6
Continuous
 62
     0
370
    18
100
AcDbLine
 10
-5.0
 20
0.0
 30
0.0
 11
-13.5
 21
0.0
 31
0.0
  0
LINE
  5
114
330
10B
100
AcDbEntity
  8
0
  6
Continuous
 62
     0
370
    18
100
AcDbLine
 10
0.0
 20
-5.0
 30
0.0
 11
0.0
 21
-13.5
 31
0.0
  0
LINE
  5
115
330
10B
100
AcDbEntity
  8
0
  6
Continuous
 62
     0
370
    18
100
AcDbLine
 10
5.0
 20
0.0
 30
0.0
 11
13.5
 21
0.0
 31
0.0
  0
ENDBLK
  5
10D
330
10B
100
AcDbEntity
  8
0
100
AcDbBlockEnd
  0
ENDSEC
  0
SECTION
  2
ENTITIES
  0
MTEXT
  5
74
330
1F
100
AcDbEntity
  8
0
  6
Continuous
 62
     7
370
     0
100
AcDbMText
 10
124.0640059846
 20
69.6870204608
 30
0.0
 40
2.38125
 41
0.0
 71
     1
 72
     1
  1
エースニップル　HN-8421
  7
SLDTEXTSTYLE0
 73
     1
 44
1.0
  0
LINE
  5
75
330
1F
100
AcDbEntity
  8
0
  6
Continuous
 62
     7
370
    25
100
AcDbLine
 10
84.493367539
 20
58.0603483845
 30
0.0
 11
70.1897588119
 21
57.6133606118
 31
0.0
  0
LINE
  5
76
330
1F
100
AcDbEntity
  8
0
  6
Continuous
 62
     7
370
    25
100
AcDbLine
 10
70.1897588119
 20
36.9998361572
 30
0.0
 11
84.493367539
 21
36.5528483845
 31
0.0
  0
LINE
  5
77
330
1F
100
AcDbEntity
  8
0
  6
Continuous
 62
     7
370
    25
100
AcDbLine
 10
110.493367539
 20
36.8065983845
 30
0.0
 11
115.993367539
 21
37.8065983845
 31
0.0
  0
LINE
  5
78
330
1F
100
AcDbEntity
  8
0
  6
Continuous
 62
     7
370
    25
100
AcDbLine
 10
115.993367539
 20
56.8065983845
 30
0.0
 11
110.493367539
 21
57.8065983845
 31
0.0
  0
LINE
  5
79
330
1F
100
AcDbEntity
  8
0
  6
Continuous
 62
     7
370
    25
100
AcDbLine
 10
104.993367539
 20
36.8065983845
 30
0.0
 11
110.493367539
 21
37.8065983845
 31
0.0
  0
LINE
  5
7A
330
1F
100
AcDbEntity
  8
0
  6
Continuous
 62
     7
370
    25
100
AcDbLine
 10
110.493367539
 20
56.8065983845
 30
0.0
 11
104.993367539
 21
57.8065983845
 31
0.0
  0
LINE
  5
7B
330
1F
100
AcDbEntity
  8
0
  6
Continuous
 62
     7
370
    25
100
AcDbLine
 10
115.993367539
 20
36.8065983845
 30
0.0
 11
123.059449399
 21
37.7487426325
 31
0.0
  0
LINE
  5
7C
330
1F
100
AcDbEntity
  8
0
  6
Continuous
 62
     7
370
    25
100
AcDbLine
 10
123.059449399
 20
56.8644541365
 30
0.0
 11
115.993367539
 21
57.8065983845
 31
0.0
  0
LINE
  5
7D
330
1F
100
AcDbEntity
  8
0
  6
Continuous
 62
     7
370
    25
100
AcDbLine
 10
99.493367539
 20
57.8065983845
 30
0.0
 11
90.493367539
 21
57.8065983845
 31
0.0
  0
LINE
  5
7E
330
1F
100
AcDbEntity
  8
0
  6
Continuous
 62
     7
370
    25
100
AcDbLine
 10
90.493367539
 20
36.8065983845
 30
0.0
 11
99.493367539
 21
36.8065983845
 31
0.0
  0
LINE
  5
7F
330
1F
100
AcDbEntity
  8
0
  6
Continuous
 62
     7
370
    25
100
AcDbLine
 10
99.493367539
 20
36.8065983845
 30
0.0
 11
104.993367539
 21
37.8065983845
 31
0.0
  0
LINE
  5
80
330
1F
100
AcDbEntity
  8
0
  6
Continuous
 62
     7
370
    25
100
AcDbLine
 10
104.993367539
 20
56.8065983845
 30
0.0
 11
99.493367539
 21
57.8065983845
 31
0.0
  0
LINE
  5
81
330
1F
100
AcDbEntity
  8
0
  6
Continuous
 62
     7
370
    25
100
AcDbLine
 10
70.1897588119
 20
57.6133606118
 30
0.0
 11
67.493367539
 21
56.0565983845
 31
0.0
  0
LINE
  5
82
330
1F
100
AcDbEntity
  8
0
  6
Continuous
 62
     7
370
    25
100
AcDbLine
 10
67.493367539
 20
38.5565983845
 30
0.0
 11
70.1897588119
 21
36.9998361572
 31
0.0
  0
ARC
  5
83
330
1F
100
AcDbEntity
  8
0
  6
Continuous
 62
     7
370
    25
100
AcDbCircle
 10
122.993367539
 20
38.2443565828
 30
0.0
 40
0.5000000000000022
100
AcDbArc
 50
277.5946433686
 51
0.0
  0
ARC
  5
84
330
1F
100
AcDbEntity
  8
0
  6
Continuous
 62
     7
370
    25
100
AcDbCircle
 10
122.993367539
 20
56.3688401861
 30
0.0
 40
0.5
100
AcDbArc
 50
0.0
 51
82.4053566314
  0
LINE
  5
85
330
1F
100
AcDbEntity
  8
0
  6
Continuous
 62
     7
370
    25
100
AcDbLine
 10
84.493367539
 20
36.3065983845
 30
0.0
 11
85.4758479112
 21
34.6048924623
 31
0.0
  0
LINE
  5
86
330
1F
100
AcDbEntity
  8
0
  6
Continuous
 62
     7
370
    25
100
AcDbLine
 10
89.5108871667
 20
34.6048924623
 30
0.0
 11
90.493367539
 21
36.3065983845
 31
0.0
  0
LINE
  5
87
330
1F
100
AcDbEntity
  8
0
  6
Continuous
 62
     7
370
    25
100
AcDbLine
 10
90.493367539
 20
58.3065983845
 30
0.0
 11
89.5108871667
 21
60.0083043066
 31
0.0
  0
LINE
  5
88
330
1F
100
AcDbEntity
  8
0
  6
Continuous
 62
     7
370
    25
100
AcDbLine
 10
85.4758479112
 20
60.0083043066
 30
0.0
 11
84.493367539
 21
58.3065983845
 31
0.0
  0
LINE
  5
89
330
1F
100
AcDbEntity
  8
0
  6
Continuous
 62
     7
370
    25
100
AcDbLine
 10
87.5737522967
 20
60.0083043066
 30
0.0
 11
87.493367539
 21
59.7083043066
 31
0.0
  0
LINE
  5
8A
330
1F
100
AcDbEntity
  8
0
  6
Continuous
 62
     7
370
    25
100
AcDbLine
 10
87.493367539
 20
59.7083043066
 30
0.0
 11
87.4129827813
 21
60.0083043066
 31
0.0
  0
LINE
  5
8B
330
1F
100
AcDbEntity
  8
0
  6
Continuous
 62
     7
370
    25
100
AcDbLine
 10
87.4129827813
 20
34.6048924623
 30
0.0
 11
87.493367539
 21
34.9048924623
 31
0.0
  0
LINE
  5
8C
330
1F
100
AcDbEntity
  8
0
  6
Continuous
 62
     7
370
    25
100
AcDbLine
 10
87.493367539
 20
34.9048924623
 30
0.0
 11
87.5737522967
 21
34.6048924623
 31
0.0
  0
SPLINE
  5
8D
330
1F
100
AcDbEntity
  8
0
  6
Continuous
 62
     7
370
    25
100
AcDbSpline
210
0.0
220
0.0
230
1.0
 70
     8
 71
     3
 72
     8
 73
     4
 74
     0
 42
0.000000001
 43
0.00000001
 40
0.0
 40
0.0
 40
0.0
 40
0.0
 40
1.0
 40
1.0
 40
1.0
 40
1.0
 10
87.49336753899466
 20
40.64398397999529
 30
0.0
 10
87.51910848882798
 20
40.74799307943364
 30
0.0
 10
87.5459300330889
 20
40.85191132191826
 30
0.0
 10
87.573752296724
 20
40.95574542338609
 30
0.0
  0
LINE
  5
8E
330
1F
100
AcDbEntity
  8
0
  6
Continuous
 62
     7
370
    25
100
AcDbLine
 10
87.493367539
 20
40.64398398
 30
0.0
 11
87.493367539
 21
41.5792683102
 31
0.0
  0
SPLINE
  5
8F
330
1F
100
AcDbEntity
  8
0
  6
Continuous
 62
     7
370
    25
100
AcDbSpline
210
0.0
220
0.0
230
1.0
 70
     8
 71
     3
 72
     8
 73
     4
 74
     0
 42
0.000000001
 43
0.00000001
 40
0.0
 40
0.0
 40
0.0
 40
0.0
 40
1.0
 40
1.0
 40
1.0
 40
1.0
 10
87.573752296724
 20
40.95574542338609
 30
0.0
 10
87.5459192431681
 20
41.16349416338688
 30
0.0
 10
87.51909825539781
 20
41.3713328098599
 30
0.0
 10
87.49336753899466
 20
41.5792683101677
 30
0.0
  0
SPLINE
  5
90
330
1F
100
AcDbEntity
  8
0
  6
Continuous
 62
     7
370
    25
100
AcDbSpline
210
0.0
220
0.0
230
1.0
 70
     8
 71
     3
 72
    19
 73
    15
 74
     0
 42
0.000000001
 43
0.00000001
 40
0.0
 40
0.0
 40
0.0
 40
0.0
 40
0.1227280999764553
 40
0.239716523588393
 40
0.3518621792202463
 40
0.4632019818032239
 40
0.5202611541541643
 40
0.5794324380306665
 40
0.6405963441586369
 40
0.70529822908802
 40
0.7732361059084537
 40
0.844648929340316
 40
0.9200459817773698
 40
1.0
 40
1.0
 40
1.0
 40
1.0
 10
88.07798292361005
 20
48.24289646139505
 30
0.0
 10
88.07738778226226
 20
48.25997631208032
 30
0.0
 10
88.07622533279094
 20
48.29333723293272
 30
0.0
 10
88.06600792591078
 20
48.34142147653995
 30
0.0
 10
88.0498194979792
 20
48.38607614556899
 30
0.0
 10
88.030272019266
 20
48.42009399564727
 30
0.0
 10
88.01104253690322
 20
48.44525660043892
 30
0.0
 10
87.99449941325615
 20
48.46358230242378
 30
0.0
 10
87.97574289938096
 20
48.48125015634621
 30
0.0
 10
87.9542585252112
 20
48.49756685959535
 30
0.0
 10
87.93078505141852
 20
48.51351014358221
 30
0.0
 10
87.9051931948495
 20
48.52892777377648
 30
0.0
 10
87.87711809221963
 20
48.54332453553938
 30
0.0
 10
87.85737487084265
 20
48.55208808014969
 30
0.0
 10
87.84721369284082
 20
48.55659838447198
 30
0.0
  0
SPLINE
  5
91
330
1F
100
AcDbEntity
  8
0
  6
Continuous
 62
     7
370
    25
100
AcDbSpline
210
0.0
220
0.0
230
1.0
 70
     8
 71
     3
 72
    23
 73
    19
 74
     0
 42
0.000000001
 43
0.00000001
 40
0.0
 40
0.0
 40
0.0
 40
0.0
 40
0.0552698294993248
 40
0.1099567044850939
 40
0.1632335040550556
 40
0.2180575651623569
 40
0.2732775387226747
 40
0.330881045495497
 40
0.3904799376860887
 40
0.4536559730386418
 40
0.5189026226022312
 40
0.5833461108214767
 40
0.6485466930814432
 40
0.7150552190344911
 40
0.7825206438000537
 40
0.8523352944264511
 40
0.9249348997257085
 40
1.0
 40
1.0
 40
1.0
 40
1.0
 10
87.84270648130236
 20
47.94121376908736
 30
0.0
 10
87.85053981948074
 20
47.94139135310887
 30
0.0
 10
87.86612387427184
 20
47.94174464809731
 30
0.0
 10
87.88889148452722
 20
47.94620092768516
 30
0.0
 10
87.91096434999723
 20
47.95289581269886
 30
0.0
 10
87.93224231713388
 20
47.96210574962083
 30
0.0
 10
87.95260187871831
 20
47.97441061990086
 30
0.0
 10
87.9720680119453
 20
47.98918056336177
 30
0.0
 10
87.99096694904861
 20
48.00642270874709
 30
0.0
 10
88.00839454175221
 20
48.02658767910644
 30
0.0
 10
88.02483322444459
 20
48.04841841015941
 30
0.0
 10
88.0390438541216
 20
48.07212031534335
 30
0.0
 10
88.05108877433906
 20
48.09717062020704
 30
0.0
 10
88.06104044610913
 20
48.12359236028834
 30
0.0
 10
88.06852169247793
 20
48.1514913802221
 30
0.0
 10
88.07389456173163
 20
48.18073107142284
 30
0.0
 10
88.07725345482532
 20
48.2113687230014
 30
0.0
 10
88.077737075744
 20
48.23227088375881
 30
0.0
 10
88.07798292361005
 20
48.24289646139505
 30
0.0
  0
SPLINE
  5
92
330
1F
100
AcDbEntity
  8
0
  6
Continuous
 62
     7
370
    25
100
AcDbSpline
210
0.0
220
0.0
230
1.0
 70
     8
 71
     3
 72
    19
 73
    15
 74
     0
 42
0.000000001
 43
0.00000001
 40
0.0
 40
0.0
 40
0.0
 40
0.0
 40
0.1101423815503174
 40
0.2157418685830274
 40
0.3179605426392306
 40
0.4180517606815226
 40
0.5115631470355316
 40
0.5965727584443461
 40
0.6733290469034968
 40
0.7440491927238595
 40
0.8107168223002833
 40
0.8740854521098849
 40
0.9367096168966699
 40
1.0
 40
1.0
 40
1.0
 40
1.0
 10
87.59721369284082
 20
48.32582915370275
 30
0.0
 10
87.59752998180942
 20
48.30727202417057
 30
0.0
 10
87.59814951420138
 20
48.27092316604298
 30
0.0
 10
87.60559076131197
 20
48.21781838656437
 30
0.0
 10
87.61600008713184
 20
48.16697683693274
 30
0.0
 10
87.63157625877332
 20
48.11955903285794
 30
0.0
 10
87.65027211047332
 20
48.07648031475968
 30
0.0
 10
87.67135304859593
 20
48.03890087940667
 30
0.0
 10
87.69523680563675
 20
48.007711344716
 30
0.0
 10
87.72160993018497
 20
47.98283378641455
 30
0.0
 10
87.75022571957646
 20
47.96457454196264
 30
0.0
 10
87.77973864693729
 20
47.9508691705072
 30
0.0
 10
87.81083538013928
 20
47.9428345264544
 30
0.0
 10
87.8320453733072
 20
47.94175592385118
 30
0.0
 10
87.84270648130236
 20
47.94121376908736
 30
0.0
  0
LINE
  5
93
330
1F
100
AcDbEntity
  8
0
  6
Continuous
 62
     7
370
    25
100
AcDbLine
 10
87.443367539
 20
48.3258291537
 30
0.0
 11
87.5972136928
 21
48.3258291537
 31
0.0
  0
SPLINE
  5
94
330
1F
100
AcDbEntity
  8
0
  6
Continuous
 62
     7
370
    25
100
AcDbSpline
210
0.0
220
0.0
230
1.0
 70
     8
 71
     3
 72
    23
 73
    19
 74
     0
 42
0.000000001
 43
0.00000001
 40
0.0
 40
0.0
 40
0.0
 40
0.0
 40
0.0669051223273616
 40
0.1334773340846825
 40
0.2010229080576287
 40
0.2712178684297488
 40
0.3428591616573978
 40
0.4138109980627169
 40
0.4855518488903453
 40
0.5598002749200529
 40
0.5998999649035781
 40
0.6436094423977958
 40
0.6919106424505659
 40
0.7447030291556902
 40
0.8015038302285953
 40
0.8628660266331954
 40
0.9293326711591618
 40
1.0
 40
1.0
 40
1.0
 40
1.0
 10
87.12605984668696
 20
47.86429069216428
 30
0.0
 10
87.1400361505695
 20
47.86494652402931
 30
0.0
 10
87.16791921419312
 20
47.86625492443132
 30
0.0
 10
87.20894079515315
 20
47.87624449005639
 30
0.0
 10
87.24846603752516
 20
47.89267475150615
 30
0.0
 10
87.28581490372922
 20
47.91567992189942
 30
0.0
 10
87.32044697174454
 20
47.94367075556723
 30
0.0
 10
87.35122639070109
 20
47.97637630283369
 30
0.0
 10
87.37687926149314
 20
48.01387679032251
 30
0.0
 10
87.39453773572889
 20
48.04861365150722
 30
0.0
 10
87.40630636619457
 20
48.07945665326221
 30
0.0
 10
87.41455830955952
 20
48.10579902724432
 30
0.0
 10
87.4211547668635
 20
48.13531620555147
 30
0.0
 10
87.42753552758714
 20
48.16765384088833
 30
0.0
 10
87.43288475245525
 20
48.2029483170833
 30
0.0
 10
87.43736493794452
 20
48.24123143223335
 30
0.0
 10
87.44094415878855
 20
48.28251858792745
 30
0.0
 10
87.4425434161229
 20
48.31110045873592
 30
0.0
 10
87.44336753899466
 20
48.32582915370275
 30
0.0
  0
SPLINE
  5
95
330
1F
100
AcDbEntity
  8
0
  6
Continuous
 62
     7
370
    25
100
AcDbSpline
210
0.0
220
0.0
230
1.0
 70
     8
 71
     3
 72
    23
 73
    19
 74
     0
 42
0.000000001
 43
0.00000001
 40
0.0
 40
0.0
 40
0.0
 40
0.0
 40
0.0760618905628339
 40
0.1487324608035361
 40
0.2183745247439722
 40
0.2857225935927383
 40
0.3510576941824569
 40
0.414934915729319
 40
0.4784859417740854
 40
0.542169035281216
 40
0.6047501165431387
 40
0.6641185017301124
 40
0.7214996756099116
 40
0.7776159163852548
 40
0.8326661086975489
 40
0.8878580281135741
 40
0.9434676608977686
 40
1.0
 40
1.0
 40
1.0
 40
1.0
 10
86.80875215437928
 20
48.24620174985659
 30
0.0
 10
86.80901568448854
 20
48.2321643444208
 30
0.0
 10
86.80953099486743
 20
48.2047154098977
 30
0.0
 10
86.81428372389045
 20
48.164665982034
 30
0.0
 10
86.82117532901633
 20
48.1265533049191
 30
0.0
 10
86.83195513937837
 20
48.09076631830744
 30
0.0
 10
86.84488730270274
 20
48.05681804913091
 30
0.0
 10
86.86181787797545
 20
48.02546632083685
 30
0.0
 10
86.88093822561122
 20
47.99578943134774
 30
0.0
 10
86.90317886732718
 20
47.96865677637344
 30
0.0
 10
86.92721859365189
 20
47.94419536120257
 30
0.0
 10
86.95272260091402
 20
47.92305799584977
 30
0.0
 10
86.97890009891694
 20
47.90475061998624
 30
0.0
 10
87.00636175577559
 20
47.89003454500522
 30
0.0
 10
87.0348381947125
 20
47.87839343898843
 30
0.0
 10
87.06443600329082
 20
47.87047344360551
 30
0.0
 10
87.09490594944269
 20
47.86496528501278
 30
0.0
 10
87.1156184067721
 20
47.86451678653184
 30
0.0
 10
87.12605984668696
 20
47.86429069216428
 30
0.0
  0
SPLINE
  5
96
330
1F
100
AcDbEntity
  8
0
  6
Continuous
 62
     7
370
    25
100
AcDbSpline
210
0.0
220
0.0
230
1.0
 70
     8
 71
     3
 72
    15
 73
    11
 74
     0
 42
0.000000001
 43
0.00000001
 40
0.0
 40
0.0
 40
0.0
 40
0.0
 40
0.1182713048357256
 40
0.2361775330837632
 40
0.355662932948509
 40
0.4759041646706825
 40
0.6001273417110832
 40
0.7286081161551193
 40
0.8613134756739422
 40
1.0
 40
1.0
 40
1.0
 40
1.0
 10
86.88988196207158
 20
48.49680271139506
 30
0.0
 10
86.88340696183494
 20
48.48840417859856
 30
0.0
 10
86.87047694821301
 20
48.47163303736397
 30
0.0
 10
86.85397625026826
 20
48.44430379546464
 30
0.0
 10
86.83967866798194
 20
48.4155617014279
 30
0.0
 10
86.82875708410353
 20
48.38478398390465
 30
0.0
 10
86.81950951519387
 20
48.35263479656721
 30
0.0
 10
86.81345786413709
 20
48.31859449718214
 30
0.0
 10
86.8093057907043
 20
48.28296340413424
 30
0.0
 10
86.80893939149327
 20
48.25863436264151
 30
0.0
 10
86.80875215437928
 20
48.24620174985659
 30
0.0
  0
SPLINE
  5
97
330
1F
100
AcDbEntity
  8
0
  6
Continuous
 62
     7
370
    25
100
AcDbSpline
210
0.0
220
0.0
230
1.0
 70
     8
 71
     3
 72
    15
 73
    11
 74
     0
 42
0.000000001
 43
0.00000001
 40
0.0
 40
0.0
 40
0.0
 40
0.0
 40
0.1497703860319679
 40
0.2913164099952444
 40
0.4259663731047425
 40
0.5521595739695284
 40
0.6715274135235927
 40
0.7861216286916589
 40
0.8953250730704446
 40
1.0
 40
1.0
 40
1.0
 40
1.0
 10
87.09721369284082
 20
48.61429069216428
 30
0.0
 10
87.08566411572569
 20
48.61078356726131
 30
0.0
 10
87.0631991850322
 20
48.60396190469363
 30
0.0
 10
87.03086762545726
 20
48.59235006267858
 30
0.0
 10
87.0012284597895
 20
48.57912080321982
 30
0.0
 10
86.97406426465606
 20
48.56492884951865
 30
0.0
 10
86.94910752074284
 20
48.55002380122319
 30
0.0
 10
86.92701814829967
 20
48.53334597616473
 30
0.0
 10
86.9068259187812
 20
48.51613062824446
 30
0.0
 10
86.8954496565211
 20
48.50315376252246
 30
0.0
 10
86.88988196207158
 20
48.49680271139506
 30
0.0
  0
LINE
  5
98
330
1F
100
AcDbEntity
  8
0
  6
Continuous
 62
     7
370
    25
100
AcDbLine
 10
87.0972136928
 20
48.7489060768
 30
0.0
 11
87.0972136928
 21
48.6142906922
 31
0.0
  0
SPLINE
  5
99
330
1F
100
AcDbEntity
  8
0
  6
Continuous
 62
     7
370
    25
100
AcDbSpline
210
0.0
220
0.0
230
1.0
 70
     8
 71
     3
 72
    23
 73
    19
 74
     0
 42
0.000000001
 43
0.00000001
 40
0.0
 40
0.0
 40
0.0
 40
0.0
 40
0.0655411703374033
 40
0.1289631677825933
 40
0.1903771361885609
 40
0.2500923616690527
 40
0.308548432459201
 40
0.3663979630552958
 40
0.42454218926668
 40
0.4831699964229055
 40
0.5422433998311199
 40
0.6017393520173299
 40
0.6625060022496068
 40
0.7248555134488469
 40
0.7891278292811811
 40
0.8563463998785099
 40
0.9262952349869055
 40
1.0
 40
1.0
 40
1.0
 40
1.0
 10
86.65490600053312
 20
48.24860559601044
 30
0.0
 10
86.65527809192962
 20
48.26464243898891
 30
0.0
 10
86.65601024371986
 20
48.29619759830467
 30
0.0
 10
86.66101535851838
 20
48.34258766904167
 30
0.0
 10
86.6701567893346
 20
48.38686839734074
 30
0.0
 10
86.68245820592006
 20
48.42909965356503
 30
0.0
 10
86.6980546668117
 20
48.46931895487656
 30
0.0
 10
86.7174769659637
 20
48.50740357138129
 30
0.0
 10
86.74032475255734
 20
48.54358781146134
 30
0.0
 10
86.76686771876015
 20
48.57753021909473
 30
0.0
 10
86.79655972151305
 20
48.60922674811168
 30
0.0
 10
86.82992786864206
 20
48.63783505849602
 30
0.0
 10
86.86635532746537
 20
48.66383211261406
 30
0.0
 10
86.9062652086934
 20
48.68652181491899
 30
0.0
 10
86.94914174752671
 20
48.70693765175436
 30
0.0
 10
86.99553396111885
 20
48.72372949031749
 30
0.0
 10
87.04502711339985
 20
48.73850901973304
 30
0.0
 10
87.0795175734752
 20
48.74538050440993
 30
0.0
 10
87.09721369284082
 20
48.74890607677967
 30
0.0
  0
SPLINE
  5
9A
330
1F
100
AcDbEntity
  8
0
  6
Continuous
 62
     7
370
    25
100
AcDbSpline
210
0.0
220
0.0
230
1.0
 70
     8
 71
     3
 72
    19
 73
    15
 74
     0
 42
0.000000001
 43
0.00000001
 40
0.0
 40
0.0
 40
0.0
 40
0.0
 40
0.079641704194991
 40
0.158908613257856
 40
0.2395997983184508
 40
0.3224093988203483
 40
0.405827748173513
 40
0.4876442139503136
 40
0.5697199979738973
 40
0.6530646649976933
 40
0.7374573001733064
 40
0.8224924079539123
 40
0.9097550737466982
 40
1.0
 40
1.0
 40
1.0
 40
1.0
 10
87.13898051976389
 20
47.7296753075489
 30
0.0
 10
87.11797718876058
 20
47.73044607826041
 30
0.0
 10
87.07606936876513
 20
47.73198399242415
 30
0.0
 10
87.01413910272247
 20
47.7456746221272
 30
0.0
 10
86.95370592866021
 20
47.76702122642742
 30
0.0
 10
86.89566526973522
 20
47.79680517012785
 30
0.0
 10
86.84147387937558
 20
47.83365573251749
 30
0.0
 10
86.79320729533904
 20
47.87773987805689
 30
0.0
 10
86.7514391890917
 20
47.92798592819948
 30
0.0
 10
86.71665348283516
 20
47.98406503257032
 30
0.0
 10
86.68882641875783
 20
48.04479561171862
 30
0.0
 10
86.66951747311386
 20
48.10975803083832
 30
0.0
 10
86.65694023828613
 20
48.17800765867482
 30
0.0
 10
86.65559163231417
 20
48.22481084073063
 30
0.0
 10
86.65490600053312
 20
48.24860559601044
 30
0.0
  0
SPLINE
  5
9B
330
1F
100
AcDbEntity
  8
0
  6
Continuous
 62
     7
370
    25
100
AcDbSpline
210
0.0
220
0.0
230
1.0
 70
     8
 71
     3
 72
    15
 73
    11
 74
     0
 42
0.000000001
 43
0.00000001
 40
0.0
 40
0.0
 40
0.0
 40
0.0
 40
0.1281455049994643
 40
0.2541925386280419
 40
0.3781411397135888
 40
0.5013808330744057
 40
0.6239569784447038
 40
0.7470758858273289
 40
0.8728647202442611
 40
1.0
 40
1.0
 40
1.0
 40
1.0
 10
87.40550696207158
 20
47.81921857677966
 30
0.0
 10
87.39562612164659
 20
47.81199792059211
 30
0.0
 10
87.37602624639992
 20
47.79767485146157
 30
0.0
 10
87.34449524983432
 20
47.78004540279765
 30
0.0
 10
87.31271915059882
 20
47.76386919537656
 30
0.0
 10
87.279448553455
 20
47.75196397496645
 30
0.0
 10
87.24575216883447
 20
47.74169024152839
 30
0.0
 10
87.21090842246856
 20
47.73493046701605
 30
0.0
 10
87.17524835944099
 20
47.73059096217036
 30
0.0
 10
87.15111262863199
 20
47.72998160705976
 30
0.0
 10
87.13898051976389
 20
47.7296753075489
 30
0.0
  0
SPLINE
  5
9C
330
1F
100
AcDbEntity
  8
0
  6
Continuous
 62
     7
370
    25
100
AcDbSpline
210
0.0
220
0.0
230
1.0
 70
     8
 71
     3
 72
    11
 73
     7
 74
     0
 42
0.000000001
 43
0.00000001
 40
0.0
 40
0.0
 40
0.0
 40
0.0
 40
0.253879600326656
 40
0.5030089172783633
 40
0.7502910806899731
 40
1.0
 40
1.0
 40
1.0
 40
1.0
 10
87.53351176976389
 20
47.98177867293351
 30
0.0
 10
87.52580683910325
 20
47.9658222066878
 30
0.0
 10
87.5105411429846
 20
47.93420783200185
 30
0.0
 10
87.4806029611915
 20
47.89111474791632
 30
0.0
 10
87.4460359551827
 20
47.85199565847762
 30
0.0
 10
87.41906053250544
 20
47.83017977890457
 30
0.0
 10
87.40550696207158
 20
47.81921857677966
 30
0.0
  0
SPLINE
  5
9D
330
1F
100
AcDbEntity
  8
0
  6
Continuous
 62
     7
370
    25
100
AcDbSpline
210
0.0
220
0.0
230
1.0
 70
     8
 71
     3
 72
    15
 73
    11
 74
     0
 42
0.000000001
 43
0.00000001
 40
0.0
 40
0.0
 40
0.0
 40
0.0
 40
0.1280675485958904
 40
0.2506083188676684
 40
0.3706301659145029
 40
0.4900722467299488
 40
0.6103747641546199
 40
0.7343130699115256
 40
0.8632165042449895
 40
1.0
 40
1.0
 40
1.0
 40
1.0
 10
87.84210551976389
 20
47.80659838447198
 30
0.0
 10
87.82624546489006
 20
47.80709706634929
 30
0.0
 10
87.7952097986916
 20
47.80807290939691
 30
0.0
 10
87.74990058563237
 20
47.81635878320934
 30
0.0
 10
87.70719704265429
 20
47.83030289587057
 30
0.0
 10
87.66691940174424
 20
47.84961850840395
 30
0.0
 10
87.62932304182004
 20
47.87462202993549
 30
0.0
 10
87.59432337430839
 20
47.90491032860278
 30
0.0
 10
87.561765163682
 20
47.94069718364942
 30
0.0
 10
87.54311396097822
 20
47.96781672851654
 30
0.0
 10
87.53351176976389
 20
47.98177867293351
 30
0.0
  0
SPLINE
  5
9E
330
1F
100
AcDbEntity
  8
0
  6
Continuous
 62
     7
370
    25
100
AcDbSpline
210
0.0
220
0.0
230
1.0
 70
     8
 71
     3
 72
    19
 73
    15
 74
     0
 42
0.000000001
 43
0.00000001
 40
0.0
 40
0.0
 40
0.0
 40
0.0
 40
0.0902542493426766
 40
0.1785397915286845
 40
0.2660930338538198
 40
0.3546309779571733
 40
0.4418861533505626
 40
0.5257469151636484
 40
0.6081136336036366
 40
0.6901972728278825
 40
0.770821484330335
 40
0.8483261812554109
 40
0.9240117400247433
 40
1.0
 40
1.0
 40
1.0
 40
1.0
 10
88.2318290774562
 20
48.24469934601044
 30
0.0
 10
88.23123797877979
 20
48.22512102797826
 30
0.0
 10
88.23006867500487
 20
48.18639145185963
 30
0.0
 10
88.21939105937098
 20
48.12949300316656
 30
0.0
 10
88.20249457407633
 20
48.07462436640851
 30
0.0
 10
88.1791486910176
 20
48.02238611734437
 30
0.0
 10
88.15035412823386
 20
47.97386393194597
 30
0.0
 10
88.11608352670753
 20
47.93069128048292
 30
0.0
 10
88.07699811178438
 20
47.89345334728123
 30
0.0
 10
88.0338270127907
 20
47.8622128997126
 30
0.0
 10
87.98768893733916
 20
47.83775218583245
 30
0.0
 10
87.9402031557046
 20
47.81971516862686
 30
0.0
 10
87.89148231082363
 20
47.80873444819886
 30
0.0
 10
87.85858633403427
 20
47.80731135242305
 30
0.0
 10
87.84210551976389
 20
47.80659838447198
 30
0.0
  0
SPLINE
  5
9F
330
1F
100
AcDbEntity
  8
0
  6
Continuous
 62
     7
370
    25
100
AcDbSpline
210
0.0
220
0.0
230
1.0
 70
     8
 71
     3
 72
    23
 73
    19
 74
     0
 42
0.000000001
 43
0.00000001
 40
0.0
 40
0.0
 40
0.0
 40
0.0
 40
0.0726253460834355
 40
0.1419766113262345
 40
0.2089849284189386
 40
0.2739568703644447
 40
0.336889347396841
 40
0.3987449534945902
 40
0.4601158852788617
 40
0.5208249225900291
 40
0.5809944586324857
 40
0.6401519276014648
 40
0.6986224507562546
 40
0.7572710809271643
 40
0.8164266940046602
 40
0.8762540482034705
 40
0.9371652930625374
 40
1.0
 40
1.0
 40
1.0
 40
1.0
 10
87.84721369284082
 20
48.69121376908736
 30
0.0
 10
87.86231332883027
 20
48.6875668187955
 30
0.0
 10
87.89183188214055
 20
48.68043732927103
 30
0.0
 10
87.93400642250369
 20
48.6655669406415
 30
0.0
 10
87.9739165030997
 20
48.64936725984381
 30
0.0
 10
88.01081482039773
 20
48.62991478645891
 30
0.0
 10
88.04544292156888
 20
48.60869674893343
 30
0.0
 10
88.0770154034838
 20
48.58438701113234
 30
0.0
 10
88.10633524582684
 20
48.55810713003267
 30
0.0
 10
88.13235520477994
 20
48.52903929461762
 30
0.0
 10
88.15591708872567
 20
48.49855558248585
 30
0.0
 10
88.17600639901525
 20
48.46622645973554
 30
0.0
 10
88.19328817881431
 20
48.43270236244813
 30
0.0
 10
88.20752542104663
 20
48.39775101975588
 30
0.0
 10
88.21825064547495
 20
48.36126837474502
 30
0.0
 10
88.22603213358528
 20
48.32358425046467
 30
0.0
 10
88.23108546824862
 20
48.28459989327268
 30
0.0
 10
88.23157865242848
 20
48.25813664015914
 30
0.0
 10
88.2318290774562
 20
48.24469934601044
 30
0.0
  0
LINE
  5
A0
330
1F
100
AcDbEntity
  8
0
  6
Continuous
 62
     7
370
    25
100
AcDbLine
 10
87.8472136928
 20
48.5565983845
 30
0.0
 11
87.8472136928
 21
48.6912137691
 31
0.0
  0
LINE
  5
A1
330
1F
100
AcDbEntity
  8
0
  6
Continuous
 62
     7
370
    25
100
AcDbLine
 10
88.2318290775
 20
46.269197784
 30
0.0
 11
88.150398789
 21
46.1655319186
 31
0.0
  0
LINE
  5
A2
330
1F
100
AcDbEntity
  8
0
  6
Continuous
 62
     7
370
    25
100
AcDbLine
 10
87.5473338851
 20
46.7169141301
 30
0.0
 11
88.2318290775
 21
46.269197784
 31
0.0
  0
SPLINE
  5
A3
330
1F
100
AcDbEntity
  8
0
  6
Continuous
 62
     7
370
    25
100
AcDbSpline
210
0.0
220
0.0
230
1.0
 70
     8
 71
     3
 72
    19
 73
    15
 74
     0
 42
0.000000001
 43
0.00000001
 40
0.0
 40
0.0
 40
0.0
 40
0.0
 40
0.0978059775289525
 40
0.1996122522918967
 40
0.3052960258330042
 40
0.4158173591641855
 40
0.4742405666184931
 40
0.5372869128296535
 40
0.6033858352934857
 40
0.6743111580696057
 40
0.7495304673574823
 40
0.828608314269512
 40
0.9120427387714449
 40
1.0
 40
1.0
 40
1.0
 40
1.0
 10
87.11163676976389
 20
46.8845823993689
 30
0.0
 10
87.12707882372722
 20
46.8840387786684
 30
0.0
 10
87.15859451683218
 20
46.8829293029987
 30
0.0
 10
87.20646399089458
 20
46.87630808002571
 30
0.0
 10
87.25525280407686
 20
46.86416394812667
 30
0.0
 10
87.2966123697229
 20
46.85102134315712
 30
0.0
 10
87.3308655835281
 20
46.83797991171209
 30
0.0
 10
87.35791444163516
 20
46.82588759639537
 30
0.0
 10
87.38647890431244
 20
46.81236691445589
 30
0.0
 10
87.41601850381802
 20
46.79651879233667
 30
0.0
 10
87.44737725049094
 20
46.77971850393698
 30
0.0
 10
87.47939383420764
 20
46.76009386058863
 30
0.0
 10
87.51323759946726
 20
46.73961524370829
 30
0.0
 10
87.53577025266897
 20
46.72461313103974
 30
0.0
 10
87.5473338851485
 20
46.71691413013813
 30
0.0
  0
SPLINE
  5
A4
330
1F
100
AcDbEntity
  8
0
  6
Continuous
 62
     7
370
    25
100
AcDbSpline
210
0.0
220
0.0
230
1.0
 70
     8
 71
     3
 72
    19
 73
    15
 74
     0
 42
0.000000001
 43
0.00000001
 40
0.0
 40
0.0
 40
0.0
 40
0.0
 40
0.0843261511037431
 40
0.1670353409858404
 40
0.2495407139852791
 40
0.3327066655796642
 40
0.4158726171740491
 40
0.4977774155681173
 40
0.5803136056784763
 40
0.6645325781316562
 40
0.7495711764063213
 40
0.8324741628544072
 40
0.9156738488962566
 40
0.9999999999999999
 40
0.9999999999999999
 40
0.9999999999999999
 40
0.9999999999999999
 10
86.65490600053312
 20
46.43025547629198
 30
0.0
 10
86.65556094419827
 20
46.45043978046371
 30
0.0
 10
86.6568582729273
 20
46.49042135303353
 30
0.0
 10
86.66841512763014
 20
46.54923535078188
 30
0.0
 10
86.6871466515443
 20
46.60574828800021
 30
0.0
 10
86.71295311559183
 20
46.65956292570564
 30
0.0
 10
86.74554806902333
 20
46.70941763468749
 30
0.0
 10
86.78479377241148
 20
46.75400606811105
 30
0.0
 10
86.82982285066088
 20
46.79317309345259
 30
0.0
 10
86.88077343650205
 20
46.82559646079252
 30
0.0
 10
86.93517057773988
 20
46.85202159317641
 30
0.0
 10
86.99240818648451
 20
46.87065962117334
 30
0.0
 10
87.05133433314698
 20
46.88271288252872
 30
0.0
 10
87.09144605212283
 20
46.88395643980967
 30
0.0
 10
87.11163676976389
 20
46.8845823993689
 30
0.0
  0
SPLINE
  5
A5
330
1F
100
AcDbEntity
  8
0
  6
Continuous
 62
     7
370
    25
100
AcDbSpline
210
0.0
220
0.0
230
1.0
 70
     8
 71
     3
 72
    19
 73
    15
 74
     0
 42
0.000000001
 43
0.00000001
 40
0.0
 40
0.0
 40
0.0
 40
0.0
 40
0.0859901205637197
 40
0.1691084375726415
 40
0.2505285789581879
 40
0.332255696176845
 40
0.4135763652356401
 40
0.4941261456201216
 40
0.5763059341204168
 40
0.660712671904547
 40
0.7461272722239101
 40
0.830014985960974
 40
0.9144197259288509
 40
1.0
 40
1.0
 40
1.0
 40
1.0
 10
87.11434109668696
 20
45.96150547629197
 30
0.0
 10
87.09336227340086
 20
45.96228827429511
 30
0.0
 10
87.05210525451577
 20
45.96382772727387
 30
0.0
 10
86.99176350537402
 20
45.97503429110714
 30
0.0
 10
86.93473861015318
 20
45.9943743164033
 30
0.0
 10
86.88080647043019
 20
46.02024895108366
 30
0.0
 10
86.83153624496448
 20
46.05381925503633
 30
0.0
 10
86.78700917293418
 20
46.09360191089182
 30
0.0
 10
86.74819728853278
 20
46.13997297596629
 30
0.0
 10
86.71490218967502
 20
46.19183437320245
 30
0.0
 10
86.68844927555733
 20
46.24796451099947
 30
0.0
 10
86.66889209621627
 20
46.30681879652533
 30
0.0
 10
86.65720618453638
 20
46.36789417510703
 30
0.0
 10
86.65567625528433
 20
46.40937276062153
 30
0.0
 10
86.65490600053312
 20
46.43025547629198
 30
0.0
  0
SPLINE
  5
A6
330
1F
100
AcDbEntity
  8
0
  6
Continuous
 62
     7
370
    25
100
AcDbSpline
210
0.0
220
0.0
230
1.0
 70
     8
 71
     3
 72
    23
 73
    19
 74
     0
 42
0.000000001
 43
0.00000001
 40
0.0
 40
0.0
 40
0.0
 40
0.0
 40
0.0652308037420297
 40
0.128404896003223
 40
0.1900670715964782
 40
0.2509433657682801
 40
0.3115458328521434
 40
0.3728628021568294
 40
0.4350236738562386
 40
0.4990717247070431
 40
0.5630910750496624
 40
0.6255101063303751
 40
0.6866800359296492
 40
0.7472825030135124
 40
0.8085634952159588
 40
0.8707421035159856
 40
0.9343409515059125
 40
1.0
 40
1.0
 40
1.0
 40
1.0
 10
87.55875215437928
 20
46.40651749552274
 30
0.0
 10
87.55834239222395
 20
46.39127213995053
 30
0.0
 10
87.55753578761504
 20
46.36126211118369
 30
0.0
 10
87.55132842303281
 20
46.31720205310913
 30
0.0
 10
87.5415462322084
 20
46.27486393769205
 30
0.0
 10
87.52728669394489
 20
46.23442324672545
 30
0.0
 10
87.5090713992182
 20
46.19573482592849
 30
0.0
 10
87.48724045481227
 20
46.15857665616769
 30
0.0
 10
87.46066659180222
 20
46.12364722326502
 30
0.0
 10
87.430981610752
 20
46.09049671788849
 30
0.0
 10
87.39810290311124
 20
46.06039939043438
 30
0.0
 10
87.36321661595149
 20
46.03375250948115
 30
0.0
 10
87.3263590955237
 20
46.01136959873796
 30
0.0
 10
87.2875490101237
 20
45.99320934661742
 30
0.0
 10
87.24684618459774
 20
45.97910725578976
 30
0.0
 10
87.20430269624558
 20
45.96882683648536
 30
0.0
 10
87.15988920847695
 20
45.96274986813399
 30
0.0
 10
87.12968427622002
 20
45.96192465782752
 30
0.0
 10
87.11434109668696
 20
45.96150547629197
 30
0.0
  0
SPLINE
  5
A7
330
1F
100
AcDbEntity
  8
0
  6
Continuous
 62
     7
370
    25
100
AcDbSpline
210
0.0
220
0.0
230
1.0
 70
     8
 71
     3
 72
     9
 73
     5
 74
     0
 42
0.000000001
 43
0.00000001
 40
0.0
 40
0.0
 40
0.0
 40
0.0
 40
0.5126593363417812
 40
1.0
 40
1.0
 40
1.0
 40
1.0
 10
87.5443290774562
 20
46.56186605321505
 30
0.0
 10
87.54853501773631
 20
46.53547879165076
 30
0.0
 10
87.55673917980255
 20
46.48400745446109
 30
0.0
 10
87.55809258499472
 20
46.43190778366492
 30
0.0
 10
87.55875215437928
 20
46.40651749552274
 30
0.0
  0
LINE
  5
A8
330
1F
100
AcDbEntity
  8
0
  6
Continuous
 62
     7
370
    25
100
AcDbLine
 10
88.150398789
 20
46.1655319186
 30
0.0
 11
87.5443290775
 21
46.5618660532
 31
0.0
  0
LINE
  5
A9
330
1F
100
AcDbEntity
  8
0
  6
Continuous
 62
     7
370
    25
100
AcDbLine
 10
88.193367539
 20
47.4989308394
 30
0.0
 11
88.193367539
 21
47.2215870894
 31
0.0
  0
LINE
  5
AA
330
1F
100
AcDbEntity
  8
0
  6
Continuous
 62
     7
370
    25
100
AcDbLine
 10
88.0395213851
 20
47.5869717048
 30
0.0
 11
88.193367539
 21
47.4989308394
 31
0.0
  0
LINE
  5
AB
330
1F
100
AcDbEntity
  8
0
  6
Continuous
 62
     7
370
    25
100
AcDbLine
 10
88.0395213851
 20
47.3562024741
 30
0.0
 11
88.0395213851
 21
47.5869717048
 31
0.0
  0
LINE
  5
AC
330
1F
100
AcDbEntity
  8
0
  6
Continuous
 62
     7
370
    25
100
AcDbLine
 10
86.693367539
 20
47.3562024741
 30
0.0
 11
88.0395213851
 21
47.3562024741
 31
0.0
  0
LINE
  5
AD
330
1F
100
AcDbEntity
  8
0
  6
Continuous
 62
     7
370
    25
100
AcDbLine
 10
86.693367539
 20
47.2215870894
 30
0.0
 11
86.693367539
 21
47.3562024741
 31
0.0
  0
LINE
  5
AE
330
1F
100
AcDbEntity
  8
0
  6
Continuous
 62
     7
370
    25
100
AcDbLine
 10
88.193367539
 20
47.2215870894
 30
0.0
 11
86.693367539
 21
47.2215870894
 31
0.0
  0
LINE
  5
AF
330
1F
100
AcDbEntity
  8
0
  6
Continuous
 62
     7
370
    25
100
AcDbLine
 10
87.5737522967
 20
53.6574513456
 30
0.0
 11
89.5108871667
 21
53.6574513456
 31
0.0
  0
SPLINE
  5
B0
330
1F
100
AcDbEntity
  8
0
  6
Continuous
 62
     7
370
    25
100
AcDbSpline
210
0.0
220
0.0
230
1.0
 70
     8
 71
     3
 72
    12
 73
     8
 74
     0
 42
0.000000001
 43
0.00000001
 40
0.0
 40
0.0
 40
0.0
 40
0.0
 40
0.2499999999999999
 40
0.2499999999999999
 40
0.4999999999999999
 40
0.4999999999999999
 40
1.0
 40
1.0
 40
1.0
 40
1.0
 10
90.49336753899466
 20
47.30659838447198
 30
0.0
 10
90.49336753899466
 20
47.84413200737691
 30
0.0
 10
90.4704233444367
 20
48.38449875120845
 30
0.0
 10
90.37956664356355
 20
49.4655905360256
 30
0.0
 10
90.3122980311336
 20
50.00040865476763
 30
0.0
 10
90.05417838529124
 20
51.59009428936439
 30
0.0
 10
89.80740169769098
 20
52.63029488000371
 30
0.0
 10
89.51088716674721
 20
53.65745134555786
 30
0.0
  0
SPLINE
  5
B1
330
1F
100
AcDbEntity
  8
0
  6
Continuous
 62
     7
370
    25
100
AcDbSpline
210
0.0
220
0.0
230
1.0
 70
     8
 71
     3
 72
    10
 73
     6
 74
     0
 42
0.000000001
 43
0.00000001
 40
0.0
 40
0.0
 40
0.0
 40
0.0
 40
0.5
 40
0.5
 40
1.0
 40
1.0
 40
1.0
 40
1.0
 10
89.51088716674724
 20
40.95574542338608
 30
0.0
 10
89.8093697250708
 20
41.98971933576515
 30
0.0
 10
90.0592306384452
 20
43.0471213750253
 30
0.0
 10
90.40095342095577
 20
45.16604843520174
 30
0.0
 10
90.49336753899466
 20
46.23231580699383
 30
0.0
 10
90.49336753899466
 20
47.30659838447198
 30
0.0
  0
LINE
  5
B2
330
1F
100
AcDbEntity
  8
0
  6
Continuous
 62
     7
370
    25
100
AcDbLine
 10
87.5737522967
 20
40.9557454234
 30
0.0
 11
89.5108871667
 21
40.9557454234
 31
0.0
  0
SPLINE
  5
B3
330
1F
100
AcDbEntity
  8
0
  6
Continuous
 62
     7
370
    25
100
AcDbSpline
210
0.0
220
0.0
230
1.0
 70
     8
 71
     3
 72
     8
 73
     4
 74
     0
 42
0.000000001
 43
0.00000001
 40
0.0
 40
0.0
 40
0.0
 40
0.0
 40
1.0
 40
1.0
 40
1.0
 40
1.0
 10
87.49336753899466
 20
41.5792683101677
 30
0.0
 10
87.46762704842503
 20
41.37125382270049
 30
0.0
 10
87.44080552877563
 20
41.16341723801533
 30
0.0
 10
87.41298278126533
 20
40.95574542338609
 30
0.0
  0
LINE
  5
B4
330
1F
100
AcDbEntity
  8
0
  6
Continuous
 62
     7
370
    25
100
AcDbLine
 10
85.4758479112
 20
40.9557454234
 30
0.0
 11
87.4129827813
 21
40.9557454234
 31
0.0
  0
SPLINE
  5
B5
330
1F
100
AcDbEntity
  8
0
  6
Continuous
 62
     7
370
    25
100
AcDbSpline
210
0.0
220
0.0
230
1.0
 70
     8
 71
     3
 72
    10
 73
     6
 74
     0
 42
0.000000001
 43
0.00000001
 40
0.0
 40
0.0
 40
0.0
 40
0.0
 40
0.5
 40
0.5
 40
1.0
 40
1.0
 40
1.0
 40
1.0
 10
85.47584791124207
 20
40.95574542338608
 30
0.0
 10
85.17736535291853
 20
41.98971933576515
 30
0.0
 10
84.92750443954411
 20
43.0471213750253
 30
0.0
 10
84.58578165703354
 20
45.16604843520174
 30
0.0
 10
84.49336753899466
 20
46.23231580699383
 30
0.0
 10
84.49336753899466
 20
47.30659838447198
 30
0.0
  0
SPLINE
  5
B6
330
1F
100
AcDbEntity
  8
0
  6
Continuous
 62
     7
370
    25
100
AcDbSpline
210
0.0
220
0.0
230
1.0
 70
     8
 71
     3
 72
    12
 73
     8
 74
     0
 42
0.000000001
 43
0.00000001
 40
0.0
 40
0.0
 40
0.0
 40
0.0
 40
0.2499999999999999
 40
0.2499999999999999
 40
0.4999999999999999
 40
0.4999999999999999
 40
1.0
 40
1.0
 40
1.0
 40
1.0
 10
84.49336753899466
 20
47.30659838447198
 30
0.0
 10
84.49336753899466
 20
47.84413200737691
 30
0.0
 10
84.51631173355263
 20
48.38449875120845
 30
0.0
 10
84.60716843442579
 20
49.4655905360256
 30
0.0
 10
84.67443704685573
 20
50.00040865476763
 30
0.0
 10
84.93255669269809
 20
51.59009428936439
 30
0.0
 10
85.17933338029833
 20
52.63029488000371
 30
0.0
 10
85.4758479112421
 20
53.65745134555786
 30
0.0
  0
LINE
  5
B7
330
1F
100
AcDbEntity
  8
0
  6
Continuous
 62
     7
370
    25
100
AcDbLine
 10
85.4758479112
 20
53.6574513456
 30
0.0
 11
87.4129827813
 21
53.6574513456
 31
0.0
  0
SPLINE
  5
B8
330
1F
100
AcDbEntity
  8
0
  6
Continuous
 62
     7
370
    25
100
AcDbSpline
210
0.0
220
0.0
230
1.0
 70
     8
 71
     3
 72
     8
 73
     4
 74
     0
 42
0.000000001
 43
0.00000001
 40
0.0
 40
0.0
 40
0.0
 40
0.0
 40
1.0
 40
1.0
 40
1.0
 40
1.0
 10
87.41298278126533
 20
53.65745134555786
 30
0.0
 10
87.44081583482122
 20
53.44970260555707
 30
0.0
 10
87.46763682259153
 20
53.24186395908406
 30
0.0
 10
87.49336753899466
 20
53.03392845877624
 30
0.0
  0
SPLINE
  5
B9
330
1F
100
AcDbEntity
  8
0
  6
Continuous
 62
     7
370
    25
100
AcDbSpline
210
0.0
220
0.0
230
1.0
 70
     8
 71
     3
 72
     8
 73
     4
 74
     0
 42
0.000000001
 43
0.00000001
 40
0.0
 40
0.0
 40
0.0
 40
0.0
 40
1.0
 40
1.0
 40
1.0
 40
1.0
 10
87.49336753899466
 20
53.03392845877625
 30
0.0
 10
87.51910802956428
 20
53.24194294624346
 30
0.0
 10
87.5459295492137
 20
53.44977953092862
 30
0.0
 10
87.573752296724
 20
53.65745134555785
 30
0.0
  0
SPLINE
  5
BA
330
1F
100
AcDbEntity
  8
0
  6
Continuous
 62
     7
370
    25
100
AcDbSpline
210
0.0
220
0.0
230
1.0
 70
     8
 71
     3
 72
    12
 73
     8
 74
     0
 42
0.000000001
 43
0.00000001
 40
0.0
 40
0.0
 40
0.0
 40
0.0
 40
0.25
 40
0.25
 40
0.5
 40
0.5
 40
1.0
 40
1.0
 40
1.0
 40
1.0
 10
90.49336753899468
 20
37.78031894284315
 30
0.0
 10
90.49336753899468
 20
38.04980683707019
 30
0.0
 10
90.4701453846675
 20
38.32050371823723
 30
0.0
 10
90.38027823480675
 20
38.85599854916953
 30
0.0
 10
90.31371964571906
 20
39.12195495252145
 30
0.0
 10
90.05701017159738
 20
39.91510055596314
 30
0.0
 10
89.81004749857497
 20
40.43758452905153
 30
0.0
 10
89.51088716674738
 20
40.95574542338611
 30
0.0
  0
SPLINE
  5
BB
330
1F
100
AcDbEntity
  8
0
  6
Continuous
 62
     7
370
    25
100
AcDbSpline
210
0.0
220
0.0
230
1.0
 70
     8
 71
     3
 72
    10
 73
     6
 74
     0
 42
0.000000001
 43
0.00000001
 40
0.0
 40
0.0
 40
0.0
 40
0.0
 40
0.5
 40
0.5
 40
1.0
 40
1.0
 40
1.0
 40
1.0
 10
89.51088716674752
 20
34.60489246230019
 30
0.0
 10
89.81079641836784
 20
35.1243505237665
 30
0.0
 10
90.05787707773378
 20
35.64760292596296
 30
0.0
 10
90.39973189176615
 20
36.70504693485835
 30
0.0
 10
90.49336753899468
 20
37.23932031328275
 30
0.0
 10
90.49336753899468
 20
37.78031894284315
 30
0.0
  0
LINE
  5
BC
330
1F
100
AcDbEntity
  8
0
  6
Continuous
 62
     7
370
    25
100
AcDbLine
 10
87.5737522967
 20
34.6048924623
 30
0.0
 11
89.5108871667
 21
34.6048924623
 31
0.0
  0
SPLINE
  5
BD
330
1F
100
AcDbEntity
  8
0
  6
Continuous
 62
     7
370
    25
100
AcDbSpline
210
0.0
220
0.0
230
1.0
 70
     8
 71
     3
 72
     8
 73
     4
 74
     0
 42
0.000000001
 43
0.00000001
 40
0.0
 40
0.0
 40
0.0
 40
0.0
 40
1.0
 40
1.0
 40
1.0
 40
1.0
 10
87.573752296724
 20
34.60489246230021
 30
0.0
 10
87.5459206236669
 20
34.70876168020897
 30
0.0
 10
87.51909956380084
 20
34.8126808687927
 30
0.0
 10
87.49336753899466
 20
34.91665390569101
 30
0.0
  0
SPLINE
  5
BE
330
1F
100
AcDbEntity
  8
0
  6
Continuous
 62
     7
370
    25
100
AcDbSpline
210
0.0
220
0.0
230
1.0
 70
     8
 71
     3
 72
     8
 73
     4
 74
     0
 42
0.000000001
 43
0.00000001
 40
0.0
 40
0.0
 40
0.0
 40
0.0
 40
1.0
 40
1.0
 40
1.0
 40
1.0
 10
87.49336753899466
 20
34.91665390569101
 30
0.0
 10
87.46762658916136
 20
34.81264480625266
 30
0.0
 10
87.44080504490044
 20
34.70872656376804
 30
0.0
 10
87.41298278126533
 20
34.60489246230021
 30
0.0
  0
LINE
  5
BF
330
1F
100
AcDbEntity
  8
0
  6
Continuous
 62
     7
370
    25
100
AcDbLine
 10
85.4758479112
 20
34.6048924623
 30
0.0
 11
87.4129827813
 21
34.6048924623
 31
0.0
  0
SPLINE
  5
C0
330
1F
100
AcDbEntity
  8
0
  6
Continuous
 62
     7
370
    25
100
AcDbSpline
210
0.0
220
0.0
230
1.0
 70
     8
 71
     3
 72
    10
 73
     6
 74
     0
 42
0.000000001
 43
0.00000001
 40
0.0
 40
0.0
 40
0.0
 40
0.0
 40
0.5
 40
0.5
 40
1.0
 40
1.0
 40
1.0
 40
1.0
 10
85.47584791124179
 20
34.60489246230019
 30
0.0
 10
85.1759386596215
 20
35.1243505237665
 30
0.0
 10
84.92885800025556
 20
35.64760292596296
 30
0.0
 10
84.58700318622317
 20
36.70504693485835
 30
0.0
 10
84.49336753899465
 20
37.23932031328275
 30
0.0
 10
84.49336753899465
 20
37.78031894284315
 30
0.0
  0
SPLINE
  5
C1
330
1F
100
AcDbEntity
  8
0
  6
Continuous
 62
     7
370
    25
100
AcDbSpline
210
0.0
220
0.0
230
1.0
 70
     8
 71
     3
 72
    12
 73
     8
 74
     0
 42
0.000000001
 43
0.00000001
 40
0.0
 40
0.0
 40
0.0
 40
0.0
 40
0.25
 40
0.25
 40
0.5
 40
0.5
 40
1.0
 40
1.0
 40
1.0
 40
1.0
 10
84.49336753899465
 20
37.78031894284315
 30
0.0
 10
84.49336753899465
 20
38.04980683707019
 30
0.0
 10
84.5165896933218
 20
38.32050371823723
 30
0.0
 10
84.60645684318257
 20
38.85599854916953
 30
0.0
 10
84.67301543227026
 20
39.12195495252145
 30
0.0
 10
84.92972490639194
 20
39.91510055596314
 30
0.0
 10
85.17668757941433
 20
40.43758452905153
 30
0.0
 10
85.47584791124196
 20
40.95574542338611
 30
0.0
  0
SPLINE
  5
C2
330
1F
100
AcDbEntity
  8
0
  6
Continuous
 62
     7
370
    25
100
AcDbSpline
210
0.0
220
0.0
230
1.0
 70
     8
 71
     3
 72
     8
 73
     4
 74
     0
 42
0.000000001
 43
0.00000001
 40
0.0
 40
0.0
 40
0.0
 40
0.0
 40
1.0
 40
1.0
 40
1.0
 40
1.0
 10
87.41298278126533
 20
40.95574542338609
 30
0.0
 10
87.44081445432244
 20
40.85187620547734
 30
0.0
 10
87.46763551418847
 20
40.7479570168936
 30
0.0
 10
87.49336753899466
 20
40.64398397999529
 30
0.0
  0
LINE
  5
C3
330
1F
100
AcDbEntity
  8
0
  6
Continuous
 62
     7
370
    25
100
AcDbLine
 10
87.5737522967
 20
60.0083043066
 30
0.0
 11
89.5108871667
 21
60.0083043066
 31
0.0
  0
SPLINE
  5
C4
330
1F
100
AcDbEntity
  8
0
  6
Continuous
 62
     7
370
    25
100
AcDbSpline
210
0.0
220
0.0
230
1.0
 70
     8
 71
     3
 72
    12
 73
     8
 74
     0
 42
0.000000001
 43
0.00000001
 40
0.0
 40
0.0
 40
0.0
 40
0.0
 40
0.2500000000000002
 40
0.2500000000000002
 40
0.5000000000000001
 40
0.5000000000000001
 40
1.0
 40
1.0
 40
1.0
 40
1.0
 10
90.49336753899466
 20
56.83287782610081
 30
0.0
 10
90.49336753899466
 20
57.10236572032784
 30
0.0
 10
90.4701453846675
 20
57.37306260149489
 30
0.0
 10
90.38027823480675
 20
57.90855743242717
 30
0.0
 10
90.31371964571906
 20
58.17451383577909
 30
0.0
 10
90.05701017159738
 20
58.96765943922079
 30
0.0
 10
89.81004749857497
 20
59.49014341230917
 30
0.0
 10
89.51088716674738
 20
60.00830430664375
 30
0.0
  0
SPLINE
  5
C5
330
1F
100
AcDbEntity
  8
0
  6
Continuous
 62
     7
370
    25
100
AcDbSpline
210
0.0
220
0.0
230
1.0
 70
     8
 71
     3
 72
    10
 73
     6
 74
     0
 42
0.000000001
 43
0.00000001
 40
0.0
 40
0.0
 40
0.0
 40
0.0
 40
0.5
 40
0.5
 40
1.0
 40
1.0
 40
1.0
 40
1.0
 10
89.51088716674752
 20
53.65745134555783
 30
0.0
 10
89.81079641836783
 20
54.17690940702416
 30
0.0
 10
90.05787707773376
 20
54.70016180922062
 30
0.0
 10
90.39973189176615
 20
55.75760581811599
 30
0.0
 10
90.49336753899466
 20
56.29187919654039
 30
0.0
 10
90.49336753899466
 20
56.83287782610081
 30
0.0
  0
SPLINE
  5
C6
330
1F
100
AcDbEntity
  8
0
  6
Continuous
 62
     7
370
    25
100
AcDbSpline
210
0.0
220
0.0
230
1.0
 70
     8
 71
     3
 72
     8
 73
     4
 74
     0
 42
0.000000001
 43
0.00000001
 40
0.0
 40
0.0
 40
0.0
 40
0.0
 40
1.0
 40
1.0
 40
1.0
 40
1.0
 10
87.573752296724
 20
53.65745134555786
 30
0.0
 10
87.5459206236669
 20
53.76132056346661
 30
0.0
 10
87.51909956380084
 20
53.86523975205035
 30
0.0
 10
87.49336753899466
 20
53.96921278894866
 30
0.0
  0
SPLINE
  5
C7
330
1F
100
AcDbEntity
  8
0
  6
Continuous
 62
     7
370
    25
100
AcDbSpline
210
0.0
220
0.0
230
1.0
 70
     8
 71
     3
 72
     8
 73
     4
 74
     0
 42
0.000000001
 43
0.00000001
 40
0.0
 40
0.0
 40
0.0
 40
0.0
 40
1.0
 40
1.0
 40
1.0
 40
1.0
 10
87.49336753899466
 20
53.96921278894866
 30
0.0
 10
87.46762658916136
 20
53.86520368951031
 30
0.0
 10
87.44080504490044
 20
53.76128544702568
 30
0.0
 10
87.41298278126533
 20
53.65745134555786
 30
0.0
  0
SPLINE
  5
C8
330
1F
100
AcDbEntity
  8
0
  6
Continuous
 62
     7
370
    25
100
AcDbSpline
210
0.0
220
0.0
230
1.0
 70
     8
 71
     3
 72
    10
 73
     6
 74
     0
 42
0.000000001
 43
0.00000001
 40
0.0
 40
0.0
 40
0.0
 40
0.0
 40
0.5
 40
0.5
 40
1.0
 40
1.0
 40
1.0
 40
1.0
 10
85.4758479112418
 20
53.65745134555783
 30
0.0
 10
85.1759386596215
 20
54.17690940702416
 30
0.0
 10
84.92885800025556
 20
54.70016180922062
 30
0.0
 10
84.58700318622317
 20
55.75760581811599
 30
0.0
 10
84.49336753899465
 20
56.29187919654039
 30
0.0
 10
84.49336753899465
 20
56.83287782610081
 30
0.0
  0
SPLINE
  5
C9
330
1F
100
AcDbEntity
  8
0
  6
Continuous
 62
     7
370
    25
100
AcDbSpline
210
0.0
220
0.0
230
1.0
 70
     8
 71
     3
 72
    12
 73
     8
 74
     0
 42
0.000000001
 43
0.00000001
 40
0.0
 40
0.0
 40
0.0
 40
0.0
 40
0.2500000000000002
 40
0.2500000000000002
 40
0.5000000000000001
 40
0.5000000000000001
 40
1.0
 40
1.0
 40
1.0
 40
1.0
 10
84.49336753899465
 20
56.83287782610081
 30
0.0
 10
84.49336753899465
 20
57.10236572032784
 30
0.0
 10
84.51658969332182
 20
57.37306260149489
 30
0.0
 10
84.60645684318257
 20
57.90855743242717
 30
0.0
 10
84.67301543227026
 20
58.17451383577909
 30
0.0
 10
84.92972490639194
 20
58.96765943922079
 30
0.0
 10
85.17668757941433
 20
59.49014341230917
 30
0.0
 10
85.47584791124196
 20
60.00830430664375
 30
0.0
  0
LINE
  5
CA
330
1F
100
AcDbEntity
  8
0
  6
Continuous
 62
     7
370
    25
100
AcDbLine
 10
85.4758479112
 20
60.0083043066
 30
0.0
 11
87.4129827813
 21
60.0083043066
 31
0.0
  0
SPLINE
  5
CB
330
1F
100
AcDbEntity
  8
0
  6
Continuous
 62
     7
370
    25
100
AcDbSpline
210
0.0
220
0.0
230
1.0
 70
     8
 71
     3
 72
     8
 73
     4
 74
     0
 42
0.000000001
 43
0.00000001
 40
0.0
 40
0.0
 40
0.0
 40
0.0
 40
1.0
 40
1.0
 40
1.0
 40
1.0
 10
87.41298278126533
 20
60.00830430664374
 30
0.0
 10
87.44081445432244
 20
59.90443508873499
 30
0.0
 10
87.46763551418847
 20
59.80051590015125
 30
0.0
 10
87.49336753899466
 20
59.69654286325293
 30
0.0
  0
SPLINE
  5
CC
330
1F
100
AcDbEntity
  8
0
  6
Continuous
 62
     7
370
    25
100
AcDbSpline
210
0.0
220
0.0
230
1.0
 70
     8
 71
     3
 72
     8
 73
     4
 74
     0
 42
0.000000001
 43
0.00000001
 40
0.0
 40
0.0
 40
0.0
 40
0.0
 40
1.0
 40
1.0
 40
1.0
 40
1.0
 10
87.49336753899466
 20
59.69654286325293
 30
0.0
 10
87.51910848882798
 20
59.80055196269129
 30
0.0
 10
87.5459300330889
 20
59.90447020517591
 30
0.0
 10
87.573752296724
 20
60.00830430664374
 30
0.0
  0
LINE
  5
CD
330
1F
100
AcDbEntity
  8
0
  6
Continuous
 62
     7
370
    25
100
AcDbLine
 10
90.493367539
 20
47.3065983845
 30
0.0
 11
90.493367539
 21
37.7803189428
 31
0.0
  0
LINE
  5
CE
330
1F
100
AcDbEntity
  8
0
  6
Continuous
 62
     7
370
    25
100
AcDbLine
 10
90.493367539
 20
56.8328778261
 30
0.0
 11
90.493367539
 21
47.3065983845
 31
0.0
  0
SPLINE
  5
CF
330
1F
100
AcDbEntity
  8
0
  6
Continuous
 62
     7
370
    25
100
AcDbSpline
210
0.0
220
0.0
230
1.0
 70
     8
 71
     3
 72
    23
 73
    19
 74
     0
 42
0.000000001
 43
0.00000001
 40
0.0
 40
0.0
 40
0.0
 40
0.0
 40
0.0611415679303346
 40
0.1200010135310724
 40
0.1782359705414084
 40
0.236495543407017
 40
0.294887248704973
 40
0.3546771928192958
 40
0.4166948132897785
 40
0.4806333779628396
 40
0.5458046334786409
 40
0.6097347883178745
 40
0.6729516883751544
 40
0.7360010960706833
 40
0.7998274385165253
 40
0.8647672769393869
 40
0.9310835057306723
 40
1.0
 40
1.0
 40
1.0
 40
1.0
 10
87.10622811591774
 20
46.09612086090736
 30
0.0
 10
87.11646982636789
 20
46.0963539519504
 30
0.0
 10
87.13657097319667
 20
46.09681143386257
 30
0.0
 10
87.16599158679972
 20
46.10208600891876
 30
0.0
 10
87.19451639553324
 20
46.10921020036057
 30
0.0
 10
87.22150283205802
 20
46.12072354669792
 30
0.0
 10
87.24769717988839
 20
46.13443688196157
 30
0.0
 10
87.27235078499946
 20
46.15190677025694
 30
0.0
 10
87.29616208844345
 20
46.17193642479492
 30
0.0
 10
87.31825450217359
 20
46.19513270825978
 30
0.0
 10
87.33846202183814
 20
46.22036818810933
 30
0.0
 10
87.35629854437386
 20
46.24720428186256
 30
0.0
 10
87.37135221901946
 20
46.2752789059166
 30
0.0
 10
87.38391237548814
 20
46.30456494045197
 30
0.0
 10
87.39297644404355
 20
46.33539758835286
 30
0.0
 10
87.40011354596247
 20
46.36727916670429
 30
0.0
 10
87.40391155417275
 20
46.40061741234975
 30
0.0
 10
87.4045702962978
 20
46.4232359589369
 30
0.0
 10
87.40490600053312
 20
46.43476268783044
 30
0.0
  0
SPLINE
  5
D0
330
1F
100
AcDbEntity
  8
0
  6
Continuous
 62
     7
370
    25
100
AcDbSpline
210
0.0
220
0.0
230
1.0
 70
     8
 71
     3
 72
    23
 73
    19
 74
     0
 42
0.000000001
 43
0.00000001
 40
0.0
 40
0.0
 40
0.0
 40
0.0
 40
0.0679503475997533
 40
0.1332598223836994
 40
0.1978002967596469
 40
0.2608458295516821
 40
0.3233192927503666
 40
0.3862817224595717
 40
0.4500615162333125
 40
0.5152075844858149
 40
0.5796407692199315
 40
0.6418172023841521
 40
0.7016924412115346
 40
0.7607690981778942
 40
0.8192540511346831
 40
0.8787376269055535
 40
0.938158297016091
 40
1.0
 40
1.0
 40
1.0
 40
1.0
 10
86.80875215437928
 20
46.42304393783044
 30
0.0
 10
86.8090817434204
 20
46.41191584880705
 30
0.0
 10
86.80972811210918
 20
46.39009216108346
 30
0.0
 10
86.81361976610741
 20
46.35787522299876
 30
0.0
 10
86.82050325721804
 20
46.32698355697904
 30
0.0
 10
86.83028509443824
 20
46.29739567813575
 30
0.0
 10
86.84220413627429
 20
46.26886506867498
 30
0.0
 10
86.85741249630209
 20
46.24179651445054
 30
0.0
 10
86.8751897478097
 20
46.21582457051944
 30
0.0
 10
86.8955283010279
 20
46.19151455781431
 30
0.0
 10
86.9173860744965
 20
46.16886287205096
 30
0.0
 10
86.94139467596506
 20
46.14991282098014
 30
0.0
 10
86.96570979831012
 20
46.13281053918484
 30
0.0
 10
86.99180822032399
 20
46.11985615854275
 30
0.0
 10
87.01874461980286
 20
46.1089959888881
 30
0.0
 10
87.0469295805468
 20
46.10169523932081
 30
0.0
 10
87.07621780036226
 20
46.09691567366284
 30
0.0
 10
87.09609241025359
 20
46.09638930154181
 30
0.0
 10
87.10622811591774
 20
46.09612086090736
 30
0.0
  0
SPLINE
  5
D1
330
1F
100
AcDbEntity
  8
0
  6
Continuous
 62
     7
370
    25
100
AcDbSpline
210
0.0
220
0.0
230
1.0
 70
     8
 71
     3
 72
    23
 73
    19
 74
     0
 42
0.000000001
 43
0.00000001
 40
0.0
 40
0.0
 40
0.0
 40
0.0
 40
0.0618526459466918
 40
0.12128383061537
 40
0.1807779320756124
 40
0.2392732340142805
 40
0.2986414352139417
 40
0.3581858222417117
 40
0.4207600867589708
 40
0.4852046730216432
 40
0.5503622689482868
 40
0.6136499245309119
 40
0.6766234955168248
 40
0.7391080134690123
 40
0.8021647022429443
 40
0.8667165971324775
 40
0.9320376285055445
 40
1.0
 40
1.0
 40
1.0
 40
1.0
 10
87.10622811591774
 20
46.74996701475352
 30
0.0
 10
87.09609279606083
 20
46.74969788244606
 30
0.0
 10
87.07621894268006
 20
46.74917015405721
 30
0.0
 10
87.04692521726655
 20
46.74440045880401
 30
0.0
 10
87.01876090701558
 20
46.73706268715075
 30
0.0
 10
86.99170541231467
 20
46.72632213372896
 30
0.0
 10
86.96590631665127
 20
46.7128503392713
 30
0.0
 10
86.94118036151103
 20
46.69627181073938
 30
0.0
 10
86.91751048047095
 20
46.67686726265135
 30
0.0
 10
86.89549354391995
 20
46.65430986050601
 30
0.0
 10
86.87529907468054
 20
46.62998388927147
 30
0.0
 10
86.85731788135853
 20
46.60425756346633
 30
0.0
 10
86.84221848718455
 20
46.57721268281909
 30
0.0
 10
86.8302812259325
 20
46.548694926648
 30
0.0
 10
86.8205043243902
 20
46.51910356582164
 30
0.0
 10
86.81361947527638
 20
46.48821285783529
 30
0.0
 10
86.80972818863063
 20
46.45599566059367
 30
0.0
 10
86.80908176926233
 20
46.43417200862307
 30
0.0
 10
86.80875215437928
 20
46.42304393783044
 30
0.0
  0
SPLINE
  5
D2
330
1F
100
AcDbEntity
  8
0
  6
Continuous
 62
     7
370
    25
100
AcDbSpline
210
0.0
220
0.0
230
1.0
 70
     8
 71
     3
 72
    23
 73
    19
 74
     0
 42
0.000000001
 43
0.00000001
 40
0.0
 40
0.0
 40
0.0
 40
0.0
 40
0.0705921865358075
 40
0.1385012886049303
 40
0.2037899961427016
 40
0.2667875726696014
 40
0.3290979656467185
 40
0.391174524603966
 40
0.4531677986176575
 40
0.5157967602265847
 40
0.5779688050530403
 40
0.6389663383752915
 40
0.698381066162843
 40
0.7573204555574266
 40
0.8164122397216688
 40
0.876279358230831
 40
0.9368234656501931
 40
1.0
 40
1.0
 40
1.0
 40
1.0
 10
87.40490600053312
 20
46.43476268783044
 30
0.0
 10
87.40456813607852
 20
46.44618900566825
 30
0.0
 10
87.40390524880117
 20
46.46860734716196
 30
0.0
 10
87.40016125668221
 20
46.50145680337718
 30
0.0
 10
87.39306741806182
 20
46.53246273706288
 30
0.0
 10
87.38389137450554
 20
46.56197928654703
 30
0.0
 10
87.37139754910872
 20
46.58969881189452
 30
0.0
 10
87.35640141656441
 20
46.61593751052286
 30
0.0
 10
87.33857199529162
 20
46.64043501846979
 30
0.0
 10
87.31810807895556
 20
46.66276111700197
 30
0.0
 10
87.29603032467567
 20
46.68326198943632
 30
0.0
 10
87.27224140093702
 20
46.70089608751128
 30
0.0
 10
87.24746810095623
 20
46.71612384861961
 30
0.0
 10
87.22147758577238
 20
46.72850074932258
 30
0.0
 10
87.19428652729769
 20
46.73813962762045
 30
0.0
 10
87.16601819644161
 20
46.74511166056313
 30
0.0
 10
87.13648351568656
 20
46.74899185976298
 30
0.0
 10
87.11645529720776
 20
46.74963738477175
 30
0.0
 10
87.10622811591774
 20
46.74996701475352
 30
0.0
  0
LINE
  5
D3
330
1F
100
AcDbEntity
  8
0
  6
Continuous
 62
     7
370
    25
100
AcDbLine
 10
84.493367539
 20
47.3065983845
 30
0.0
 11
84.493367539
 21
56.8328778261
 31
0.0
  0
LINE
  5
D4
330
1F
100
AcDbEntity
  8
0
  6
Continuous
 62
     7
370
    25
100
AcDbLine
 10
87.493367539
 20
53.0339284588
 30
0.0
 11
87.493367539
 21
53.9692127889
 31
0.0
  0
LINE
  5
D5
330
1F
100
AcDbEntity
  8
0
  6
Continuous
 62
     7
370
    25
100
AcDbLine
 10
84.493367539
 20
37.7803189428
 30
0.0
 11
84.493367539
 21
47.3065983845
 31
0.0
  0
LINE
  5
D6
330
1F
100
AcDbEntity
  8
0
  6
Continuous
 62
     7
370
    25
100
AcDbLine
 10
70.1897588119
 20
57.6133606118
 30
0.0
 11
70.1897588119
 21
36.9998361572
 31
0.0
  0
LINE
  5
D7
330
1F
100
AcDbEntity
  8
0
  6
Continuous
 62
     7
370
    25
100
AcDbLine
 10
110.493367539
 20
57.8065983845
 30
0.0
 11
110.493367539
 21
36.8065983845
 31
0.0
  0
LINE
  5
D8
330
1F
100
AcDbEntity
  8
0
  6
Continuous
 62
     7
370
    25
100
AcDbLine
 10
104.993367539
 20
57.8065983845
 30
0.0
 11
104.993367539
 21
36.8065983845
 31
0.0
  0
LINE
  5
D9
330
1F
100
AcDbEntity
  8
0
  6
Continuous
 62
     7
370
    25
100
AcDbLine
 10
115.993367539
 20
57.8065983845
 30
0.0
 11
115.993367539
 21
36.8065983845
 31
0.0
  0
LINE
  5
DA
330
1F
100
AcDbEntity
  8
0
  6
Continuous
 62
     7
370
    25
100
AcDbLine
 10
99.493367539
 20
57.8065983845
 30
0.0
 11
99.493367539
 21
36.8065983845
 31
0.0
  0
LINE
  5
DB
330
1F
100
AcDbEntity
  8
0
  6
Continuous
 62
     7
370
    25
100
AcDbLine
 10
67.493367539
 20
38.5565983845
 30
0.0
 11
67.493367539
 21
56.0565983845
 31
0.0
  0
LINE
  5
DC
330
1F
100
AcDbEntity
  8
0
  6
Continuous
 62
     7
370
    25
100
AcDbLine
 10
123.493367539
 20
56.3688401855
 30
0.0
 11
123.493367539
 21
38.2443565828
 31
0.0
  0
LINE
  5
DD
330
1F
100
AcDbEntity
  8
0
  6
Continuous
 62
     7
370
    25
100
AcDbLine
 10
84.493367539
 20
36.3065983845
 30
0.0
 11
84.493367539
 21
37.7803189428
 31
0.0
  0
LINE
  5
DE
330
1F
100
AcDbEntity
  8
0
  6
Continuous
 62
     7
370
    25
100
AcDbLine
 10
90.493367539
 20
37.7803189428
 30
0.0
 11
90.493367539
 21
36.3065983845
 31
0.0
  0
LINE
  5
DF
330
1F
100
AcDbEntity
  8
0
  6
Continuous
 62
     7
370
    25
100
AcDbLine
 10
90.493367539
 20
58.3065983845
 30
0.0
 11
90.493367539
 21
56.8328778261
 31
0.0
  0
LINE
  5
E0
330
1F
100
AcDbEntity
  8
0
  6
Continuous
 62
     7
370
    25
100
AcDbLine
 10
84.493367539
 20
56.8328778261
 30
0.0
 11
84.493367539
 21
58.3065983845
 31
0.0
  0
LINE
  5
E1
330
1F
100
AcDbEntity
  8
0
  6
Continuous
 62
     7
370
    25
100
AcDbLine
 10
87.493367539
 20
59.6965428633
 30
0.0
 11
87.493367539
 21
59.7083043066
 31
0.0
  0
LINE
  5
E2
330
1F
100
AcDbEntity
  8
0
  6
Continuous
 62
     7
370
    25
100
AcDbLine
 10
87.493367539
 20
34.9048924623
 30
0.0
 11
87.493367539
 21
34.9166539057
 31
0.0
  0
LINE
  5
E3
330
1F
100
AcDbEntity
  8
0
  6
Continuous
 62
     8
370
    25
100
AcDbLine
 10
123.059449399
 20
37.7487426325
 30
0.0
 11
123.059449399
 21
56.8644541365
 31
0.0
  0
LINE
  5
E4
330
1F
100
AcDbEntity
  8
0
  6
Continuous
 62
     7
370
    18
100
AcDbLine
 10
68.3745935699
 20
56.5653744707
 30
0.0
 11
83.993367539
 21
57.0534611572
 31
0.0
  0
LINE
  5
E5
330
1F
100
AcDbEntity
  8
0
  6
Continuous
 62
     7
370
    18
100
AcDbLine
 10
68.3745935699
 20
38.0478222983
 30
0.0
 11
83.993367539
 21
37.5597356118
 31
0.0
  0
LINE
  5
E6
330
1F
100
AcDbEntity
  8
0
  6
Continuous
 62
     7
370
    18
100
AcDbLine
 10
83.993367539
 20
36.5684733845
 30
0.0
 11
83.993367539
 21
58.0447233845
 31
0.0
  0
LINE
  5
E7
330
1F
100
AcDbEntity
  8
0
  6
CENTERX2
 62
     7
370
    18
100
AcDbLine
 10
124.493367539
 20
47.3065983845
 30
0.0
 11
65.9802955193
 21
47.3065983845
 31
0.0
  0
CIRCLE
  5
E8
330
1F
100
AcDbEntity
  8
0
  6
Continuous
 62
     7
370
    25
100
AcDbCircle
 10
149.7082287872
 20
47.3065983845
 30
0.0
 40
9.062241801652618
  0
CIRCLE
  5
E9
330
1F
100
AcDbEntity
  8
0
  6
Continuous
 62
     7
370
    25
100
AcDbCircle
 10
149.7082287872
 20
47.3065983845
 30
0.0
 40
7.450000000000003
  0
CIRCLE
  5
EA
330
1F
100
AcDbEntity
  8
0
  6
Continuous
 62
     7
370
    25
100
AcDbCircle
 10
149.7082287872
 20
47.3065983845
 30
0.0
 40
9.557855751993934
  0
CIRCLE
  5
EB
330
1F
100
AcDbEntity
  8
0
  6
Continuous
 62
     7
370
    25
100
AcDbCircle
 10
149.7082287872
 20
47.3065983845
 30
0.0
 40
7.249999999999972
  0
CIRCLE
  5
EC
330
1F
100
AcDbEntity
  8
0
  6
Continuous
 62
     7
370
    25
100
AcDbCircle
 10
149.7082287872
 20
47.3065983845
 30
0.0
 40
10.49999999999999
  0
SPLINE
  5
ED
330
1F
100
AcDbEntity
  8
0
  6
Continuous
 62
     7
370
    25
100
AcDbSpline
210
0.0
220
0.0
230
1.0
 70
    24
 71
     3
 72
    10
 73
     6
 74
     0
 42
0.000000001
 43
0.00000001
 40
0.0
 40
0.0
 40
0.0
 40
0.0
 40
0.5000000000000001
 40
0.5000000000000001
 40
1.0
 40
1.0
 40
1.0
 40
1.0
 10
160.7082287871847
 20
40.95574542338608
 30
0.0
 10
160.7082287871847
 20
41.98971933576514
 30
0.0
 10
160.7082287871847
 20
43.04712137502529
 30
0.0
 10
160.7082287871847
 20
45.16604843520174
 30
0.0
 10
160.7082287871847
 20
46.23231580699383
 30
0.0
 10
160.7082287871847
 20
47.30659838447198
 30
0.0
  0
SPLINE
  5
EE
330
1F
100
AcDbEntity
  8
0
  6
Continuous
 62
     7
370
    25
100
AcDbSpline
210
0.0
220
0.0
230
1.0
 70
    24
 71
     3
 72
    10
 73
     6
 74
     0
 42
0.000000001
 43
0.00000001
 40
0.0
 40
0.0
 40
0.0
 40
0.0
 40
0.5
 40
0.5
 40
1.0
 40
1.0
 40
1.0
 40
1.0
 10
160.7082287871847
 20
40.95574542338611
 30
0.0
 10
159.8085010323238
 20
40.4362873619198
 30
0.0
 10
158.902201286537
 20
39.91303495972333
 30
0.0
 10
157.0706545369709
 20
38.85559095082795
 30
0.0
 10
156.1452659004084
 20
38.32131757240355
 30
0.0
 10
155.2082287871847
 20
37.78031894284315
 30
0.0
  0
ARC
  5
EF
330
1F
100
AcDbEntity
  8
0
  6
Continuous
 62
     7
370
    25
100
AcDbCircle
 10
149.7082287872
 20
47.3065983845
 30
0.0
 40
11.00000000000001
100
AcDbArc
 50
300.0
 51
0.0
  0
ARC
  5
F0
330
1F
100
AcDbEntity
  8
0
  6
Continuous
 62
     7
370
    25
100
AcDbCircle
 10
149.7082287872
 20
47.3065983845
 30
0.0
 40
11.00000000000001
100
AcDbArc
 50
240.0
 51
300.0
  0
ARC
  5
F1
330
1F
100
AcDbEntity
  8
0
  6
Continuous
 62
     7
370
    25
100
AcDbCircle
 10
149.7082287872
 20
47.3065983845
 30
0.0
 40
11.0
100
AcDbArc
 50
180.0
 51
240.0
  0
ARC
  5
F2
330
1F
100
AcDbEntity
  8
0
  6
Continuous
 62
     7
370
    25
100
AcDbCircle
 10
149.7082287872
 20
47.3065983845
 30
0.0
 40
11.0
100
AcDbArc
 50
120.0
 51
180.0
  0
ARC
  5
F3
330
1F
100
AcDbEntity
  8
0
  6
Continuous
 62
     7
370
    25
100
AcDbCircle
 10
149.7082287872
 20
47.3065983845
 30
0.0
 40
11.0
100
AcDbArc
 50
60.0
 51
120.0
  0
ARC
  5
F4
330
1F
100
AcDbEntity
  8
0
  6
Continuous
 62
     7
370
    25
100
AcDbCircle
 10
149.7082287872
 20
47.3065983845
 30
0.0
 40
11.0
100
AcDbArc
 50
0.0
 51
60.0
  0
SPLINE
  5
F5
330
1F
100
AcDbEntity
  8
0
  6
Continuous
 62
     7
370
    25
100
AcDbSpline
210
0.0
220
0.0
230
1.0
 70
    24
 71
     3
 72
    12
 73
     8
 74
     0
 42
0.000000001
 43
0.00000001
 40
0.0
 40
0.0
 40
0.0
 40
0.0
 40
0.25
 40
0.25
 40
0.5
 40
0.5
 40
1.0
 40
1.0
 40
1.0
 40
1.0
 10
160.7082287871847
 20
47.30659838447198
 30
0.0
 10
160.7082287871847
 20
47.84413200737691
 30
0.0
 10
160.7082287871847
 20
48.38449875120845
 30
0.0
 10
160.7082287871847
 20
49.4655905360256
 30
0.0
 10
160.7082287871847
 20
50.00040865476762
 30
0.0
 10
160.7082287871847
 20
51.59009428936438
 30
0.0
 10
160.7082287871847
 20
52.63029488000371
 30
0.0
 10
160.7082287871847
 20
53.65745134555786
 30
0.0
  0
SPLINE
  5
F6
330
1F
100
AcDbEntity
  8
0
  6
Continuous
 62
     7
370
    25
100
AcDbSpline
210
0.0
220
0.0
230
1.0
 70
    24
 71
     3
 72
    12
 73
     8
 74
     0
 42
0.000000001
 43
0.00000001
 40
0.0
 40
0.0
 40
0.0
 40
0.0
 40
0.2500000000000001
 40
0.2500000000000001
 40
0.5000000000000001
 40
0.5000000000000001
 40
1.0
 40
1.0
 40
1.0
 40
1.0
 10
155.2082287871847
 20
56.83287782610081
 30
0.0
 10
155.6749955120106
 20
56.56338993187376
 30
0.0
 10
156.1438562636424
 20
56.29269305070672
 30
0.0
 10
157.0713605180076
 20
55.75719821977442
 30
0.0
 10
157.5320105212114
 20
55.49124181642249
 30
0.0
 10
158.9057790041723
 20
54.69809621298081
 30
0.0
 10
159.8107477917019
 20
54.17561223989242
 30
0.0
 10
160.7082287871847
 20
53.65745134555785
 30
0.0
  0
SPLINE
  5
F7
330
1F
100
AcDbEntity
  8
0
  6
Continuous
 62
     7
370
    25
100
AcDbSpline
210
0.0
220
0.0
230
1.0
 70
    24
 71
     3
 72
    10
 73
     6
 74
     0
 42
0.000000001
 43
0.00000001
 40
0.0
 40
0.0
 40
0.0
 40
0.0
 40
0.5
 40
0.5
 40
1.0
 40
1.0
 40
1.0
 40
1.0
 10
149.7082287871847
 20
34.60489246230019
 30
0.0
 10
148.8085010323238
 20
35.1243505237665
 30
0.0
 10
147.9022012865371
 20
35.64760292596296
 30
0.0
 10
146.0706545369709
 20
36.70504693485835
 30
0.0
 10
145.1452659004084
 20
37.23932031328275
 30
0.0
 10
144.2082287871847
 20
37.78031894284315
 30
0.0
  0
SPLINE
  5
F8
330
1F
100
AcDbEntity
  8
0
  6
Continuous
 62
     7
370
    25
100
AcDbSpline
210
0.0
220
0.0
230
1.0
 70
    24
 71
     3
 72
    12
 73
     8
 74
     0
 42
0.000000001
 43
0.00000001
 40
0.0
 40
0.0
 40
0.0
 40
0.0
 40
0.2500000000000002
 40
0.2500000000000002
 40
0.5000000000000002
 40
0.5000000000000002
 40
1.0
 40
1.0
 40
1.0
 40
1.0
 10
155.2082287871847
 20
37.78031894284315
 30
0.0
 10
154.7414620623586
 20
37.5108310486161
 30
0.0
 10
154.2726013107269
 20
37.24013416744907
 30
0.0
 10
153.3450970563617
 20
36.70463933651677
 30
0.0
 10
152.8844470531579
 20
36.43868293316485
 30
0.0
 10
151.510678570197
 20
35.64553732972315
 30
0.0
 10
150.6057097826674
 20
35.12305335663478
 30
0.0
 10
149.7082287871846
 20
34.6048924623002
 30
0.0
  0
SPLINE
  5
F9
330
1F
100
AcDbEntity
  8
0
  6
Continuous
 62
     7
370
    25
100
AcDbSpline
210
0.0
220
0.0
230
1.0
 70
    24
 71
     3
 72
    12
 73
     8
 74
     0
 42
0.000000001
 43
0.00000001
 40
0.0
 40
0.0
 40
0.0
 40
0.0
 40
0.2500000000000002
 40
0.2500000000000002
 40
0.5000000000000001
 40
0.5000000000000001
 40
1.0
 40
1.0
 40
1.0
 40
1.0
 10
144.2082287871847
 20
56.83287782610081
 30
0.0
 10
144.6749955120106
 20
57.10236572032784
 30
0.0
 10
145.1438562636424
 20
57.37306260149489
 30
0.0
 10
146.0713605180076
 20
57.90855743242717
 30
0.0
 10
146.5320105212114
 20
58.17451383577909
 30
0.0
 10
147.9057790041723
 20
58.96765943922079
 30
0.0
 10
148.8107477917019
 20
59.49014341230917
 30
0.0
 10
149.7082287871847
 20
60.00830430664375
 30
0.0
  0
SPLINE
  5
FA
330
1F
100
AcDbEntity
  8
0
  6
Continuous
 62
     7
370
    25
100
AcDbSpline
210
0.0
220
0.0
230
1.0
 70
    24
 71
     3
 72
    10
 73
     6
 74
     0
 42
0.000000001
 43
0.00000001
 40
0.0
 40
0.0
 40
0.0
 40
0.0
 40
0.5
 40
0.5
 40
1.0
 40
1.0
 40
1.0
 40
1.0
 10
149.7082287871846
 20
60.00830430664377
 30
0.0
 10
150.6079565420455
 20
59.48884624517745
 30
0.0
 10
151.5142562878322
 20
58.96559384298098
 30
0.0
 10
153.3458030373984
 20
57.9081498340856
 30
0.0
 10
154.2711916739609
 20
57.3738764556612
 30
0.0
 10
155.2082287871847
 20
56.83287782610081
 30
0.0
  0
SPLINE
  5
FB
330
1F
100
AcDbEntity
  8
0
  6
Continuous
 62
     7
370
    25
100
AcDbSpline
210
0.0
220
0.0
230
1.0
 70
    24
 71
     3
 72
    10
 73
     6
 74
     0
 42
0.000000001
 43
0.00000001
 40
0.0
 40
0.0
 40
0.0
 40
0.0
 40
0.5
 40
0.5
 40
1.0
 40
1.0
 40
1.0
 40
1.0
 10
138.7082287871847
 20
40.95574542338608
 30
0.0
 10
138.7082287871847
 20
41.98971933576515
 30
0.0
 10
138.7082287871847
 20
43.0471213750253
 30
0.0
 10
138.7082287871847
 20
45.16604843520174
 30
0.0
 10
138.7082287871847
 20
46.23231580699383
 30
0.0
 10
138.7082287871847
 20
47.30659838447198
 30
0.0
  0
SPLINE
  5
FC
330
1F
100
AcDbEntity
  8
0
  6
Continuous
 62
     7
370
    25
100
AcDbSpline
210
0.0
220
0.0
230
1.0
 70
    24
 71
     3
 72
    12
 73
     8
 74
     0
 42
0.000000001
 43
0.00000001
 40
0.0
 40
0.0
 40
0.0
 40
0.0
 40
0.25
 40
0.25
 40
0.5
 40
0.5
 40
1.0
 40
1.0
 40
1.0
 40
1.0
 10
144.2082287871847
 20
37.78031894284315
 30
0.0
 10
143.7414620623587
 20
38.04980683707019
 30
0.0
 10
143.2726013107269
 20
38.32050371823723
 30
0.0
 10
142.3450970563617
 20
38.85599854916953
 30
0.0
 10
141.8844470531579
 20
39.12195495252145
 30
0.0
 10
140.510678570197
 20
39.91510055596314
 30
0.0
 10
139.6057097826674
 20
40.43758452905153
 30
0.0
 10
138.7082287871847
 20
40.95574542338611
 30
0.0
  0
SPLINE
  5
FD
330
1F
100
AcDbEntity
  8
0
  6
Continuous
 62
     7
370
    25
100
AcDbSpline
210
0.0
220
0.0
230
1.0
 70
    24
 71
     3
 72
    12
 73
     8
 74
     0
 42
0.000000001
 43
0.00000001
 40
0.0
 40
0.0
 40
0.0
 40
0.0
 40
0.2499999999999999
 40
0.2499999999999999
 40
0.4999999999999999
 40
0.4999999999999999
 40
1.0
 40
1.0
 40
1.0
 40
1.0
 10
138.7082287871847
 20
47.30659838447198
 30
0.0
 10
138.7082287871847
 20
47.84413200737691
 30
0.0
 10
138.7082287871847
 20
48.38449875120845
 30
0.0
 10
138.7082287871847
 20
49.4655905360256
 30
0.0
 10
138.7082287871847
 20
50.00040865476763
 30
0.0
 10
138.7082287871847
 20
51.59009428936439
 30
0.0
 10
138.7082287871847
 20
52.63029488000371
 30
0.0
 10
138.7082287871847
 20
53.65745134555786
 30
0.0
  0
SPLINE
  5
FE
330
1F
100
AcDbEntity
  8
0
  6
Continuous
 62
     7
370
    25
100
AcDbSpline
210
0.0
220
0.0
230
1.0
 70
    24
 71
     3
 72
    10
 73
     6
 74
     0
 42
0.000000001
 43
0.00000001
 40
0.0
 40
0.0
 40
0.0
 40
0.0
 40
0.5
 40
0.5
 40
1.0
 40
1.0
 40
1.0
 40
1.0
 10
138.7082287871846
 20
53.65745134555783
 30
0.0
 10
139.6079565420455
 20
54.17690940702416
 30
0.0
 10
140.5142562878323
 20
54.70016180922062
 30
0.0
 10
142.3458030373984
 20
55.75760581811599
 30
0.0
 10
143.2711916739609
 20
56.29187919654039
 30
0.0
 10
144.2082287871847
 20
56.83287782610081
 30
0.0
  0
INSERT
  5
10A
330
1F
100
AcDbEntity
  8
0
  6
Continuous
 62
     7
370
    18
100
AcDbBlockReference
  2
SW_CENTERMARKSYMBOL_0
 10
149.7082287872
 20
47.3065983845
 30
0.0
  0
INSERT
  5
116
330
1F
100
AcDbEntity
  8
0
  6
Continuous
 62
     7
370
    18
100
AcDbBlockReference
  2
SW_CENTERMARKSYMBOL_1
 10
149.7082287872
 20
47.3065983845
 30
0.0
  0
LINE
  5
117
330
1F
100
AcDbEntity
  8
0
  6
Continuous
 62
     7
370
    25
100
AcDbLine
 10
84.493367539
 20
98.4410726245
 30
0.0
 11
70.1897588119
 21
97.9940848518
 31
0.0
  0
LINE
  5
118
330
1F
100
AcDbEntity
  8
0
  6
Continuous
 62
     7
370
    25
100
AcDbLine
 10
70.1897588119
 20
77.3805603972
 30
0.0
 11
84.493367539
 21
76.9335726245
 31
0.0
  0
LINE
  5
119
330
1F
100
AcDbEntity
  8
0
  6
Continuous
 62
     7
370
    25
100
AcDbLine
 10
104.993367539
 20
77.1873226245
 30
0.0
 11
110.493367539
 21
78.1873226245
 31
0.0
  0
LINE
  5
11A
330
1F
100
AcDbEntity
  8
0
  6
Continuous
 62
     7
370
    25
100
AcDbLine
 10
110.493367539
 20
97.1873226245
 30
0.0
 11
104.993367539
 21
98.1873226245
 31
0.0
  0
LINE
  5
11B
330
1F
100
AcDbEntity
  8
0
  6
Continuous
 62
     7
370
    25
100
AcDbLine
 10
110.493367539
 20
77.1873226245
 30
0.0
 11
115.993367539
 21
78.1873226245
 31
0.0
  0
LINE
  5
11C
330
1F
100
AcDbEntity
  8
0
  6
Continuous
 62
     7
370
    25
100
AcDbLine
 10
115.993367539
 20
97.1873226245
 30
0.0
 11
110.493367539
 21
98.1873226245
 31
0.0
  0
LINE
  5
11D
330
1F
100
AcDbEntity
  8
0
  6
Continuous
 62
     7
370
    25
100
AcDbLine
 10
99.493367539
 20
77.1873226245
 30
0.0
 11
104.993367539
 21
78.1873226245
 31
0.0
  0
LINE
  5
11E
330
1F
100
AcDbEntity
  8
0
  6
Continuous
 62
     7
370
    25
100
AcDbLine
 10
104.993367539
 20
97.1873226245
 30
0.0
 11
99.493367539
 21
98.1873226245
 31
0.0
  0
LINE
  5
11F
330
1F
100
AcDbEntity
  8
0
  6
Continuous
 62
     7
370
    25
100
AcDbLine
 10
115.993367539
 20
77.1873226245
 30
0.0
 11
123.059449399
 21
78.1294668725
 31
0.0
  0
LINE
  5
120
330
1F
100
AcDbEntity
  8
0
  6
Continuous
 62
     7
370
    25
100
AcDbLine
 10
123.059449399
 20
97.2451783765
 30
0.0
 11
115.993367539
 21
98.1873226245
 31
0.0
  0
LINE
  5
121
330
1F
100
AcDbEntity
  8
0
  6
Continuous
 62
     7
370
    25
100
AcDbLine
 10
99.493367539
 20
98.1873226245
 30
0.0
 11
90.493367539
 21
98.1873226245
 31
0.0
  0
LINE
  5
122
330
1F
100
AcDbEntity
  8
0
  6
Continuous
 62
     7
370
    25
100
AcDbLine
 10
90.493367539
 20
77.1873226245
 30
0.0
 11
99.493367539
 21
77.1873226245
 31
0.0
  0
LINE
  5
123
330
1F
100
AcDbEntity
  8
0
  6
Continuous
 62
     7
370
    25
100
AcDbLine
 10
70.1897588119
 20
97.9940848518
 30
0.0
 11
67.493367539
 21
96.4373226245
 31
0.0
  0
LINE
  5
124
330
1F
100
AcDbEntity
  8
0
  6
Continuous
 62
     7
370
    25
100
AcDbLine
 10
67.493367539
 20
78.9373226245
 30
0.0
 11
70.1897588119
 21
77.3805603972
 31
0.0
  0
ARC
  5
125
330
1F
100
AcDbEntity
  8
0
  6
Continuous
 62
     7
370
    25
100
AcDbCircle
 10
122.993367539
 20
78.6250808229
 30
0.0
 40
0.5
100
AcDbArc
 50
277.5946433686
 51
0.0
  0
ARC
  5
126
330
1F
100
AcDbEntity
  8
0
  6
Continuous
 62
     7
370
    25
100
AcDbCircle
 10
122.993367539
 20
96.7495644262
 30
0.0
 40
0.5
100
AcDbArc
 50
0.0
 51
82.4053566314
  0
LINE
  5
127
330
1F
100
AcDbEntity
  8
0
  6
Continuous
 62
     7
370
    25
100
AcDbLine
 10
87.5737522967
 20
98.6873226245
 30
0.0
 11
89.5108871667
 21
98.6873226245
 31
0.0
  0
SPLINE
  5
128
330
1F
100
AcDbEntity
  8
0
  6
Continuous
 62
     7
370
    25
100
AcDbSpline
210
0.0
220
0.0
230
1.0
 70
     8
 71
     3
 72
    12
 73
     8
 74
     0
 42
0.000000001
 43
0.00000001
 40
0.0
 40
0.0
 40
0.0
 40
0.0
 40
0.2500000000000001
 40
0.2500000000000001
 40
0.5000000000000001
 40
0.5000000000000001
 40
1.0
 40
1.0
 40
1.0
 40
1.0
 10
90.49336753899468
 20
93.18732262450312
 30
0.0
 10
90.49336753899468
 20
93.6540893493291
 30
0.0
 10
90.4701453846675
 20
94.12295010096084
 30
0.0
 10
90.38027823480675
 20
95.0504543553261
 30
0.0
 10
90.31371964571906
 20
95.5111043585299
 30
0.0
 10
90.05701017159738
 20
96.88487284149078
 30
0.0
 10
89.81004749857497
 20
97.78984162902033
 30
0.0
 10
89.51088716674738
 20
98.68732262450314
 30
0.0
  0
SPLINE
  5
129
330
1F
100
AcDbEntity
  8
0
  6
Continuous
 62
     7
370
    25
100
AcDbSpline
210
0.0
220
0.0
230
1.0
 70
     8
 71
     3
 72
    10
 73
     6
 74
     0
 42
0.000000001
 43
0.00000001
 40
0.0
 40
0.0
 40
0.0
 40
0.0
 40
0.5
 40
0.5
 40
1.0
 40
1.0
 40
1.0
 40
1.0
 10
89.51088716674752
 20
87.68732262450307
 30
0.0
 10
89.81079641836784
 20
88.58705037936397
 30
0.0
 10
90.05787707773378
 20
89.49335012515073
 30
0.0
 10
90.39973189176615
 20
91.32489687471683
 30
0.0
 10
90.49336753899468
 20
92.25028551127936
 30
0.0
 10
90.49336753899468
 20
93.18732262450312
 30
0.0
  0
LINE
  5
12A
330
1F
100
AcDbEntity
  8
0
  6
Continuous
 62
     7
370
    25
100
AcDbLine
 10
87.5737522967
 20
87.6873226245
 30
0.0
 11
89.5108871667
 21
87.6873226245
 31
0.0
  0
SPLINE
  5
12B
330
1F
100
AcDbEntity
  8
0
  6
Continuous
 62
     7
370
    25
100
AcDbSpline
210
0.0
220
0.0
230
1.0
 70
     8
 71
     3
 72
     8
 73
     4
 74
     0
 42
0.000000001
 43
0.00000001
 40
0.0
 40
0.0
 40
0.0
 40
0.0
 40
1.0
 40
1.0
 40
1.0
 40
1.0
 10
87.573752296724
 20
87.68732262450311
 30
0.0
 10
87.5459206236669
 20
87.8672293872635
 30
0.0
 10
87.51909956380084
 20
88.04722270177187
 30
0.0
 10
87.49336753899466
 20
88.22730928429698
 30
0.0
  0
SPLINE
  5
12C
330
1F
100
AcDbEntity
  8
0
  6
Continuous
 62
     7
370
    25
100
AcDbSpline
210
0.0
220
0.0
230
1.0
 70
     8
 71
     3
 72
     8
 73
     4
 74
     0
 42
0.000000001
 43
0.00000001
 40
0.0
 40
0.0
 40
0.0
 40
0.0
 40
1.0
 40
1.0
 40
1.0
 40
1.0
 10
87.49336753899466
 20
88.227309284297
 30
0.0
 10
87.46762658916136
 20
88.04716023962028
 30
0.0
 10
87.44080504490044
 20
87.86716856380365
 30
0.0
 10
87.41298278126533
 20
87.68732262450311
 30
0.0
  0
LINE
  5
12D
330
1F
100
AcDbEntity
  8
0
  6
Continuous
 62
     7
370
    25
100
AcDbLine
 10
85.4758479112
 20
87.6873226245
 30
0.0
 11
87.4129827813
 21
87.6873226245
 31
0.0
  0
SPLINE
  5
12E
330
1F
100
AcDbEntity
  8
0
  6
Continuous
 62
     7
370
    25
100
AcDbSpline
210
0.0
220
0.0
230
1.0
 70
     8
 71
     3
 72
    10
 73
     6
 74
     0
 42
0.000000001
 43
0.00000001
 40
0.0
 40
0.0
 40
0.0
 40
0.0
 40
0.5
 40
0.5
 40
1.0
 40
1.0
 40
1.0
 40
1.0
 10
85.47584791124179
 20
87.68732262450307
 30
0.0
 10
85.1759386596215
 20
88.58705037936397
 30
0.0
 10
84.92885800025556
 20
89.49335012515073
 30
0.0
 10
84.58700318622317
 20
91.32489687471683
 30
0.0
 10
84.49336753899465
 20
92.25028551127936
 30
0.0
 10
84.49336753899465
 20
93.18732262450312
 30
0.0
  0
SPLINE
  5
12F
330
1F
100
AcDbEntity
  8
0
  6
Continuous
 62
     7
370
    25
100
AcDbSpline
210
0.0
220
0.0
230
1.0
 70
     8
 71
     3
 72
    12
 73
     8
 74
     0
 42
0.000000001
 43
0.00000001
 40
0.0
 40
0.0
 40
0.0
 40
0.0
 40
0.2500000000000001
 40
0.2500000000000001
 40
0.5000000000000001
 40
0.5000000000000001
 40
1.0
 40
1.0
 40
1.0
 40
1.0
 10
84.49336753899465
 20
93.18732262450312
 30
0.0
 10
84.49336753899465
 20
93.6540893493291
 30
0.0
 10
84.51658969332182
 20
94.12295010096084
 30
0.0
 10
84.60645684318257
 20
95.0504543553261
 30
0.0
 10
84.67301543227026
 20
95.5111043585299
 30
0.0
 10
84.92972490639194
 20
96.88487284149078
 30
0.0
 10
85.17668757941433
 20
97.78984162902033
 30
0.0
 10
85.47584791124196
 20
98.68732262450314
 30
0.0
  0
LINE
  5
130
330
1F
100
AcDbEntity
  8
0
  6
Continuous
 62
     7
370
    25
100
AcDbLine
 10
85.4758479112
 20
98.6873226245
 30
0.0
 11
87.4129827813
 21
98.6873226245
 31
0.0
  0
SPLINE
  5
131
330
1F
100
AcDbEntity
  8
0
  6
Continuous
 62
     7
370
    25
100
AcDbSpline
210
0.0
220
0.0
230
1.0
 70
     8
 71
     3
 72
     8
 73
     4
 74
     0
 42
0.000000001
 43
0.00000001
 40
0.0
 40
0.0
 40
0.0
 40
0.0
 40
1.0
 40
1.0
 40
1.0
 40
1.0
 10
87.41298278126533
 20
98.68732262450311
 30
0.0
 10
87.44081445432244
 20
98.50741586174271
 30
0.0
 10
87.46763551418847
 20
98.32742254723433
 30
0.0
 10
87.49336753899466
 20
98.14733596470923
 30
0.0
  0
SPLINE
  5
132
330
1F
100
AcDbEntity
  8
0
  6
Continuous
 62
     7
370
    25
100
AcDbSpline
210
0.0
220
0.0
230
1.0
 70
     8
 71
     3
 72
     8
 73
     4
 74
     0
 42
0.000000001
 43
0.00000001
 40
0.0
 40
0.0
 40
0.0
 40
0.0
 40
1.0
 40
1.0
 40
1.0
 40
1.0
 10
87.49336753899466
 20
98.14733596470923
 30
0.0
 10
87.51910848882798
 20
98.32748500938594
 30
0.0
 10
87.5459300330889
 20
98.50747668520258
 30
0.0
 10
87.573752296724
 20
98.68732262450311
 30
0.0
  0
SPLINE
  5
133
330
1F
100
AcDbEntity
  8
0
  6
Continuous
 62
     7
370
    25
100
AcDbSpline
210
0.0
220
0.0
230
1.0
 70
     8
 71
     3
 72
    12
 73
     8
 74
     0
 42
0.000000001
 43
0.00000001
 40
0.0
 40
0.0
 40
0.0
 40
0.0
 40
0.2500000000000002
 40
0.2500000000000002
 40
0.5000000000000001
 40
0.5000000000000001
 40
1.0
 40
1.0
 40
1.0
 40
1.0
 10
90.49336753899466
 20
82.18732262450311
 30
0.0
 10
90.49336753899466
 20
82.65408934932911
 30
0.0
 10
90.4701453846675
 20
83.12295010096084
 30
0.0
 10
90.38027823480675
 20
84.05045435532608
 30
0.0
 10
90.31371964571906
 20
84.5111043585299
 30
0.0
 10
90.05701017159738
 20
85.88487284149078
 30
0.0
 10
89.81004749857497
 20
86.78984162902033
 30
0.0
 10
89.51088716674738
 20
87.68732262450314
 30
0.0
  0
LINE
  5
134
330
1F
100
AcDbEntity
  8
0
  6
Continuous
 62
     7
370
    25
100
AcDbLine
 10
90.493367539
 20
93.1873226245
 30
0.0
 11
90.493367539
 21
82.1873226245
 31
0.0
  0
LINE
  5
135
330
1F
100
AcDbEntity
  8
0
  6
Continuous
 62
     7
370
    25
100
AcDbLine
 10
84.493367539
 20
82.1873226245
 30
0.0
 11
84.493367539
 21
93.1873226245
 31
0.0
  0
SPLINE
  5
136
330
1F
100
AcDbEntity
  8
0
  6
Continuous
 62
     7
370
    25
100
AcDbSpline
210
0.0
220
0.0
230
1.0
 70
     8
 71
     3
 72
    12
 73
     8
 74
     0
 42
0.000000001
 43
0.00000001
 40
0.0
 40
0.0
 40
0.0
 40
0.0
 40
0.2500000000000002
 40
0.2500000000000002
 40
0.5000000000000001
 40
0.5000000000000001
 40
1.0
 40
1.0
 40
1.0
 40
1.0
 10
84.49336753899465
 20
82.18732262450311
 30
0.0
 10
84.49336753899465
 20
82.65408934932911
 30
0.0
 10
84.51658969332182
 20
83.12295010096084
 30
0.0
 10
84.60645684318257
 20
84.05045435532608
 30
0.0
 10
84.67301543227026
 20
84.5111043585299
 30
0.0
 10
84.92972490639194
 20
85.88487284149078
 30
0.0
 10
85.17668757941433
 20
86.78984162902033
 30
0.0
 10
85.47584791124196
 20
87.68732262450314
 30
0.0
  0
LINE
  5
137
330
1F
100
AcDbEntity
  8
0
  6
Continuous
 62
     7
370
    25
100
AcDbLine
 10
87.493367539
 20
87.1473359647
 30
0.0
 11
87.493367539
 21
88.2273092843
 31
0.0
  0
SPLINE
  5
138
330
1F
100
AcDbEntity
  8
0
  6
Continuous
 62
     7
370
    25
100
AcDbSpline
210
0.0
220
0.0
230
1.0
 70
     8
 71
     3
 72
     8
 73
     4
 74
     0
 42
0.000000001
 43
0.00000001
 40
0.0
 40
0.0
 40
0.0
 40
0.0
 40
1.0
 40
1.0
 40
1.0
 40
1.0
 10
87.41298278126533
 20
87.68732262450311
 30
0.0
 10
87.44081445432244
 20
87.50741586174271
 30
0.0
 10
87.46763551418847
 20
87.32742254723435
 30
0.0
 10
87.49336753899466
 20
87.14733596470924
 30
0.0
  0
SPLINE
  5
139
330
1F
100
AcDbEntity
  8
0
  6
Continuous
 62
     7
370
    25
100
AcDbSpline
210
0.0
220
0.0
230
1.0
 70
     8
 71
     3
 72
    10
 73
     6
 74
     0
 42
0.000000001
 43
0.00000001
 40
0.0
 40
0.0
 40
0.0
 40
0.0
 40
0.5
 40
0.5
 40
1.0
 40
1.0
 40
1.0
 40
1.0
 10
89.51088716674752
 20
76.68732262450308
 30
0.0
 10
89.81079641836783
 20
77.58705037936397
 30
0.0
 10
90.05787707773376
 20
78.49335012515071
 30
0.0
 10
90.39973189176615
 20
80.32489687471683
 30
0.0
 10
90.49336753899466
 20
81.25028551127936
 30
0.0
 10
90.49336753899466
 20
82.18732262450311
 30
0.0
  0
LINE
  5
13A
330
1F
100
AcDbEntity
  8
0
  6
Continuous
 62
     7
370
    25
100
AcDbLine
 10
87.5737522967
 20
76.6873226245
 30
0.0
 11
89.5108871667
 21
76.6873226245
 31
0.0
  0
SPLINE
  5
13B
330
1F
100
AcDbEntity
  8
0
  6
Continuous
 62
     7
370
    25
100
AcDbSpline
210
0.0
220
0.0
230
1.0
 70
     8
 71
     3
 72
     8
 73
     4
 74
     0
 42
0.000000001
 43
0.00000001
 40
0.0
 40
0.0
 40
0.0
 40
0.0
 40
1.0
 40
1.0
 40
1.0
 40
1.0
 10
87.573752296724
 20
76.68732262450312
 30
0.0
 10
87.5459206236669
 20
76.8672293872635
 30
0.0
 10
87.51909956380084
 20
77.04722270177187
 30
0.0
 10
87.49336753899466
 20
77.227309284297
 30
0.0
  0
SPLINE
  5
13C
330
1F
100
AcDbEntity
  8
0
  6
Continuous
 62
     7
370
    25
100
AcDbSpline
210
0.0
220
0.0
230
1.0
 70
     8
 71
     3
 72
     8
 73
     4
 74
     0
 42
0.000000001
 43
0.00000001
 40
0.0
 40
0.0
 40
0.0
 40
0.0
 40
1.0
 40
1.0
 40
1.0
 40
1.0
 10
87.49336753899466
 20
77.227309284297
 30
0.0
 10
87.46762658916136
 20
77.04716023962028
 30
0.0
 10
87.44080504490044
 20
76.86716856380366
 30
0.0
 10
87.41298278126533
 20
76.68732262450312
 30
0.0
  0
LINE
  5
13D
330
1F
100
AcDbEntity
  8
0
  6
Continuous
 62
     7
370
    25
100
AcDbLine
 10
85.4758479112
 20
76.6873226245
 30
0.0
 11
87.4129827813
 21
76.6873226245
 31
0.0
  0
SPLINE
  5
13E
330
1F
100
AcDbEntity
  8
0
  6
Continuous
 62
     7
370
    25
100
AcDbSpline
210
0.0
220
0.0
230
1.0
 70
     8
 71
     3
 72
    10
 73
     6
 74
     0
 42
0.000000001
 43
0.00000001
 40
0.0
 40
0.0
 40
0.0
 40
0.0
 40
0.5
 40
0.5
 40
1.0
 40
1.0
 40
1.0
 40
1.0
 10
85.4758479112418
 20
76.68732262450308
 30
0.0
 10
85.1759386596215
 20
77.58705037936397
 30
0.0
 10
84.92885800025556
 20
78.49335012515071
 30
0.0
 10
84.58700318622317
 20
80.32489687471683
 30
0.0
 10
84.49336753899465
 20
81.25028551127936
 30
0.0
 10
84.49336753899465
 20
82.18732262450311
 30
0.0
  0
SPLINE
  5
13F
330
1F
100
AcDbEntity
  8
0
  6
Continuous
 62
     7
370
    25
100
AcDbSpline
210
0.0
220
0.0
230
1.0
 70
     8
 71
     3
 72
     8
 73
     4
 74
     0
 42
0.000000001
 43
0.00000001
 40
0.0
 40
0.0
 40
0.0
 40
0.0
 40
1.0
 40
1.0
 40
1.0
 40
1.0
 10
87.49336753899466
 20
87.14733596470924
 30
0.0
 10
87.51910848882798
 20
87.32748500938595
 30
0.0
 10
87.5459300330889
 20
87.50747668520258
 30
0.0
 10
87.573752296724
 20
87.68732262450311
 30
0.0
  0
LINE
  5
140
330
1F
100
AcDbEntity
  8
0
  6
Continuous
 62
     7
370
    25
100
AcDbLine
 10
70.1897588119
 20
87.6873226245
 30
0.0
 11
70.1897588119
 21
77.3805603972
 31
0.0
  0
LINE
  5
141
330
1F
100
AcDbEntity
  8
0
  6
Continuous
 62
     7
370
    25
100
AcDbLine
 10
70.1897588119
 20
97.9940848518
 30
0.0
 11
70.1897588119
 21
87.6873226245
 31
0.0
  0
LINE
  5
142
330
1F
100
AcDbEntity
  8
0
  6
Continuous
 62
     7
370
    25
100
AcDbLine
 10
104.993367539
 20
87.6873226245
 30
0.0
 11
104.993367539
 21
77.1873226245
 31
0.0
  0
LINE
  5
143
330
1F
100
AcDbEntity
  8
0
  6
Continuous
 62
     7
370
    25
100
AcDbLine
 10
104.993367539
 20
98.1873226245
 30
0.0
 11
104.993367539
 21
87.6873226245
 31
0.0
  0
LINE
  5
144
330
1F
100
AcDbEntity
  8
0
  6
Continuous
 62
     7
370
    25
100
AcDbLine
 10
110.493367539
 20
87.6873226245
 30
0.0
 11
110.493367539
 21
77.1873226245
 31
0.0
  0
LINE
  5
145
330
1F
100
AcDbEntity
  8
0
  6
Continuous
 62
     7
370
    25
100
AcDbLine
 10
110.493367539
 20
98.1873226245
 30
0.0
 11
110.493367539
 21
87.6873226245
 31
0.0
  0
LINE
  5
146
330
1F
100
AcDbEntity
  8
0
  6
Continuous
 62
     7
370
    25
100
AcDbLine
 10
99.493367539
 20
87.6873226245
 30
0.0
 11
99.493367539
 21
77.1873226245
 31
0.0
  0
LINE
  5
147
330
1F
100
AcDbEntity
  8
0
  6
Continuous
 62
     7
370
    25
100
AcDbLine
 10
99.493367539
 20
98.1873226245
 30
0.0
 11
99.493367539
 21
87.6873226245
 31
0.0
  0
LINE
  5
148
330
1F
100
AcDbEntity
  8
0
  6
Continuous
 62
     7
370
    25
100
AcDbLine
 10
115.993367539
 20
87.6873226245
 30
0.0
 11
115.993367539
 21
77.1873226245
 31
0.0
  0
LINE
  5
149
330
1F
100
AcDbEntity
  8
0
  6
Continuous
 62
     7
370
    25
100
AcDbLine
 10
115.993367539
 20
98.1873226245
 30
0.0
 11
115.993367539
 21
87.6873226245
 31
0.0
  0
LINE
  5
14A
330
1F
100
AcDbEntity
  8
0
  6
Continuous
 62
     7
370
    25
100
AcDbLine
 10
67.493367539
 20
78.9373226245
 30
0.0
 11
67.493367539
 21
96.4373226245
 31
0.0
  0
LINE
  5
14B
330
1F
100
AcDbEntity
  8
0
  6
Continuous
 62
     7
370
    25
100
AcDbLine
 10
123.493367539
 20
96.7495644262
 30
0.0
 11
123.493367539
 21
78.6250808229
 31
0.0
  0
SPLINE
  5
14C
330
1F
100
AcDbEntity
  8
0
  6
Continuous
 62
     7
370
    25
100
AcDbSpline
210
0.0
220
0.0
230
1.0
 70
    24
 71
     3
 72
    12
 73
     8
 74
     0
 42
0.000000001
 43
0.00000001
 40
0.0
 40
0.0
 40
0.0
 40
0.0
 40
0.25
 40
0.25
 40
0.5
 40
0.5
 40
1.0
 40
1.0
 40
1.0
 40
1.0
 10
90.49336753899466
 20
98.68732262450311
 30
0.0
 10
90.49336753899466
 20
98.68732262450311
 30
0.0
 10
90.4704233444367
 20
98.68732262450311
 30
0.0
 10
90.37956664356355
 20
98.68732262450311
 30
0.0
 10
90.3122980311336
 20
98.68732262450311
 30
0.0
 10
90.05417838529124
 20
98.68732262450311
 30
0.0
 10
89.80740169769099
 20
98.68732262450311
 30
0.0
 10
89.51088716674721
 20
98.68732262450311
 30
0.0
  0
LINE
  5
14D
330
1F
100
AcDbEntity
  8
0
  6
Continuous
 62
     7
370
    25
100
AcDbLine
 10
90.493367539
 20
98.6873226245
 30
0.0
 11
90.493367539
 21
93.1873226245
 31
0.0
  0
SPLINE
  5
14E
330
1F
100
AcDbEntity
  8
0
  6
Continuous
 62
     7
370
    25
100
AcDbSpline
210
0.0
220
0.0
230
1.0
 70
    24
 71
     3
 72
    12
 73
     8
 74
     0
 42
0.000000001
 43
0.00000001
 40
0.0
 40
0.0
 40
0.0
 40
0.0
 40
0.25
 40
0.25
 40
0.5
 40
0.5
 40
1.0
 40
1.0
 40
1.0
 40
1.0
 10
84.49336753899466
 20
98.68732262450311
 30
0.0
 10
84.49336753899466
 20
98.68732262450311
 30
0.0
 10
84.51631173355263
 20
98.68732262450311
 30
0.0
 10
84.60716843442579
 20
98.68732262450311
 30
0.0
 10
84.67443704685573
 20
98.68732262450311
 30
0.0
 10
84.93255669269809
 20
98.68732262450311
 30
0.0
 10
85.17933338029833
 20
98.68732262450311
 30
0.0
 10
85.4758479112421
 20
98.68732262450311
 30
0.0
  0
LINE
  5
14F
330
1F
100
AcDbEntity
  8
0
  6
Continuous
 62
     7
370
    25
100
AcDbLine
 10
84.493367539
 20
98.6873226245
 30
0.0
 11
84.493367539
 21
93.1873226245
 31
0.0
  0
SPLINE
  5
150
330
1F
100
AcDbEntity
  8
0
  6
Continuous
 62
     7
370
    25
100
AcDbSpline
210
0.0
220
0.0
230
1.0
 70
    24
 71
     3
 72
    12
 73
     8
 74
     0
 42
0.000000001
 43
0.00000001
 40
0.0
 40
0.0
 40
0.0
 40
0.0
 40
0.2499999999999999
 40
0.2499999999999999
 40
0.4999999999999999
 40
0.4999999999999999
 40
1.0
 40
1.0
 40
1.0
 40
1.0
 10
84.49336753899466
 20
76.68732262450312
 30
0.0
 10
84.49336753899466
 20
76.68732262450312
 30
0.0
 10
84.51631173355263
 20
76.68732262450312
 30
0.0
 10
84.60716843442579
 20
76.68732262450312
 30
0.0
 10
84.67443704685573
 20
76.68732262450312
 30
0.0
 10
84.93255669269809
 20
76.68732262450312
 30
0.0
 10
85.17933338029833
 20
76.68732262450312
 30
0.0
 10
85.4758479112421
 20
76.68732262450312
 30
0.0
  0
LINE
  5
151
330
1F
100
AcDbEntity
  8
0
  6
Continuous
 62
     7
370
    25
100
AcDbLine
 10
84.493367539
 20
76.6873226245
 30
0.0
 11
84.493367539
 21
82.1873226245
 31
0.0
  0
SPLINE
  5
152
330
1F
100
AcDbEntity
  8
0
  6
Continuous
 62
     7
370
    25
100
AcDbSpline
210
0.0
220
0.0
230
1.0
 70
    24
 71
     3
 72
    12
 73
     8
 74
     0
 42
0.000000001
 43
0.00000001
 40
0.0
 40
0.0
 40
0.0
 40
0.0
 40
0.2499999999999999
 40
0.2499999999999999
 40
0.4999999999999999
 40
0.4999999999999999
 40
1.0
 40
1.0
 40
1.0
 40
1.0
 10
90.49336753899466
 20
76.68732262450312
 30
0.0
 10
90.49336753899466
 20
76.68732262450312
 30
0.0
 10
90.4704233444367
 20
76.68732262450312
 30
0.0
 10
90.37956664356355
 20
76.68732262450312
 30
0.0
 10
90.3122980311336
 20
76.68732262450312
 30
0.0
 10
90.05417838529124
 20
76.68732262450312
 30
0.0
 10
89.80740169769098
 20
76.68732262450312
 30
0.0
 10
89.51088716674721
 20
76.68732262450312
 30
0.0
  0
LINE
  5
153
330
1F
100
AcDbEntity
  8
0
  6
Continuous
 62
     7
370
    25
100
AcDbLine
 10
90.493367539
 20
82.1873226245
 30
0.0
 11
90.493367539
 21
76.6873226245
 31
0.0
  0
SPLINE
  5
154
330
1F
100
AcDbEntity
  8
0
  6
Continuous
 62
     7
370
    25
100
AcDbSpline
210
0.0
220
0.0
230
1.0
 70
    24
 71
     3
 72
     8
 73
     4
 74
     0
 42
0.000000001
 43
0.00000001
 40
0.0
 40
0.0
 40
0.0
 40
0.0
 40
1.0
 40
1.0
 40
1.0
 40
1.0
 10
87.49336753899466
 20
98.68732262450311
 30
0.0
 10
87.46762704842503
 20
98.68732262450311
 30
0.0
 10
87.44080552877563
 20
98.68732262450311
 30
0.0
 10
87.41298278126533
 20
98.68732262450311
 30
0.0
  0
LINE
  5
155
330
1F
100
AcDbEntity
  8
0
  6
Continuous
 62
     7
370
    25
100
AcDbLine
 10
87.493367539
 20
98.1473359647
 30
0.0
 11
87.493367539
 21
98.6873226245
 31
0.0
  0
SPLINE
  5
156
330
1F
100
AcDbEntity
  8
0
  6
Continuous
 62
     7
370
    25
100
AcDbSpline
210
0.0
220
0.0
230
1.0
 70
    24
 71
     3
 72
     8
 73
     4
 74
     0
 42
0.000000001
 43
0.00000001
 40
0.0
 40
0.0
 40
0.0
 40
0.0
 40
1.0
 40
1.0
 40
1.0
 40
1.0
 10
87.573752296724
 20
98.68732262450311
 30
0.0
 10
87.5459192431681
 20
98.68732262450311
 30
0.0
 10
87.51909825539781
 20
98.68732262450311
 30
0.0
 10
87.49336753899466
 20
98.68732262450311
 30
0.0
  0
LINE
  5
157
330
1F
100
AcDbEntity
  8
0
  6
Continuous
 62
     7
370
    25
100
AcDbLine
 10
87.493367539
 20
76.6873226245
 30
0.0
 11
87.493367539
 21
77.2273092843
 31
0.0
  0
SPLINE
  5
158
330
1F
100
AcDbEntity
  8
0
  6
Continuous
 62
     7
370
    25
100
AcDbSpline
210
0.0
220
0.0
230
1.0
 70
    24
 71
     3
 72
     8
 73
     4
 74
     0
 42
0.000000001
 43
0.00000001
 40
0.0
 40
0.0
 40
0.0
 40
0.0
 40
1.0
 40
1.0
 40
1.0
 40
1.0
 10
87.41298278126533
 20
76.68732262450312
 30
0.0
 10
87.44081583482122
 20
76.68732262450312
 30
0.0
 10
87.46763682259153
 20
76.68732262450312
 30
0.0
 10
87.49336753899466
 20
76.68732262450312
 30
0.0
  0
SPLINE
  5
159
330
1F
100
AcDbEntity
  8
0
  6
Continuous
 62
     7
370
    25
100
AcDbSpline
210
0.0
220
0.0
230
1.0
 70
    24
 71
     3
 72
     8
 73
     4
 74
     0
 42
0.000000001
 43
0.00000001
 40
0.0
 40
0.0
 40
0.0
 40
0.0
 40
1.0
 40
1.0
 40
1.0
 40
1.0
 10
87.49336753899466
 20
76.68732262450312
 30
0.0
 10
87.51910802956428
 20
76.68732262450312
 30
0.0
 10
87.5459295492137
 20
76.68732262450312
 30
0.0
 10
87.573752296724
 20
76.68732262450312
 30
0.0
  0
LINE
  5
15A
330
1F
100
AcDbEntity
  8
0
  6
Continuous
 62
     8
370
    25
100
AcDbLine
 10
123.059449399
 20
87.6873226245
 30
0.0
 11
123.059449399
 21
97.2451783765
 31
0.0
  0
LINE
  5
15B
330
1F
100
AcDbEntity
  8
0
  6
Continuous
 62
     8
370
    25
100
AcDbLine
 10
123.059449399
 20
78.1294668725
 30
0.0
 11
123.059449399
 21
87.6873226245
 31
0.0
  0
LINE
  5
15C
330
1F
100
AcDbEntity
  8
0
  6
Continuous
 62
     7
370
    18
100
AcDbLine
 10
68.3745935699
 20
96.9460987107
 30
0.0
 11
83.993367539
 21
97.4341853972
 31
0.0
  0
LINE
  5
15D
330
1F
100
AcDbEntity
  8
0
  6
Continuous
 62
     7
370
    18
100
AcDbLine
 10
68.3745935699
 20
78.4285465383
 30
0.0
 11
83.993367539
 21
77.9404598518
 31
0.0
  0
LINE
  5
15E
330
1F
100
AcDbEntity
  8
0
  6
Continuous
 62
     7
370
    18
100
AcDbLine
 10
83.993367539
 20
76.9491976245
 30
0.0
 11
83.993367539
 21
98.4254476245
 31
0.0
  0
LINE
  5
15F
330
1F
100
AcDbEntity
  8
0
  6
CENTERX2
 62
     7
370
    18
100
AcDbLine
 10
124.493367539
 20
87.6873226245
 30
0.0
 11
66.0875997398
 21
87.6873226245
 31
0.0
  0
ENDSEC
  0
SECTION
  2
OBJECTS
  0
DICTIONARY
  5
C
330
0
100
AcDbDictionary
281
     1
  3
ACAD_GROUP
350
D
  3
ACAD_LAYOUT
350
1A
  3
ACAD_MLINESTYLE
350
17
  3
ACAD_PLOTSETTINGS
350
19
  3
ACAD_PLOTSTYLENAME
350
E
  3
ACAD_SCALELIST
350
47
  0
DICTIONARY
  5
D
102
{ACAD_REACTORS
330
C
102
}
330
C
100
AcDbDictionary
281
     1
  0
DICTIONARY
  5
1A
102
{ACAD_REACTORS
330
C
102
}
330
C
100
AcDbDictionary
281
     1
  3
Layout1
350
1E
  3
Layout2
350
26
  3
Model
350
22
  0
DICTIONARY
  5
17
102
{ACAD_REACTORS
330
C
102
}
330
C
100
AcDbDictionary
281
     1
  3
Standard
350
18
  0
DICTIONARY
  5
19
102
{ACAD_REACTORS
330
C
102
}
330
C
100
AcDbDictionary
281
     1
  0
ACDBDICTIONARYWDFLT
  5
E
102
{ACAD_REACTORS
330
C
102
}
330
C
100
AcDbDictionary
281
     1
  3
Normal
350
F
100
AcDbDictionaryWithDefault
340
F
  0
DICTIONARY
  5
47
102
{ACAD_REACTORS
330
C
102
}
330
C
100
AcDbDictionary
281
     1
  3
A0
350
48
  3
A1
350
49
  3
A2
350
4A
  3
A3
350
4B
  3
A4
350
4C
  3
A5
350
4D
  3
A6
350
4E
  3
A7
350
4F
  3
A8
350
50
  3
A9
350
51
  3
B0
350
52
  3
B1
350
53
  3
B2
350
54
  3
B3
350
55
  3
B4
350
56
  3
B5
350
57
  3
B6
350
58
  3
B7
350
59
  3
B8
350
5A
  3
B9
350
5B
  3
C0
350
5C
  3
C1
350
5D
  3
C2
350
5E
  3
C3
350
5F
  3
C4
350
60
  3
C5
350
61
  3
C6
350
62
  3
C7
350
63
  3
C8
350
64
  3
C9
350
65
  3
D0
350
66
  3
D1
350
67
  3
D2
350
68
  0
LAYOUT
  5
1E
102
{ACAD_REACTORS
330
1A
102
}
330
1A
100
AcDbPlotSettings
  1

  2
none_device
  4

  6

 40
0.0
 41
0.0
 42
0.0
 43
0.0
 44
0.0
 45
0.0
 46
0.0
 47
0.0
 48
0.0
 49
0.0
140
0.0
141
0.0
142
1.0
143
1.0
 70
   688
 72
     1
 73
     0
 74
     5
  7

 75
    16
147
1.0
148
0.0
149
0.0
100
AcDbLayout
  1
Layout1
 70
     1
 71
     1
 10
0.0
 20
0.0
 11
420.0
 21
297.0
 12
0.0
 22
0.0
 32
0.0
 14
1.0000000000E+20
 24
1.0000000000E+20
 34
1.0000000000E+20
 15
-1.0000000000E+20
 25
-1.0000000000E+20
 35
-1.0000000000E+20
146
0.0
 13
0.0
 23
0.0
 33
0.0
 16
1.0
 26
0.0
 36
0.0
 17
0.0
 27
1.0
 37
0.0
 76
     0
330
1B
  0
LAYOUT
  5
26
102
{ACAD_REACTORS
330
1A
102
}
330
1A
100
AcDbPlotSettings
  1

  2
none_device
  4

  6

 40
0.0
 41
0.0
 42
0.0
 43
0.0
 44
0.0
 45
0.0
 46
0.0
 47
0.0
 48
0.0
 49
0.0
140
0.0
141
0.0
142
1.0
143
1.0
 70
   688
 72
     1
 73
     0
 74
     5
  7

 75
    16
147
1.0
148
0.0
149
0.0
100
AcDbLayout
  1
Layout2
 70
     1
 71
     2
 10
0.0
 20
0.0
 11
0.0
 21
0.0
 12
0.0
 22
0.0
 32
0.0
 14
0.0
 24
0.0
 34
0.0
 15
0.0
 25
0.0
 35
0.0
146
0.0
 13
0.0
 23
0.0
 33
0.0
 16
1.0
 26
0.0
 36
0.0
 17
0.0
 27
1.0
 37
0.0
 76
     0
330
23
  0
LAYOUT
  5
22
102
{ACAD_REACTORS
330
1A
102
}
330
1A
100
AcDbPlotSettings
  1

  2
none_device
  4
Letter_(8.50_x_11.00_Inches)
  6

 40
6.35
 41
6.35
 42
6.35000508
 43
6.35000508
 44
215.9
 45
279.4
 46
0.0
 47
0.0
 48
0.0
 49
0.0
140
0.0
141
0.0
142
1.0
143
1.0
 70
  1712
 72
     1
 73
     0
 74
     0
  7

 75
     0
147
1.0
148
0.0
149
0.0
100
AcDbLayout
  1
Model
 70
     1
 71
     0
 10
0.0
 20
0.0
 11
215.9
 21
139.7
 12
0.0
 22
0.0
 32
0.0
 14
0.0
 24
0.0
 34
0.0
 15
215.9
 25
139.7
 35
0.0
146
0.0
 13
0.0
 23
0.0
 33
0.0
 16
1.0
 26
0.0
 36
0.0
 17
0.0
 27
1.0
 37
0.0
 76
     0
330
1F
331
29
  0
MLINESTYLE
  5
18
102
{ACAD_REACTORS
330
17
102
}
330
17
100
AcDbMlineStyle
  2
Standard
 70
     0
  3

 62
   256
 51
90.0
 52
90.0
 71
     2
 49
0.5
 62
   256
  6
BYLAYER
 49
-0.5
 62
   256
  6
BYLAYER
  0
ACDBPLACEHOLDER
  5
F
102
{ACAD_REACTORS
330
E
102
}
330
E
  0
SCALE
  5
48
102
{ACAD_REACTORS
330
47
102
}
330
47
100
AcDbScale
 70
     0
300
1:1
140
1.0
141
1.0
290
     1
  0
SCALE
  5
49
102
{ACAD_REACTORS
330
47
102
}
330
47
100
AcDbScale
 70
     0
300
1:2
140
1.0
141
2.0
290
     0
  0
SCALE
  5
4A
102
{ACAD_REACTORS
330
47
102
}
330
47
100
AcDbScale
 70
     0
300
1:4
140
1.0
141
4.0
290
     0
  0
SCALE
  5
4B
102
{ACAD_REACTORS
330
47
102
}
330
47
100
AcDbScale
 70
     0
300
1:5
140
1.0
141
5.0
290
     0
  0
SCALE
  5
4C
102
{ACAD_REACTORS
330
47
102
}
330
47
100
AcDbScale
 70
     0
300
1:8
140
1.0
141
8.0
290
     0
  0
SCALE
  5
4D
102
{ACAD_REACTORS
330
47
102
}
330
47
100
AcDbScale
 70
     0
300
1:10
140
1.0
141
10.0
290
     0
  0
SCALE
  5
4E
102
{ACAD_REACTORS
330
47
102
}
330
47
100
AcDbScale
 70
     0
300
1:16
140
1.0
141
16.0
290
     0
  0
SCALE
  5
4F
102
{ACAD_REACTORS
330
47
102
}
330
47
100
AcDbScale
 70
     0
300
1:20
140
1.0
141
20.0
290
     0
  0
SCALE
  5
50
102
{ACAD_REACTORS
330
47
102
}
330
47
100
AcDbScale
 70
     0
300
1:30
140
1.0
141
30.0
290
     0
  0
SCALE
  5
51
102
{ACAD_REACTORS
330
47
102
}
330
47
100
AcDbScale
 70
     0
300
1:40
140
1.0
141
40.0
290
     0
  0
SCALE
  5
52
102
{ACAD_REACTORS
330
47
102
}
330
47
100
AcDbScale
 70
     0
300
1:50
140
1.0
141
50.0
290
     0
  0
SCALE
  5
53
102
{ACAD_REACTORS
330
47
102
}
330
47
100
AcDbScale
 70
     0
300
1:100
140
1.0
141
100.0
290
     0
  0
SCALE
  5
54
102
{ACAD_REACTORS
330
47
102
}
330
47
100
AcDbScale
 70
     0
300
2:1
140
2.0
141
1.0
290
     0
  0
SCALE
  5
55
102
{ACAD_REACTORS
330
47
102
}
330
47
100
AcDbScale
 70
     0
300
4:1
140
4.0
141
1.0
290
     0
  0
SCALE
  5
56
102
{ACAD_REACTORS
330
47
102
}
330
47
100
AcDbScale
 70
     0
300
8:1
140
8.0
141
1.0
290
     0
  0
SCALE
  5
57
102
{ACAD_REACTORS
330
47
102
}
330
47
100
AcDbScale
 70
     0
300
10:1
140
10.0
141
1.0
290
     0
  0
SCALE
  5
58
102
{ACAD_REACTORS
330
47
102
}
330
47
100
AcDbScale
 70
     0
300
100:1
140
100.0
141
1.0
290
     0
  0
SCALE
  5
59
102
{ACAD_REACTORS
330
47
102
}
330
47
100
AcDbScale
 70
     0
300
1/128" = 1'-0"
140
0.0078125
141
12.0
290
     0
  0
SCALE
  5
5A
102
{ACAD_REACTORS
330
47
102
}
330
47
100
AcDbScale
 70
     0
300
1/64" = 1'-0"
140
0.015625
141
12.0
290
     0
  0
SCALE
  5
5B
102
{ACAD_REACTORS
330
47
102
}
330
47
100
AcDbScale
 70
     0
300
1/32" = 1'-0"
140
0.03125
141
12.0
290
     0
  0
SCALE
  5
5C
102
{ACAD_REACTORS
330
47
102
}
330
47
100
AcDbScale
 70
     0
300
1/16" = 1'-0"
140
0.0625
141
12.0
290
     0
  0
SCALE
  5
5D
102
{ACAD_REACTORS
330
47
102
}
330
47
100
AcDbScale
 70
     0
300
3/32" = 1'-0"
140
0.09375
141
12.0
290
     0
  0
SCALE
  5
5E
102
{ACAD_REACTORS
330
47
102
}
330
47
100
AcDbScale
 70
     0
300
1/8" = 1'-0"
140
0.125
141
12.0
290
     0
  0
SCALE
  5
5F
102
{ACAD_REACTORS
330
47
102
}
330
47
100
AcDbScale
 70
     0
300
3/16" = 1'-0"
140
0.1875
141
12.0
290
     0
  0
SCALE
  5
60
102
{ACAD_REACTORS
330
47
102
}
330
47
100
AcDbScale
 70
     0
300
1/4" = 1'-0"
140
0.25
141
12.0
290
     0
  0
SCALE
  5
61
102
{ACAD_REACTORS
330
47
102
}
330
47
100
AcDbScale
 70
     0
300
3/8" = 1'-0"
140
0.375
141
12.0
290
     0
  0
SCALE
  5
62
102
{ACAD_REACTORS
330
47
102
}
330
47
100
AcDbScale
 70
     0
300
1/2" = 1'-0"
140
0.5
141
12.0
290
     0
  0
SCALE
  5
63
102
{ACAD_REACTORS
330
47
102
}
330
47
100
AcDbScale
 70
     0
300
3/4" = 1'-0"
140
0.75
141
12.0
290
     0
  0
SCALE
  5
64
102
{ACAD_REACTORS
330
47
102
}
330
47
100
AcDbScale
 70
     0
300
1" = 1'-0"
140
1.0
141
12.0
290
     0
  0
SCALE
  5
65
102
{ACAD_REACTORS
330
47
102
}
330
47
100
AcDbScale
 70
     0
300
1-1/2" = 1'-0"
140
1.5
141
12.0
290
     0
  0
SCALE
  5
66
102
{ACAD_REACTORS
330
47
102
}
330
47
100
AcDbScale
 70
     0
300
3" = 1'-0"
140
3.0
141
12.0
290
     0
  0
SCALE
  5
67
102
{ACAD_REACTORS
330
47
102
}
330
47
100
AcDbScale
 70
     0
300
6" = 1'-0"
140
6.0
141
12.0
290
     0
  0
SCALE
  5
68
102
{ACAD_REACTORS
330
47
102
}
330
47
100
AcDbScale
 70
     0
300
1'-0" = 1'-0"
140
12.0
141
12.0
290
     0
  0
ENDSEC
  0
EOF
