  0
SECTION
  2
HEADER
  9
$ACADVER
  1
AC1015
  9
$ACADMAINTVER
 70
     6
  9
$DWGCODEPAGE
  3
DOS932
  9
$INSBASE
 10
0.0
 20
0.0
 30
0.0
  9
$EXTMIN
 10
0.0
 20
0.0
 30
0.0
  9
$EXTMAX
 10
215.9
 20
139.7
 30
0.0
  9
$LIMMIN
 10
0.0
 20
0.0
  9
$LIMMAX
 10
215.9
 20
139.7
  9
$ORTHOMODE
 70
     0
  9
$REGENMODE
 70
     1
  9
$FILLMODE
 70
     1
  9
$QTEXTMODE
 70
     0
  9
$MIRRTEXT
 70
     1
  9
$LTSCALE
 40
0.5
  9
$ATTMODE
 70
     1
  9
$TEXTSIZE
 40
1.75
  9
$TRACEWID
 40
1.0
  9
$TEXTSTYLE
  7
Standard
  9
$CLAYER
  8
0
  9
$CELTYPE
  6
ByLayer
  9
$CECOLOR
 62
   256
  9
$CELTSCALE
 40
1.0
  9
$DISPSILH
 70
     0
  9
$DIMSCALE
 40
1.0
  9
$DIMASZ
 40
1.651
  9
$DIMEXO
 40
0.5
  9
$DIMDLI
 40
3.75
  9
$DIMRND
 40
0.0
  9
$DIMDLE
 40
0.0
  9
$DIMEXE
 40
0.5
  9
$DIMTP
 40
0.0
  9
$DIMTM
 40
0.0
  9
$DIMTXT
 40
1.75
  9
$DIMCEN
 40
2.5
  9
$DIMTSZ
 40
0.0
  9
$DIMTOL
 70
     0
  9
$DIMLIM
 70
     0
  9
$DIMTIH
 70
     1
  9
$DIMTOH
 70
     1
  9
$DIMSE1
 70
     0
  9
$DIMSE2
 70
     0
  9
$DIMTAD
 70
     1
  9
$DIMZIN
 70
     1
  9
$DIMBLK
  1

  9
$DIMASO
 70
     1
  9
$DIMSHO
 70
     1
  9
$DIMPOST
  1

  9
$DIMAPOST
  1

  9
$DIMALT
 70
     0
  9
$DIMALTD
 70
     3
  9
$DIMALTF
 40
0.0393700787
  9
$DIMLFAC
 40
1.0
  9
$DIMTOFL
 70
     1
  9
$DIMTVP
 40
0.0
  9
$DIMTIX
 70
     0
  9
$DIMSOXD
 70
     0
  9
$DIMSAH
 70
     0
  9
$DIMBLK1
  1

  9
$DIMBLK2
  1

  9
$DIMSTYLE
  2
ISO-25
  9
$DIMCLRD
 70
     0
  9
$DIMCLRE
 70
     0
  9
$DIMCLRT
 70
     0
  9
$DIMTFAC
 40
1.0
  9
$DIMGAP
 40
0.762
  9
$DIMJUST
 70
     0
  9
$DIMSD1
 70
     0
  9
$DIMSD2
 70
     0
  9
$DIMTOLJ
 70
     0
  9
$DIMTZIN
 70
     1
  9
$DIMALTZ
 70
     0
  9
$DIMALTTZ
 70
     0
  9
$DIMUPT
 70
     0
  9
$DIMDEC
 70
     2
  9
$DIMTDEC
 70
     2
  9
$DIMALTU
 70
     2
  9
$DIMALTTD
 70
     3
  9
$DIMTXSTY
  7
Standard
  9
$DIMAUNIT
 70
     0
  9
$DIMADEC
 70
     2
  9
$DIMALTRND
 40
0.0
  9
$DIMAZIN
 70
     0
  9
$DIMDSEP
 70
    44
  9
$DIMATFIT
 70
     3
  9
$DIMFRAC
 70
     0
  9
$DIMLDRBLK
  1

  9
$DIMLUNIT
 70
     2
  9
$DIMLWD
 70
    -2
  9
$DIMLWE
 70
    -2
  9
$DIMTMOVE
 70
     0
  9
$LUNITS
 70
     2
  9
$LUPREC
 70
     2
  9
$SKETCHINC
 40
1.0
  9
$FILLETRAD
 40
10.0
  9
$AUNITS
 70
     0
  9
$AUPREC
 70
     2
  9
$MENU
  1
.
  9
$ELEVATION
 40
0.0
  9
$PELEVATION
 40
0.0
  9
$THICKNESS
 40
0.0
  9
$LIMCHECK
 70
     0
  9
$CHAMFERA
 40
0.0
  9
$CHAMFERB
 40
0.0
  9
$CHAMFERC
 40
0.0
  9
$CHAMFERD
 40
0.0
  9
$SKPOLY
 70
     0
  9
$TDCREATE
 40
2460082.689760012
  9
$TDUCREATE
 40
2460082.314760012
  9
$TDUPDATE
 40
2460082.689760718
  9
$TDUUPDATE
 40
2460082.314760718
  9
$TDINDWG
 40
0.0000000116
  9
$TDUSRTIMER
 40
0.0000000116
  9
$USRTIMER
 70
     1
  9
$ANGBASE
 50
0.0
  9
$ANGDIR
 70
     0
  9
$PDMODE
 70
     0
  9
$PDSIZE
 40
-1.0
  9
$PLINEWID
 40
0.0
  9
$SPLFRAME
 70
     0
  9
$SPLINETYPE
 70
     6
  9
$SPLINESEGS
 70
     8
  9
$HANDSEED
  5
160
  9
$SURFTAB1
 70
     6
  9
$SURFTAB2
 70
     6
  9
$SURFTYPE
 70
     6
  9
$SURFU
 70
     6
  9
$SURFV
 70
     6
  9
$UCSBASE
  2

  9
$UCSNAME
  2

  9
$UCSORG
 10
0.0
 20
0.0
 30
0.0
  9
$UCSXDIR
 10
1.0
 20
0.0
 30
0.0
  9
$UCSYDIR
 10
0.0
 20
1.0
 30
0.0
  9
$UCSORTHOREF
  2

  9
$UCSORTHOVIEW
 70
     0
  9
$UCSORGTOP
 10
0.0
 20
0.0
 30
0.0
  9
$UCSORGBOTTOM
 10
0.0
 20
0.0
 30
0.0
  9
$UCSORGLEFT
 10
0.0
 20
0.0
 30
0.0
  9
$UCSORGRIGHT
 10
0.0
 20
0.0
 30
0.0
  9
$UCSORGFRONT
 10
0.0
 20
0.0
 30
0.0
  9
$UCSORGBACK
 10
0.0
 20
0.0
 30
0.0
  9
$PUCSBASE
  2

  9
$PUCSNAME
  2

  9
$PUCSORG
 10
0.0
 20
0.0
 30
0.0
  9
$PUCSXDIR
 10
1.0
 20
0.0
 30
0.0
  9
$PUCSYDIR
 10
0.0
 20
1.0
 30
0.0
  9
$PUCSORTHOREF
  2

  9
$PUCSORTHOVIEW
 70
     0
  9
$PUCSORGTOP
 10
0.0
 20
0.0
 30
0.0
  9
$PUCSORGBOTTOM
 10
0.0
 20
0.0
 30
0.0
  9
$PUCSORGLEFT
 10
0.0
 20
0.0
 30
0.0
  9
$PUCSORGRIGHT
 10
0.0
 20
0.0
 30
0.0
  9
$PUCSORGFRONT
 10
0.0
 20
0.0
 30
0.0
  9
$PUCSORGBACK
 10
0.0
 20
0.0
 30
0.0
  9
$USERI1
 70
     0
  9
$USERI2
 70
     0
  9
$USERI3
 70
     0
  9
$USERI4
 70
     0
  9
$USERI5
 70
     0
  9
$USERR1
 40
0.0
  9
$USERR2
 40
0.0
  9
$USERR3
 40
0.0
  9
$USERR4
 40
0.0
  9
$USERR5
 40
0.0
  9
$WORLDVIEW
 70
     1
  9
$SHADEDGE
 70
     3
  9
$SHADEDIF
 70
    70
  9
$TILEMODE
 70
     1
  9
$MAXACTVP
 70
    64
  9
$PINSBASE
 10
0.0
 20
0.0
 30
0.0
  9
$PLIMCHECK
 70
     0
  9
$PEXTMIN
 10
1.0000000000E+20
 20
1.0000000000E+20
 30
1.0000000000E+20
  9
$PEXTMAX
 10
-1.0000000000E+20
 20
-1.0000000000E+20
 30
-1.0000000000E+20
  9
$PLIMMIN
 10
0.0
 20
0.0
  9
$PLIMMAX
 10
420.0
 20
297.0
  9
$UNITMODE
 70
     0
  9
$VISRETAIN
 70
     1
  9
$PLINEGEN
 70
     0
  9
$PSLTSCALE
 70
     1
  9
$TREEDEPTH
 70
  3020
  9
$CMLSTYLE
  2
Standard
  9
$CMLJUST
 70
     0
  9
$CMLSCALE
 40
20.0
  9
$PROXYGRAPHICS
 70
     1
  9
$MEASUREMENT
 70
     1
  9
$CELWEIGHT
370
    -1
  9
$ENDCAPS
280
     0
  9
$JOINSTYLE
280
     0
  9
$LWDISPLAY
290
     1
  9
$INSUNITS
 70
     4
  9
$HYPERLINKBASE
  1

  9
$STYLESHEET
  1

  9
$XEDIT
290
     1
  9
$CEPSNTYPE
380
     0
  9
$PSTYLEMODE
290
     1
  9
$FINGERPRINTGUID
  2
{7369433F-4E86-463C-B015-A6B7C63D5FF9}
  9
$VERSIONGUID
  2
{FAEB1C32-E019-11D5-929B-00C0DF256EC4}
  9
$EXTNAMES
290
     1
  9
$PSVPSCALE
 40
0.0
  9
$OLESTARTUP
290
     0
  0
ENDSEC
  0
SECTION
  2
CLASSES
  0
CLASS
  1
ACDBDICTIONARYWDFLT
  2
AcDbDictionaryWithDefault
  3
ObjectDBX Classes
 90
        0
280
     0
281
     0
  0
CLASS
  1
VISUALSTYLE
  2
AcDbVisualStyle
  3
ObjectDBX Classes
 90
     4095
280
     0
281
     0
  0
CLASS
  1
MATERIAL
  2
AcDbMaterial
  3
ObjectDBX Classes
 90
     1153
280
     0
281
     0
  0
CLASS
  1
SCALE
  2
AcDbScale
  3
ObjectDBX Classes
 90
     1153
280
     0
281
     0
  0
CLASS
  1
TABLESTYLE
  2
AcDbTableStyle
  3
ObjectDBX Classes
 90
     4095
280
     0
281
     0
  0
CLASS
  1
MLEADERSTYLE
  2
AcDbMLeaderStyle
  3
ACDB_MLEADERSTYLE_CLASS
 90
     4095
280
     0
281
     0
  0
CLASS
  1
SUN
  2
AcDbSun
  3
SCENEOE
 90
     1153
280
     0
281
     0
  0
CLASS
  1
ACDBPLACEHOLDER
  2
AcDbPlaceHolder
  3
ObjectDBX Classes
 90
        0
280
     0
281
     0
  0
CLASS
  1
LAYOUT
  2
AcDbLayout
  3
ObjectDBX Classes
 90
        0
280
     0
281
     0
  0
ENDSEC
  0
SECTION
  2
TABLES
  0
TABLE
  2
VPORT
  5
8
330
0
100
AcDbSymbolTable
 70
     1
  0
VPORT
  5
29
330
8
100
AcDbSymbolTableRecord
100
AcDbViewportTableRecord
  2
*Active
 70
     0
 10
0.0
 20
0.0
 11
1.0
 21
1.0
 12
107.95
 22
69.85
 13
0.0
 23
0.0
 14
10.0
 24
10.0
 15
10.0
 25
10.0
 16
0.0
 26
0.0
 36
1.0
 17
0.0
 27
0.0
 37
0.0
 40
139.7
 41
1.5454545455
 42
50.0
 43
0.0
 44
0.0
 50
0.0
 51
0.0
 71
     0
 72
  2000
 73
     1
 74
     3
 75
     0
 76
     0
 77
     0
 78
     0
281
     0
 65
     1
110
0.0
120
0.0
130
0.0
111
1.0
121
0.0
131
0.0
112
0.0
122
1.0
132
0.0
 79
     0
146
0.0
  0
ENDTAB
  0
TABLE
  2
LTYPE
  5
5
330
0
100
AcDbSymbolTable
 70
     6
  0
LTYPE
  5
14
330
5
100
AcDbSymbolTableRecord
100
AcDbLinetypeTableRecord
  2
ByBlock
 70
     0
  3

 72
    65
 73
     0
 40
0.0
  0
LTYPE
  5
15
330
5
100
AcDbSymbolTableRecord
100
AcDbLinetypeTableRecord
  2
ByLayer
 70
     0
  3

 72
    65
 73
     0
 40
0.0
  0
LTYPE
  5
16
330
5
100
AcDbSymbolTableRecord
100
AcDbLinetypeTableRecord
  2
Continuous
 70
     0
  3
Solid line
 72
    65
 73
     0
 40
0.0
  0
LTYPE
  5
6E
330
5
100
AcDbSymbolTableRecord
100
AcDbLinetypeTableRecord
  2
HIDDEN
 70
     0
  3
Hidden __ __ __ __ __ __ __ __ __ __ __ __ __ __
 72
    65
 73
     2
 40
1.905
 49
1.27
 74
     0
 49
-0.635
 74
     0
  0
LTYPE
  5
6F
330
5
100
AcDbSymbolTableRecord
100
AcDbLinetypeTableRecord
  2
PHANTOM
 70
     0
  3
Phantom ______  __  __  ______  __  __  ______
 72
    65
 73
     6
 40
12.7
 49
6.35
 74
     0
 49
-1.27
 74
     0
 49
1.27
 74
     0
 49
-1.27
 74
     0
 49
1.27
 74
     0
 49
-1.27
 74
     0
  0
LTYPE
  5
70
330
5
100
AcDbSymbolTableRecord
100
AcDbLinetypeTableRecord
  2
CENTER
 70
     0
  3
Center ____ _ ____ _ ____ _ ____ _ ____ _ ____
 72
    65
 73
     4
 40
10.16
 49
6.35
 74
     0
 49
-1.27
 74
     0
 49
1.27
 74
     0
 49
-1.27
 74
     0
  0
LTYPE
  5
71
330
5
100
AcDbSymbolTableRecord
100
AcDbLinetypeTableRecord
  2
CENTERX2
 70
     0
  3
Center (2x) ________  __  ________  __  _____
 72
    65
 73
     4
 40
20.32
 49
12.7
 74
     0
 49
-2.54
 74
     0
 49
2.54
 74
     0
 49
-2.54
 74
     0
  0
LTYPE
  5
72
330
5
100
AcDbSymbolTableRecord
100
AcDbLinetypeTableRecord
  2
DOT2
 70
     0
  3
Dot (.5x) ........................................
 72
    65
 73
     2
 40
0.635
 49
0.0
 74
     0
 49
-0.635
 74
     0
  0
ENDTAB
  0
TABLE
  2
LAYER
  5
2
330
0
100
AcDbSymbolTable
 70
     1
  0
LAYER
  5
10
330
2
100
AcDbSymbolTableRecord
100
AcDbLayerTableRecord
  2
0
 70
     0
 62
     7
  6
Continuous
370
    -3
390
F
  0
ENDTAB
  0
TABLE
  2
STYLE
  5
3
330
0
100
AcDbSymbolTable
 70
     2
  0
STYLE
  5
11
330
3
100
AcDbSymbolTableRecord
100
AcDbTextStyleTableRecord
  2
Standard
 70
     0
 40
0.0
 41
1.0
 50
0.0
 71
     0
 42
1.75
  3
txt
  4
bigfont
  0
STYLE
  5
73
330
3
100
AcDbSymbolTableRecord
100
AcDbTextStyleTableRecord
  2
SLDTEXTSTYLE0
 70
     0
 40
0.0
 41
0.7
 50
0.0
 71
     0
 42
1.75
  3
TXT
  4
bigfont
  0
ENDTAB
  0
TABLE
  2
VIEW
  5
6
330
0
100
AcDbSymbolTable
 70
     0
  0
ENDTAB
  0
TABLE
  2
UCS
  5
7
330
0
100
AcDbSymbolTable
 70
     0
  0
ENDTAB
  0
TABLE
  2
APPID
  5
9
330
0
100
AcDbSymbolTable
 70
     1
  0
APPID
  5
12
330
9
100
AcDbSymbolTableRecord
100
AcDbRegAppTableRecord
  2
ACAD
 70
     0
  0
ENDTAB
  0
TABLE
  2
DIMSTYLE
  5
A
330
0
100
AcDbSymbolTable
 70
     1
100
AcDbDimStyleTable
  0
DIMSTYLE
105
27
330
A
100
AcDbSymbolTableRecord
100
AcDbDimStyleTableRecord
  2
ISO-25
 70
     0
 41
2.5
 42
0.625
 43
3.75
 44
1.25
 73
     0
 74
     0
 77
     1
 78
     8
140
2.5
141
2.5
143
0.0393700787
147
0.625
171
     3
172
     1
178
     0
271
     2
272
     2
274
     3
278
    44
283
     0
284
     8
340
11
  0
ENDTAB
  0
TABLE
  2
BLOCK_RECORD
  5
1
330
0
100
AcDbSymbolTable
 70
     3
  0
BLOCK_RECORD
  5
1F
330
1
100
AcDbSymbolTableRecord
100
AcDbBlockTableRecord
  2
*Model_Space
340
22
  0
BLOCK_RECORD
  5
1B
330
1
100
AcDbSymbolTableRecord
100
AcDbBlockTableRecord
  2
*Paper_Space
340
1E
  0
BLOCK_RECORD
  5
23
330
1
100
AcDbSymbolTableRecord
100
AcDbBlockTableRecord
  2
*Paper_Space0
340
26
  0
BLOCK_RECORD
  5
FF
330
1
100
AcDbSymbolTableRecord
100
AcDbBlockTableRecord
  2
SW_CENTERMARKSYMBOL_0
340
0
102
{BLKREFS
331
10A
102
}
  0
BLOCK_RECORD
  5
10B
330
1
100
AcDbSymbolTableRecord
100
AcDbBlockTableRecord
  2
SW_CENTERMARKSYMBOL_1
340
0
102
{BLKREFS
331
116
102
}
  0
ENDTAB
  0
ENDSEC
  0
SECTION
  2
BLOCKS
  0
BLOCK
  5
20
330
1F
100
AcDbEntity
  8
0
100
AcDbBlockBegin
  2
*Model_Space
 70
     0
 10
0.0
 20
0.0
 30
0.0
  3
*Model_Space
  1

  0
ENDBLK
  5
21
330
1F
100
AcDbEntity
  8
0
100
AcDbBlockEnd
  0
BLOCK
  5
1C
330
1B
100
AcDbEntity
 67
     1
  8
0
100
AcDbBlockBegin
  2
*Paper_Space
 70
     0
 10
0.0
 20
0.0
 30
0.0
  3
*Paper_Space
  1

  0
ENDBLK
  5
1D
330
1B
100
AcDbEntity
 67
     1
  8
0
100
AcDbBlockEnd
  0
BLOCK
  5
24
330
23
100
AcDbEntity
  8
0
100
AcDbBlockBegin
  2
*Paper_Space0
 70
     0
 10
0.0
 20
0.0
 30
0.0
  3
*Paper_Space0
  1

  0
ENDBLK
  5
25
330
23
100
AcDbEntity
  8
0
100
AcDbBlockEnd
  0
BLOCK
  5
100
330
FF
100
AcDbEntity
  8
0
100
AcDbBlockBegin
  2
SW_CENTERMARKSYMBOL_0
 70
     0
 10
0.0
 20
0.0
 30
0.0
  3
SW_CENTERMARKSYMBOL_0
  1

  0
LINE
  5
102
330
FF
100
AcDbEntity
  8
0
  6
Continuous
 62
     0
370
    18
100
AcDbLine
 10
0.0
 20
0.0
 30
0.0
 11
0.0
 21
2.5
 31
0.0
  0
LINE
  5
103
330
FF
100
AcDbEntity
  8
0
  6
Continuous
 62
     0
370
    18
100
AcDbLine
 10
0.0
 20
0.0
 30
0.0
 11
-2.5
 21
0.0
 31
0.0
  0
LINE
  5
104
330
FF
100
AcDbEntity
  8
0
  6
Continuous
 62
     0
370
    18
100
AcDbLine
 10
0.0
 20
0.0
 30
0.0
 11
0.0
 21
-2.5
 31
0.0
  0
LINE
  5
105
330
FF
100
AcDbEntity
  8
0
  6
Continuous
 62
     0
370
    18
100
AcDbLine
 10
0.0
 20
0.0
 30
0.0
 11
2.5
 21
0.0
 31
0.0
  0
LINE
  5
106
330
FF
100
AcDbEntity
  8
0
  6
Continuous
 62
     0
370
    18
100
AcDbLine
 10
0.0
 20
5.0
 30
0.0
 11
0.0
 21
9.75
 31
0.0
  0
LINE
  5
107
330
FF
100
AcDbEntity
  8
0
  6
Continuous
 62
     0
370
    18
100
AcDbLine
 10
-5.0
 20
0.0
 30
0.0
 11
-9.75
 21
0.0
 31
0.0
  0
LINE
  5
108
330
FF
100
AcDbEntity
  8
0
  6
Continuous
 62
     0
370
    18
100
AcDbLine
 10
0.0
 20
-5.0
 30
0.0
 11
0.0
 21
-9.75
 31
0.0
  0
LINE
  5
109
330
FF
100
AcDbEntity
  8
0
  6
Continuous
 62
     0
370
    18
100
AcDbLine
 10
5.0
 20
0.0
 30
0.0
 11
9.75
 21
0.0
 31
0.0
  0
ENDBLK
  5
101
330
FF
100
AcDbEntity
  8
0
100
AcDbBlockEnd
  0
BLOCK
  5
10C
330
10B
100
AcDbEntity
  8
0
100
AcDbBlockBegin
  2
SW_CENTERMARKSYMBOL_1
 70
     0
 10
0.0
 20
0.0
 30
0.0
  3
SW_CENTERMARKSYMBOL_1
  1

  0
LINE
  5
10E
330
10B
100
AcDbEntity
  8
0
  6
Continuous
 62
     0
370
    18
100
AcDbLine
 10
0.0
 20
0.0
 30
0.0
 11
0.0
 21
2.5
 31
0.0
  0
LINE
  5
10F
330
10B
100
AcDbEntity
  8
0
  6
Continuous
 62
     0
370
    18
100
AcDbLine
 10
0.0
 20
0.0
 30
0.0
 11
-2.5
 21
0.0
 31
0.0
  0
LINE
  5
110
330
10B
100
AcDbEntity
  8
0
  6
Continuous
 62
     0
370
    18
100
AcDbLine
 10
0.0
 20
0.0
 30
0.0
 11
0.0
 21
-2.5
 31
0.0
  0
LINE
  5
111
330
10B
100
AcDbEntity
  8
0
  6
Continuous
 62
     0
370
    18
100
AcDbLine
 10
0.0
 20
0.0
 30
0.0
 11
2.5
 21
0.0
 31
0.0
  0
LINE
  5
112
330
10B
100
AcDbEntity
  8
0
  6
Continuous
 62
     0
370
    18
100
AcDbLine
 10
0.0
 20
5.0
 30
0.0
 11
0.0
 21
13.5
 31
0.0
  0
LINE
  5
113
330
10B
100
AcDbEntity
  8
0
  6
Continuous
 62
     0
370
    18
100
AcDbLine
 10
-5.0
 20
0.0
 30
0.0
 11
-13.5
 21
0.0
 31
0.0
  0
LINE
  5
114
330
10B
100
AcDbEntity
  8
0
  6
Continuous
 62
     0
370
    18
100
AcDbLine
 10
0.0
 20
-5.0
 30
0.0
 11
0.0
 21
-13.5
 31
0.0
  0
LINE
  5
115
330
10B
100
AcDbEntity
  8
0
  6
Continuous
 62
     0
370
    18
100
AcDbLine
 10
5.0
 20
0.0
 30
0.0
 11
13.5
 21
0.0
 31
0.0
  0
ENDBLK
  5
10D
330
10B
100
AcDbEntity
  8
0
100
AcDbBlockEnd
  0
ENDSEC
  0
SECTION
  2
ENTITIES
  0
MTEXT
  5
74
330
1F
100
AcDbEntity
  8
0
  6
Continuous
 62
     7
370
     0
100
AcDbMText
 10
118.0068973486
 20
70.0908277032
 30
0.0
 40
2.38125
 41
0.0
 71
     1
 72
     1
  1
エースニップル　HN-8420
  7
SLDTEXTSTYLE0
 73
     1
 44
1.0
  0
LINE
  5
75
330
1F
100
AcDbEntity
  8
0
  6
Continuous
 62
     7
370
    25
100
AcDbLine
 10
77.8329742329
 20
59.7584998377
 30
0.0
 11
63.5293655059
 21
59.311512065
 31
0.0
  0
LINE
  5
76
330
1F
100
AcDbEntity
  8
0
  6
Continuous
 62
     7
370
    25
100
AcDbLine
 10
63.5293655059
 20
38.6979876105
 30
0.0
 11
77.8329742329
 21
38.2509998377
 31
0.0
  0
LINE
  5
77
330
1F
100
AcDbEntity
  8
0
  6
Continuous
 62
     7
370
    25
100
AcDbLine
 10
63.5293655059
 20
59.311512065
 30
0.0
 11
60.8329742329
 21
57.7547498377
 31
0.0
  0
LINE
  5
78
330
1F
100
AcDbEntity
  8
0
  6
Continuous
 62
     7
370
    25
100
AcDbLine
 10
60.8329742329
 20
40.2547498377
 30
0.0
 11
63.5293655059
 21
38.6979876105
 31
0.0
  0
LINE
  5
79
330
1F
100
AcDbEntity
  8
0
  6
Continuous
 62
     7
370
    25
100
AcDbLine
 10
103.8329742329
 20
38.7547498377
 30
0.0
 11
109.3329742329
 21
39.7547498377
 31
0.0
  0
LINE
  5
7A
330
1F
100
AcDbEntity
  8
0
  6
Continuous
 62
     7
370
    25
100
AcDbLine
 10
109.3329742329
 20
58.2547498377
 30
0.0
 11
103.8329742329
 21
59.2547498377
 31
0.0
  0
LINE
  5
7B
330
1F
100
AcDbEntity
  8
0
  6
Continuous
 62
     7
370
    25
100
AcDbLine
 10
98.3329742329
 20
38.7547498377
 30
0.0
 11
103.8329742329
 21
39.7547498377
 31
0.0
  0
LINE
  5
7C
330
1F
100
AcDbEntity
  8
0
  6
Continuous
 62
     7
370
    25
100
AcDbLine
 10
103.8329742329
 20
58.2547498377
 30
0.0
 11
98.3329742329
 21
59.2547498377
 31
0.0
  0
LINE
  5
7D
330
1F
100
AcDbEntity
  8
0
  6
Continuous
 62
     7
370
    25
100
AcDbLine
 10
109.3329742329
 20
38.7547498377
 30
0.0
 11
116.399056093
 21
39.6968940857
 31
0.0
  0
LINE
  5
7E
330
1F
100
AcDbEntity
  8
0
  6
Continuous
 62
     7
370
    25
100
AcDbLine
 10
116.399056093
 20
58.3126055897
 30
0.0
 11
109.3329742329
 21
59.2547498377
 31
0.0
  0
LINE
  5
7F
330
1F
100
AcDbEntity
  8
0
  6
Continuous
 62
     7
370
    25
100
AcDbLine
 10
92.8329742329
 20
59.2547498377
 30
0.0
 11
83.8329742329
 21
59.2547498377
 31
0.0
  0
LINE
  5
80
330
1F
100
AcDbEntity
  8
0
  6
Continuous
 62
     7
370
    25
100
AcDbLine
 10
83.8329742329
 20
38.7547498377
 30
0.0
 11
92.8329742329
 21
38.7547498377
 31
0.0
  0
LINE
  5
81
330
1F
100
AcDbEntity
  8
0
  6
Continuous
 62
     7
370
    25
100
AcDbLine
 10
92.8329742329
 20
38.7547498377
 30
0.0
 11
98.3329742329
 21
39.7547498377
 31
0.0
  0
LINE
  5
82
330
1F
100
AcDbEntity
  8
0
  6
Continuous
 62
     7
370
    25
100
AcDbLine
 10
98.3329742329
 20
58.2547498377
 30
0.0
 11
92.8329742329
 21
59.2547498377
 31
0.0
  0
ARC
  5
83
330
1F
100
AcDbEntity
  8
0
  6
Continuous
 62
     7
370
    25
100
AcDbCircle
 10
116.3329742329
 20
40.1925080361
 30
0.0
 40
0.500000000000004
100
AcDbArc
 50
277.5946433686
 51
0.0
  0
ARC
  5
84
330
1F
100
AcDbEntity
  8
0
  6
Continuous
 62
     7
370
    25
100
AcDbCircle
 10
116.3329742329
 20
57.8169916394
 30
0.0
 40
0.5
100
AcDbArc
 50
0.0
 51
82.4053566314
  0
LINE
  5
85
330
1F
100
AcDbEntity
  8
0
  6
Continuous
 62
     7
370
    25
100
AcDbLine
 10
77.8329742329
 20
38.0047498377
 30
0.0
 11
78.8154546052
 21
36.3030439156
 31
0.0
  0
LINE
  5
86
330
1F
100
AcDbEntity
  8
0
  6
Continuous
 62
     7
370
    25
100
AcDbLine
 10
82.8504938607
 20
36.3030439156
 30
0.0
 11
83.8329742329
 21
38.0047498377
 31
0.0
  0
LINE
  5
87
330
1F
100
AcDbEntity
  8
0
  6
Continuous
 62
     7
370
    25
100
AcDbLine
 10
78.8154546052
 20
61.7064557599
 30
0.0
 11
77.8329742329
 21
60.0047498377
 31
0.0
  0
LINE
  5
88
330
1F
100
AcDbEntity
  8
0
  6
Continuous
 62
     7
370
    25
100
AcDbLine
 10
83.8329742329
 20
60.0047498377
 30
0.0
 11
82.8504938607
 21
61.7064557599
 31
0.0
  0
LINE
  5
89
330
1F
100
AcDbEntity
  8
0
  6
Continuous
 62
     7
370
    25
100
AcDbLine
 10
80.8329742329
 20
61.4064557599
 30
0.0
 11
80.7525894752
 21
61.7064557599
 31
0.0
  0
LINE
  5
8A
330
1F
100
AcDbEntity
  8
0
  6
Continuous
 62
     7
370
    25
100
AcDbLine
 10
80.9133589907
 20
61.7064557599
 30
0.0
 11
80.8329742329
 21
61.4064557599
 31
0.0
  0
LINE
  5
8B
330
1F
100
AcDbEntity
  8
0
  6
Continuous
 62
     7
370
    25
100
AcDbLine
 10
80.7525894752
 20
36.3030439156
 30
0.0
 11
80.8329742329
 21
36.6030439156
 31
0.0
  0
LINE
  5
8C
330
1F
100
AcDbEntity
  8
0
  6
Continuous
 62
     7
370
    25
100
AcDbLine
 10
80.8329742329
 20
36.6030439156
 30
0.0
 11
80.9133589907
 21
36.3030439156
 31
0.0
  0
SPLINE
  5
8D
330
1F
100
AcDbEntity
  8
0
  6
Continuous
 62
     7
370
    25
100
AcDbSpline
210
0.0
220
0.0
230
1.0
 70
     8
 71
     3
 72
    19
 73
    15
 74
     0
 42
0.000000001
 43
0.00000001
 40
0.0
 40
0.0
 40
0.0
 40
0.0
 40
0.1227280999764553
 40
0.239716523588393
 40
0.3518621792202463
 40
0.4632019818032239
 40
0.5202611541541643
 40
0.5794324380306665
 40
0.6405963441586369
 40
0.70529822908802
 40
0.7732361059084537
 40
0.844648929340316
 40
0.9200459817773698
 40
1.0
 40
1.0
 40
1.0
 40
1.0
 10
81.41758961756389
 20
49.9410479146547
 30
0.0
 10
81.4169944762161
 20
49.95812776533997
 30
0.0
 10
81.41583202674478
 20
49.99148868619238
 30
0.0
 10
81.40561461986464
 20
50.0395729297996
 30
0.0
 10
81.38942619193305
 20
50.08422759882865
 30
0.0
 10
81.36987871321983
 20
50.11824544890693
 30
0.0
 10
81.35064923085706
 20
50.14340805369857
 30
0.0
 10
81.33410610720999
 20
50.16173375568344
 30
0.0
 10
81.3153495933348
 20
50.17940160960585
 30
0.0
 10
81.29386521916506
 20
50.19571831285501
 30
0.0
 10
81.27039174537236
 20
50.21166159684186
 30
0.0
 10
81.24479988880334
 20
50.22707922703614
 30
0.0
 10
81.21672478617347
 20
50.24147598879903
 30
0.0
 10
81.19698156479649
 20
50.25023953340935
 30
0.0
 10
81.18682038679466
 20
50.25474983773163
 30
0.0
  0
SPLINE
  5
8E
330
1F
100
AcDbEntity
  8
0
  6
Continuous
 62
     7
370
    25
100
AcDbSpline
210
0.0
220
0.0
230
1.0
 70
     8
 71
     3
 72
    23
 73
    19
 74
     0
 42
0.000000001
 43
0.00000001
 40
0.0
 40
0.0
 40
0.0
 40
0.0
 40
0.0552698294993248
 40
0.1099567044850939
 40
0.1632335040550556
 40
0.2180575651623569
 40
0.2732775387226747
 40
0.330881045495497
 40
0.3904799376860887
 40
0.4536559730386418
 40
0.5189026226022312
 40
0.5833461108214767
 40
0.6485466930814432
 40
0.7150552190344911
 40
0.7825206438000537
 40
0.8523352944264511
 40
0.9249348997257085
 40
1.0
 40
1.0
 40
1.0
 40
1.0
 10
81.18231317525618
 20
49.63936522234702
 30
0.0
 10
81.19014651343458
 20
49.63954280636852
 30
0.0
 10
81.20573056822568
 20
49.63989610135697
 30
0.0
 10
81.22849817848108
 20
49.64435238094482
 30
0.0
 10
81.25057104395107
 20
49.65104726595851
 30
0.0
 10
81.27184901108772
 20
49.66025720288049
 30
0.0
 10
81.29220857267215
 20
49.67256207316051
 30
0.0
 10
81.31167470589914
 20
49.68733201662143
 30
0.0
 10
81.33057364300245
 20
49.70457416200674
 30
0.0
 10
81.34800123570605
 20
49.7247391323661
 30
0.0
 10
81.36443991839845
 20
49.74656986341907
 30
0.0
 10
81.37865054807544
 20
49.77027176860301
 30
0.0
 10
81.3906954682929
 20
49.79532207346669
 30
0.0
 10
81.40064714006297
 20
49.821743813548
 30
0.0
 10
81.40812838643177
 20
49.84964283348175
 30
0.0
 10
81.41350125568547
 20
49.8788825246825
 30
0.0
 10
81.41686014877916
 20
49.90952017626105
 30
0.0
 10
81.41734376969784
 20
49.93042233701846
 30
0.0
 10
81.41758961756389
 20
49.9410479146547
 30
0.0
  0
SPLINE
  5
8F
330
1F
100
AcDbEntity
  8
0
  6
Continuous
 62
     7
370
    25
100
AcDbSpline
210
0.0
220
0.0
230
1.0
 70
     8
 71
     3
 72
    19
 73
    15
 74
     0
 42
0.000000001
 43
0.00000001
 40
0.0
 40
0.0
 40
0.0
 40
0.0
 40
0.1101423815503174
 40
0.2157418685830274
 40
0.3179605426392306
 40
0.4180517606815226
 40
0.5115631470355316
 40
0.5965727584443461
 40
0.6733290469034968
 40
0.7440491927238595
 40
0.8107168223002833
 40
0.8740854521098849
 40
0.9367096168966699
 40
1.0
 40
1.0
 40
1.0
 40
1.0
 10
80.93682038679466
 20
50.0239806069624
 30
0.0
 10
80.93713667576326
 20
50.00542347743023
 30
0.0
 10
80.93775620815522
 20
49.96907461930264
 30
0.0
 10
80.94519745526583
 20
49.91596983982402
 30
0.0
 10
80.95560678108568
 20
49.86512829019239
 30
0.0
 10
80.97118295272716
 20
49.81771048611759
 30
0.0
 10
80.98987880442716
 20
49.77463176801933
 30
0.0
 10
81.01095974254976
 20
49.73705233266632
 30
0.0
 10
81.0348434995906
 20
49.70586279797566
 30
0.0
 10
81.06121662413881
 20
49.68098523967421
 30
0.0
 10
81.08983241353032
 20
49.66272599522229
 30
0.0
 10
81.11934534089113
 20
49.64902062376686
 30
0.0
 10
81.15044207409312
 20
49.64098597971405
 30
0.0
 10
81.17165206726104
 20
49.63990737711084
 30
0.0
 10
81.18231317525618
 20
49.63936522234702
 30
0.0
  0
LINE
  5
90
330
1F
100
AcDbEntity
  8
0
  6
Continuous
 62
     7
370
    25
100
AcDbLine
 10
80.7829742329
 20
50.023980607
 30
0.0
 11
80.9368203868
 21
50.023980607
 31
0.0
  0
SPLINE
  5
91
330
1F
100
AcDbEntity
  8
0
  6
Continuous
 62
     7
370
    25
100
AcDbSpline
210
0.0
220
0.0
230
1.0
 70
     8
 71
     3
 72
    23
 73
    19
 74
     0
 42
0.000000001
 43
0.00000001
 40
0.0
 40
0.0
 40
0.0
 40
0.0
 40
0.0669051223273616
 40
0.1334773340846825
 40
0.2010229080576287
 40
0.2712178684297488
 40
0.3428591616573978
 40
0.4138109980627169
 40
0.4855518488903453
 40
0.5598002749200529
 40
0.5998999649035781
 40
0.6436094423977958
 40
0.6919106424505659
 40
0.7447030291556902
 40
0.8015038302285953
 40
0.8628660266331954
 40
0.9293326711591618
 40
1.0
 40
1.0
 40
1.0
 40
1.0
 10
80.46566654064081
 20
49.56244214542394
 30
0.0
 10
80.47964284452335
 20
49.56309797728896
 30
0.0
 10
80.50752590814697
 20
49.56440637769098
 30
0.0
 10
80.54854748910701
 20
49.57439594331605
 30
0.0
 10
80.588072731479
 20
49.5908262047658
 30
0.0
 10
80.62542159768306
 20
49.61383137515907
 30
0.0
 10
80.66005366569838
 20
49.64182220882689
 30
0.0
 10
80.69083308465493
 20
49.67452775609334
 30
0.0
 10
80.71648595544698
 20
49.71202824358217
 30
0.0
 10
80.73414442968274
 20
49.74676510476688
 30
0.0
 10
80.7459130601484
 20
49.77760810652186
 30
0.0
 10
80.75416500351338
 20
49.80395048050398
 30
0.0
 10
80.76076146081735
 20
49.83346765881112
 30
0.0
 10
80.767142221541
 20
49.86580529414799
 30
0.0
 10
80.77249144640909
 20
49.90109977034296
 30
0.0
 10
80.77697163189838
 20
49.939382885493
 30
0.0
 10
80.78055085274241
 20
49.9806700411871
 30
0.0
 10
80.78215011007676
 20
50.00925191199558
 30
0.0
 10
80.7829742329485
 20
50.0239806069624
 30
0.0
  0
SPLINE
  5
92
330
1F
100
AcDbEntity
  8
0
  6
Continuous
 62
     7
370
    25
100
AcDbSpline
210
0.0
220
0.0
230
1.0
 70
     8
 71
     3
 72
    23
 73
    19
 74
     0
 42
0.000000001
 43
0.00000001
 40
0.0
 40
0.0
 40
0.0
 40
0.0
 40
0.0760618905628339
 40
0.1487324608035361
 40
0.2183745247439722
 40
0.2857225935927383
 40
0.3510576941824569
 40
0.414934915729319
 40
0.4784859417740854
 40
0.542169035281216
 40
0.6047501165431387
 40
0.6641185017301124
 40
0.7214996756099116
 40
0.7776159163852548
 40
0.8326661086975489
 40
0.8878580281135741
 40
0.9434676608977686
 40
1.0
 40
1.0
 40
1.0
 40
1.0
 10
80.14835884833312
 20
49.94435320311624
 30
0.0
 10
80.14862237844238
 20
49.93031579768045
 30
0.0
 10
80.14913768882127
 20
49.90286686315736
 30
0.0
 10
80.1538904178443
 20
49.86281743529366
 30
0.0
 10
80.16078202297018
 20
49.82470475817875
 30
0.0
 10
80.1715618333322
 20
49.7889177715671
 30
0.0
 10
80.18449399665658
 20
49.75496950239057
 30
0.0
 10
80.2014245719293
 20
49.7236177740965
 30
0.0
 10
80.22054491956507
 20
49.69394088460739
 30
0.0
 10
80.24278556128102
 20
49.6668082296331
 30
0.0
 10
80.26682528760573
 20
49.64234681446222
 30
0.0
 10
80.29232929486784
 20
49.62120944910943
 30
0.0
 10
80.31850679287079
 20
49.60290207324589
 30
0.0
 10
80.34596844972944
 20
49.58818599826488
 30
0.0
 10
80.37444488866633
 20
49.57654489224808
 30
0.0
 10
80.40404269724466
 20
49.56862489686517
 30
0.0
 10
80.43451264339653
 20
49.56311673827243
 30
0.0
 10
80.45522510072594
 20
49.5626682397915
 30
0.0
 10
80.46566654064081
 20
49.56244214542394
 30
0.0
  0
SPLINE
  5
93
330
1F
100
AcDbEntity
  8
0
  6
Continuous
 62
     7
370
    25
100
AcDbSpline
210
0.0
220
0.0
230
1.0
 70
     8
 71
     3
 72
    15
 73
    11
 74
     0
 42
0.000000001
 43
0.00000001
 40
0.0
 40
0.0
 40
0.0
 40
0.0
 40
0.1182713048357256
 40
0.2361775330837632
 40
0.355662932948509
 40
0.4759041646706825
 40
0.6001273417110832
 40
0.7286081161551193
 40
0.8613134756739422
 40
1.0
 40
1.0
 40
1.0
 40
1.0
 10
80.22948865602542
 20
50.1949541646547
 30
0.0
 10
80.22301365578878
 20
50.18655563185821
 30
0.0
 10
80.21008364216686
 20
50.16978449062362
 30
0.0
 10
80.1935829442221
 20
50.1424552487243
 30
0.0
 10
80.17928536193578
 20
50.11371315468755
 30
0.0
 10
80.16836377805735
 20
50.08293543716431
 30
0.0
 10
80.15911620914771
 20
50.05078624982686
 30
0.0
 10
80.15306455809093
 20
50.01674595044179
 30
0.0
 10
80.14891248465814
 20
49.9811148573939
 30
0.0
 10
80.14854608544711
 20
49.95678581590116
 30
0.0
 10
80.14835884833312
 20
49.94435320311624
 30
0.0
  0
SPLINE
  5
94
330
1F
100
AcDbEntity
  8
0
  6
Continuous
 62
     7
370
    25
100
AcDbSpline
210
0.0
220
0.0
230
1.0
 70
     8
 71
     3
 72
    15
 73
    11
 74
     0
 42
0.000000001
 43
0.00000001
 40
0.0
 40
0.0
 40
0.0
 40
0.0
 40
0.1497703860319679
 40
0.2913164099952444
 40
0.4259663731047425
 40
0.5521595739695284
 40
0.6715274135235927
 40
0.7861216286916589
 40
0.8953250730704446
 40
1.0
 40
1.0
 40
1.0
 40
1.0
 10
80.43682038679466
 20
50.31244214542394
 30
0.0
 10
80.42527080967953
 20
50.30893502052096
 30
0.0
 10
80.40280587898604
 20
50.30211335795329
 30
0.0
 10
80.3704743194111
 20
50.29050151593824
 30
0.0
 10
80.34083515374334
 20
50.27727225647948
 30
0.0
 10
80.31367095860992
 20
50.26308030277831
 30
0.0
 10
80.28871421469668
 20
50.24817525448285
 30
0.0
 10
80.2666248422535
 20
50.23149742942439
 30
0.0
 10
80.24643261273503
 20
50.21428208150412
 30
0.0
 10
80.23505635047495
 20
50.20130521578211
 30
0.0
 10
80.22948865602542
 20
50.1949541646547
 30
0.0
  0
LINE
  5
95
330
1F
100
AcDbEntity
  8
0
  6
Continuous
 62
     7
370
    25
100
AcDbLine
 10
80.4368203868
 20
50.44705753
 30
0.0
 11
80.4368203868
 21
50.3124421454
 31
0.0
  0
SPLINE
  5
96
330
1F
100
AcDbEntity
  8
0
  6
Continuous
 62
     7
370
    25
100
AcDbSpline
210
0.0
220
0.0
230
1.0
 70
     8
 71
     3
 72
    23
 73
    19
 74
     0
 42
0.000000001
 43
0.00000001
 40
0.0
 40
0.0
 40
0.0
 40
0.0
 40
0.0655411703374033
 40
0.1289631677825933
 40
0.1903771361885609
 40
0.2500923616690527
 40
0.308548432459201
 40
0.3663979630552958
 40
0.42454218926668
 40
0.4831699964229055
 40
0.5422433998311199
 40
0.6017393520173299
 40
0.6625060022496068
 40
0.7248555134488469
 40
0.7891278292811811
 40
0.8563463998785099
 40
0.9262952349869055
 40
1.0
 40
1.0
 40
1.0
 40
1.0
 10
79.99451269448696
 20
49.94675704927009
 30
0.0
 10
79.99488478588346
 20
49.96279389224857
 30
0.0
 10
79.99561693767369
 20
49.99434905156432
 30
0.0
 10
80.00062205247224
 20
50.04073912230132
 30
0.0
 10
80.00976348328844
 20
50.0850198506004
 30
0.0
 10
80.0220648998739
 20
50.12725110682469
 30
0.0
 10
80.03766136076555
 20
50.16747040813621
 30
0.0
 10
80.05708365991754
 20
50.20555502464094
 30
0.0
 10
80.07993144651118
 20
50.24173926472099
 30
0.0
 10
80.106474412714
 20
50.27568167235437
 30
0.0
 10
80.13616641546689
 20
50.30737820137134
 30
0.0
 10
80.1695345625959
 20
50.33598651175568
 30
0.0
 10
80.20596202141921
 20
50.36198356587371
 30
0.0
 10
80.24587190264724
 20
50.38467326817864
 30
0.0
 10
80.28874844148056
 20
50.40508910501401
 30
0.0
 10
80.3351406550727
 20
50.42188094357714
 30
0.0
 10
80.3846338073537
 20
50.43666047299269
 30
0.0
 10
80.41912426742905
 20
50.44353195766958
 30
0.0
 10
80.43682038679466
 20
50.44705753003932
 30
0.0
  0
SPLINE
  5
97
330
1F
100
AcDbEntity
  8
0
  6
Continuous
 62
     7
370
    25
100
AcDbSpline
210
0.0
220
0.0
230
1.0
 70
     8
 71
     3
 72
    19
 73
    15
 74
     0
 42
0.000000001
 43
0.00000001
 40
0.0
 40
0.0
 40
0.0
 40
0.0
 40
0.079641704194991
 40
0.158908613257856
 40
0.2395997983184508
 40
0.3224093988203483
 40
0.405827748173513
 40
0.4876442139503136
 40
0.5697199979738973
 40
0.6530646649976933
 40
0.7374573001733064
 40
0.8224924079539123
 40
0.9097550737466982
 40
1.0
 40
1.0
 40
1.0
 40
1.0
 10
80.47858721371773
 20
49.42782676080855
 30
0.0
 10
80.45758388271442
 20
49.42859753152006
 30
0.0
 10
80.41567606271899
 20
49.4301354456838
 30
0.0
 10
80.35374579667631
 20
49.44382607538685
 30
0.0
 10
80.29331262261405
 20
49.46517267968708
 30
0.0
 10
80.23527196368906
 20
49.4949566233875
 30
0.0
 10
80.18108057332942
 20
49.53180718577715
 30
0.0
 10
80.13281398929288
 20
49.57589133131655
 30
0.0
 10
80.09104588304554
 20
49.62613738145913
 30
0.0
 10
80.056260176789
 20
49.68221648582998
 30
0.0
 10
80.02843311271167
 20
49.74294706497827
 30
0.0
 10
80.00912416706771
 20
49.80790948409798
 30
0.0
 10
79.99654693223997
 20
49.87615911193447
 30
0.0
 10
79.99519832626801
 20
49.92296229399028
 30
0.0
 10
79.99451269448696
 20
49.94675704927009
 30
0.0
  0
SPLINE
  5
98
330
1F
100
AcDbEntity
  8
0
  6
Continuous
 62
     7
370
    25
100
AcDbSpline
210
0.0
220
0.0
230
1.0
 70
     8
 71
     3
 72
    15
 73
    11
 74
     0
 42
0.000000001
 43
0.00000001
 40
0.0
 40
0.0
 40
0.0
 40
0.0
 40
0.1281455049994643
 40
0.2541925386280419
 40
0.3781411397135888
 40
0.5013808330744057
 40
0.6239569784447038
 40
0.7470758858273289
 40
0.8728647202442611
 40
1.0
 40
1.0
 40
1.0
 40
1.0
 10
80.74511365602542
 20
49.51737003003932
 30
0.0
 10
80.73523281560043
 20
49.51014937385177
 30
0.0
 10
80.71563294035376
 20
49.49582630472123
 30
0.0
 10
80.68410194378818
 20
49.4781968560573
 30
0.0
 10
80.65232584455268
 20
49.46202064863621
 30
0.0
 10
80.61905524740884
 20
49.45011542822611
 30
0.0
 10
80.58535886278833
 20
49.43984169478804
 30
0.0
 10
80.5505151164224
 20
49.4330819202757
 30
0.0
 10
80.51485505339484
 20
49.42874241543002
 30
0.0
 10
80.49071932258583
 20
49.42813306031942
 30
0.0
 10
80.47858721371773
 20
49.42782676080855
 30
0.0
  0
SPLINE
  5
99
330
1F
100
AcDbEntity
  8
0
  6
Continuous
 62
     7
370
    25
100
AcDbSpline
210
0.0
220
0.0
230
1.0
 70
     8
 71
     3
 72
    11
 73
     7
 74
     0
 42
0.000000001
 43
0.00000001
 40
0.0
 40
0.0
 40
0.0
 40
0.0
 40
0.253879600326656
 40
0.5030089172783633
 40
0.7502910806899731
 40
1.0
 40
1.0
 40
1.0
 40
1.0
 10
80.87311846371774
 20
49.67993012619316
 30
0.0
 10
80.8654135330571
 20
49.66397365994745
 30
0.0
 10
80.85014783693845
 20
49.6323592852615
 30
0.0
 10
80.82020965514533
 20
49.58926620117597
 30
0.0
 10
80.78564264913653
 20
49.55014711173727
 30
0.0
 10
80.75866722645928
 20
49.52833123216422
 30
0.0
 10
80.74511365602542
 20
49.51737003003932
 30
0.0
  0
SPLINE
  5
9A
330
1F
100
AcDbEntity
  8
0
  6
Continuous
 62
     7
370
    25
100
AcDbSpline
210
0.0
220
0.0
230
1.0
 70
     8
 71
     3
 72
    15
 73
    11
 74
     0
 42
0.000000001
 43
0.00000001
 40
0.0
 40
0.0
 40
0.0
 40
0.0
 40
0.1280675485958904
 40
0.2506083188676684
 40
0.3706301659145029
 40
0.4900722467299488
 40
0.6103747641546199
 40
0.7343130699115256
 40
0.8632165042449895
 40
1.0
 40
1.0
 40
1.0
 40
1.0
 10
81.18171221371773
 20
49.50474983773163
 30
0.0
 10
81.1658521588439
 20
49.50524851960894
 30
0.0
 10
81.13481649264544
 20
49.50622436265657
 30
0.0
 10
81.08950727958621
 20
49.51451023646899
 30
0.0
 10
81.04680373660814
 20
49.52845434913023
 30
0.0
 10
81.00652609569806
 20
49.5477699616636
 30
0.0
 10
80.96892973577388
 20
49.57277348319515
 30
0.0
 10
80.93393006826223
 20
49.60306178186243
 30
0.0
 10
80.90137185763584
 20
49.63884863690907
 30
0.0
 10
80.88272065493207
 20
49.66596818177619
 30
0.0
 10
80.87311846371774
 20
49.67993012619316
 30
0.0
  0
SPLINE
  5
9B
330
1F
100
AcDbEntity
  8
0
  6
Continuous
 62
     7
370
    25
100
AcDbSpline
210
0.0
220
0.0
230
1.0
 70
     8
 71
     3
 72
    19
 73
    15
 74
     0
 42
0.000000001
 43
0.00000001
 40
0.0
 40
0.0
 40
0.0
 40
0.0
 40
0.0902542493426766
 40
0.1785397915286845
 40
0.2660930338538198
 40
0.3546309779571733
 40
0.4418861533505626
 40
0.5257469151636484
 40
0.6081136336036366
 40
0.6901972728278825
 40
0.770821484330335
 40
0.8483261812554109
 40
0.9240117400247433
 40
1.0
 40
1.0
 40
1.0
 40
1.0
 10
81.57143577141005
 20
49.94285079927009
 30
0.0
 10
81.57084467273364
 20
49.92327248123792
 30
0.0
 10
81.5696753689587
 20
49.88454290511928
 30
0.0
 10
81.55899775332482
 20
49.82764445642621
 30
0.0
 10
81.54210126803017
 20
49.77277581966816
 30
0.0
 10
81.51875538497144
 20
49.72053757060402
 30
0.0
 10
81.4899608221877
 20
49.67201538520563
 30
0.0
 10
81.45569022066137
 20
49.62884273374257
 30
0.0
 10
81.41660480573822
 20
49.59160480054088
 30
0.0
 10
81.37343370674455
 20
49.56036435297226
 30
0.0
 10
81.327295631293
 20
49.5359036390921
 30
0.0
 10
81.27980984965845
 20
49.51786662188651
 30
0.0
 10
81.23108900477747
 20
49.50688590145852
 30
0.0
 10
81.19819302798811
 20
49.5054628056827
 30
0.0
 10
81.18171221371773
 20
49.50474983773163
 30
0.0
  0
SPLINE
  5
9C
330
1F
100
AcDbEntity
  8
0
  6
Continuous
 62
     7
370
    25
100
AcDbSpline
210
0.0
220
0.0
230
1.0
 70
     8
 71
     3
 72
    23
 73
    19
 74
     0
 42
0.000000001
 43
0.00000001
 40
0.0
 40
0.0
 40
0.0
 40
0.0
 40
0.0726253460834355
 40
0.1419766113262345
 40
0.2089849284189386
 40
0.2739568703644447
 40
0.336889347396841
 40
0.3987449534945902
 40
0.4601158852788617
 40
0.5208249225900291
 40
0.5809944586324857
 40
0.6401519276014648
 40
0.6986224507562546
 40
0.7572710809271643
 40
0.8164266940046602
 40
0.8762540482034705
 40
0.9371652930625374
 40
1.0
 40
1.0
 40
1.0
 40
1.0
 10
81.18682038679466
 20
50.38936522234702
 30
0.0
 10
81.20192002278411
 20
50.38571827205515
 30
0.0
 10
81.23143857609438
 20
50.37858878253068
 30
0.0
 10
81.27361311645753
 20
50.36371839390116
 30
0.0
 10
81.31352319705354
 20
50.34751871310347
 30
0.0
 10
81.35042151435157
 20
50.32806623971857
 30
0.0
 10
81.38504961552272
 20
50.30684820219309
 30
0.0
 10
81.41662209743764
 20
50.282538464392
 30
0.0
 10
81.4459419397807
 20
50.25625858329232
 30
0.0
 10
81.47196189873378
 20
50.22719074787727
 30
0.0
 10
81.4955237826795
 20
50.1967070357455
 30
0.0
 10
81.51561309296909
 20
50.16437791299519
 30
0.0
 10
81.53289487276815
 20
50.13085381570778
 30
0.0
 10
81.54713211500047
 20
50.09590247301553
 30
0.0
 10
81.5578573394288
 20
50.05941982800467
 30
0.0
 10
81.56563882753913
 20
50.02173570372432
 30
0.0
 10
81.57069216220246
 20
49.98275134653234
 30
0.0
 10
81.57118534638234
 20
49.95628809341879
 30
0.0
 10
81.57143577141005
 20
49.94285079927009
 30
0.0
  0
LINE
  5
9D
330
1F
100
AcDbEntity
  8
0
  6
Continuous
 62
     7
370
    25
100
AcDbLine
 10
81.1868203868
 20
50.2547498377
 30
0.0
 11
81.1868203868
 21
50.3893652223
 31
0.0
  0
LINE
  5
9E
330
1F
100
AcDbEntity
  8
0
  6
Continuous
 62
     7
370
    25
100
AcDbLine
 10
81.5714357714
 20
47.9673492372
 30
0.0
 11
81.4900054829
 21
47.8636833719
 31
0.0
  0
LINE
  5
9F
330
1F
100
AcDbEntity
  8
0
  6
Continuous
 62
     7
370
    25
100
AcDbLine
 10
80.8869405791
 20
48.4150655834
 30
0.0
 11
81.5714357714
 21
47.9673492372
 31
0.0
  0
SPLINE
  5
A0
330
1F
100
AcDbEntity
  8
0
  6
Continuous
 62
     7
370
    25
100
AcDbSpline
210
0.0
220
0.0
230
1.0
 70
     8
 71
     3
 72
    19
 73
    15
 74
     0
 42
0.000000001
 43
0.00000001
 40
0.0
 40
0.0
 40
0.0
 40
0.0
 40
0.0978059775289525
 40
0.1996122522918967
 40
0.3052960258330042
 40
0.4158173591641855
 40
0.4742405666184931
 40
0.5372869128296535
 40
0.6033858352934857
 40
0.6743111580696057
 40
0.7495304673574823
 40
0.828608314269512
 40
0.9120427387714449
 40
1.0
 40
1.0
 40
1.0
 40
1.0
 10
80.45124346371773
 20
48.58273385262856
 30
0.0
 10
80.46668551768106
 20
48.58219023192805
 30
0.0
 10
80.49820121078602
 20
48.58108075625835
 30
0.0
 10
80.54607068484843
 20
48.57445953328536
 30
0.0
 10
80.59485949803071
 20
48.56231540138632
 30
0.0
 10
80.63621906367673
 20
48.54917279641678
 30
0.0
 10
80.67047227748193
 20
48.53613136497174
 30
0.0
 10
80.697521135589
 20
48.52403904965502
 30
0.0
 10
80.72608559826627
 20
48.51051836771555
 30
0.0
 10
80.75562519777186
 20
48.49467024559632
 30
0.0
 10
80.78698394444478
 20
48.47786995719662
 30
0.0
 10
80.81900052816148
 20
48.45824531384829
 30
0.0
 10
80.8528442934211
 20
48.43776669696795
 30
0.0
 10
80.87537694662281
 20
48.42276458429939
 30
0.0
 10
80.88694057910236
 20
48.41506558339778
 30
0.0
  0
SPLINE
  5
A1
330
1F
100
AcDbEntity
  8
0
  6
Continuous
 62
     7
370
    25
100
AcDbSpline
210
0.0
220
0.0
230
1.0
 70
     8
 71
     3
 72
    19
 73
    15
 74
     0
 42
0.000000001
 43
0.00000001
 40
0.0
 40
0.0
 40
0.0
 40
0.0
 40
0.0843261511037431
 40
0.1670353409858404
 40
0.2495407139852791
 40
0.3327066655796642
 40
0.4158726171740491
 40
0.4977774155681173
 40
0.5803136056784763
 40
0.6645325781316562
 40
0.7495711764063213
 40
0.8324741628544072
 40
0.9156738488962566
 40
0.9999999999999999
 40
0.9999999999999999
 40
0.9999999999999999
 40
0.9999999999999999
 10
79.99451269448696
 20
48.12840692955163
 30
0.0
 10
79.99516763815213
 20
48.14859123372337
 30
0.0
 10
79.99646496688115
 20
48.18857280629318
 30
0.0
 10
80.00802182158398
 20
48.24738680404154
 30
0.0
 10
80.02675334549814
 20
48.30389974125987
 30
0.0
 10
80.05255980954567
 20
48.3577143789653
 30
0.0
 10
80.08515476297717
 20
48.40756908794715
 30
0.0
 10
80.12440046636532
 20
48.4521575213707
 30
0.0
 10
80.16942954461472
 20
48.49132454671225
 30
0.0
 10
80.22038013045591
 20
48.52374791405217
 30
0.0
 10
80.27477727169371
 20
48.55017304643606
 30
0.0
 10
80.33201488043835
 20
48.56881107443299
 30
0.0
 10
80.39094102710081
 20
48.58086433578838
 30
0.0
 10
80.43105274607667
 20
48.58210789306932
 30
0.0
 10
80.45124346371773
 20
48.58273385262856
 30
0.0
  0
SPLINE
  5
A2
330
1F
100
AcDbEntity
  8
0
  6
Continuous
 62
     7
370
    25
100
AcDbSpline
210
0.0
220
0.0
230
1.0
 70
     8
 71
     3
 72
    19
 73
    15
 74
     0
 42
0.000000001
 43
0.00000001
 40
0.0
 40
0.0
 40
0.0
 40
0.0
 40
0.0859901205637197
 40
0.1691084375726415
 40
0.2505285789581879
 40
0.332255696176845
 40
0.4135763652356401
 40
0.4941261456201216
 40
0.5763059341204168
 40
0.660712671904547
 40
0.7461272722239101
 40
0.830014985960974
 40
0.9144197259288509
 40
1.0
 40
1.0
 40
1.0
 40
1.0
 10
80.45394779064081
 20
47.65965692955162
 30
0.0
 10
80.4329689673547
 20
47.66043972755477
 30
0.0
 10
80.3917119484696
 20
47.66197918053352
 30
0.0
 10
80.33137019932786
 20
47.67318574436679
 30
0.0
 10
80.27434530410702
 20
47.69252576966296
 30
0.0
 10
80.22041316438404
 20
47.71840040434331
 30
0.0
 10
80.17114293891832
 20
47.75197070829599
 30
0.0
 10
80.12661586688803
 20
47.79175336415148
 30
0.0
 10
80.08780398248663
 20
47.83812442922594
 30
0.0
 10
80.05450888362886
 20
47.88998582646211
 30
0.0
 10
80.02805596951117
 20
47.94611596425913
 30
0.0
 10
80.00849879017011
 20
48.00497024978498
 30
0.0
 10
79.99681287849023
 20
48.06604562836669
 30
0.0
 10
79.99528294923817
 20
48.10752421388118
 30
0.0
 10
79.99451269448696
 20
48.12840692955163
 30
0.0
  0
SPLINE
  5
A3
330
1F
100
AcDbEntity
  8
0
  6
Continuous
 62
     7
370
    25
100
AcDbSpline
210
0.0
220
0.0
230
1.0
 70
     8
 71
     3
 72
    23
 73
    19
 74
     0
 42
0.000000001
 43
0.00000001
 40
0.0
 40
0.0
 40
0.0
 40
0.0
 40
0.0652308037420297
 40
0.128404896003223
 40
0.1900670715964782
 40
0.2509433657682801
 40
0.3115458328521434
 40
0.3728628021568294
 40
0.4350236738562386
 40
0.4990717247070431
 40
0.5630910750496624
 40
0.6255101063303751
 40
0.6866800359296492
 40
0.7472825030135124
 40
0.8085634952159588
 40
0.8707421035159856
 40
0.9343409515059125
 40
1.0
 40
1.0
 40
1.0
 40
1.0
 10
80.89835884833312
 20
48.1046689487824
 30
0.0
 10
80.89794908617779
 20
48.08942359321019
 30
0.0
 10
80.89714248156888
 20
48.05941356444335
 30
0.0
 10
80.89093511698665
 20
48.01535350636878
 30
0.0
 10
80.88115292616224
 20
47.9730153909517
 30
0.0
 10
80.86689338789874
 20
47.9325746999851
 30
0.0
 10
80.84867809317203
 20
47.89388627918814
 30
0.0
 10
80.82684714876612
 20
47.85672810942734
 30
0.0
 10
80.80027328575608
 20
47.82179867652467
 30
0.0
 10
80.77058830470585
 20
47.78864817114815
 30
0.0
 10
80.73770959706506
 20
47.75855084369403
 30
0.0
 10
80.70282330990533
 20
47.7319039627408
 30
0.0
 10
80.66596578947753
 20
47.70952105199761
 30
0.0
 10
80.62715570407754
 20
47.69136079987707
 30
0.0
 10
80.5864528785516
 20
47.67725870904941
 30
0.0
 10
80.54390939019943
 20
47.66697828974501
 30
0.0
 10
80.4994959024308
 20
47.66090132139364
 30
0.0
 10
80.46929097017386
 20
47.66007611108718
 30
0.0
 10
80.45394779064081
 20
47.65965692955162
 30
0.0
  0
SPLINE
  5
A4
330
1F
100
AcDbEntity
  8
0
  6
Continuous
 62
     7
370
    25
100
AcDbSpline
210
0.0
220
0.0
230
1.0
 70
     8
 71
     3
 72
     9
 73
     5
 74
     0
 42
0.000000001
 43
0.00000001
 40
0.0
 40
0.0
 40
0.0
 40
0.0
 40
0.5126593363417812
 40
1.0
 40
1.0
 40
1.0
 40
1.0
 10
80.88393577141004
 20
48.2600175064747
 30
0.0
 10
80.88814171169015
 20
48.23363024491042
 30
0.0
 10
80.89634587375639
 20
48.18215890772074
 30
0.0
 10
80.89769927894856
 20
48.13005923692457
 30
0.0
 10
80.89835884833312
 20
48.1046689487824
 30
0.0
  0
LINE
  5
A5
330
1F
100
AcDbEntity
  8
0
  6
Continuous
 62
     7
370
    25
100
AcDbLine
 10
81.4900054829
 20
47.8636833719
 30
0.0
 11
80.8839357714
 21
48.2600175065
 31
0.0
  0
LINE
  5
A6
330
1F
100
AcDbEntity
  8
0
  6
Continuous
 62
     7
370
    25
100
AcDbLine
 10
81.5329742329
 20
49.1970822927
 30
0.0
 11
81.5329742329
 21
48.9197385427
 31
0.0
  0
LINE
  5
A7
330
1F
100
AcDbEntity
  8
0
  6
Continuous
 62
     7
370
    25
100
AcDbLine
 10
81.3791280791
 20
49.2851231581
 30
0.0
 11
81.5329742329
 21
49.1970822927
 31
0.0
  0
LINE
  5
A8
330
1F
100
AcDbEntity
  8
0
  6
Continuous
 62
     7
370
    25
100
AcDbLine
 10
81.3791280791
 20
49.0543539273
 30
0.0
 11
81.3791280791
 21
49.2851231581
 31
0.0
  0
LINE
  5
A9
330
1F
100
AcDbEntity
  8
0
  6
Continuous
 62
     7
370
    25
100
AcDbLine
 10
80.0329742329
 20
48.9197385427
 30
0.0
 11
80.0329742329
 21
49.0543539273
 31
0.0
  0
LINE
  5
AA
330
1F
100
AcDbEntity
  8
0
  6
Continuous
 62
     7
370
    25
100
AcDbLine
 10
81.5329742329
 20
48.9197385427
 30
0.0
 11
80.0329742329
 21
48.9197385427
 31
0.0
  0
LINE
  5
AB
330
1F
100
AcDbEntity
  8
0
  6
Continuous
 62
     7
370
    25
100
AcDbLine
 10
80.9133589907
 20
55.3556027988
 30
0.0
 11
82.8504938607
 21
55.3556027988
 31
0.0
  0
SPLINE
  5
AC
330
1F
100
AcDbEntity
  8
0
  6
Continuous
 62
     7
370
    25
100
AcDbSpline
210
0.0
220
0.0
230
1.0
 70
     8
 71
     3
 72
    12
 73
     8
 74
     0
 42
0.000000001
 43
0.00000001
 40
0.0
 40
0.0
 40
0.0
 40
0.0
 40
0.2499999999999999
 40
0.2499999999999999
 40
0.4999999999999999
 40
0.4999999999999999
 40
1.0
 40
1.0
 40
1.0
 40
1.0
 10
83.8329742329485
 20
49.00474983773163
 30
0.0
 10
83.8329742329485
 20
49.54228346063657
 30
0.0
 10
83.81003003839054
 20
50.08265020446811
 30
0.0
 10
83.71917333751739
 20
51.16374198928526
 30
0.0
 10
83.65190472508743
 20
51.69856010802727
 30
0.0
 10
83.39378507924508
 20
53.28824574262404
 30
0.0
 10
83.14700839164483
 20
54.32844633326336
 30
0.0
 10
82.85049386070105
 20
55.35560279881751
 30
0.0
  0
SPLINE
  5
AD
330
1F
100
AcDbEntity
  8
0
  6
Continuous
 62
     7
370
    25
100
AcDbSpline
210
0.0
220
0.0
230
1.0
 70
     8
 71
     3
 72
    10
 73
     6
 74
     0
 42
0.000000001
 43
0.00000001
 40
0.0
 40
0.0
 40
0.0
 40
0.0
 40
0.5
 40
0.5
 40
1.0
 40
1.0
 40
1.0
 40
1.0
 10
82.85049386070108
 20
42.65389687664574
 30
0.0
 10
83.14897641902463
 20
43.68787078902481
 30
0.0
 10
83.39883733239905
 20
44.74527282828495
 30
0.0
 10
83.74056011490961
 20
46.86419988846139
 30
0.0
 10
83.8329742329485
 20
47.93046726025348
 30
0.0
 10
83.8329742329485
 20
49.00474983773163
 30
0.0
  0
LINE
  5
AE
330
1F
100
AcDbEntity
  8
0
  6
Continuous
 62
     7
370
    25
100
AcDbLine
 10
80.9133589907
 20
42.6538968766
 30
0.0
 11
82.8504938607
 21
42.6538968766
 31
0.0
  0
SPLINE
  5
AF
330
1F
100
AcDbEntity
  8
0
  6
Continuous
 62
     7
370
    25
100
AcDbSpline
210
0.0
220
0.0
230
1.0
 70
     8
 71
     3
 72
     8
 73
     4
 74
     0
 42
0.000000001
 43
0.00000001
 40
0.0
 40
0.0
 40
0.0
 40
0.0
 40
1.0
 40
1.0
 40
1.0
 40
1.0
 10
80.91335899067784
 20
42.65389687664575
 30
0.0
 10
80.88552593712195
 20
42.86164561664653
 30
0.0
 10
80.85870494935165
 20
43.06948426311956
 30
0.0
 10
80.8329742329485
 20
43.27741976342735
 30
0.0
  0
SPLINE
  5
B0
330
1F
100
AcDbEntity
  8
0
  6
Continuous
 62
     7
370
    25
100
AcDbSpline
210
0.0
220
0.0
230
1.0
 70
     8
 71
     3
 72
     8
 73
     4
 74
     0
 42
0.000000001
 43
0.00000001
 40
0.0
 40
0.0
 40
0.0
 40
0.0
 40
1.0
 40
1.0
 40
1.0
 40
1.0
 10
80.8329742329485
 20
43.27741976342735
 30
0.0
 10
80.80723374237888
 20
43.06940527596014
 30
0.0
 10
80.78041222272947
 20
42.86156869127498
 30
0.0
 10
80.75258947521917
 20
42.65389687664575
 30
0.0
  0
LINE
  5
B1
330
1F
100
AcDbEntity
  8
0
  6
Continuous
 62
     7
370
    25
100
AcDbLine
 10
78.8154546052
 20
42.6538968766
 30
0.0
 11
80.7525894752
 21
42.6538968766
 31
0.0
  0
SPLINE
  5
B2
330
1F
100
AcDbEntity
  8
0
  6
Continuous
 62
     7
370
    25
100
AcDbSpline
210
0.0
220
0.0
230
1.0
 70
     8
 71
     3
 72
    10
 73
     6
 74
     0
 42
0.000000001
 43
0.00000001
 40
0.0
 40
0.0
 40
0.0
 40
0.0
 40
0.5
 40
0.5
 40
1.0
 40
1.0
 40
1.0
 40
1.0
 10
78.81545460519592
 20
42.65389687664574
 30
0.0
 10
78.51697204687237
 20
43.68787078902481
 30
0.0
 10
78.26711113349795
 20
44.74527282828495
 30
0.0
 10
77.92538835098739
 20
46.86419988846139
 30
0.0
 10
77.8329742329485
 20
47.93046726025348
 30
0.0
 10
77.8329742329485
 20
49.00474983773163
 30
0.0
  0
SPLINE
  5
B3
330
1F
100
AcDbEntity
  8
0
  6
Continuous
 62
     7
370
    25
100
AcDbSpline
210
0.0
220
0.0
230
1.0
 70
     8
 71
     3
 72
    12
 73
     8
 74
     0
 42
0.000000001
 43
0.00000001
 40
0.0
 40
0.0
 40
0.0
 40
0.0
 40
0.2499999999999999
 40
0.2499999999999999
 40
0.4999999999999999
 40
0.4999999999999999
 40
1.0
 40
1.0
 40
1.0
 40
1.0
 10
77.8329742329485
 20
49.00474983773163
 30
0.0
 10
77.8329742329485
 20
49.54228346063657
 30
0.0
 10
77.85591842750647
 20
50.08265020446811
 30
0.0
 10
77.94677512837963
 20
51.16374198928526
 30
0.0
 10
78.01404374080957
 20
51.69856010802727
 30
0.0
 10
78.27216338665193
 20
53.28824574262404
 30
0.0
 10
78.51894007425217
 20
54.32844633326336
 30
0.0
 10
78.81545460519595
 20
55.35560279881751
 30
0.0
  0
LINE
  5
B4
330
1F
100
AcDbEntity
  8
0
  6
Continuous
 62
     7
370
    25
100
AcDbLine
 10
78.8154546052
 20
55.3556027988
 30
0.0
 11
80.7525894752
 21
55.3556027988
 31
0.0
  0
SPLINE
  5
B5
330
1F
100
AcDbEntity
  8
0
  6
Continuous
 62
     7
370
    25
100
AcDbSpline
210
0.0
220
0.0
230
1.0
 70
     8
 71
     3
 72
     8
 73
     4
 74
     0
 42
0.000000001
 43
0.00000001
 40
0.0
 40
0.0
 40
0.0
 40
0.0
 40
1.0
 40
1.0
 40
1.0
 40
1.0
 10
80.75258947521917
 20
55.35560279881751
 30
0.0
 10
80.78042252877508
 20
55.14785405881673
 30
0.0
 10
80.80724351654537
 20
54.94001541234371
 30
0.0
 10
80.8329742329485
 20
54.7320799120359
 30
0.0
  0
SPLINE
  5
B6
330
1F
100
AcDbEntity
  8
0
  6
Continuous
 62
     7
370
    25
100
AcDbSpline
210
0.0
220
0.0
230
1.0
 70
     8
 71
     3
 72
     8
 73
     4
 74
     0
 42
0.000000001
 43
0.00000001
 40
0.0
 40
0.0
 40
0.0
 40
0.0
 40
1.0
 40
1.0
 40
1.0
 40
1.0
 10
80.8329742329485
 20
54.73207991203591
 30
0.0
 10
80.85871472351812
 20
54.94009439950311
 30
0.0
 10
80.88553624316754
 20
55.14793098418827
 30
0.0
 10
80.91335899067784
 20
55.35560279881751
 30
0.0
  0
LINE
  5
B7
330
1F
100
AcDbEntity
  8
0
  6
Continuous
 62
     7
370
    25
100
AcDbLine
 10
80.0329742329
 20
49.0543539273
 30
0.0
 11
81.3791280791
 21
49.0543539273
 31
0.0
  0
SPLINE
  5
B8
330
1F
100
AcDbEntity
  8
0
  6
Continuous
 62
     7
370
    25
100
AcDbSpline
210
0.0
220
0.0
230
1.0
 70
     8
 71
     3
 72
    12
 73
     8
 74
     0
 42
0.000000001
 43
0.00000001
 40
0.0
 40
0.0
 40
0.0
 40
0.0
 40
0.25
 40
0.25
 40
0.5
 40
0.5
 40
1.0
 40
1.0
 40
1.0
 40
1.0
 10
83.83297423294852
 20
39.47847039610281
 30
0.0
 10
83.83297423294852
 20
39.74795829032985
 30
0.0
 10
83.80975207862134
 20
40.01865517149688
 30
0.0
 10
83.71988492876059
 20
40.55415000242918
 30
0.0
 10
83.6533263396729
 20
40.8201064057811
 30
0.0
 10
83.39661686555122
 20
41.61325200922279
 30
0.0
 10
83.14965419252881
 20
42.13573598231118
 30
0.0
 10
82.85049386070122
 20
42.65389687664576
 30
0.0
  0
SPLINE
  5
B9
330
1F
100
AcDbEntity
  8
0
  6
Continuous
 62
     7
370
    25
100
AcDbSpline
210
0.0
220
0.0
230
1.0
 70
     8
 71
     3
 72
    10
 73
     6
 74
     0
 42
0.000000001
 43
0.00000001
 40
0.0
 40
0.0
 40
0.0
 40
0.0
 40
0.5
 40
0.5
 40
1.0
 40
1.0
 40
1.0
 40
1.0
 10
82.85049386070136
 20
36.30304391555984
 30
0.0
 10
83.15040311232168
 20
36.82250197702616
 30
0.0
 10
83.39748377168762
 20
37.34575437922262
 30
0.0
 10
83.73933858571999
 20
38.403198388118
 30
0.0
 10
83.83297423294852
 20
38.9374717665424
 30
0.0
 10
83.83297423294852
 20
39.47847039610281
 30
0.0
  0
LINE
  5
BA
330
1F
100
AcDbEntity
  8
0
  6
Continuous
 62
     7
370
    25
100
AcDbLine
 10
80.9133589907
 20
36.3030439156
 30
0.0
 11
82.8504938607
 21
36.3030439156
 31
0.0
  0
SPLINE
  5
BB
330
1F
100
AcDbEntity
  8
0
  6
Continuous
 62
     7
370
    25
100
AcDbSpline
210
0.0
220
0.0
230
1.0
 70
     8
 71
     3
 72
     8
 73
     4
 74
     0
 42
0.000000001
 43
0.00000001
 40
0.0
 40
0.0
 40
0.0
 40
0.0
 40
1.0
 40
1.0
 40
1.0
 40
1.0
 10
80.91335899067784
 20
36.30304391555986
 30
0.0
 10
80.88552731762073
 20
36.40691313346861
 30
0.0
 10
80.85870625775468
 20
36.51083232205235
 30
0.0
 10
80.8329742329485
 20
36.61480535895066
 30
0.0
  0
SPLINE
  5
BC
330
1F
100
AcDbEntity
  8
0
  6
Continuous
 62
     7
370
    25
100
AcDbSpline
210
0.0
220
0.0
230
1.0
 70
     8
 71
     3
 72
     8
 73
     4
 74
     0
 42
0.000000001
 43
0.00000001
 40
0.0
 40
0.0
 40
0.0
 40
0.0
 40
1.0
 40
1.0
 40
1.0
 40
1.0
 10
80.8329742329485
 20
36.61480535895066
 30
0.0
 10
80.8072332831152
 20
36.51079625951231
 30
0.0
 10
80.78041173885428
 20
36.40687801702769
 30
0.0
 10
80.75258947521917
 20
36.30304391555986
 30
0.0
  0
LINE
  5
BD
330
1F
100
AcDbEntity
  8
0
  6
Continuous
 62
     7
370
    25
100
AcDbLine
 10
78.8154546052
 20
36.3030439156
 30
0.0
 11
80.7525894752
 21
36.3030439156
 31
0.0
  0
SPLINE
  5
BE
330
1F
100
AcDbEntity
  8
0
  6
Continuous
 62
     7
370
    25
100
AcDbSpline
210
0.0
220
0.0
230
1.0
 70
     8
 71
     3
 72
    10
 73
     6
 74
     0
 42
0.000000001
 43
0.00000001
 40
0.0
 40
0.0
 40
0.0
 40
0.0
 40
0.5
 40
0.5
 40
1.0
 40
1.0
 40
1.0
 40
1.0
 10
78.81545460519563
 20
36.30304391555984
 30
0.0
 10
78.51554535357533
 20
36.82250197702616
 30
0.0
 10
78.2684646942094
 20
37.34575437922262
 30
0.0
 10
77.92660988017701
 20
38.403198388118
 30
0.0
 10
77.83297423294849
 20
38.9374717665424
 30
0.0
 10
77.83297423294849
 20
39.47847039610281
 30
0.0
  0
SPLINE
  5
BF
330
1F
100
AcDbEntity
  8
0
  6
Continuous
 62
     7
370
    25
100
AcDbSpline
210
0.0
220
0.0
230
1.0
 70
     8
 71
     3
 72
    12
 73
     8
 74
     0
 42
0.000000001
 43
0.00000001
 40
0.0
 40
0.0
 40
0.0
 40
0.0
 40
0.25
 40
0.25
 40
0.5
 40
0.5
 40
1.0
 40
1.0
 40
1.0
 40
1.0
 10
77.83297423294849
 20
39.47847039610281
 30
0.0
 10
77.83297423294849
 20
39.74795829032985
 30
0.0
 10
77.85619638727566
 20
40.01865517149688
 30
0.0
 10
77.94606353713641
 20
40.55415000242918
 30
0.0
 10
78.0126221262241
 20
40.8201064057811
 30
0.0
 10
78.26933160034578
 20
41.61325200922279
 30
0.0
 10
78.51629427336817
 20
42.13573598231118
 30
0.0
 10
78.81545460519578
 20
42.65389687664576
 30
0.0
  0
SPLINE
  5
C0
330
1F
100
AcDbEntity
  8
0
  6
Continuous
 62
     7
370
    25
100
AcDbSpline
210
0.0
220
0.0
230
1.0
 70
     8
 71
     3
 72
     8
 73
     4
 74
     0
 42
0.000000001
 43
0.00000001
 40
0.0
 40
0.0
 40
0.0
 40
0.0
 40
1.0
 40
1.0
 40
1.0
 40
1.0
 10
80.75258947521917
 20
42.65389687664575
 30
0.0
 10
80.78042114827628
 20
42.55002765873699
 30
0.0
 10
80.80724220814233
 20
42.44610847015326
 30
0.0
 10
80.8329742329485
 20
42.34213543325494
 30
0.0
  0
SPLINE
  5
C1
330
1F
100
AcDbEntity
  8
0
  6
Continuous
 62
     7
370
    25
100
AcDbSpline
210
0.0
220
0.0
230
1.0
 70
     8
 71
     3
 72
     8
 73
     4
 74
     0
 42
0.000000001
 43
0.00000001
 40
0.0
 40
0.0
 40
0.0
 40
0.0
 40
1.0
 40
1.0
 40
1.0
 40
1.0
 10
80.8329742329485
 20
42.34213543325494
 30
0.0
 10
80.85871518278182
 20
42.4461445326933
 30
0.0
 10
80.88553672704272
 20
42.55006277517792
 30
0.0
 10
80.91335899067784
 20
42.65389687664575
 30
0.0
  0
LINE
  5
C2
330
1F
100
AcDbEntity
  8
0
  6
Continuous
 62
     7
370
    25
100
AcDbLine
 10
80.9133589907
 20
61.7064557599
 30
0.0
 11
82.8504938607
 21
61.7064557599
 31
0.0
  0
SPLINE
  5
C3
330
1F
100
AcDbEntity
  8
0
  6
Continuous
 62
     7
370
    25
100
AcDbSpline
210
0.0
220
0.0
230
1.0
 70
     8
 71
     3
 72
    12
 73
     8
 74
     0
 42
0.000000001
 43
0.00000001
 40
0.0
 40
0.0
 40
0.0
 40
0.0
 40
0.2500000000000002
 40
0.2500000000000002
 40
0.5000000000000001
 40
0.5000000000000001
 40
1.0
 40
1.0
 40
1.0
 40
1.0
 10
83.83297423294852
 20
58.53102927936045
 30
0.0
 10
83.83297423294852
 20
58.80051717358749
 30
0.0
 10
83.80975207862134
 20
59.07121405475453
 30
0.0
 10
83.71988492876059
 20
59.60670888568683
 30
0.0
 10
83.6533263396729
 20
59.87266528903876
 30
0.0
 10
83.39661686555122
 20
60.66581089248044
 30
0.0
 10
83.14965419252881
 20
61.18829486556883
 30
0.0
 10
82.85049386070122
 20
61.70645575990341
 30
0.0
  0
SPLINE
  5
C4
330
1F
100
AcDbEntity
  8
0
  6
Continuous
 62
     7
370
    25
100
AcDbSpline
210
0.0
220
0.0
230
1.0
 70
     8
 71
     3
 72
    10
 73
     6
 74
     0
 42
0.000000001
 43
0.00000001
 40
0.0
 40
0.0
 40
0.0
 40
0.0
 40
0.5
 40
0.5
 40
1.0
 40
1.0
 40
1.0
 40
1.0
 10
82.85049386070136
 20
55.35560279881749
 30
0.0
 10
83.15040311232168
 20
55.87506086028381
 30
0.0
 10
83.39748377168762
 20
56.39831326248027
 30
0.0
 10
83.73933858571999
 20
57.45575727137565
 30
0.0
 10
83.83297423294852
 20
57.99003064980005
 30
0.0
 10
83.83297423294852
 20
58.53102927936045
 30
0.0
  0
SPLINE
  5
C5
330
1F
100
AcDbEntity
  8
0
  6
Continuous
 62
     7
370
    25
100
AcDbSpline
210
0.0
220
0.0
230
1.0
 70
     8
 71
     3
 72
     8
 73
     4
 74
     0
 42
0.000000001
 43
0.00000001
 40
0.0
 40
0.0
 40
0.0
 40
0.0
 40
1.0
 40
1.0
 40
1.0
 40
1.0
 10
80.91335899067784
 20
55.35560279881751
 30
0.0
 10
80.88552731762073
 20
55.45947201672626
 30
0.0
 10
80.85870625775468
 20
55.56339120531
 30
0.0
 10
80.83297423294852
 20
55.66736424220831
 30
0.0
  0
SPLINE
  5
C6
330
1F
100
AcDbEntity
  8
0
  6
Continuous
 62
     7
370
    25
100
AcDbSpline
210
0.0
220
0.0
230
1.0
 70
     8
 71
     3
 72
     8
 73
     4
 74
     0
 42
0.000000001
 43
0.00000001
 40
0.0
 40
0.0
 40
0.0
 40
0.0
 40
1.0
 40
1.0
 40
1.0
 40
1.0
 10
80.8329742329485
 20
55.66736424220831
 30
0.0
 10
80.8072332831152
 20
55.56335514276996
 30
0.0
 10
80.78041173885428
 20
55.45943690028534
 30
0.0
 10
80.75258947521917
 20
55.35560279881751
 30
0.0
  0
SPLINE
  5
C7
330
1F
100
AcDbEntity
  8
0
  6
Continuous
 62
     7
370
    25
100
AcDbSpline
210
0.0
220
0.0
230
1.0
 70
     8
 71
     3
 72
    10
 73
     6
 74
     0
 42
0.000000001
 43
0.00000001
 40
0.0
 40
0.0
 40
0.0
 40
0.0
 40
0.5
 40
0.5
 40
1.0
 40
1.0
 40
1.0
 40
1.0
 10
78.81545460519564
 20
55.35560279881749
 30
0.0
 10
78.51554535357533
 20
55.87506086028381
 30
0.0
 10
78.2684646942094
 20
56.39831326248027
 30
0.0
 10
77.92660988017701
 20
57.45575727137565
 30
0.0
 10
77.83297423294849
 20
57.99003064980005
 30
0.0
 10
77.83297423294849
 20
58.53102927936045
 30
0.0
  0
SPLINE
  5
C8
330
1F
100
AcDbEntity
  8
0
  6
Continuous
 62
     7
370
    25
100
AcDbSpline
210
0.0
220
0.0
230
1.0
 70
     8
 71
     3
 72
    12
 73
     8
 74
     0
 42
0.000000001
 43
0.00000001
 40
0.0
 40
0.0
 40
0.0
 40
0.0
 40
0.2500000000000002
 40
0.2500000000000002
 40
0.5000000000000001
 40
0.5000000000000001
 40
1.0
 40
1.0
 40
1.0
 40
1.0
 10
77.83297423294849
 20
58.53102927936045
 30
0.0
 10
77.83297423294849
 20
58.80051717358749
 30
0.0
 10
77.85619638727566
 20
59.07121405475453
 30
0.0
 10
77.94606353713641
 20
59.60670888568683
 30
0.0
 10
78.0126221262241
 20
59.87266528903876
 30
0.0
 10
78.26933160034578
 20
60.66581089248044
 30
0.0
 10
78.51629427336819
 20
61.18829486556883
 30
0.0
 10
78.81545460519578
 20
61.70645575990341
 30
0.0
  0
LINE
  5
C9
330
1F
100
AcDbEntity
  8
0
  6
Continuous
 62
     7
370
    25
100
AcDbLine
 10
78.8154546052
 20
61.7064557599
 30
0.0
 11
80.7525894752
 21
61.7064557599
 31
0.0
  0
SPLINE
  5
CA
330
1F
100
AcDbEntity
  8
0
  6
Continuous
 62
     7
370
    25
100
AcDbSpline
210
0.0
220
0.0
230
1.0
 70
     8
 71
     3
 72
     8
 73
     4
 74
     0
 42
0.000000001
 43
0.00000001
 40
0.0
 40
0.0
 40
0.0
 40
0.0
 40
1.0
 40
1.0
 40
1.0
 40
1.0
 10
80.75258947521917
 20
61.7064557599034
 30
0.0
 10
80.78042114827628
 20
61.60258654199465
 30
0.0
 10
80.80724220814233
 20
61.4986673534109
 30
0.0
 10
80.8329742329485
 20
61.39469431651258
 30
0.0
  0
SPLINE
  5
CB
330
1F
100
AcDbEntity
  8
0
  6
Continuous
 62
     7
370
    25
100
AcDbSpline
210
0.0
220
0.0
230
1.0
 70
     8
 71
     3
 72
     8
 73
     4
 74
     0
 42
0.000000001
 43
0.00000001
 40
0.0
 40
0.0
 40
0.0
 40
0.0
 40
1.0
 40
1.0
 40
1.0
 40
1.0
 10
80.8329742329485
 20
61.39469431651259
 30
0.0
 10
80.85871518278182
 20
61.49870341595094
 30
0.0
 10
80.88553672704272
 20
61.60262165843557
 30
0.0
 10
80.91335899067784
 20
61.70645575990339
 30
0.0
  0
LINE
  5
CC
330
1F
100
AcDbEntity
  8
0
  6
Continuous
 62
     7
370
    25
100
AcDbLine
 10
83.8329742329
 20
49.0047498377
 30
0.0
 11
83.8329742329
 21
39.4784703961
 31
0.0
  0
LINE
  5
CD
330
1F
100
AcDbEntity
  8
0
  6
Continuous
 62
     7
370
    25
100
AcDbLine
 10
83.8329742329
 20
58.5310292794
 30
0.0
 11
83.8329742329
 21
49.0047498377
 31
0.0
  0
LINE
  5
CE
330
1F
100
AcDbEntity
  8
0
  6
Continuous
 62
     7
370
    25
100
AcDbLine
 10
77.8329742329
 20
49.0047498377
 30
0.0
 11
77.8329742329
 21
58.5310292794
 31
0.0
  0
LINE
  5
CF
330
1F
100
AcDbEntity
  8
0
  6
Continuous
 62
     7
370
    25
100
AcDbLine
 10
77.8329742329
 20
39.4784703961
 30
0.0
 11
77.8329742329
 21
49.0047498377
 31
0.0
  0
SPLINE
  5
D0
330
1F
100
AcDbEntity
  8
0
  6
Continuous
 62
     7
370
    25
100
AcDbSpline
210
0.0
220
0.0
230
1.0
 70
     8
 71
     3
 72
    23
 73
    19
 74
     0
 42
0.000000001
 43
0.00000001
 40
0.0
 40
0.0
 40
0.0
 40
0.0
 40
0.0611415679303346
 40
0.1200010135310724
 40
0.1782359705414084
 40
0.236495543407017
 40
0.294887248704973
 40
0.3546771928192958
 40
0.4166948132897785
 40
0.4806333779628396
 40
0.5458046334786409
 40
0.6097347883178745
 40
0.6729516883751544
 40
0.7360010960706833
 40
0.7998274385165253
 40
0.8647672769393869
 40
0.9310835057306723
 40
1.0
 40
1.0
 40
1.0
 40
1.0
 10
80.44583480987158
 20
47.79427231416701
 30
0.0
 10
80.45607652032173
 20
47.79450540521005
 30
0.0
 10
80.47617766715051
 20
47.79496288712222
 30
0.0
 10
80.50559828075356
 20
47.80023746217842
 30
0.0
 10
80.53412308948708
 20
47.80736165362023
 30
0.0
 10
80.56110952601186
 20
47.81887499995757
 30
0.0
 10
80.58730387384223
 20
47.83258833522122
 30
0.0
 10
80.6119574789533
 20
47.8500582235166
 30
0.0
 10
80.63576878239729
 20
47.87008787805457
 30
0.0
 10
80.65786119612743
 20
47.89328416151943
 30
0.0
 10
80.67806871579197
 20
47.91851964136899
 30
0.0
 10
80.69590523832768
 20
47.94535573512221
 30
0.0
 10
80.7109589129733
 20
47.97343035917626
 30
0.0
 10
80.72351906944199
 20
48.00271639371162
 30
0.0
 10
80.7325831379974
 20
48.03354904161252
 30
0.0
 10
80.73972023991631
 20
48.06543061996394
 30
0.0
 10
80.7435182481266
 20
48.09876886560939
 30
0.0
 10
80.74417699025165
 20
48.12138741219655
 30
0.0
 10
80.74451269448696
 20
48.13291414109009
 30
0.0
  0
SPLINE
  5
D1
330
1F
100
AcDbEntity
  8
0
  6
Continuous
 62
     7
370
    25
100
AcDbSpline
210
0.0
220
0.0
230
1.0
 70
     8
 71
     3
 72
    23
 73
    19
 74
     0
 42
0.000000001
 43
0.00000001
 40
0.0
 40
0.0
 40
0.0
 40
0.0
 40
0.0679503475997533
 40
0.1332598223836994
 40
0.1978002967596469
 40
0.2608458295516821
 40
0.3233192927503666
 40
0.3862817224595717
 40
0.4500615162333125
 40
0.5152075844858149
 40
0.5796407692199315
 40
0.6418172023841521
 40
0.7016924412115346
 40
0.7607690981778942
 40
0.8192540511346831
 40
0.8787376269055535
 40
0.938158297016091
 40
1.0
 40
1.0
 40
1.0
 40
1.0
 10
80.14835884833312
 20
48.12119539109009
 30
0.0
 10
80.14868843737425
 20
48.1100673020667
 30
0.0
 10
80.14933480606302
 20
48.08824361434311
 30
0.0
 10
80.15322646006125
 20
48.05602667625842
 30
0.0
 10
80.16010995117188
 20
48.02513501023869
 30
0.0
 10
80.16989178839208
 20
47.9955471313954
 30
0.0
 10
80.18181083022814
 20
47.96701652193464
 30
0.0
 10
80.19701919025593
 20
47.9399479677102
 30
0.0
 10
80.21479644176354
 20
47.9139760237791
 30
0.0
 10
80.23513499498173
 20
47.88966601107396
 30
0.0
 10
80.25699276845035
 20
47.86701432531061
 30
0.0
 10
80.2810013699189
 20
47.8480642742398
 30
0.0
 10
80.30531649226396
 20
47.83096199244449
 30
0.0
 10
80.33141491427783
 20
47.8180076118024
 30
0.0
 10
80.3583513137567
 20
47.80714744214776
 30
0.0
 10
80.38653627450066
 20
47.79984669258047
 30
0.0
 10
80.4158244943161
 20
47.7950671269225
 30
0.0
 10
80.43569910420743
 20
47.79454075480146
 30
0.0
 10
80.44583480987158
 20
47.79427231416701
 30
0.0
  0
SPLINE
  5
D2
330
1F
100
AcDbEntity
  8
0
  6
Continuous
 62
     7
370
    25
100
AcDbSpline
210
0.0
220
0.0
230
1.0
 70
     8
 71
     3
 72
    23
 73
    19
 74
     0
 42
0.000000001
 43
0.00000001
 40
0.0
 40
0.0
 40
0.0
 40
0.0
 40
0.0618526459466918
 40
0.12128383061537
 40
0.1807779320756124
 40
0.2392732340142805
 40
0.2986414352139417
 40
0.3581858222417117
 40
0.4207600867589708
 40
0.4852046730216432
 40
0.5503622689482868
 40
0.6136499245309119
 40
0.6766234955168248
 40
0.7391080134690123
 40
0.8021647022429443
 40
0.8667165971324775
 40
0.9320376285055445
 40
1.0
 40
1.0
 40
1.0
 40
1.0
 10
80.44583480987158
 20
48.44811846801317
 30
0.0
 10
80.43569949001467
 20
48.4478493357057
 30
0.0
 10
80.4158256366339
 20
48.44732160731687
 30
0.0
 10
80.38653191122039
 20
48.44255191206366
 30
0.0
 10
80.35836760096942
 20
48.4352141404104
 30
0.0
 10
80.33131210626853
 20
48.42447358698861
 30
0.0
 10
80.30551301060513
 20
48.41100179253095
 30
0.0
 10
80.28078705546488
 20
48.39442326399904
 30
0.0
 10
80.2571171744248
 20
48.375018715911
 30
0.0
 10
80.2351002378738
 20
48.35246131376567
 30
0.0
 10
80.21490576863438
 20
48.32813534253112
 30
0.0
 10
80.19692457531237
 20
48.30240901672599
 30
0.0
 10
80.1818251811384
 20
48.27536413607875
 30
0.0
 10
80.16988791988634
 20
48.24684637990766
 30
0.0
 10
80.16011101834404
 20
48.2172550190813
 30
0.0
 10
80.15322616923022
 20
48.18636431109494
 30
0.0
 10
80.14933488258447
 20
48.15414711385333
 30
0.0
 10
80.14868846321617
 20
48.13232346188272
 30
0.0
 10
80.14835884833312
 20
48.12119539109009
 30
0.0
  0
SPLINE
  5
D3
330
1F
100
AcDbEntity
  8
0
  6
Continuous
 62
     7
370
    25
100
AcDbSpline
210
0.0
220
0.0
230
1.0
 70
     8
 71
     3
 72
    23
 73
    19
 74
     0
 42
0.000000001
 43
0.00000001
 40
0.0
 40
0.0
 40
0.0
 40
0.0
 40
0.0705921865358075
 40
0.1385012886049303
 40
0.2037899961427016
 40
0.2667875726696014
 40
0.3290979656467185
 40
0.391174524603966
 40
0.4531677986176575
 40
0.5157967602265847
 40
0.5779688050530403
 40
0.6389663383752915
 40
0.698381066162843
 40
0.7573204555574266
 40
0.8164122397216688
 40
0.876279358230831
 40
0.9368234656501931
 40
1.0
 40
1.0
 40
1.0
 40
1.0
 10
80.74451269448696
 20
48.13291414109009
 30
0.0
 10
80.74417483003236
 20
48.1443404589279
 30
0.0
 10
80.743511942755
 20
48.16675880042161
 30
0.0
 10
80.73976795063605
 20
48.19960825663684
 30
0.0
 10
80.73267411201564
 20
48.23061419032253
 30
0.0
 10
80.72349806845938
 20
48.26013073980668
 30
0.0
 10
80.71100424306258
 20
48.28785026515418
 30
0.0
 10
80.69600811051825
 20
48.31408896378252
 30
0.0
 10
80.67817868924546
 20
48.33858647172944
 30
0.0
 10
80.6577147729094
 20
48.36091257026162
 30
0.0
 10
80.63563701862951
 20
48.38141344269597
 30
0.0
 10
80.61184809489086
 20
48.39904754077094
 30
0.0
 10
80.58707479491007
 20
48.41427530187926
 30
0.0
 10
80.56108427972622
 20
48.42665220258224
 30
0.0
 10
80.53389322125155
 20
48.4362910808801
 30
0.0
 10
80.50562489039547
 20
48.44326311382279
 30
0.0
 10
80.4760902096404
 20
48.44714331302264
 30
0.0
 10
80.4560619911616
 20
48.4477888380314
 30
0.0
 10
80.44583480987158
 20
48.44811846801317
 30
0.0
  0
LINE
  5
D4
330
1F
100
AcDbEntity
  8
0
  6
Continuous
 62
     7
370
    25
100
AcDbLine
 10
80.8329742329
 20
42.3421354333
 30
0.0
 11
80.8329742329
 21
43.2774197634
 31
0.0
  0
LINE
  5
D5
330
1F
100
AcDbEntity
  8
0
  6
Continuous
 62
     7
370
    25
100
AcDbLine
 10
80.8329742329
 20
54.732079912
 30
0.0
 11
80.8329742329
 21
55.6673642422
 31
0.0
  0
LINE
  5
D6
330
1F
100
AcDbEntity
  8
0
  6
Continuous
 62
     7
370
    25
100
AcDbLine
 10
63.5293655059
 20
59.311512065
 30
0.0
 11
63.5293655059
 21
38.6979876105
 31
0.0
  0
LINE
  5
D7
330
1F
100
AcDbEntity
  8
0
  6
Continuous
 62
     7
370
    25
100
AcDbLine
 10
60.8329742329
 20
40.2547498377
 30
0.0
 11
60.8329742329
 21
57.7547498377
 31
0.0
  0
LINE
  5
D8
330
1F
100
AcDbEntity
  8
0
  6
Continuous
 62
     7
370
    25
100
AcDbLine
 10
103.8329742329
 20
59.2547498377
 30
0.0
 11
103.8329742329
 21
38.7547498377
 31
0.0
  0
LINE
  5
D9
330
1F
100
AcDbEntity
  8
0
  6
Continuous
 62
     7
370
    25
100
AcDbLine
 10
98.3329742329
 20
59.2547498377
 30
0.0
 11
98.3329742329
 21
38.7547498377
 31
0.0
  0
LINE
  5
DA
330
1F
100
AcDbEntity
  8
0
  6
Continuous
 62
     7
370
    25
100
AcDbLine
 10
109.3329742329
 20
59.2547498377
 30
0.0
 11
109.3329742329
 21
38.7547498377
 31
0.0
  0
LINE
  5
DB
330
1F
100
AcDbEntity
  8
0
  6
Continuous
 62
     7
370
    25
100
AcDbLine
 10
92.8329742329
 20
59.2547498377
 30
0.0
 11
92.8329742329
 21
38.7547498377
 31
0.0
  0
LINE
  5
DC
330
1F
100
AcDbEntity
  8
0
  6
Continuous
 62
     7
370
    25
100
AcDbLine
 10
116.8329742329
 20
40.1925080361
 30
0.0
 11
116.8329742329
 21
57.8169916394
 31
0.0
  0
LINE
  5
DD
330
1F
100
AcDbEntity
  8
0
  6
Continuous
 62
     7
370
    25
100
AcDbLine
 10
77.8329742329
 20
38.0047498377
 30
0.0
 11
77.8329742329
 21
39.4784703961
 31
0.0
  0
LINE
  5
DE
330
1F
100
AcDbEntity
  8
0
  6
Continuous
 62
     7
370
    25
100
AcDbLine
 10
83.8329742329
 20
39.4784703961
 30
0.0
 11
83.8329742329
 21
38.0047498377
 31
0.0
  0
LINE
  5
DF
330
1F
100
AcDbEntity
  8
0
  6
Continuous
 62
     7
370
    25
100
AcDbLine
 10
77.8329742329
 20
58.5310292794
 30
0.0
 11
77.8329742329
 21
60.0047498377
 31
0.0
  0
LINE
  5
E0
330
1F
100
AcDbEntity
  8
0
  6
Continuous
 62
     7
370
    25
100
AcDbLine
 10
83.8329742329
 20
60.0047498377
 30
0.0
 11
83.8329742329
 21
58.5310292794
 31
0.0
  0
LINE
  5
E1
330
1F
100
AcDbEntity
  8
0
  6
Continuous
 62
     7
370
    25
100
AcDbLine
 10
80.8329742329
 20
61.3946943165
 30
0.0
 11
80.8329742329
 21
61.4064557599
 31
0.0
  0
LINE
  5
E2
330
1F
100
AcDbEntity
  8
0
  6
Continuous
 62
     7
370
    25
100
AcDbLine
 10
80.8329742329
 20
36.6030439156
 30
0.0
 11
80.8329742329
 21
36.614805359
 31
0.0
  0
LINE
  5
E3
330
1F
100
AcDbEntity
  8
0
  6
Continuous
 62
     8
370
    25
100
AcDbLine
 10
116.399056093
 20
39.6968940857
 30
0.0
 11
116.399056093
 21
58.3126055897
 31
0.0
  0
LINE
  5
E4
330
1F
100
AcDbEntity
  8
0
  6
Continuous
 62
     7
370
    18
100
AcDbLine
 10
61.7142002639
 20
58.2635259239
 30
0.0
 11
77.3329742329
 21
58.7516126105
 31
0.0
  0
LINE
  5
E5
330
1F
100
AcDbEntity
  8
0
  6
Continuous
 62
     7
370
    18
100
AcDbLine
 10
61.7142002639
 20
39.7459737515
 30
0.0
 11
77.3329742329
 21
39.257887065
 31
0.0
  0
LINE
  5
E6
330
1F
100
AcDbEntity
  8
0
  6
Continuous
 62
     7
370
    18
100
AcDbLine
 10
77.3329742329
 20
38.2666248377
 30
0.0
 11
77.3329742329
 21
59.7428748377
 31
0.0
  0
LINE
  5
E7
330
1F
100
AcDbEntity
  8
0
  6
CENTERX2
 62
     7
370
    18
100
AcDbLine
 10
117.8329742329
 20
49.0047498377
 30
0.0
 11
59.48217004
 21
49.0047498377
 31
0.0
  0
CIRCLE
  5
E8
330
1F
100
AcDbEntity
  8
0
  6
Continuous
 62
     7
370
    25
100
AcDbCircle
 10
142.6739398863
 20
49.0047498377
 30
0.0
 40
8.812241801652618
  0
CIRCLE
  5
E9
330
1F
100
AcDbEntity
  8
0
  6
Continuous
 62
     7
370
    25
100
AcDbCircle
 10
142.6739398863
 20
49.0047498377
 30
0.0
 40
9.307855751993934
  0
CIRCLE
  5
EA
330
1F
100
AcDbEntity
  8
0
  6
Continuous
 62
     7
370
    25
100
AcDbCircle
 10
142.6739398863
 20
49.0047498377
 30
0.0
 40
7.449999999999982
  0
CIRCLE
  5
EB
330
1F
100
AcDbEntity
  8
0
  6
Continuous
 62
     7
370
    25
100
AcDbCircle
 10
142.6739398863
 20
49.0047498377
 30
0.0
 40
7.249999999999972
  0
CIRCLE
  5
EC
330
1F
100
AcDbEntity
  8
0
  6
Continuous
 62
     7
370
    25
100
AcDbCircle
 10
142.6739398863
 20
49.0047498377
 30
0.0
 40
10.24999999999999
  0
SPLINE
  5
ED
330
1F
100
AcDbEntity
  8
0
  6
Continuous
 62
     7
370
    25
100
AcDbSpline
210
0.0
220
0.0
230
1.0
 70
    24
 71
     3
 72
    10
 73
     6
 74
     0
 42
0.000000001
 43
0.00000001
 40
0.0
 40
0.0
 40
0.0
 40
0.0
 40
0.5000000000000001
 40
0.5000000000000001
 40
1.0
 40
1.0
 40
1.0
 40
1.0
 10
153.6739398863234
 20
42.65389687664573
 30
0.0
 10
153.6739398863234
 20
43.6878707890248
 30
0.0
 10
153.6739398863234
 20
44.74527282828495
 30
0.0
 10
153.6739398863234
 20
46.86419988846139
 30
0.0
 10
153.6739398863234
 20
47.93046726025348
 30
0.0
 10
153.6739398863234
 20
49.00474983773163
 30
0.0
  0
SPLINE
  5
EE
330
1F
100
AcDbEntity
  8
0
  6
Continuous
 62
     7
370
    25
100
AcDbSpline
210
0.0
220
0.0
230
1.0
 70
    24
 71
     3
 72
    10
 73
     6
 74
     0
 42
0.000000001
 43
0.00000001
 40
0.0
 40
0.0
 40
0.0
 40
0.0
 40
0.5
 40
0.5
 40
1.0
 40
1.0
 40
1.0
 40
1.0
 10
153.6739398863234
 20
42.65389687664577
 30
0.0
 10
152.7742121314625
 20
42.13443881517945
 30
0.0
 10
151.8679123856758
 20
41.61118641298298
 30
0.0
 10
150.0363656361097
 20
40.5537424040876
 30
0.0
 10
149.1109769995471
 20
40.01946902566321
 30
0.0
 10
148.1739398863234
 20
39.4784703961028
 30
0.0
  0
ARC
  5
EF
330
1F
100
AcDbEntity
  8
0
  6
Continuous
 62
     7
370
    25
100
AcDbCircle
 10
142.6739398863
 20
49.0047498377
 30
0.0
 40
11.00000000000001
100
AcDbArc
 50
300.0
 51
0.0
  0
ARC
  5
F0
330
1F
100
AcDbEntity
  8
0
  6
Continuous
 62
     7
370
    25
100
AcDbCircle
 10
142.6739398863
 20
49.0047498377
 30
0.0
 40
11.00000000000001
100
AcDbArc
 50
240.0
 51
300.0
  0
ARC
  5
F1
330
1F
100
AcDbEntity
  8
0
  6
Continuous
 62
     7
370
    25
100
AcDbCircle
 10
142.6739398863
 20
49.0047498377
 30
0.0
 40
11.00000000000003
100
AcDbArc
 50
180.0
 51
240.0
  0
ARC
  5
F2
330
1F
100
AcDbEntity
  8
0
  6
Continuous
 62
     7
370
    25
100
AcDbCircle
 10
142.6739398863
 20
49.0047498377
 30
0.0
 40
11.00000000000003
100
AcDbArc
 50
120.0
 51
180.0
  0
ARC
  5
F3
330
1F
100
AcDbEntity
  8
0
  6
Continuous
 62
     7
370
    25
100
AcDbCircle
 10
142.6739398863
 20
49.0047498377
 30
0.0
 40
11.0
100
AcDbArc
 50
60.0
 51
120.0
  0
ARC
  5
F4
330
1F
100
AcDbEntity
  8
0
  6
Continuous
 62
     7
370
    25
100
AcDbCircle
 10
142.6739398863
 20
49.0047498377
 30
0.0
 40
11.0
100
AcDbArc
 50
0.0
 51
60.0
  0
SPLINE
  5
F5
330
1F
100
AcDbEntity
  8
0
  6
Continuous
 62
     7
370
    25
100
AcDbSpline
210
0.0
220
0.0
230
1.0
 70
    24
 71
     3
 72
    12
 73
     8
 74
     0
 42
0.000000001
 43
0.00000001
 40
0.0
 40
0.0
 40
0.0
 40
0.0
 40
0.25
 40
0.25
 40
0.5
 40
0.5
 40
1.0
 40
1.0
 40
1.0
 40
1.0
 10
153.6739398863234
 20
49.00474983773163
 30
0.0
 10
153.6739398863234
 20
49.54228346063657
 30
0.0
 10
153.6739398863234
 20
50.08265020446812
 30
0.0
 10
153.6739398863234
 20
51.16374198928526
 30
0.0
 10
153.6739398863234
 20
51.69856010802727
 30
0.0
 10
153.6739398863234
 20
53.28824574262404
 30
0.0
 10
153.6739398863234
 20
54.32844633326336
 30
0.0
 10
153.6739398863234
 20
55.35560279881751
 30
0.0
  0
SPLINE
  5
F6
330
1F
100
AcDbEntity
  8
0
  6
Continuous
 62
     7
370
    25
100
AcDbSpline
210
0.0
220
0.0
230
1.0
 70
    24
 71
     3
 72
    12
 73
     8
 74
     0
 42
0.000000001
 43
0.00000001
 40
0.0
 40
0.0
 40
0.0
 40
0.0
 40
0.2500000000000001
 40
0.2500000000000001
 40
0.5000000000000001
 40
0.5000000000000001
 40
1.0
 40
1.0
 40
1.0
 40
1.0
 10
148.1739398863234
 20
58.53102927936045
 30
0.0
 10
148.6407066111494
 20
58.26154138513341
 30
0.0
 10
149.1095673627811
 20
57.99084450396637
 30
0.0
 10
150.0370716171464
 20
57.45534967303408
 30
0.0
 10
150.4977216203501
 20
57.18939326968216
 30
0.0
 10
151.8714901033111
 20
56.39624766624046
 30
0.0
 10
152.7764588908406
 20
55.87376369315208
 30
0.0
 10
153.6739398863234
 20
55.3556027988175
 30
0.0
  0
SPLINE
  5
F7
330
1F
100
AcDbEntity
  8
0
  6
Continuous
 62
     7
370
    25
100
AcDbSpline
210
0.0
220
0.0
230
1.0
 70
    24
 71
     3
 72
    10
 73
     6
 74
     0
 42
0.000000001
 43
0.00000001
 40
0.0
 40
0.0
 40
0.0
 40
0.0
 40
0.5
 40
0.5
 40
1.0
 40
1.0
 40
1.0
 40
1.0
 10
142.6739398863234
 20
36.30304391555984
 30
0.0
 10
141.7742121314625
 20
36.82250197702616
 30
0.0
 10
140.8679123856758
 20
37.34575437922262
 30
0.0
 10
139.0363656361097
 20
38.403198388118
 30
0.0
 10
138.1109769995471
 20
38.9374717665424
 30
0.0
 10
137.1739398863234
 20
39.47847039610281
 30
0.0
  0
SPLINE
  5
F8
330
1F
100
AcDbEntity
  8
0
  6
Continuous
 62
     7
370
    25
100
AcDbSpline
210
0.0
220
0.0
230
1.0
 70
    24
 71
     3
 72
    12
 73
     8
 74
     0
 42
0.000000001
 43
0.00000001
 40
0.0
 40
0.0
 40
0.0
 40
0.0
 40
0.2500000000000002
 40
0.2500000000000002
 40
0.5000000000000002
 40
0.5000000000000002
 40
1.0
 40
1.0
 40
1.0
 40
1.0
 10
148.1739398863234
 20
39.4784703961028
 30
0.0
 10
147.7071731614974
 20
39.20898250187575
 30
0.0
 10
147.2383124098656
 20
38.93828562070873
 30
0.0
 10
146.3108081555004
 20
38.40279078977643
 30
0.0
 10
145.8501581522966
 20
38.1368343864245
 30
0.0
 10
144.4763896693357
 20
37.34368878298281
 30
0.0
 10
143.5714208818061
 20
36.82120480989443
 30
0.0
 10
142.6739398863234
 20
36.30304391555985
 30
0.0
  0
SPLINE
  5
F9
330
1F
100
AcDbEntity
  8
0
  6
Continuous
 62
     7
370
    25
100
AcDbSpline
210
0.0
220
0.0
230
1.0
 70
    24
 71
     3
 72
    12
 73
     8
 74
     0
 42
0.000000001
 43
0.00000001
 40
0.0
 40
0.0
 40
0.0
 40
0.0
 40
0.2500000000000002
 40
0.2500000000000002
 40
0.5000000000000001
 40
0.5000000000000001
 40
1.0
 40
1.0
 40
1.0
 40
1.0
 10
137.1739398863234
 20
58.53102927936045
 30
0.0
 10
137.6407066111494
 20
58.80051717358749
 30
0.0
 10
138.1095673627811
 20
59.07121405475453
 30
0.0
 10
139.0370716171464
 20
59.60670888568683
 30
0.0
 10
139.4977216203501
 20
59.87266528903876
 30
0.0
 10
140.871490103311
 20
60.66581089248044
 30
0.0
 10
141.7764588908406
 20
61.18829486556883
 30
0.0
 10
142.6739398863234
 20
61.70645575990341
 30
0.0
  0
SPLINE
  5
FA
330
1F
100
AcDbEntity
  8
0
  6
Continuous
 62
     7
370
    25
100
AcDbSpline
210
0.0
220
0.0
230
1.0
 70
    24
 71
     3
 72
    10
 73
     6
 74
     0
 42
0.000000001
 43
0.00000001
 40
0.0
 40
0.0
 40
0.0
 40
0.0
 40
0.5
 40
0.5
 40
1.0
 40
1.0
 40
1.0
 40
1.0
 10
142.6739398863234
 20
61.70645575990341
 30
0.0
 10
143.5736676411842
 20
61.1869976984371
 30
0.0
 10
144.479967386971
 20
60.66374529624063
 30
0.0
 10
146.3115141365371
 20
59.60630128734525
 30
0.0
 10
147.2369027730996
 20
59.07202790892086
 30
0.0
 10
148.1739398863234
 20
58.53102927936045
 30
0.0
  0
SPLINE
  5
FB
330
1F
100
AcDbEntity
  8
0
  6
Continuous
 62
     7
370
    25
100
AcDbSpline
210
0.0
220
0.0
230
1.0
 70
    24
 71
     3
 72
    10
 73
     6
 74
     0
 42
0.000000001
 43
0.00000001
 40
0.0
 40
0.0
 40
0.0
 40
0.0
 40
0.5
 40
0.5
 40
1.0
 40
1.0
 40
1.0
 40
1.0
 10
131.6739398863234
 20
42.65389687664574
 30
0.0
 10
131.6739398863234
 20
43.68787078902481
 30
0.0
 10
131.6739398863234
 20
44.74527282828495
 30
0.0
 10
131.6739398863234
 20
46.86419988846139
 30
0.0
 10
131.6739398863234
 20
47.93046726025348
 30
0.0
 10
131.6739398863234
 20
49.00474983773163
 30
0.0
  0
SPLINE
  5
FC
330
1F
100
AcDbEntity
  8
0
  6
Continuous
 62
     7
370
    25
100
AcDbSpline
210
0.0
220
0.0
230
1.0
 70
    24
 71
     3
 72
    12
 73
     8
 74
     0
 42
0.000000001
 43
0.00000001
 40
0.0
 40
0.0
 40
0.0
 40
0.0
 40
0.25
 40
0.25
 40
0.5
 40
0.5
 40
1.0
 40
1.0
 40
1.0
 40
1.0
 10
137.1739398863234
 20
39.47847039610281
 30
0.0
 10
136.7071731614974
 20
39.74795829032985
 30
0.0
 10
136.2383124098656
 20
40.01865517149688
 30
0.0
 10
135.3108081555004
 20
40.55415000242918
 30
0.0
 10
134.8501581522966
 20
40.8201064057811
 30
0.0
 10
133.4763896693357
 20
41.61325200922279
 30
0.0
 10
132.5714208818062
 20
42.13573598231118
 30
0.0
 10
131.6739398863234
 20
42.65389687664576
 30
0.0
  0
SPLINE
  5
FD
330
1F
100
AcDbEntity
  8
0
  6
Continuous
 62
     7
370
    25
100
AcDbSpline
210
0.0
220
0.0
230
1.0
 70
    24
 71
     3
 72
    12
 73
     8
 74
     0
 42
0.000000001
 43
0.00000001
 40
0.0
 40
0.0
 40
0.0
 40
0.0
 40
0.2499999999999999
 40
0.2499999999999999
 40
0.4999999999999999
 40
0.4999999999999999
 40
1.0
 40
1.0
 40
1.0
 40
1.0
 10
131.6739398863234
 20
49.00474983773163
 30
0.0
 10
131.6739398863234
 20
49.54228346063657
 30
0.0
 10
131.6739398863234
 20
50.08265020446811
 30
0.0
 10
131.6739398863234
 20
51.16374198928526
 30
0.0
 10
131.6739398863234
 20
51.69856010802727
 30
0.0
 10
131.6739398863234
 20
53.28824574262404
 30
0.0
 10
131.6739398863234
 20
54.32844633326336
 30
0.0
 10
131.6739398863234
 20
55.35560279881751
 30
0.0
  0
SPLINE
  5
FE
330
1F
100
AcDbEntity
  8
0
  6
Continuous
 62
     7
370
    25
100
AcDbSpline
210
0.0
220
0.0
230
1.0
 70
    24
 71
     3
 72
    10
 73
     6
 74
     0
 42
0.000000001
 43
0.00000001
 40
0.0
 40
0.0
 40
0.0
 40
0.0
 40
0.5
 40
0.5
 40
1.0
 40
1.0
 40
1.0
 40
1.0
 10
131.6739398863233
 20
55.35560279881749
 30
0.0
 10
132.5736676411842
 20
55.87506086028381
 30
0.0
 10
133.479967386971
 20
56.39831326248027
 30
0.0
 10
135.3115141365371
 20
57.45575727137565
 30
0.0
 10
136.2369027730996
 20
57.99003064980005
 30
0.0
 10
137.1739398863234
 20
58.53102927936045
 30
0.0
  0
INSERT
  5
10A
330
1F
100
AcDbEntity
  8
0
  6
Continuous
 62
     7
370
    18
100
AcDbBlockReference
  2
SW_CENTERMARKSYMBOL_0
 10
142.6739398863
 20
49.0047498377
 30
0.0
  0
INSERT
  5
116
330
1F
100
AcDbEntity
  8
0
  6
Continuous
 62
     7
370
    18
100
AcDbBlockReference
  2
SW_CENTERMARKSYMBOL_1
 10
142.6739398863
 20
49.0047498377
 30
0.0
  0
LINE
  5
117
330
1F
100
AcDbEntity
  8
0
  6
Continuous
 62
     7
370
    25
100
AcDbLine
 10
77.8329742329
 20
95.4655291426
 30
0.0
 11
63.5293655059
 21
95.0185413699
 31
0.0
  0
LINE
  5
118
330
1F
100
AcDbEntity
  8
0
  6
Continuous
 62
     7
370
    25
100
AcDbLine
 10
63.5293655059
 20
74.4050169153
 30
0.0
 11
77.8329742329
 21
73.9580291426
 31
0.0
  0
LINE
  5
119
330
1F
100
AcDbEntity
  8
0
  6
Continuous
 62
     7
370
    25
100
AcDbLine
 10
63.5293655059
 20
95.0185413699
 30
0.0
 11
60.8329742329
 21
93.4617791426
 31
0.0
  0
LINE
  5
11A
330
1F
100
AcDbEntity
  8
0
  6
Continuous
 62
     7
370
    25
100
AcDbLine
 10
60.8329742329
 20
75.9617791426
 30
0.0
 11
63.5293655059
 21
74.4050169153
 31
0.0
  0
LINE
  5
11B
330
1F
100
AcDbEntity
  8
0
  6
Continuous
 62
     7
370
    25
100
AcDbLine
 10
98.3329742329
 20
74.4617791426
 30
0.0
 11
103.8329742329
 21
75.4617791426
 31
0.0
  0
LINE
  5
11C
330
1F
100
AcDbEntity
  8
0
  6
Continuous
 62
     7
370
    25
100
AcDbLine
 10
103.8329742329
 20
93.9617791426
 30
0.0
 11
98.3329742329
 21
94.9617791426
 31
0.0
  0
LINE
  5
11D
330
1F
100
AcDbEntity
  8
0
  6
Continuous
 62
     7
370
    25
100
AcDbLine
 10
103.8329742329
 20
74.4617791426
 30
0.0
 11
109.3329742329
 21
75.4617791426
 31
0.0
  0
LINE
  5
11E
330
1F
100
AcDbEntity
  8
0
  6
Continuous
 62
     7
370
    25
100
AcDbLine
 10
109.3329742329
 20
93.9617791426
 30
0.0
 11
103.8329742329
 21
94.9617791426
 31
0.0
  0
LINE
  5
11F
330
1F
100
AcDbEntity
  8
0
  6
Continuous
 62
     7
370
    25
100
AcDbLine
 10
92.8329742329
 20
94.9617791426
 30
0.0
 11
83.8329742329
 21
94.9617791426
 31
0.0
  0
LINE
  5
120
330
1F
100
AcDbEntity
  8
0
  6
Continuous
 62
     7
370
    25
100
AcDbLine
 10
83.8329742329
 20
74.4617791426
 30
0.0
 11
92.8329742329
 21
74.4617791426
 31
0.0
  0
LINE
  5
121
330
1F
100
AcDbEntity
  8
0
  6
Continuous
 62
     7
370
    25
100
AcDbLine
 10
109.3329742329
 20
74.4617791426
 30
0.0
 11
116.399056093
 21
75.4039233906
 31
0.0
  0
LINE
  5
122
330
1F
100
AcDbEntity
  8
0
  6
Continuous
 62
     7
370
    25
100
AcDbLine
 10
116.399056093
 20
94.0196348946
 30
0.0
 11
109.3329742329
 21
94.9617791426
 31
0.0
  0
LINE
  5
123
330
1F
100
AcDbEntity
  8
0
  6
Continuous
 62
     7
370
    25
100
AcDbLine
 10
92.8329742329
 20
74.4617791426
 30
0.0
 11
98.3329742329
 21
75.4617791426
 31
0.0
  0
LINE
  5
124
330
1F
100
AcDbEntity
  8
0
  6
Continuous
 62
     7
370
    25
100
AcDbLine
 10
98.3329742329
 20
93.9617791426
 30
0.0
 11
92.8329742329
 21
94.9617791426
 31
0.0
  0
ARC
  5
125
330
1F
100
AcDbEntity
  8
0
  6
Continuous
 62
     7
370
    25
100
AcDbCircle
 10
116.3329742329
 20
75.8995373409
 30
0.0
 40
0.500000000000004
100
AcDbArc
 50
277.5946433686
 51
0.0
  0
ARC
  5
126
330
1F
100
AcDbEntity
  8
0
  6
Continuous
 62
     7
370
    25
100
AcDbCircle
 10
116.3329742329
 20
93.5240209442
 30
0.0
 40
0.500000000000004
100
AcDbArc
 50
0.0
 51
82.4053566314
  0
LINE
  5
127
330
1F
100
AcDbEntity
  8
0
  6
Continuous
 62
     7
370
    25
100
AcDbLine
 10
80.9133589907
 20
95.7117791426
 30
0.0
 11
82.8504938607
 21
95.7117791426
 31
0.0
  0
SPLINE
  5
128
330
1F
100
AcDbEntity
  8
0
  6
Continuous
 62
     7
370
    25
100
AcDbSpline
210
0.0
220
0.0
230
1.0
 70
     8
 71
     3
 72
    12
 73
     8
 74
     0
 42
0.000000001
 43
0.00000001
 40
0.0
 40
0.0
 40
0.0
 40
0.0
 40
0.2500000000000001
 40
0.2500000000000001
 40
0.5000000000000001
 40
0.5000000000000001
 40
1.0
 40
1.0
 40
1.0
 40
1.0
 10
83.8329742329485
 20
90.21177914257399
 30
0.0
 10
83.8329742329485
 20
90.67854586739998
 30
0.0
 10
83.80975207862133
 20
91.1474066190317
 30
0.0
 10
83.71988492876058
 20
92.07491087339696
 30
0.0
 10
83.65332633967289
 20
92.53556087660077
 30
0.0
 10
83.39661686555121
 20
93.90932935956164
 30
0.0
 10
83.1496541925288
 20
94.8142981470912
 30
0.0
 10
82.8504938607012
 20
95.711779142574
 30
0.0
  0
SPLINE
  5
129
330
1F
100
AcDbEntity
  8
0
  6
Continuous
 62
     7
370
    25
100
AcDbSpline
210
0.0
220
0.0
230
1.0
 70
     8
 71
     3
 72
    10
 73
     6
 74
     0
 42
0.000000001
 43
0.00000001
 40
0.0
 40
0.0
 40
0.0
 40
0.0
 40
0.5
 40
0.5
 40
1.0
 40
1.0
 40
1.0
 40
1.0
 10
82.85049386070135
 20
84.71177914257395
 30
0.0
 10
83.15040311232167
 20
85.61150689743484
 30
0.0
 10
83.3974837716876
 20
86.51780664322159
 30
0.0
 10
83.73933858571998
 20
88.34935339278769
 30
0.0
 10
83.8329742329485
 20
89.27474202935022
 30
0.0
 10
83.8329742329485
 20
90.21177914257399
 30
0.0
  0
LINE
  5
12A
330
1F
100
AcDbEntity
  8
0
  6
Continuous
 62
     7
370
    25
100
AcDbLine
 10
80.9133589907
 20
84.7117791426
 30
0.0
 11
82.8504938607
 21
84.7117791426
 31
0.0
  0
SPLINE
  5
12B
330
1F
100
AcDbEntity
  8
0
  6
Continuous
 62
     7
370
    25
100
AcDbSpline
210
0.0
220
0.0
230
1.0
 70
     8
 71
     3
 72
     8
 73
     4
 74
     0
 42
0.000000001
 43
0.00000001
 40
0.0
 40
0.0
 40
0.0
 40
0.0
 40
1.0
 40
1.0
 40
1.0
 40
1.0
 10
80.91335899067782
 20
84.71177914257399
 30
0.0
 10
80.88552731762071
 20
84.89168590533437
 30
0.0
 10
80.85870625775468
 20
85.07167921984274
 30
0.0
 10
80.8329742329485
 20
85.25176580236784
 30
0.0
  0
SPLINE
  5
12C
330
1F
100
AcDbEntity
  8
0
  6
Continuous
 62
     7
370
    25
100
AcDbSpline
210
0.0
220
0.0
230
1.0
 70
     8
 71
     3
 72
     8
 73
     4
 74
     0
 42
0.000000001
 43
0.00000001
 40
0.0
 40
0.0
 40
0.0
 40
0.0
 40
1.0
 40
1.0
 40
1.0
 40
1.0
 10
80.8329742329485
 20
85.25176580236786
 30
0.0
 10
80.80723328311518
 20
85.07161675769115
 30
0.0
 10
80.78041173885427
 20
84.89162508187452
 30
0.0
 10
80.75258947521915
 20
84.71177914257399
 30
0.0
  0
LINE
  5
12D
330
1F
100
AcDbEntity
  8
0
  6
Continuous
 62
     7
370
    25
100
AcDbLine
 10
78.8154546052
 20
84.7117791426
 30
0.0
 11
80.7525894752
 21
84.7117791426
 31
0.0
  0
SPLINE
  5
12E
330
1F
100
AcDbEntity
  8
0
  6
Continuous
 62
     7
370
    25
100
AcDbSpline
210
0.0
220
0.0
230
1.0
 70
     8
 71
     3
 72
    10
 73
     6
 74
     0
 42
0.000000001
 43
0.00000001
 40
0.0
 40
0.0
 40
0.0
 40
0.0
 40
0.5
 40
0.5
 40
1.0
 40
1.0
 40
1.0
 40
1.0
 10
78.81545460519563
 20
84.71177914257395
 30
0.0
 10
78.51554535357532
 20
85.61150689743484
 30
0.0
 10
78.26846469420938
 20
86.51780664322159
 30
0.0
 10
77.926609880177
 20
88.34935339278769
 30
0.0
 10
77.83297423294847
 20
89.27474202935022
 30
0.0
 10
77.83297423294847
 20
90.21177914257399
 30
0.0
  0
SPLINE
  5
12F
330
1F
100
AcDbEntity
  8
0
  6
Continuous
 62
     7
370
    25
100
AcDbSpline
210
0.0
220
0.0
230
1.0
 70
     8
 71
     3
 72
    12
 73
     8
 74
     0
 42
0.000000001
 43
0.00000001
 40
0.0
 40
0.0
 40
0.0
 40
0.0
 40
0.2500000000000001
 40
0.2500000000000001
 40
0.5000000000000001
 40
0.5000000000000001
 40
1.0
 40
1.0
 40
1.0
 40
1.0
 10
77.83297423294847
 20
90.21177914257399
 30
0.0
 10
77.83297423294847
 20
90.67854586739998
 30
0.0
 10
77.85619638727565
 20
91.1474066190317
 30
0.0
 10
77.9460635371364
 20
92.07491087339696
 30
0.0
 10
78.01262212622409
 20
92.53556087660077
 30
0.0
 10
78.26933160034577
 20
93.90932935956164
 30
0.0
 10
78.51629427336817
 20
94.8142981470912
 30
0.0
 10
78.81545460519578
 20
95.711779142574
 30
0.0
  0
LINE
  5
130
330
1F
100
AcDbEntity
  8
0
  6
Continuous
 62
     7
370
    25
100
AcDbLine
 10
78.8154546052
 20
95.7117791426
 30
0.0
 11
80.7525894752
 21
95.7117791426
 31
0.0
  0
SPLINE
  5
131
330
1F
100
AcDbEntity
  8
0
  6
Continuous
 62
     7
370
    25
100
AcDbSpline
210
0.0
220
0.0
230
1.0
 70
     8
 71
     3
 72
     8
 73
     4
 74
     0
 42
0.000000001
 43
0.00000001
 40
0.0
 40
0.0
 40
0.0
 40
0.0
 40
1.0
 40
1.0
 40
1.0
 40
1.0
 10
80.75258947521915
 20
95.71177914257397
 30
0.0
 10
80.78042114827626
 20
95.53187237981359
 30
0.0
 10
80.80724220814231
 20
95.35187906530521
 30
0.0
 10
80.8329742329485
 20
95.1717924827801
 30
0.0
  0
SPLINE
  5
132
330
1F
100
AcDbEntity
  8
0
  6
Continuous
 62
     7
370
    25
100
AcDbSpline
210
0.0
220
0.0
230
1.0
 70
     8
 71
     3
 72
     8
 73
     4
 74
     0
 42
0.000000001
 43
0.00000001
 40
0.0
 40
0.0
 40
0.0
 40
0.0
 40
1.0
 40
1.0
 40
1.0
 40
1.0
 10
80.8329742329485
 20
95.1717924827801
 30
0.0
 10
80.85871518278181
 20
95.35194152745682
 30
0.0
 10
80.8855367270427
 20
95.53193320327344
 30
0.0
 10
80.91335899067782
 20
95.71177914257397
 30
0.0
  0
SPLINE
  5
133
330
1F
100
AcDbEntity
  8
0
  6
Continuous
 62
     7
370
    25
100
AcDbSpline
210
0.0
220
0.0
230
1.0
 70
     8
 71
     3
 72
    12
 73
     8
 74
     0
 42
0.000000001
 43
0.00000001
 40
0.0
 40
0.0
 40
0.0
 40
0.0
 40
0.2500000000000002
 40
0.2500000000000002
 40
0.5000000000000001
 40
0.5000000000000001
 40
1.0
 40
1.0
 40
1.0
 40
1.0
 10
83.8329742329485
 20
79.21177914257397
 30
0.0
 10
83.8329742329485
 20
79.67854586739998
 30
0.0
 10
83.80975207862133
 20
80.1474066190317
 30
0.0
 10
83.71988492876058
 20
81.07491087339695
 30
0.0
 10
83.65332633967289
 20
81.53556087660077
 30
0.0
 10
83.39661686555121
 20
82.90932935956165
 30
0.0
 10
83.1496541925288
 20
83.8142981470912
 30
0.0
 10
82.8504938607012
 20
84.711779142574
 30
0.0
  0
LINE
  5
134
330
1F
100
AcDbEntity
  8
0
  6
Continuous
 62
     7
370
    25
100
AcDbLine
 10
83.8329742329
 20
90.2117791426
 30
0.0
 11
83.8329742329
 21
79.2117791426
 31
0.0
  0
LINE
  5
135
330
1F
100
AcDbEntity
  8
0
  6
Continuous
 62
     7
370
    25
100
AcDbLine
 10
77.8329742329
 20
79.2117791426
 30
0.0
 11
77.8329742329
 21
90.2117791426
 31
0.0
  0
SPLINE
  5
136
330
1F
100
AcDbEntity
  8
0
  6
Continuous
 62
     7
370
    25
100
AcDbSpline
210
0.0
220
0.0
230
1.0
 70
     8
 71
     3
 72
    12
 73
     8
 74
     0
 42
0.000000001
 43
0.00000001
 40
0.0
 40
0.0
 40
0.0
 40
0.0
 40
0.2500000000000002
 40
0.2500000000000002
 40
0.5000000000000001
 40
0.5000000000000001
 40
1.0
 40
1.0
 40
1.0
 40
1.0
 10
77.83297423294847
 20
79.21177914257397
 30
0.0
 10
77.83297423294847
 20
79.67854586739998
 30
0.0
 10
77.85619638727565
 20
80.1474066190317
 30
0.0
 10
77.9460635371364
 20
81.07491087339695
 30
0.0
 10
78.01262212622409
 20
81.53556087660077
 30
0.0
 10
78.26933160034577
 20
82.90932935956165
 30
0.0
 10
78.51629427336817
 20
83.8142981470912
 30
0.0
 10
78.81545460519578
 20
84.711779142574
 30
0.0
  0
LINE
  5
137
330
1F
100
AcDbEntity
  8
0
  6
Continuous
 62
     7
370
    25
100
AcDbLine
 10
80.8329742329
 20
84.1717924828
 30
0.0
 11
80.8329742329
 21
85.2517658024
 31
0.0
  0
SPLINE
  5
138
330
1F
100
AcDbEntity
  8
0
  6
Continuous
 62
     7
370
    25
100
AcDbSpline
210
0.0
220
0.0
230
1.0
 70
     8
 71
     3
 72
     8
 73
     4
 74
     0
 42
0.000000001
 43
0.00000001
 40
0.0
 40
0.0
 40
0.0
 40
0.0
 40
1.0
 40
1.0
 40
1.0
 40
1.0
 10
80.75258947521915
 20
84.71177914257399
 30
0.0
 10
80.78042114827626
 20
84.53187237981358
 30
0.0
 10
80.80724220814231
 20
84.35187906530521
 30
0.0
 10
80.8329742329485
 20
84.1717924827801
 30
0.0
  0
SPLINE
  5
139
330
1F
100
AcDbEntity
  8
0
  6
Continuous
 62
     7
370
    25
100
AcDbSpline
210
0.0
220
0.0
230
1.0
 70
     8
 71
     3
 72
     8
 73
     4
 74
     0
 42
0.000000001
 43
0.00000001
 40
0.0
 40
0.0
 40
0.0
 40
0.0
 40
1.0
 40
1.0
 40
1.0
 40
1.0
 10
80.8329742329485
 20
84.1717924827801
 30
0.0
 10
80.85871518278181
 20
84.35194152745682
 30
0.0
 10
80.8855367270427
 20
84.53193320327344
 30
0.0
 10
80.91335899067782
 20
84.71177914257399
 30
0.0
  0
SPLINE
  5
13A
330
1F
100
AcDbEntity
  8
0
  6
Continuous
 62
     7
370
    25
100
AcDbSpline
210
0.0
220
0.0
230
1.0
 70
     8
 71
     3
 72
    10
 73
     6
 74
     0
 42
0.000000001
 43
0.00000001
 40
0.0
 40
0.0
 40
0.0
 40
0.0
 40
0.5
 40
0.5
 40
1.0
 40
1.0
 40
1.0
 40
1.0
 10
82.85049386070135
 20
73.71177914257395
 30
0.0
 10
83.15040311232167
 20
74.61150689743484
 30
0.0
 10
83.3974837716876
 20
75.51780664322158
 30
0.0
 10
83.73933858571998
 20
77.3493533927877
 30
0.0
 10
83.8329742329485
 20
78.27474202935022
 30
0.0
 10
83.8329742329485
 20
79.21177914257397
 30
0.0
  0
LINE
  5
13B
330
1F
100
AcDbEntity
  8
0
  6
Continuous
 62
     7
370
    25
100
AcDbLine
 10
80.9133589907
 20
73.7117791426
 30
0.0
 11
82.8504938607
 21
73.7117791426
 31
0.0
  0
SPLINE
  5
13C
330
1F
100
AcDbEntity
  8
0
  6
Continuous
 62
     7
370
    25
100
AcDbSpline
210
0.0
220
0.0
230
1.0
 70
     8
 71
     3
 72
     8
 73
     4
 74
     0
 42
0.000000001
 43
0.00000001
 40
0.0
 40
0.0
 40
0.0
 40
0.0
 40
1.0
 40
1.0
 40
1.0
 40
1.0
 10
80.91335899067782
 20
73.71177914257399
 30
0.0
 10
80.88552731762071
 20
73.89168590533437
 30
0.0
 10
80.85870625775468
 20
74.07167921984274
 30
0.0
 10
80.8329742329485
 20
74.25176580236787
 30
0.0
  0
SPLINE
  5
13D
330
1F
100
AcDbEntity
  8
0
  6
Continuous
 62
     7
370
    25
100
AcDbSpline
210
0.0
220
0.0
230
1.0
 70
     8
 71
     3
 72
     8
 73
     4
 74
     0
 42
0.000000001
 43
0.00000001
 40
0.0
 40
0.0
 40
0.0
 40
0.0
 40
1.0
 40
1.0
 40
1.0
 40
1.0
 10
80.8329742329485
 20
74.25176580236787
 30
0.0
 10
80.80723328311518
 20
74.07161675769115
 30
0.0
 10
80.78041173885427
 20
73.89162508187452
 30
0.0
 10
80.75258947521915
 20
73.71177914257399
 30
0.0
  0
LINE
  5
13E
330
1F
100
AcDbEntity
  8
0
  6
Continuous
 62
     7
370
    25
100
AcDbLine
 10
78.8154546052
 20
73.7117791426
 30
0.0
 11
80.7525894752
 21
73.7117791426
 31
0.0
  0
SPLINE
  5
13F
330
1F
100
AcDbEntity
  8
0
  6
Continuous
 62
     7
370
    25
100
AcDbSpline
210
0.0
220
0.0
230
1.0
 70
     8
 71
     3
 72
    10
 73
     6
 74
     0
 42
0.000000001
 43
0.00000001
 40
0.0
 40
0.0
 40
0.0
 40
0.0
 40
0.5
 40
0.5
 40
1.0
 40
1.0
 40
1.0
 40
1.0
 10
78.81545460519563
 20
73.71177914257395
 30
0.0
 10
78.51554535357532
 20
74.61150689743484
 30
0.0
 10
78.26846469420938
 20
75.51780664322158
 30
0.0
 10
77.926609880177
 20
77.3493533927877
 30
0.0
 10
77.83297423294847
 20
78.27474202935022
 30
0.0
 10
77.83297423294847
 20
79.21177914257397
 30
0.0
  0
LINE
  5
140
330
1F
100
AcDbEntity
  8
0
  6
Continuous
 62
     7
370
    25
100
AcDbLine
 10
63.5293655059
 20
84.7117791426
 30
0.0
 11
63.5293655059
 21
74.4050169153
 31
0.0
  0
LINE
  5
141
330
1F
100
AcDbEntity
  8
0
  6
Continuous
 62
     7
370
    25
100
AcDbLine
 10
63.5293655059
 20
95.0185413699
 30
0.0
 11
63.5293655059
 21
84.7117791426
 31
0.0
  0
LINE
  5
142
330
1F
100
AcDbEntity
  8
0
  6
Continuous
 62
     7
370
    25
100
AcDbLine
 10
60.8329742329
 20
75.9617791426
 30
0.0
 11
60.8329742329
 21
93.4617791426
 31
0.0
  0
LINE
  5
143
330
1F
100
AcDbEntity
  8
0
  6
Continuous
 62
     7
370
    25
100
AcDbLine
 10
98.3329742329
 20
84.7117791426
 30
0.0
 11
98.3329742329
 21
74.4617791426
 31
0.0
  0
LINE
  5
144
330
1F
100
AcDbEntity
  8
0
  6
Continuous
 62
     7
370
    25
100
AcDbLine
 10
98.3329742329
 20
94.9617791426
 30
0.0
 11
98.3329742329
 21
84.7117791426
 31
0.0
  0
LINE
  5
145
330
1F
100
AcDbEntity
  8
0
  6
Continuous
 62
     7
370
    25
100
AcDbLine
 10
103.8329742329
 20
84.7117791426
 30
0.0
 11
103.8329742329
 21
74.4617791426
 31
0.0
  0
LINE
  5
146
330
1F
100
AcDbEntity
  8
0
  6
Continuous
 62
     7
370
    25
100
AcDbLine
 10
103.8329742329
 20
94.9617791426
 30
0.0
 11
103.8329742329
 21
84.7117791426
 31
0.0
  0
LINE
  5
147
330
1F
100
AcDbEntity
  8
0
  6
Continuous
 62
     7
370
    25
100
AcDbLine
 10
92.8329742329
 20
84.7117791426
 30
0.0
 11
92.8329742329
 21
74.4617791426
 31
0.0
  0
LINE
  5
148
330
1F
100
AcDbEntity
  8
0
  6
Continuous
 62
     7
370
    25
100
AcDbLine
 10
92.8329742329
 20
94.9617791426
 30
0.0
 11
92.8329742329
 21
84.7117791426
 31
0.0
  0
LINE
  5
149
330
1F
100
AcDbEntity
  8
0
  6
Continuous
 62
     7
370
    25
100
AcDbLine
 10
109.3329742329
 20
84.7117791426
 30
0.0
 11
109.3329742329
 21
74.4617791426
 31
0.0
  0
LINE
  5
14A
330
1F
100
AcDbEntity
  8
0
  6
Continuous
 62
     7
370
    25
100
AcDbLine
 10
109.3329742329
 20
94.9617791426
 30
0.0
 11
109.3329742329
 21
84.7117791426
 31
0.0
  0
SPLINE
  5
14B
330
1F
100
AcDbEntity
  8
0
  6
Continuous
 62
     7
370
    25
100
AcDbSpline
210
0.0
220
0.0
230
1.0
 70
    24
 71
     3
 72
    12
 73
     8
 74
     0
 42
0.000000001
 43
0.00000001
 40
0.0
 40
0.0
 40
0.0
 40
0.0
 40
0.25
 40
0.25
 40
0.5
 40
0.5
 40
1.0
 40
1.0
 40
1.0
 40
1.0
 10
83.83297423294849
 20
95.71177914257397
 30
0.0
 10
83.83297423294849
 20
95.71177914257397
 30
0.0
 10
83.81003003839052
 20
95.71177914257397
 30
0.0
 10
83.71917333751738
 20
95.71177914257397
 30
0.0
 10
83.65190472508742
 20
95.71177914257397
 30
0.0
 10
83.39378507924506
 20
95.71177914257397
 30
0.0
 10
83.14700839164482
 20
95.71177914257397
 30
0.0
 10
82.85049386070104
 20
95.71177914257397
 30
0.0
  0
LINE
  5
14C
330
1F
100
AcDbEntity
  8
0
  6
Continuous
 62
     7
370
    25
100
AcDbLine
 10
83.8329742329
 20
95.7117791426
 30
0.0
 11
83.8329742329
 21
90.2117791426
 31
0.0
  0
SPLINE
  5
14D
330
1F
100
AcDbEntity
  8
0
  6
Continuous
 62
     7
370
    25
100
AcDbSpline
210
0.0
220
0.0
230
1.0
 70
    24
 71
     3
 72
    12
 73
     8
 74
     0
 42
0.000000001
 43
0.00000001
 40
0.0
 40
0.0
 40
0.0
 40
0.0
 40
0.25
 40
0.25
 40
0.5
 40
0.5
 40
1.0
 40
1.0
 40
1.0
 40
1.0
 10
77.83297423294849
 20
95.71177914257397
 30
0.0
 10
77.83297423294849
 20
95.71177914257397
 30
0.0
 10
77.85591842750645
 20
95.71177914257397
 30
0.0
 10
77.94677512837961
 20
95.71177914257397
 30
0.0
 10
78.01404374080956
 20
95.71177914257397
 30
0.0
 10
78.27216338665191
 20
95.71177914257397
 30
0.0
 10
78.51894007425216
 20
95.71177914257397
 30
0.0
 10
78.81545460519592
 20
95.71177914257397
 30
0.0
  0
LINE
  5
14E
330
1F
100
AcDbEntity
  8
0
  6
Continuous
 62
     7
370
    25
100
AcDbLine
 10
77.8329742329
 20
95.7117791426
 30
0.0
 11
77.8329742329
 21
90.2117791426
 31
0.0
  0
SPLINE
  5
14F
330
1F
100
AcDbEntity
  8
0
  6
Continuous
 62
     7
370
    25
100
AcDbSpline
210
0.0
220
0.0
230
1.0
 70
    24
 71
     3
 72
    12
 73
     8
 74
     0
 42
0.000000001
 43
0.00000001
 40
0.0
 40
0.0
 40
0.0
 40
0.0
 40
0.2499999999999999
 40
0.2499999999999999
 40
0.4999999999999999
 40
0.4999999999999999
 40
1.0
 40
1.0
 40
1.0
 40
1.0
 10
83.83297423294849
 20
73.71177914257399
 30
0.0
 10
83.83297423294849
 20
73.71177914257399
 30
0.0
 10
83.81003003839052
 20
73.71177914257399
 30
0.0
 10
83.71917333751738
 20
73.71177914257399
 30
0.0
 10
83.65190472508742
 20
73.71177914257399
 30
0.0
 10
83.39378507924506
 20
73.71177914257399
 30
0.0
 10
83.14700839164482
 20
73.71177914257399
 30
0.0
 10
82.85049386070104
 20
73.71177914257399
 30
0.0
  0
LINE
  5
150
330
1F
100
AcDbEntity
  8
0
  6
Continuous
 62
     7
370
    25
100
AcDbLine
 10
83.8329742329
 20
79.2117791426
 30
0.0
 11
83.8329742329
 21
73.7117791426
 31
0.0
  0
SPLINE
  5
151
330
1F
100
AcDbEntity
  8
0
  6
Continuous
 62
     7
370
    25
100
AcDbSpline
210
0.0
220
0.0
230
1.0
 70
    24
 71
     3
 72
    12
 73
     8
 74
     0
 42
0.000000001
 43
0.00000001
 40
0.0
 40
0.0
 40
0.0
 40
0.0
 40
0.2499999999999999
 40
0.2499999999999999
 40
0.4999999999999999
 40
0.4999999999999999
 40
1.0
 40
1.0
 40
1.0
 40
1.0
 10
77.83297423294849
 20
73.71177914257399
 30
0.0
 10
77.83297423294849
 20
73.71177914257399
 30
0.0
 10
77.85591842750645
 20
73.71177914257399
 30
0.0
 10
77.94677512837961
 20
73.71177914257399
 30
0.0
 10
78.01404374080956
 20
73.71177914257399
 30
0.0
 10
78.27216338665191
 20
73.71177914257399
 30
0.0
 10
78.51894007425216
 20
73.71177914257399
 30
0.0
 10
78.81545460519592
 20
73.71177914257399
 30
0.0
  0
LINE
  5
152
330
1F
100
AcDbEntity
  8
0
  6
Continuous
 62
     7
370
    25
100
AcDbLine
 10
77.8329742329
 20
73.7117791426
 30
0.0
 11
77.8329742329
 21
79.2117791426
 31
0.0
  0
LINE
  5
153
330
1F
100
AcDbEntity
  8
0
  6
Continuous
 62
     7
370
    25
100
AcDbLine
 10
116.8329742329
 20
93.5240209442
 30
0.0
 11
116.8329742329
 21
75.8995373409
 31
0.0
  0
SPLINE
  5
154
330
1F
100
AcDbEntity
  8
0
  6
Continuous
 62
     7
370
    25
100
AcDbSpline
210
0.0
220
0.0
230
1.0
 70
    24
 71
     3
 72
     8
 73
     4
 74
     0
 42
0.000000001
 43
0.00000001
 40
0.0
 40
0.0
 40
0.0
 40
0.0
 40
1.0
 40
1.0
 40
1.0
 40
1.0
 10
80.8329742329485
 20
95.71177914257397
 30
0.0
 10
80.80723374237887
 20
95.71177914257397
 30
0.0
 10
80.78041222272945
 20
95.71177914257397
 30
0.0
 10
80.75258947521915
 20
95.71177914257397
 30
0.0
  0
LINE
  5
155
330
1F
100
AcDbEntity
  8
0
  6
Continuous
 62
     7
370
    25
100
AcDbLine
 10
80.8329742329
 20
95.1717924828
 30
0.0
 11
80.8329742329
 21
95.7117791426
 31
0.0
  0
SPLINE
  5
156
330
1F
100
AcDbEntity
  8
0
  6
Continuous
 62
     7
370
    25
100
AcDbSpline
210
0.0
220
0.0
230
1.0
 70
    24
 71
     3
 72
     8
 73
     4
 74
     0
 42
0.000000001
 43
0.00000001
 40
0.0
 40
0.0
 40
0.0
 40
0.0
 40
1.0
 40
1.0
 40
1.0
 40
1.0
 10
80.91335899067782
 20
95.71177914257397
 30
0.0
 10
80.88552593712193
 20
95.71177914257397
 30
0.0
 10
80.85870494935163
 20
95.71177914257397
 30
0.0
 10
80.8329742329485
 20
95.71177914257397
 30
0.0
  0
LINE
  5
157
330
1F
100
AcDbEntity
  8
0
  6
Continuous
 62
     7
370
    25
100
AcDbLine
 10
80.8329742329
 20
73.7117791426
 30
0.0
 11
80.8329742329
 21
74.2517658024
 31
0.0
  0
SPLINE
  5
158
330
1F
100
AcDbEntity
  8
0
  6
Continuous
 62
     7
370
    25
100
AcDbSpline
210
0.0
220
0.0
230
1.0
 70
    24
 71
     3
 72
     8
 73
     4
 74
     0
 42
0.000000001
 43
0.00000001
 40
0.0
 40
0.0
 40
0.0
 40
0.0
 40
1.0
 40
1.0
 40
1.0
 40
1.0
 10
80.75258947521915
 20
73.71177914257399
 30
0.0
 10
80.78042252877506
 20
73.71177914257399
 30
0.0
 10
80.80724351654536
 20
73.71177914257399
 30
0.0
 10
80.8329742329485
 20
73.71177914257399
 30
0.0
  0
SPLINE
  5
159
330
1F
100
AcDbEntity
  8
0
  6
Continuous
 62
     7
370
    25
100
AcDbSpline
210
0.0
220
0.0
230
1.0
 70
    24
 71
     3
 72
     8
 73
     4
 74
     0
 42
0.000000001
 43
0.00000001
 40
0.0
 40
0.0
 40
0.0
 40
0.0
 40
1.0
 40
1.0
 40
1.0
 40
1.0
 10
80.8329742329485
 20
73.71177914257399
 30
0.0
 10
80.8587147235181
 20
73.71177914257399
 30
0.0
 10
80.88553624316752
 20
73.71177914257399
 30
0.0
 10
80.91335899067782
 20
73.71177914257399
 30
0.0
  0
LINE
  5
15A
330
1F
100
AcDbEntity
  8
0
  6
Continuous
 62
     8
370
    25
100
AcDbLine
 10
116.399056093
 20
84.7117791426
 30
0.0
 11
116.399056093
 21
94.0196348946
 31
0.0
  0
LINE
  5
15B
330
1F
100
AcDbEntity
  8
0
  6
Continuous
 62
     8
370
    25
100
AcDbLine
 10
116.399056093
 20
75.4039233906
 30
0.0
 11
116.399056093
 21
84.7117791426
 31
0.0
  0
LINE
  5
15C
330
1F
100
AcDbEntity
  8
0
  6
Continuous
 62
     7
370
    18
100
AcDbLine
 10
61.7142002639
 20
93.9705552288
 30
0.0
 11
77.3329742329
 21
94.4586419153
 31
0.0
  0
LINE
  5
15D
330
1F
100
AcDbEntity
  8
0
  6
Continuous
 62
     7
370
    18
100
AcDbLine
 10
61.7142002639
 20
75.4530030564
 30
0.0
 11
77.3329742329
 21
74.9649163699
 31
0.0
  0
LINE
  5
15E
330
1F
100
AcDbEntity
  8
0
  6
Continuous
 62
     7
370
    18
100
AcDbLine
 10
77.3329742329
 20
73.9736541426
 30
0.0
 11
77.3329742329
 21
95.4499041426
 31
0.0
  0
LINE
  5
15F
330
1F
100
AcDbEntity
  8
0
  6
CENTERX2
 62
     7
370
    18
100
AcDbLine
 10
117.8329742329
 20
84.7117791426
 30
0.0
 11
59.3886961413
 21
84.7117791426
 31
0.0
  0
ENDSEC
  0
SECTION
  2
OBJECTS
  0
DICTIONARY
  5
C
330
0
100
AcDbDictionary
281
     1
  3
ACAD_GROUP
350
D
  3
ACAD_LAYOUT
350
1A
  3
ACAD_MLINESTYLE
350
17
  3
ACAD_PLOTSETTINGS
350
19
  3
ACAD_PLOTSTYLENAME
350
E
  3
ACAD_SCALELIST
350
47
  0
DICTIONARY
  5
D
102
{ACAD_REACTORS
330
C
102
}
330
C
100
AcDbDictionary
281
     1
  0
DICTIONARY
  5
1A
102
{ACAD_REACTORS
330
C
102
}
330
C
100
AcDbDictionary
281
     1
  3
Layout1
350
1E
  3
Layout2
350
26
  3
Model
350
22
  0
DICTIONARY
  5
17
102
{ACAD_REACTORS
330
C
102
}
330
C
100
AcDbDictionary
281
     1
  3
Standard
350
18
  0
DICTIONARY
  5
19
102
{ACAD_REACTORS
330
C
102
}
330
C
100
AcDbDictionary
281
     1
  0
ACDBDICTIONARYWDFLT
  5
E
102
{ACAD_REACTORS
330
C
102
}
330
C
100
AcDbDictionary
281
     1
  3
Normal
350
F
100
AcDbDictionaryWithDefault
340
F
  0
DICTIONARY
  5
47
102
{ACAD_REACTORS
330
C
102
}
330
C
100
AcDbDictionary
281
     1
  3
A0
350
48
  3
A1
350
49
  3
A2
350
4A
  3
A3
350
4B
  3
A4
350
4C
  3
A5
350
4D
  3
A6
350
4E
  3
A7
350
4F
  3
A8
350
50
  3
A9
350
51
  3
B0
350
52
  3
B1
350
53
  3
B2
350
54
  3
B3
350
55
  3
B4
350
56
  3
B5
350
57
  3
B6
350
58
  3
B7
350
59
  3
B8
350
5A
  3
B9
350
5B
  3
C0
350
5C
  3
C1
350
5D
  3
C2
350
5E
  3
C3
350
5F
  3
C4
350
60
  3
C5
350
61
  3
C6
350
62
  3
C7
350
63
  3
C8
350
64
  3
C9
350
65
  3
D0
350
66
  3
D1
350
67
  3
D2
350
68
  0
LAYOUT
  5
1E
102
{ACAD_REACTORS
330
1A
102
}
330
1A
100
AcDbPlotSettings
  1

  2
none_device
  4

  6

 40
0.0
 41
0.0
 42
0.0
 43
0.0
 44
0.0
 45
0.0
 46
0.0
 47
0.0
 48
0.0
 49
0.0
140
0.0
141
0.0
142
1.0
143
1.0
 70
   688
 72
     1
 73
     0
 74
     5
  7

 75
    16
147
1.0
148
0.0
149
0.0
100
AcDbLayout
  1
Layout1
 70
     1
 71
     1
 10
0.0
 20
0.0
 11
420.0
 21
297.0
 12
0.0
 22
0.0
 32
0.0
 14
1.0000000000E+20
 24
1.0000000000E+20
 34
1.0000000000E+20
 15
-1.0000000000E+20
 25
-1.0000000000E+20
 35
-1.0000000000E+20
146
0.0
 13
0.0
 23
0.0
 33
0.0
 16
1.0
 26
0.0
 36
0.0
 17
0.0
 27
1.0
 37
0.0
 76
     0
330
1B
  0
LAYOUT
  5
26
102
{ACAD_REACTORS
330
1A
102
}
330
1A
100
AcDbPlotSettings
  1

  2
none_device
  4

  6

 40
0.0
 41
0.0
 42
0.0
 43
0.0
 44
0.0
 45
0.0
 46
0.0
 47
0.0
 48
0.0
 49
0.0
140
0.0
141
0.0
142
1.0
143
1.0
 70
   688
 72
     1
 73
     0
 74
     5
  7

 75
    16
147
1.0
148
0.0
149
0.0
100
AcDbLayout
  1
Layout2
 70
     1
 71
     2
 10
0.0
 20
0.0
 11
0.0
 21
0.0
 12
0.0
 22
0.0
 32
0.0
 14
0.0
 24
0.0
 34
0.0
 15
0.0
 25
0.0
 35
0.0
146
0.0
 13
0.0
 23
0.0
 33
0.0
 16
1.0
 26
0.0
 36
0.0
 17
0.0
 27
1.0
 37
0.0
 76
     0
330
23
  0
LAYOUT
  5
22
102
{ACAD_REACTORS
330
1A
102
}
330
1A
100
AcDbPlotSettings
  1

  2
none_device
  4
Letter_(8.50_x_11.00_Inches)
  6

 40
6.35
 41
6.35
 42
6.35000508
 43
6.35000508
 44
215.9
 45
279.4
 46
0.0
 47
0.0
 48
0.0
 49
0.0
140
0.0
141
0.0
142
1.0
143
1.0
 70
  1712
 72
     1
 73
     0
 74
     0
  7

 75
     0
147
1.0
148
0.0
149
0.0
100
AcDbLayout
  1
Model
 70
     1
 71
     0
 10
0.0
 20
0.0
 11
215.9
 21
139.7
 12
0.0
 22
0.0
 32
0.0
 14
0.0
 24
0.0
 34
0.0
 15
215.9
 25
139.7
 35
0.0
146
0.0
 13
0.0
 23
0.0
 33
0.0
 16
1.0
 26
0.0
 36
0.0
 17
0.0
 27
1.0
 37
0.0
 76
     0
330
1F
331
29
  0
MLINESTYLE
  5
18
102
{ACAD_REACTORS
330
17
102
}
330
17
100
AcDbMlineStyle
  2
Standard
 70
     0
  3

 62
   256
 51
90.0
 52
90.0
 71
     2
 49
0.5
 62
   256
  6
BYLAYER
 49
-0.5
 62
   256
  6
BYLAYER
  0
ACDBPLACEHOLDER
  5
F
102
{ACAD_REACTORS
330
E
102
}
330
E
  0
SCALE
  5
48
102
{ACAD_REACTORS
330
47
102
}
330
47
100
AcDbScale
 70
     0
300
1:1
140
1.0
141
1.0
290
     1
  0
SCALE
  5
49
102
{ACAD_REACTORS
330
47
102
}
330
47
100
AcDbScale
 70
     0
300
1:2
140
1.0
141
2.0
290
     0
  0
SCALE
  5
4A
102
{ACAD_REACTORS
330
47
102
}
330
47
100
AcDbScale
 70
     0
300
1:4
140
1.0
141
4.0
290
     0
  0
SCALE
  5
4B
102
{ACAD_REACTORS
330
47
102
}
330
47
100
AcDbScale
 70
     0
300
1:5
140
1.0
141
5.0
290
     0
  0
SCALE
  5
4C
102
{ACAD_REACTORS
330
47
102
}
330
47
100
AcDbScale
 70
     0
300
1:8
140
1.0
141
8.0
290
     0
  0
SCALE
  5
4D
102
{ACAD_REACTORS
330
47
102
}
330
47
100
AcDbScale
 70
     0
300
1:10
140
1.0
141
10.0
290
     0
  0
SCALE
  5
4E
102
{ACAD_REACTORS
330
47
102
}
330
47
100
AcDbScale
 70
     0
300
1:16
140
1.0
141
16.0
290
     0
  0
SCALE
  5
4F
102
{ACAD_REACTORS
330
47
102
}
330
47
100
AcDbScale
 70
     0
300
1:20
140
1.0
141
20.0
290
     0
  0
SCALE
  5
50
102
{ACAD_REACTORS
330
47
102
}
330
47
100
AcDbScale
 70
     0
300
1:30
140
1.0
141
30.0
290
     0
  0
SCALE
  5
51
102
{ACAD_REACTORS
330
47
102
}
330
47
100
AcDbScale
 70
     0
300
1:40
140
1.0
141
40.0
290
     0
  0
SCALE
  5
52
102
{ACAD_REACTORS
330
47
102
}
330
47
100
AcDbScale
 70
     0
300
1:50
140
1.0
141
50.0
290
     0
  0
SCALE
  5
53
102
{ACAD_REACTORS
330
47
102
}
330
47
100
AcDbScale
 70
     0
300
1:100
140
1.0
141
100.0
290
     0
  0
SCALE
  5
54
102
{ACAD_REACTORS
330
47
102
}
330
47
100
AcDbScale
 70
     0
300
2:1
140
2.0
141
1.0
290
     0
  0
SCALE
  5
55
102
{ACAD_REACTORS
330
47
102
}
330
47
100
AcDbScale
 70
     0
300
4:1
140
4.0
141
1.0
290
     0
  0
SCALE
  5
56
102
{ACAD_REACTORS
330
47
102
}
330
47
100
AcDbScale
 70
     0
300
8:1
140
8.0
141
1.0
290
     0
  0
SCALE
  5
57
102
{ACAD_REACTORS
330
47
102
}
330
47
100
AcDbScale
 70
     0
300
10:1
140
10.0
141
1.0
290
     0
  0
SCALE
  5
58
102
{ACAD_REACTORS
330
47
102
}
330
47
100
AcDbScale
 70
     0
300
100:1
140
100.0
141
1.0
290
     0
  0
SCALE
  5
59
102
{ACAD_REACTORS
330
47
102
}
330
47
100
AcDbScale
 70
     0
300
1/128" = 1'-0"
140
0.0078125
141
12.0
290
     0
  0
SCALE
  5
5A
102
{ACAD_REACTORS
330
47
102
}
330
47
100
AcDbScale
 70
     0
300
1/64" = 1'-0"
140
0.015625
141
12.0
290
     0
  0
SCALE
  5
5B
102
{ACAD_REACTORS
330
47
102
}
330
47
100
AcDbScale
 70
     0
300
1/32" = 1'-0"
140
0.03125
141
12.0
290
     0
  0
SCALE
  5
5C
102
{ACAD_REACTORS
330
47
102
}
330
47
100
AcDbScale
 70
     0
300
1/16" = 1'-0"
140
0.0625
141
12.0
290
     0
  0
SCALE
  5
5D
102
{ACAD_REACTORS
330
47
102
}
330
47
100
AcDbScale
 70
     0
300
3/32" = 1'-0"
140
0.09375
141
12.0
290
     0
  0
SCALE
  5
5E
102
{ACAD_REACTORS
330
47
102
}
330
47
100
AcDbScale
 70
     0
300
1/8" = 1'-0"
140
0.125
141
12.0
290
     0
  0
SCALE
  5
5F
102
{ACAD_REACTORS
330
47
102
}
330
47
100
AcDbScale
 70
     0
300
3/16" = 1'-0"
140
0.1875
141
12.0
290
     0
  0
SCALE
  5
60
102
{ACAD_REACTORS
330
47
102
}
330
47
100
AcDbScale
 70
     0
300
1/4" = 1'-0"
140
0.25
141
12.0
290
     0
  0
SCALE
  5
61
102
{ACAD_REACTORS
330
47
102
}
330
47
100
AcDbScale
 70
     0
300
3/8" = 1'-0"
140
0.375
141
12.0
290
     0
  0
SCALE
  5
62
102
{ACAD_REACTORS
330
47
102
}
330
47
100
AcDbScale
 70
     0
300
1/2" = 1'-0"
140
0.5
141
12.0
290
     0
  0
SCALE
  5
63
102
{ACAD_REACTORS
330
47
102
}
330
47
100
AcDbScale
 70
     0
300
3/4" = 1'-0"
140
0.75
141
12.0
290
     0
  0
SCALE
  5
64
102
{ACAD_REACTORS
330
47
102
}
330
47
100
AcDbScale
 70
     0
300
1" = 1'-0"
140
1.0
141
12.0
290
     0
  0
SCALE
  5
65
102
{ACAD_REACTORS
330
47
102
}
330
47
100
AcDbScale
 70
     0
300
1-1/2" = 1'-0"
140
1.5
141
12.0
290
     0
  0
SCALE
  5
66
102
{ACAD_REACTORS
330
47
102
}
330
47
100
AcDbScale
 70
     0
300
3" = 1'-0"
140
3.0
141
12.0
290
     0
  0
SCALE
  5
67
102
{ACAD_REACTORS
330
47
102
}
330
47
100
AcDbScale
 70
     0
300
6" = 1'-0"
140
6.0
141
12.0
290
     0
  0
SCALE
  5
68
102
{ACAD_REACTORS
330
47
102
}
330
47
100
AcDbScale
 70
     0
300
1'-0" = 1'-0"
140
12.0
141
12.0
290
     0
  0
ENDSEC
  0
EOF
