  0
SECTION
  2
HEADER
  9
$ACADVER
  1
AC1015
  9
$ACADMAINTVER
 70
     6
  9
$DWGCODEPAGE
  3
DOS932
  9
$INSBASE
 10
0.0
 20
0.0
 30
0.0
  9
$EXTMIN
 10
0.0
 20
0.0
 30
0.0
  9
$EXTMAX
 10
215.9
 20
139.7
 30
0.0
  9
$LIMMIN
 10
0.0
 20
0.0
  9
$LIMMAX
 10
215.9
 20
139.7
  9
$ORTHOMODE
 70
     0
  9
$REGENMODE
 70
     1
  9
$FILLMODE
 70
     1
  9
$QTEXTMODE
 70
     0
  9
$MIRRTEXT
 70
     1
  9
$LTSCALE
 40
0.5
  9
$ATTMODE
 70
     1
  9
$TEXTSIZE
 40
1.75
  9
$TRACEWID
 40
1.0
  9
$TEXTSTYLE
  7
Standard
  9
$CLAYER
  8
0
  9
$CELTYPE
  6
ByLayer
  9
$CECOLOR
 62
   256
  9
$CELTSCALE
 40
1.0
  9
$DISPSILH
 70
     0
  9
$DIMSCALE
 40
1.0
  9
$DIMASZ
 40
1.651
  9
$DIMEXO
 40
0.5
  9
$DIMDLI
 40
3.75
  9
$DIMRND
 40
0.0
  9
$DIMDLE
 40
0.0
  9
$DIMEXE
 40
0.5
  9
$DIMTP
 40
0.0
  9
$DIMTM
 40
0.0
  9
$DIMTXT
 40
1.75
  9
$DIMCEN
 40
2.5
  9
$DIMTSZ
 40
0.0
  9
$DIMTOL
 70
     0
  9
$DIMLIM
 70
     0
  9
$DIMTIH
 70
     1
  9
$DIMTOH
 70
     1
  9
$DIMSE1
 70
     0
  9
$DIMSE2
 70
     0
  9
$DIMTAD
 70
     1
  9
$DIMZIN
 70
     1
  9
$DIMBLK
  1

  9
$DIMASO
 70
     1
  9
$DIMSHO
 70
     1
  9
$DIMPOST
  1

  9
$DIMAPOST
  1

  9
$DIMALT
 70
     0
  9
$DIMALTD
 70
     3
  9
$DIMALTF
 40
0.0393700787
  9
$DIMLFAC
 40
1.0
  9
$DIMTOFL
 70
     1
  9
$DIMTVP
 40
0.0
  9
$DIMTIX
 70
     0
  9
$DIMSOXD
 70
     0
  9
$DIMSAH
 70
     0
  9
$DIMBLK1
  1

  9
$DIMBLK2
  1

  9
$DIMSTYLE
  2
ISO-25
  9
$DIMCLRD
 70
     0
  9
$DIMCLRE
 70
     0
  9
$DIMCLRT
 70
     0
  9
$DIMTFAC
 40
1.0
  9
$DIMGAP
 40
0.762
  9
$DIMJUST
 70
     0
  9
$DIMSD1
 70
     0
  9
$DIMSD2
 70
     0
  9
$DIMTOLJ
 70
     0
  9
$DIMTZIN
 70
     1
  9
$DIMALTZ
 70
     0
  9
$DIMALTTZ
 70
     0
  9
$DIMUPT
 70
     0
  9
$DIMDEC
 70
     2
  9
$DIMTDEC
 70
     2
  9
$DIMALTU
 70
     2
  9
$DIMALTTD
 70
     3
  9
$DIMTXSTY
  7
Standard
  9
$DIMAUNIT
 70
     0
  9
$DIMADEC
 70
     2
  9
$DIMALTRND
 40
0.0
  9
$DIMAZIN
 70
     0
  9
$DIMDSEP
 70
    44
  9
$DIMATFIT
 70
     3
  9
$DIMFRAC
 70
     0
  9
$DIMLDRBLK
  1

  9
$DIMLUNIT
 70
     2
  9
$DIMLWD
 70
    -2
  9
$DIMLWE
 70
    -2
  9
$DIMTMOVE
 70
     0
  9
$LUNITS
 70
     2
  9
$LUPREC
 70
     2
  9
$SKETCHINC
 40
1.0
  9
$FILLETRAD
 40
10.0
  9
$AUNITS
 70
     0
  9
$AUPREC
 70
     2
  9
$MENU
  1
.
  9
$ELEVATION
 40
0.0
  9
$PELEVATION
 40
0.0
  9
$THICKNESS
 40
0.0
  9
$LIMCHECK
 70
     0
  9
$CHAMFERA
 40
0.0
  9
$CHAMFERB
 40
0.0
  9
$CHAMFERC
 40
0.0
  9
$CHAMFERD
 40
0.0
  9
$SKPOLY
 70
     0
  9
$TDCREATE
 40
2460082.688259549
  9
$TDUCREATE
 40
2460082.313259549
  9
$TDUPDATE
 40
2460082.68826022
  9
$TDUUPDATE
 40
2460082.31326022
  9
$TDINDWG
 40
0.0000000116
  9
$TDUSRTIMER
 40
0.0000000116
  9
$USRTIMER
 70
     1
  9
$ANGBASE
 50
0.0
  9
$ANGDIR
 70
     0
  9
$PDMODE
 70
     0
  9
$PDSIZE
 40
-1.0
  9
$PLINEWID
 40
0.0
  9
$SPLFRAME
 70
     0
  9
$SPLINETYPE
 70
     6
  9
$SPLINESEGS
 70
     8
  9
$HANDSEED
  5
160
  9
$SURFTAB1
 70
     6
  9
$SURFTAB2
 70
     6
  9
$SURFTYPE
 70
     6
  9
$SURFU
 70
     6
  9
$SURFV
 70
     6
  9
$UCSBASE
  2

  9
$UCSNAME
  2

  9
$UCSORG
 10
0.0
 20
0.0
 30
0.0
  9
$UCSXDIR
 10
1.0
 20
0.0
 30
0.0
  9
$UCSYDIR
 10
0.0
 20
1.0
 30
0.0
  9
$UCSORTHOREF
  2

  9
$UCSORTHOVIEW
 70
     0
  9
$UCSORGTOP
 10
0.0
 20
0.0
 30
0.0
  9
$UCSORGBOTTOM
 10
0.0
 20
0.0
 30
0.0
  9
$UCSORGLEFT
 10
0.0
 20
0.0
 30
0.0
  9
$UCSORGRIGHT
 10
0.0
 20
0.0
 30
0.0
  9
$UCSORGFRONT
 10
0.0
 20
0.0
 30
0.0
  9
$UCSORGBACK
 10
0.0
 20
0.0
 30
0.0
  9
$PUCSBASE
  2

  9
$PUCSNAME
  2

  9
$PUCSORG
 10
0.0
 20
0.0
 30
0.0
  9
$PUCSXDIR
 10
1.0
 20
0.0
 30
0.0
  9
$PUCSYDIR
 10
0.0
 20
1.0
 30
0.0
  9
$PUCSORTHOREF
  2

  9
$PUCSORTHOVIEW
 70
     0
  9
$PUCSORGTOP
 10
0.0
 20
0.0
 30
0.0
  9
$PUCSORGBOTTOM
 10
0.0
 20
0.0
 30
0.0
  9
$PUCSORGLEFT
 10
0.0
 20
0.0
 30
0.0
  9
$PUCSORGRIGHT
 10
0.0
 20
0.0
 30
0.0
  9
$PUCSORGFRONT
 10
0.0
 20
0.0
 30
0.0
  9
$PUCSORGBACK
 10
0.0
 20
0.0
 30
0.0
  9
$USERI1
 70
     0
  9
$USERI2
 70
     0
  9
$USERI3
 70
     0
  9
$USERI4
 70
     0
  9
$USERI5
 70
     0
  9
$USERR1
 40
0.0
  9
$USERR2
 40
0.0
  9
$USERR3
 40
0.0
  9
$USERR4
 40
0.0
  9
$USERR5
 40
0.0
  9
$WORLDVIEW
 70
     1
  9
$SHADEDGE
 70
     3
  9
$SHADEDIF
 70
    70
  9
$TILEMODE
 70
     1
  9
$MAXACTVP
 70
    64
  9
$PINSBASE
 10
0.0
 20
0.0
 30
0.0
  9
$PLIMCHECK
 70
     0
  9
$PEXTMIN
 10
1.0000000000E+20
 20
1.0000000000E+20
 30
1.0000000000E+20
  9
$PEXTMAX
 10
-1.0000000000E+20
 20
-1.0000000000E+20
 30
-1.0000000000E+20
  9
$PLIMMIN
 10
0.0
 20
0.0
  9
$PLIMMAX
 10
420.0
 20
297.0
  9
$UNITMODE
 70
     0
  9
$VISRETAIN
 70
     1
  9
$PLINEGEN
 70
     0
  9
$PSLTSCALE
 70
     1
  9
$TREEDEPTH
 70
  3020
  9
$CMLSTYLE
  2
Standard
  9
$CMLJUST
 70
     0
  9
$CMLSCALE
 40
20.0
  9
$PROXYGRAPHICS
 70
     1
  9
$MEASUREMENT
 70
     1
  9
$CELWEIGHT
370
    -1
  9
$ENDCAPS
280
     0
  9
$JOINSTYLE
280
     0
  9
$LWDISPLAY
290
     1
  9
$INSUNITS
 70
     4
  9
$HYPERLINKBASE
  1

  9
$STYLESHEET
  1

  9
$XEDIT
290
     1
  9
$CEPSNTYPE
380
     0
  9
$PSTYLEMODE
290
     1
  9
$FINGERPRINTGUID
  2
{2DD8F85B-396D-4791-ACCF-C7EDBD441AD7}
  9
$VERSIONGUID
  2
{FAEB1C32-E019-11D5-929B-00C0DF256EC4}
  9
$EXTNAMES
290
     1
  9
$PSVPSCALE
 40
0.0
  9
$OLESTARTUP
290
     0
  0
ENDSEC
  0
SECTION
  2
CLASSES
  0
CLASS
  1
ACDBDICTIONARYWDFLT
  2
AcDbDictionaryWithDefault
  3
ObjectDBX Classes
 90
        0
280
     0
281
     0
  0
CLASS
  1
VISUALSTYLE
  2
AcDbVisualStyle
  3
ObjectDBX Classes
 90
     4095
280
     0
281
     0
  0
CLASS
  1
MATERIAL
  2
AcDbMaterial
  3
ObjectDBX Classes
 90
     1153
280
     0
281
     0
  0
CLASS
  1
SCALE
  2
AcDbScale
  3
ObjectDBX Classes
 90
     1153
280
     0
281
     0
  0
CLASS
  1
TABLESTYLE
  2
AcDbTableStyle
  3
ObjectDBX Classes
 90
     4095
280
     0
281
     0
  0
CLASS
  1
MLEADERSTYLE
  2
AcDbMLeaderStyle
  3
ACDB_MLEADERSTYLE_CLASS
 90
     4095
280
     0
281
     0
  0
CLASS
  1
SUN
  2
AcDbSun
  3
SCENEOE
 90
     1153
280
     0
281
     0
  0
CLASS
  1
ACDBPLACEHOLDER
  2
AcDbPlaceHolder
  3
ObjectDBX Classes
 90
        0
280
     0
281
     0
  0
CLASS
  1
LAYOUT
  2
AcDbLayout
  3
ObjectDBX Classes
 90
        0
280
     0
281
     0
  0
ENDSEC
  0
SECTION
  2
TABLES
  0
TABLE
  2
VPORT
  5
8
330
0
100
AcDbSymbolTable
 70
     1
  0
VPORT
  5
29
330
8
100
AcDbSymbolTableRecord
100
AcDbViewportTableRecord
  2
*Active
 70
     0
 10
0.0
 20
0.0
 11
1.0
 21
1.0
 12
107.95
 22
69.85
 13
0.0
 23
0.0
 14
10.0
 24
10.0
 15
10.0
 25
10.0
 16
0.0
 26
0.0
 36
1.0
 17
0.0
 27
0.0
 37
0.0
 40
139.7
 41
1.5454545455
 42
50.0
 43
0.0
 44
0.0
 50
0.0
 51
0.0
 71
     0
 72
  2000
 73
     1
 74
     3
 75
     0
 76
     0
 77
     0
 78
     0
281
     0
 65
     1
110
0.0
120
0.0
130
0.0
111
1.0
121
0.0
131
0.0
112
0.0
122
1.0
132
0.0
 79
     0
146
0.0
  0
ENDTAB
  0
TABLE
  2
LTYPE
  5
5
330
0
100
AcDbSymbolTable
 70
     6
  0
LTYPE
  5
14
330
5
100
AcDbSymbolTableRecord
100
AcDbLinetypeTableRecord
  2
ByBlock
 70
     0
  3

 72
    65
 73
     0
 40
0.0
  0
LTYPE
  5
15
330
5
100
AcDbSymbolTableRecord
100
AcDbLinetypeTableRecord
  2
ByLayer
 70
     0
  3

 72
    65
 73
     0
 40
0.0
  0
LTYPE
  5
16
330
5
100
AcDbSymbolTableRecord
100
AcDbLinetypeTableRecord
  2
Continuous
 70
     0
  3
Solid line
 72
    65
 73
     0
 40
0.0
  0
LTYPE
  5
6E
330
5
100
AcDbSymbolTableRecord
100
AcDbLinetypeTableRecord
  2
HIDDEN
 70
     0
  3
Hidden __ __ __ __ __ __ __ __ __ __ __ __ __ __
 72
    65
 73
     2
 40
1.905
 49
1.27
 74
     0
 49
-0.635
 74
     0
  0
LTYPE
  5
6F
330
5
100
AcDbSymbolTableRecord
100
AcDbLinetypeTableRecord
  2
PHANTOM
 70
     0
  3
Phantom ______  __  __  ______  __  __  ______
 72
    65
 73
     6
 40
12.7
 49
6.35
 74
     0
 49
-1.27
 74
     0
 49
1.27
 74
     0
 49
-1.27
 74
     0
 49
1.27
 74
     0
 49
-1.27
 74
     0
  0
LTYPE
  5
70
330
5
100
AcDbSymbolTableRecord
100
AcDbLinetypeTableRecord
  2
CENTER
 70
     0
  3
Center ____ _ ____ _ ____ _ ____ _ ____ _ ____
 72
    65
 73
     4
 40
10.16
 49
6.35
 74
     0
 49
-1.27
 74
     0
 49
1.27
 74
     0
 49
-1.27
 74
     0
  0
LTYPE
  5
71
330
5
100
AcDbSymbolTableRecord
100
AcDbLinetypeTableRecord
  2
CENTERX2
 70
     0
  3
Center (2x) ________  __  ________  __  _____
 72
    65
 73
     4
 40
20.32
 49
12.7
 74
     0
 49
-2.54
 74
     0
 49
2.54
 74
     0
 49
-2.54
 74
     0
  0
LTYPE
  5
72
330
5
100
AcDbSymbolTableRecord
100
AcDbLinetypeTableRecord
  2
DOT2
 70
     0
  3
Dot (.5x) ........................................
 72
    65
 73
     2
 40
0.635
 49
0.0
 74
     0
 49
-0.635
 74
     0
  0
ENDTAB
  0
TABLE
  2
LAYER
  5
2
330
0
100
AcDbSymbolTable
 70
     1
  0
LAYER
  5
10
330
2
100
AcDbSymbolTableRecord
100
AcDbLayerTableRecord
  2
0
 70
     0
 62
     7
  6
Continuous
370
    -3
390
F
  0
ENDTAB
  0
TABLE
  2
STYLE
  5
3
330
0
100
AcDbSymbolTable
 70
     2
  0
STYLE
  5
11
330
3
100
AcDbSymbolTableRecord
100
AcDbTextStyleTableRecord
  2
Standard
 70
     0
 40
0.0
 41
1.0
 50
0.0
 71
     0
 42
1.75
  3
txt
  4
bigfont
  0
STYLE
  5
73
330
3
100
AcDbSymbolTableRecord
100
AcDbTextStyleTableRecord
  2
SLDTEXTSTYLE0
 70
     0
 40
0.0
 41
0.7
 50
0.0
 71
     0
 42
1.75
  3
TXT
  4
bigfont
  0
ENDTAB
  0
TABLE
  2
VIEW
  5
6
330
0
100
AcDbSymbolTable
 70
     0
  0
ENDTAB
  0
TABLE
  2
UCS
  5
7
330
0
100
AcDbSymbolTable
 70
     0
  0
ENDTAB
  0
TABLE
  2
APPID
  5
9
330
0
100
AcDbSymbolTable
 70
     1
  0
APPID
  5
12
330
9
100
AcDbSymbolTableRecord
100
AcDbRegAppTableRecord
  2
ACAD
 70
     0
  0
ENDTAB
  0
TABLE
  2
DIMSTYLE
  5
A
330
0
100
AcDbSymbolTable
 70
     1
100
AcDbDimStyleTable
  0
DIMSTYLE
105
27
330
A
100
AcDbSymbolTableRecord
100
AcDbDimStyleTableRecord
  2
ISO-25
 70
     0
 41
2.5
 42
0.625
 43
3.75
 44
1.25
 73
     0
 74
     0
 77
     1
 78
     8
140
2.5
141
2.5
143
0.0393700787
147
0.625
171
     3
172
     1
178
     0
271
     2
272
     2
274
     3
278
    44
283
     0
284
     8
340
11
  0
ENDTAB
  0
TABLE
  2
BLOCK_RECORD
  5
1
330
0
100
AcDbSymbolTable
 70
     3
  0
BLOCK_RECORD
  5
1F
330
1
100
AcDbSymbolTableRecord
100
AcDbBlockTableRecord
  2
*Model_Space
340
22
  0
BLOCK_RECORD
  5
1B
330
1
100
AcDbSymbolTableRecord
100
AcDbBlockTableRecord
  2
*Paper_Space
340
1E
  0
BLOCK_RECORD
  5
23
330
1
100
AcDbSymbolTableRecord
100
AcDbBlockTableRecord
  2
*Paper_Space0
340
26
  0
BLOCK_RECORD
  5
FF
330
1
100
AcDbSymbolTableRecord
100
AcDbBlockTableRecord
  2
SW_CENTERMARKSYMBOL_0
340
0
102
{BLKREFS
331
10A
102
}
  0
BLOCK_RECORD
  5
10B
330
1
100
AcDbSymbolTableRecord
100
AcDbBlockTableRecord
  2
SW_CENTERMARKSYMBOL_1
340
0
102
{BLKREFS
331
116
102
}
  0
ENDTAB
  0
ENDSEC
  0
SECTION
  2
BLOCKS
  0
BLOCK
  5
20
330
1F
100
AcDbEntity
  8
0
100
AcDbBlockBegin
  2
*Model_Space
 70
     0
 10
0.0
 20
0.0
 30
0.0
  3
*Model_Space
  1

  0
ENDBLK
  5
21
330
1F
100
AcDbEntity
  8
0
100
AcDbBlockEnd
  0
BLOCK
  5
1C
330
1B
100
AcDbEntity
 67
     1
  8
0
100
AcDbBlockBegin
  2
*Paper_Space
 70
     0
 10
0.0
 20
0.0
 30
0.0
  3
*Paper_Space
  1

  0
ENDBLK
  5
1D
330
1B
100
AcDbEntity
 67
     1
  8
0
100
AcDbBlockEnd
  0
BLOCK
  5
24
330
23
100
AcDbEntity
  8
0
100
AcDbBlockBegin
  2
*Paper_Space0
 70
     0
 10
0.0
 20
0.0
 30
0.0
  3
*Paper_Space0
  1

  0
ENDBLK
  5
25
330
23
100
AcDbEntity
  8
0
100
AcDbBlockEnd
  0
BLOCK
  5
100
330
FF
100
AcDbEntity
  8
0
100
AcDbBlockBegin
  2
SW_CENTERMARKSYMBOL_0
 70
     0
 10
0.0
 20
0.0
 30
0.0
  3
SW_CENTERMARKSYMBOL_0
  1

  0
LINE
  5
102
330
FF
100
AcDbEntity
  8
0
  6
Continuous
 62
     0
370
    18
100
AcDbLine
 10
0.0
 20
0.0
 30
0.0
 11
0.0
 21
2.5
 31
0.0
  0
LINE
  5
103
330
FF
100
AcDbEntity
  8
0
  6
Continuous
 62
     0
370
    18
100
AcDbLine
 10
0.0
 20
0.0
 30
0.0
 11
-2.5
 21
0.0
 31
0.0
  0
LINE
  5
104
330
FF
100
AcDbEntity
  8
0
  6
Continuous
 62
     0
370
    18
100
AcDbLine
 10
0.0
 20
0.0
 30
0.0
 11
0.0
 21
-2.5
 31
0.0
  0
LINE
  5
105
330
FF
100
AcDbEntity
  8
0
  6
Continuous
 62
     0
370
    18
100
AcDbLine
 10
0.0
 20
0.0
 30
0.0
 11
2.5
 21
0.0
 31
0.0
  0
LINE
  5
106
330
FF
100
AcDbEntity
  8
0
  6
Continuous
 62
     0
370
    18
100
AcDbLine
 10
0.0
 20
5.0
 30
0.0
 11
0.0
 21
9.5
 31
0.0
  0
LINE
  5
107
330
FF
100
AcDbEntity
  8
0
  6
Continuous
 62
     0
370
    18
100
AcDbLine
 10
-5.0
 20
0.0
 30
0.0
 11
-9.5
 21
0.0
 31
0.0
  0
LINE
  5
108
330
FF
100
AcDbEntity
  8
0
  6
Continuous
 62
     0
370
    18
100
AcDbLine
 10
0.0
 20
-5.0
 30
0.0
 11
0.0
 21
-9.5
 31
0.0
  0
LINE
  5
109
330
FF
100
AcDbEntity
  8
0
  6
Continuous
 62
     0
370
    18
100
AcDbLine
 10
5.0
 20
0.0
 30
0.0
 11
9.5
 21
0.0
 31
0.0
  0
ENDBLK
  5
101
330
FF
100
AcDbEntity
  8
0
100
AcDbBlockEnd
  0
BLOCK
  5
10C
330
10B
100
AcDbEntity
  8
0
100
AcDbBlockBegin
  2
SW_CENTERMARKSYMBOL_1
 70
     0
 10
0.0
 20
0.0
 30
0.0
  3
SW_CENTERMARKSYMBOL_1
  1

  0
LINE
  5
10E
330
10B
100
AcDbEntity
  8
0
  6
Continuous
 62
     0
370
    18
100
AcDbLine
 10
0.0
 20
0.0
 30
0.0
 11
0.0
 21
2.5
 31
0.0
  0
LINE
  5
10F
330
10B
100
AcDbEntity
  8
0
  6
Continuous
 62
     0
370
    18
100
AcDbLine
 10
0.0
 20
0.0
 30
0.0
 11
-2.5
 21
0.0
 31
0.0
  0
LINE
  5
110
330
10B
100
AcDbEntity
  8
0
  6
Continuous
 62
     0
370
    18
100
AcDbLine
 10
0.0
 20
0.0
 30
0.0
 11
0.0
 21
-2.5
 31
0.0
  0
LINE
  5
111
330
10B
100
AcDbEntity
  8
0
  6
Continuous
 62
     0
370
    18
100
AcDbLine
 10
0.0
 20
0.0
 30
0.0
 11
2.5
 21
0.0
 31
0.0
  0
LINE
  5
112
330
10B
100
AcDbEntity
  8
0
  6
Continuous
 62
     0
370
    18
100
AcDbLine
 10
0.0
 20
5.0
 30
0.0
 11
0.0
 21
13.5
 31
0.0
  0
LINE
  5
113
330
10B
100
AcDbEntity
  8
0
  6
Continuous
 62
     0
370
    18
100
AcDbLine
 10
-5.0
 20
0.0
 30
0.0
 11
-13.5
 21
0.0
 31
0.0
  0
LINE
  5
114
330
10B
100
AcDbEntity
  8
0
  6
Continuous
 62
     0
370
    18
100
AcDbLine
 10
0.0
 20
-5.0
 30
0.0
 11
0.0
 21
-13.5
 31
0.0
  0
LINE
  5
115
330
10B
100
AcDbEntity
  8
0
  6
Continuous
 62
     0
370
    18
100
AcDbLine
 10
5.0
 20
0.0
 30
0.0
 11
13.5
 21
0.0
 31
0.0
  0
ENDBLK
  5
10D
330
10B
100
AcDbEntity
  8
0
100
AcDbBlockEnd
  0
ENDSEC
  0
SECTION
  2
ENTITIES
  0
MTEXT
  5
74
330
1F
100
AcDbEntity
  8
0
  6
Continuous
 62
     7
370
     0
100
AcDbMText
 10
110.4355115536
 20
68.7821931213
 30
0.0
 40
2.38125
 41
0.0
 71
     1
 72
     1
  1
エースニップル　HN-8419
  7
SLDTEXTSTYLE0
 73
     1
 44
1.0
  0
LINE
  5
75
330
1F
100
AcDbEntity
  8
0
  6
Continuous
 62
     7
370
    25
100
AcDbLine
 10
72.3180284713
 20
57.5734700466
 30
0.0
 11
58.0144197443
 21
57.1264822739
 31
0.0
  0
LINE
  5
76
330
1F
100
AcDbEntity
  8
0
  6
Continuous
 62
     7
370
    25
100
AcDbLine
 10
58.0144197443
 20
36.5129578193
 30
0.0
 11
72.3180284713
 21
36.0659700466
 31
0.0
  0
LINE
  5
77
330
1F
100
AcDbEntity
  8
0
  6
Continuous
 62
     7
370
    25
100
AcDbLine
 10
58.0144197443
 20
57.1264822739
 30
0.0
 11
55.3180284713
 21
55.5697200466
 31
0.0
  0
LINE
  5
78
330
1F
100
AcDbEntity
  8
0
  6
Continuous
 62
     7
370
    25
100
AcDbLine
 10
55.3180284713
 20
38.0697200466
 30
0.0
 11
58.0144197443
 21
36.5129578193
 31
0.0
  0
LINE
  5
79
330
1F
100
AcDbEntity
  8
0
  6
Continuous
 62
     7
370
    25
100
AcDbLine
 10
98.3180284713
 20
37.3197200466
 30
0.0
 11
103.8180284713
 21
38.3197200466
 31
0.0
  0
LINE
  5
7A
330
1F
100
AcDbEntity
  8
0
  6
Continuous
 62
     7
370
    25
100
AcDbLine
 10
103.8180284713
 20
55.3197200466
 30
0.0
 11
98.3180284713
 21
56.3197200466
 31
0.0
  0
LINE
  5
7B
330
1F
100
AcDbEntity
  8
0
  6
Continuous
 62
     7
370
    25
100
AcDbLine
 10
92.8180284713
 20
37.3197200466
 30
0.0
 11
98.3180284713
 21
38.3197200466
 31
0.0
  0
LINE
  5
7C
330
1F
100
AcDbEntity
  8
0
  6
Continuous
 62
     7
370
    25
100
AcDbLine
 10
98.3180284713
 20
55.3197200466
 30
0.0
 11
92.8180284713
 21
56.3197200466
 31
0.0
  0
LINE
  5
7D
330
1F
100
AcDbEntity
  8
0
  6
Continuous
 62
     7
370
    25
100
AcDbLine
 10
103.8180284713
 20
37.3197200466
 30
0.0
 11
110.8841103313
 21
38.2618642946
 31
0.0
  0
LINE
  5
7E
330
1F
100
AcDbEntity
  8
0
  6
Continuous
 62
     7
370
    25
100
AcDbLine
 10
110.8841103313
 20
55.3775757986
 30
0.0
 11
103.8180284713
 21
56.3197200466
 31
0.0
  0
LINE
  5
7F
330
1F
100
AcDbEntity
  8
0
  6
Continuous
 62
     7
370
    25
100
AcDbLine
 10
87.3180284713
 20
56.3197200466
 30
0.0
 11
78.3180284713
 21
56.3197200466
 31
0.0
  0
LINE
  5
80
330
1F
100
AcDbEntity
  8
0
  6
Continuous
 62
     7
370
    25
100
AcDbLine
 10
78.3180284713
 20
37.3197200466
 30
0.0
 11
87.3180284713
 21
37.3197200466
 31
0.0
  0
LINE
  5
81
330
1F
100
AcDbEntity
  8
0
  6
Continuous
 62
     7
370
    25
100
AcDbLine
 10
87.3180284713
 20
37.3197200466
 30
0.0
 11
92.8180284713
 21
38.3197200466
 31
0.0
  0
LINE
  5
82
330
1F
100
AcDbEntity
  8
0
  6
Continuous
 62
     7
370
    25
100
AcDbLine
 10
92.8180284713
 20
55.3197200466
 30
0.0
 11
87.3180284713
 21
56.3197200466
 31
0.0
  0
ARC
  5
83
330
1F
100
AcDbEntity
  8
0
  6
Continuous
 62
     7
370
    25
100
AcDbCircle
 10
110.8180284713
 20
38.7574782449
 30
0.0
 40
0.5
100
AcDbArc
 50
277.5946433686
 51
0.0
  0
ARC
  5
84
330
1F
100
AcDbEntity
  8
0
  6
Continuous
 62
     7
370
    25
100
AcDbCircle
 10
110.8180284713
 20
54.8819618482
 30
0.0
 40
0.5
100
AcDbArc
 50
0.0
 51
82.4053566314
  0
LINE
  5
85
330
1F
100
AcDbEntity
  8
0
  6
Continuous
 62
     7
370
    25
100
AcDbLine
 10
72.3180284713
 20
35.8197200466
 30
0.0
 11
73.3005088435
 21
34.1180141244
 31
0.0
  0
LINE
  5
86
330
1F
100
AcDbEntity
  8
0
  6
Continuous
 62
     7
370
    25
100
AcDbLine
 10
77.3355480991
 20
34.1180141244
 30
0.0
 11
78.3180284713
 21
35.8197200466
 31
0.0
  0
LINE
  5
87
330
1F
100
AcDbEntity
  8
0
  6
Continuous
 62
     7
370
    25
100
AcDbLine
 10
73.3005088435
 20
59.5214259688
 30
0.0
 11
72.3180284713
 21
57.8197200466
 31
0.0
  0
LINE
  5
88
330
1F
100
AcDbEntity
  8
0
  6
Continuous
 62
     7
370
    25
100
AcDbLine
 10
78.3180284713
 20
57.8197200466
 30
0.0
 11
77.3355480991
 21
59.5214259688
 31
0.0
  0
LINE
  5
89
330
1F
100
AcDbEntity
  8
0
  6
Continuous
 62
     7
370
    25
100
AcDbLine
 10
75.3180284713
 20
59.2214259688
 30
0.0
 11
75.2376437136
 21
59.5214259688
 31
0.0
  0
LINE
  5
8A
330
1F
100
AcDbEntity
  8
0
  6
Continuous
 62
     7
370
    25
100
AcDbLine
 10
75.398413229
 20
59.5214259688
 30
0.0
 11
75.3180284713
 21
59.2214259688
 31
0.0
  0
LINE
  5
8B
330
1F
100
AcDbEntity
  8
0
  6
Continuous
 62
     7
370
    25
100
AcDbLine
 10
75.2376437136
 20
34.1180141244
 30
0.0
 11
75.3180284713
 21
34.4180141244
 31
0.0
  0
LINE
  5
8C
330
1F
100
AcDbEntity
  8
0
  6
Continuous
 62
     7
370
    25
100
AcDbLine
 10
75.3180284713
 20
34.4180141244
 30
0.0
 11
75.398413229
 21
34.1180141244
 31
0.0
  0
LINE
  5
8D
330
1F
100
AcDbEntity
  8
0
  6
Continuous
 62
     7
370
    25
100
AcDbLine
 10
75.3180284713
 20
40.1571056421
 30
0.0
 11
75.3180284713
 21
41.0923899723
 31
0.0
  0
SPLINE
  5
8E
330
1F
100
AcDbEntity
  8
0
  6
Continuous
 62
     7
370
    25
100
AcDbSpline
210
0.0
220
0.0
230
1.0
 70
     8
 71
     3
 72
     8
 73
     4
 74
     0
 42
0.000000001
 43
0.00000001
 40
0.0
 40
0.0
 40
0.0
 40
0.0
 40
1.0
 40
1.0
 40
1.0
 40
1.0
 10
75.23764371356992
 20
40.46886708549395
 30
0.0
 10
75.26547538662702
 20
40.3649978675852
 30
0.0
 10
75.29229644649307
 20
40.26107867900146
 30
0.0
 10
75.31802847129926
 20
40.15710564210315
 30
0.0
  0
SPLINE
  5
8F
330
1F
100
AcDbEntity
  8
0
  6
Continuous
 62
     7
370
    25
100
AcDbSpline
210
0.0
220
0.0
230
1.0
 70
     8
 71
     3
 72
     8
 73
     4
 74
     0
 42
0.000000001
 43
0.00000001
 40
0.0
 40
0.0
 40
0.0
 40
0.0
 40
1.0
 40
1.0
 40
1.0
 40
1.0
 10
75.31802847129926
 20
41.09238997227556
 30
0.0
 10
75.29228798072964
 20
40.88437548480834
 30
0.0
 10
75.26546646108022
 20
40.67653890012319
 30
0.0
 10
75.23764371356992
 20
40.46886708549395
 30
0.0
  0
SPLINE
  5
90
330
1F
100
AcDbEntity
  8
0
  6
Continuous
 62
     7
370
    25
100
AcDbSpline
210
0.0
220
0.0
230
1.0
 70
     8
 71
     3
 72
    19
 73
    15
 74
     0
 42
0.000000001
 43
0.00000001
 40
0.0
 40
0.0
 40
0.0
 40
0.0
 40
0.1227280999764553
 40
0.239716523588393
 40
0.3518621792202463
 40
0.4632019818032239
 40
0.5202611541541643
 40
0.5794324380306665
 40
0.6405963441586369
 40
0.70529822908802
 40
0.7732361059084537
 40
0.844648929340316
 40
0.9200459817773698
 40
1.0
 40
1.0
 40
1.0
 40
1.0
 10
75.90264385591463
 20
47.7560181235029
 30
0.0
 10
75.90204871456685
 20
47.77309797418818
 30
0.0
 10
75.90088626509554
 20
47.80645889504058
 30
0.0
 10
75.89066885821538
 20
47.85454313864781
 30
0.0
 10
75.8744804302838
 20
47.89919780767686
 30
0.0
 10
75.85493295157059
 20
47.93321565775513
 30
0.0
 10
75.8357034692078
 20
47.95837826254678
 30
0.0
 10
75.81916034556075
 20
47.97670396453164
 30
0.0
 10
75.80040383168556
 20
47.99437181845406
 30
0.0
 10
75.7789194575158
 20
48.01068852170321
 30
0.0
 10
75.7554459837231
 20
48.02663180569007
 30
0.0
 10
75.7298541271541
 20
48.04204943588434
 30
0.0
 10
75.70177902452423
 20
48.05644619764723
 30
0.0
 10
75.68203580314724
 20
48.06520974225755
 30
0.0
 10
75.6718746251454
 20
48.06972004657983
 30
0.0
  0
SPLINE
  5
91
330
1F
100
AcDbEntity
  8
0
  6
Continuous
 62
     7
370
    25
100
AcDbSpline
210
0.0
220
0.0
230
1.0
 70
     8
 71
     3
 72
    23
 73
    19
 74
     0
 42
0.000000001
 43
0.00000001
 40
0.0
 40
0.0
 40
0.0
 40
0.0
 40
0.0552698294993248
 40
0.1099567044850939
 40
0.1632335040550556
 40
0.2180575651623569
 40
0.2732775387226747
 40
0.330881045495497
 40
0.3904799376860887
 40
0.4536559730386418
 40
0.5189026226022312
 40
0.5833461108214767
 40
0.6485466930814432
 40
0.7150552190344911
 40
0.7825206438000537
 40
0.8523352944264511
 40
0.9249348997257085
 40
1.0
 40
1.0
 40
1.0
 40
1.0
 10
75.66736741360694
 20
47.45433543119522
 30
0.0
 10
75.67520075178533
 20
47.45451301521673
 30
0.0
 10
75.69078480657643
 20
47.45486631020517
 30
0.0
 10
75.71355241683182
 20
47.45932258979302
 30
0.0
 10
75.73562528230183
 20
47.46601747480671
 30
0.0
 10
75.75690324943847
 20
47.4752274117287
 30
0.0
 10
75.7772628110229
 20
47.48753228200872
 30
0.0
 10
75.79672894424988
 20
47.50230222546963
 30
0.0
 10
75.8156278813532
 20
47.51954437085494
 30
0.0
 10
75.8330554740568
 20
47.5397093412143
 30
0.0
 10
75.8494941567492
 20
47.56154007226728
 30
0.0
 10
75.8637047864262
 20
47.58524197745122
 30
0.0
 10
75.87574970664365
 20
47.6102922823149
 30
0.0
 10
75.88570137841371
 20
47.6367140223962
 30
0.0
 10
75.89318262478253
 20
47.66461304232995
 30
0.0
 10
75.89855549403622
 20
47.6938527335307
 30
0.0
 10
75.9019143871299
 20
47.72449038510926
 30
0.0
 10
75.90239800804858
 20
47.74539254586667
 30
0.0
 10
75.90264385591463
 20
47.7560181235029
 30
0.0
  0
SPLINE
  5
92
330
1F
100
AcDbEntity
  8
0
  6
Continuous
 62
     7
370
    25
100
AcDbSpline
210
0.0
220
0.0
230
1.0
 70
     8
 71
     3
 72
    19
 73
    15
 74
     0
 42
0.000000001
 43
0.00000001
 40
0.0
 40
0.0
 40
0.0
 40
0.0
 40
0.1101423815503174
 40
0.2157418685830274
 40
0.3179605426392306
 40
0.4180517606815226
 40
0.5115631470355316
 40
0.5965727584443461
 40
0.6733290469034968
 40
0.7440491927238595
 40
0.8107168223002833
 40
0.8740854521098849
 40
0.9367096168966699
 40
1.0
 40
1.0
 40
1.0
 40
1.0
 10
75.4218746251454
 20
47.83895081581061
 30
0.0
 10
75.42219091411401
 20
47.82039368627844
 30
0.0
 10
75.42281044650596
 20
47.78404482815085
 30
0.0
 10
75.43025169361655
 20
47.73094004867222
 30
0.0
 10
75.44066101943645
 20
47.6800984990406
 30
0.0
 10
75.45623719107792
 20
47.6326806949658
 30
0.0
 10
75.47493304277792
 20
47.58960197686753
 30
0.0
 10
75.49601398090051
 20
47.55202254151452
 30
0.0
 10
75.51989773794135
 20
47.52083300682386
 30
0.0
 10
75.54627086248955
 20
47.49595544852242
 30
0.0
 10
75.57488665188107
 20
47.4776962040705
 30
0.0
 10
75.60439957924189
 20
47.46399083261507
 30
0.0
 10
75.63549631244388
 20
47.45595618856225
 30
0.0
 10
75.65670630561179
 20
47.45487758595905
 30
0.0
 10
75.66736741360694
 20
47.45433543119522
 30
0.0
  0
LINE
  5
93
330
1F
100
AcDbEntity
  8
0
  6
Continuous
 62
     7
370
    25
100
AcDbLine
 10
75.2680284713
 20
47.8389508158
 30
0.0
 11
75.4218746251
 21
47.8389508158
 31
0.0
  0
SPLINE
  5
94
330
1F
100
AcDbEntity
  8
0
  6
Continuous
 62
     7
370
    25
100
AcDbSpline
210
0.0
220
0.0
230
1.0
 70
     8
 71
     3
 72
    23
 73
    19
 74
     0
 42
0.000000001
 43
0.00000001
 40
0.0
 40
0.0
 40
0.0
 40
0.0
 40
0.0669051223273616
 40
0.1334773340846825
 40
0.2010229080576287
 40
0.2712178684297488
 40
0.3428591616573978
 40
0.4138109980627169
 40
0.4855518488903453
 40
0.5598002749200529
 40
0.5998999649035781
 40
0.6436094423977958
 40
0.6919106424505659
 40
0.7447030291556902
 40
0.8015038302285953
 40
0.8628660266331954
 40
0.9293326711591618
 40
1.0
 40
1.0
 40
1.0
 40
1.0
 10
74.95072077899157
 20
47.37741235427214
 30
0.0
 10
74.96469708287411
 20
47.37806818613716
 30
0.0
 10
74.9925801464977
 20
47.37937658653919
 30
0.0
 10
75.03360172745775
 20
47.38936615216426
 30
0.0
 10
75.07312696982976
 20
47.40579641361401
 30
0.0
 10
75.11047583603381
 20
47.42880158400728
 30
0.0
 10
75.14510790404913
 20
47.4567924176751
 30
0.0
 10
75.17588732300567
 20
47.48949796494154
 30
0.0
 10
75.20154019379774
 20
47.52699845243037
 30
0.0
 10
75.21919866803348
 20
47.56173531361509
 30
0.0
 10
75.23096729849915
 20
47.59257831537007
 30
0.0
 10
75.23921924186412
 20
47.61892068935218
 30
0.0
 10
75.24581569916809
 20
47.64843786765933
 30
0.0
 10
75.25219645989175
 20
47.6807755029962
 30
0.0
 10
75.25754568475985
 20
47.71606997919117
 30
0.0
 10
75.26202587024912
 20
47.75435309434121
 30
0.0
 10
75.26560509109316
 20
47.79564025003531
 30
0.0
 10
75.26720434842748
 20
47.82422212084378
 30
0.0
 10
75.26802847129925
 20
47.83895081581061
 30
0.0
  0
SPLINE
  5
95
330
1F
100
AcDbEntity
  8
0
  6
Continuous
 62
     7
370
    25
100
AcDbSpline
210
0.0
220
0.0
230
1.0
 70
     8
 71
     3
 72
    23
 73
    19
 74
     0
 42
0.000000001
 43
0.00000001
 40
0.0
 40
0.0
 40
0.0
 40
0.0
 40
0.0760618905628339
 40
0.1487324608035361
 40
0.2183745247439722
 40
0.2857225935927383
 40
0.3510576941824569
 40
0.414934915729319
 40
0.4784859417740854
 40
0.542169035281216
 40
0.6047501165431387
 40
0.6641185017301124
 40
0.7214996756099116
 40
0.7776159163852548
 40
0.8326661086975489
 40
0.8878580281135741
 40
0.9434676608977686
 40
1.0
 40
1.0
 40
1.0
 40
1.0
 10
74.63341308668386
 20
47.75932341196444
 30
0.0
 10
74.63367661679312
 20
47.74528600652866
 30
0.0
 10
74.63419192717203
 20
47.71783707200556
 30
0.0
 10
74.63894465619504
 20
47.67778764414187
 30
0.0
 10
74.64583626132094
 20
47.63967496702696
 30
0.0
 10
74.65661607168296
 20
47.6038879804153
 30
0.0
 10
74.66954823500734
 20
47.56993971123877
 30
0.0
 10
74.68647881028004
 20
47.5385879829447
 30
0.0
 10
74.7055991579158
 20
47.5089110934556
 30
0.0
 10
74.72783979963177
 20
47.4817784384813
 30
0.0
 10
74.7518795259565
 20
47.45731702331043
 30
0.0
 10
74.7773835332186
 20
47.43617965795764
 30
0.0
 10
74.80356103122155
 20
47.41787228209409
 30
0.0
 10
74.83102268808018
 20
47.40315620711308
 30
0.0
 10
74.85949912701709
 20
47.39151510109629
 30
0.0
 10
74.8890969355954
 20
47.38359510571337
 30
0.0
 10
74.91956688174727
 20
47.37808694712064
 30
0.0
 10
74.9402793390767
 20
47.3776384486397
 30
0.0
 10
74.95072077899157
 20
47.37741235427214
 30
0.0
  0
SPLINE
  5
96
330
1F
100
AcDbEntity
  8
0
  6
Continuous
 62
     7
370
    25
100
AcDbSpline
210
0.0
220
0.0
230
1.0
 70
     8
 71
     3
 72
    15
 73
    11
 74
     0
 42
0.000000001
 43
0.00000001
 40
0.0
 40
0.0
 40
0.0
 40
0.0
 40
0.1182713048357256
 40
0.2361775330837632
 40
0.355662932948509
 40
0.4759041646706825
 40
0.6001273417110832
 40
0.7286081161551193
 40
0.8613134756739422
 40
1.0
 40
1.0
 40
1.0
 40
1.0
 10
74.71454289437618
 20
48.00992437350291
 30
0.0
 10
74.70806789413953
 20
48.00152584070642
 30
0.0
 10
74.6951378805176
 20
47.98475469947183
 30
0.0
 10
74.67863718257286
 20
47.9574254575725
 30
0.0
 10
74.66433960028652
 20
47.92868336353575
 30
0.0
 10
74.65341801640811
 20
47.89790564601251
 30
0.0
 10
74.64417044749847
 20
47.86575645867507
 30
0.0
 10
74.63811879644169
 20
47.83171615929
 30
0.0
 10
74.63396672300888
 20
47.79608506624211
 30
0.0
 10
74.63360032379786
 20
47.77175602474937
 30
0.0
 10
74.63341308668386
 20
47.75932341196444
 30
0.0
  0
SPLINE
  5
97
330
1F
100
AcDbEntity
  8
0
  6
Continuous
 62
     7
370
    25
100
AcDbSpline
210
0.0
220
0.0
230
1.0
 70
     8
 71
     3
 72
    15
 73
    11
 74
     0
 42
0.000000001
 43
0.00000001
 40
0.0
 40
0.0
 40
0.0
 40
0.0
 40
0.1497703860319679
 40
0.2913164099952444
 40
0.4259663731047425
 40
0.5521595739695284
 40
0.6715274135235927
 40
0.7861216286916589
 40
0.8953250730704446
 40
1.0
 40
1.0
 40
1.0
 40
1.0
 10
74.9218746251454
 20
48.12741235427214
 30
0.0
 10
74.91032504803027
 20
48.12390522936916
 30
0.0
 10
74.8878601173368
 20
48.11708356680149
 30
0.0
 10
74.85552855776186
 20
48.10547172478644
 30
0.0
 10
74.82588939209408
 20
48.09224246532768
 30
0.0
 10
74.79872519696066
 20
48.07805051162651
 30
0.0
 10
74.77376845304744
 20
48.06314546333105
 30
0.0
 10
74.75167908060426
 20
48.04646763827259
 30
0.0
 10
74.73148685108579
 20
48.02925229035232
 30
0.0
 10
74.72011058882569
 20
48.01627542463032
 30
0.0
 10
74.71454289437618
 20
48.00992437350291
 30
0.0
  0
LINE
  5
98
330
1F
100
AcDbEntity
  8
0
  6
Continuous
 62
     7
370
    25
100
AcDbLine
 10
74.9218746251
 20
48.2620277389
 30
0.0
 11
74.9218746251
 21
48.1274123543
 31
0.0
  0
SPLINE
  5
99
330
1F
100
AcDbEntity
  8
0
  6
Continuous
 62
     7
370
    25
100
AcDbSpline
210
0.0
220
0.0
230
1.0
 70
     8
 71
     3
 72
    23
 73
    19
 74
     0
 42
0.000000001
 43
0.00000001
 40
0.0
 40
0.0
 40
0.0
 40
0.0
 40
0.0655411703374033
 40
0.1289631677825933
 40
0.1903771361885609
 40
0.2500923616690527
 40
0.308548432459201
 40
0.3663979630552958
 40
0.42454218926668
 40
0.4831699964229055
 40
0.5422433998311199
 40
0.6017393520173299
 40
0.6625060022496068
 40
0.7248555134488469
 40
0.7891278292811811
 40
0.8563463998785099
 40
0.9262952349869055
 40
1.0
 40
1.0
 40
1.0
 40
1.0
 10
74.47956693283773
 20
47.76172725811829
 30
0.0
 10
74.47993902423421
 20
47.77776410109678
 30
0.0
 10
74.48067117602444
 20
47.80931926041253
 30
0.0
 10
74.48567629082298
 20
47.85570933114953
 30
0.0
 10
74.49481772163918
 20
47.8999900594486
 30
0.0
 10
74.50711913822465
 20
47.94222131567289
 30
0.0
 10
74.5227155991163
 20
47.98244061698442
 30
0.0
 10
74.5421378982683
 20
48.02052523348915
 30
0.0
 10
74.56498568486194
 20
48.05670947356919
 30
0.0
 10
74.59152865106475
 20
48.09065188120258
 30
0.0
 10
74.62122065381764
 20
48.12234841021954
 30
0.0
 10
74.65458880094666
 20
48.15095672060389
 30
0.0
 10
74.69101625976995
 20
48.17695377472192
 30
0.0
 10
74.73092614099798
 20
48.19964347702685
 30
0.0
 10
74.77380267983132
 20
48.22005931386222
 30
0.0
 10
74.82019489342345
 20
48.23685115242534
 30
0.0
 10
74.86968804570445
 20
48.25163068184089
 30
0.0
 10
74.90417850577981
 20
48.25850216651779
 30
0.0
 10
74.9218746251454
 20
48.26202773888753
 30
0.0
  0
SPLINE
  5
9A
330
1F
100
AcDbEntity
  8
0
  6
Continuous
 62
     7
370
    25
100
AcDbSpline
210
0.0
220
0.0
230
1.0
 70
     8
 71
     3
 72
    19
 73
    15
 74
     0
 42
0.000000001
 43
0.00000001
 40
0.0
 40
0.0
 40
0.0
 40
0.0
 40
0.079641704194991
 40
0.158908613257856
 40
0.2395997983184508
 40
0.3224093988203483
 40
0.405827748173513
 40
0.4876442139503136
 40
0.5697199979738973
 40
0.6530646649976933
 40
0.7374573001733064
 40
0.8224924079539123
 40
0.9097550737466982
 40
1.0
 40
1.0
 40
1.0
 40
1.0
 10
74.96364145206847
 20
47.24279696965675
 30
0.0
 10
74.94263812106516
 20
47.24356774036827
 30
0.0
 10
74.90073030106974
 20
47.245105654532
 30
0.0
 10
74.83880003502706
 20
47.25879628423506
 30
0.0
 10
74.7783668609648
 20
47.28014288853529
 30
0.0
 10
74.7203262020398
 20
47.3099268322357
 30
0.0
 10
74.66613481168018
 20
47.34677739462536
 30
0.0
 10
74.61786822764363
 20
47.39086154016475
 30
0.0
 10
74.5761001213963
 20
47.44110759030733
 30
0.0
 10
74.54131441513974
 20
47.49718669467818
 30
0.0
 10
74.51348735106242
 20
47.55791727382648
 30
0.0
 10
74.49417840541845
 20
47.62287969294618
 30
0.0
 10
74.48160117059072
 20
47.69112932078268
 30
0.0
 10
74.48025256461877
 20
47.73793250283848
 30
0.0
 10
74.47956693283773
 20
47.76172725811829
 30
0.0
  0
SPLINE
  5
9B
330
1F
100
AcDbEntity
  8
0
  6
Continuous
 62
     7
370
    25
100
AcDbSpline
210
0.0
220
0.0
230
1.0
 70
     8
 71
     3
 72
    15
 73
    11
 74
     0
 42
0.000000001
 43
0.00000001
 40
0.0
 40
0.0
 40
0.0
 40
0.0
 40
0.1281455049994643
 40
0.2541925386280419
 40
0.3781411397135888
 40
0.5013808330744057
 40
0.6239569784447038
 40
0.7470758858273289
 40
0.8728647202442611
 40
1.0
 40
1.0
 40
1.0
 40
1.0
 10
75.23016789437617
 20
47.33234023888752
 30
0.0
 10
75.22028705395117
 20
47.32511958269997
 30
0.0
 10
75.20068717870451
 20
47.31079651356944
 30
0.0
 10
75.16915618213893
 20
47.29316706490551
 30
0.0
 10
75.1373800829034
 20
47.27699085748441
 30
0.0
 10
75.1041094857596
 20
47.26508563707431
 30
0.0
 10
75.07041310113907
 20
47.25481190363625
 30
0.0
 10
75.03556935477314
 20
47.24805212912391
 30
0.0
 10
74.9999092917456
 20
47.24371262427822
 30
0.0
 10
74.97577356093659
 20
47.24310326916762
 30
0.0
 10
74.96364145206847
 20
47.24279696965675
 30
0.0
  0
SPLINE
  5
9C
330
1F
100
AcDbEntity
  8
0
  6
Continuous
 62
     7
370
    25
100
AcDbSpline
210
0.0
220
0.0
230
1.0
 70
     8
 71
     3
 72
    11
 73
     7
 74
     0
 42
0.000000001
 43
0.00000001
 40
0.0
 40
0.0
 40
0.0
 40
0.0
 40
0.253879600326656
 40
0.5030089172783633
 40
0.7502910806899731
 40
1.0
 40
1.0
 40
1.0
 40
1.0
 10
75.35817270206849
 20
47.49490033504137
 30
0.0
 10
75.35046777140785
 20
47.47894386879565
 30
0.0
 10
75.33520207528919
 20
47.44732949410971
 30
0.0
 10
75.30526389349609
 20
47.40423641002418
 30
0.0
 10
75.27069688748728
 20
47.36511732058548
 30
0.0
 10
75.24372146481004
 20
47.34330144101243
 30
0.0
 10
75.23016789437617
 20
47.33234023888752
 30
0.0
  0
SPLINE
  5
9D
330
1F
100
AcDbEntity
  8
0
  6
Continuous
 62
     7
370
    25
100
AcDbSpline
210
0.0
220
0.0
230
1.0
 70
     8
 71
     3
 72
    15
 73
    11
 74
     0
 42
0.000000001
 43
0.00000001
 40
0.0
 40
0.0
 40
0.0
 40
0.0
 40
0.1280675485958904
 40
0.2506083188676684
 40
0.3706301659145029
 40
0.4900722467299488
 40
0.6103747641546199
 40
0.7343130699115256
 40
0.8632165042449895
 40
1.0
 40
1.0
 40
1.0
 40
1.0
 10
75.66676645206847
 20
47.31972004657983
 30
0.0
 10
75.65090639719466
 20
47.32021872845715
 30
0.0
 10
75.61987073099618
 20
47.32119457150477
 30
0.0
 10
75.57456151793697
 20
47.3294804453172
 30
0.0
 10
75.53185797495888
 20
47.34342455797844
 30
0.0
 10
75.49158033404882
 20
47.36274017051181
 30
0.0
 10
75.45398397412463
 20
47.38774369204336
 30
0.0
 10
75.41898430661298
 20
47.41803199071064
 30
0.0
 10
75.3864260959866
 20
47.45381884575728
 30
0.0
 10
75.36777489328281
 20
47.4809383906244
 30
0.0
 10
75.35817270206849
 20
47.49490033504137
 30
0.0
  0
SPLINE
  5
9E
330
1F
100
AcDbEntity
  8
0
  6
Continuous
 62
     7
370
    25
100
AcDbSpline
210
0.0
220
0.0
230
1.0
 70
     8
 71
     3
 72
    19
 73
    15
 74
     0
 42
0.000000001
 43
0.00000001
 40
0.0
 40
0.0
 40
0.0
 40
0.0
 40
0.0902542493426766
 40
0.1785397915286845
 40
0.2660930338538198
 40
0.3546309779571733
 40
0.4418861533505626
 40
0.5257469151636484
 40
0.6081136336036366
 40
0.6901972728278825
 40
0.770821484330335
 40
0.8483261812554109
 40
0.9240117400247433
 40
1.0
 40
1.0
 40
1.0
 40
1.0
 10
76.0564900097608
 20
47.7578210081183
 30
0.0
 10
76.05589891108438
 20
47.73824269008612
 30
0.0
 10
76.05472960730945
 20
47.69951311396748
 30
0.0
 10
76.04405199167556
 20
47.64261466527442
 30
0.0
 10
76.02715550638091
 20
47.58774602851637
 30
0.0
 10
76.0038096233222
 20
47.53550777945223
 30
0.0
 10
75.97501506053844
 20
47.48698559405383
 30
0.0
 10
75.94074445901211
 20
47.44381294259077
 30
0.0
 10
75.90165904408896
 20
47.40657500938909
 30
0.0
 10
75.85848794509529
 20
47.37533456182047
 30
0.0
 10
75.81234986964375
 20
47.35087384794031
 30
0.0
 10
75.7648640880092
 20
47.33283683073472
 30
0.0
 10
75.71614324312823
 20
47.32185611030673
 30
0.0
 10
75.68324726633887
 20
47.32043301453091
 30
0.0
 10
75.66676645206847
 20
47.31972004657983
 30
0.0
  0
SPLINE
  5
9F
330
1F
100
AcDbEntity
  8
0
  6
Continuous
 62
     7
370
    25
100
AcDbSpline
210
0.0
220
0.0
230
1.0
 70
     8
 71
     3
 72
    23
 73
    19
 74
     0
 42
0.000000001
 43
0.00000001
 40
0.0
 40
0.0
 40
0.0
 40
0.0
 40
0.0726253460834355
 40
0.1419766113262345
 40
0.2089849284189386
 40
0.2739568703644447
 40
0.336889347396841
 40
0.3987449534945902
 40
0.4601158852788617
 40
0.5208249225900291
 40
0.5809944586324857
 40
0.6401519276014648
 40
0.6986224507562546
 40
0.7572710809271643
 40
0.8164266940046602
 40
0.8762540482034705
 40
0.9371652930625374
 40
1.0
 40
1.0
 40
1.0
 40
1.0
 10
75.6718746251454
 20
48.20433543119522
 30
0.0
 10
75.68697426113485
 20
48.20068848090336
 30
0.0
 10
75.71649281444513
 20
48.19355899137889
 30
0.0
 10
75.75866735480827
 20
48.17868860274936
 30
0.0
 10
75.79857743540428
 20
48.16248892195167
 30
0.0
 10
75.83547575270232
 20
48.14303644856678
 30
0.0
 10
75.87010385387346
 20
48.1218184110413
 30
0.0
 10
75.90167633578838
 20
48.09750867324021
 30
0.0
 10
75.93099617813144
 20
48.07122879214053
 30
0.0
 10
75.95701613708452
 20
48.04216095672547
 30
0.0
 10
75.98057802103025
 20
48.01167724459371
 30
0.0
 10
76.00066733131985
 20
47.97934812184339
 30
0.0
 10
76.01794911111891
 20
47.945824024556
 30
0.0
 10
76.03218635335121
 20
47.91087268186374
 30
0.0
 10
76.04291157777953
 20
47.87439003685288
 30
0.0
 10
76.05069306588987
 20
47.83670591257253
 30
0.0
 10
76.0557464005532
 20
47.79772155538054
 30
0.0
 10
76.05623958473308
 20
47.771258302267
 30
0.0
 10
76.0564900097608
 20
47.7578210081183
 30
0.0
  0
LINE
  5
A0
330
1F
100
AcDbEntity
  8
0
  6
Continuous
 62
     7
370
    25
100
AcDbLine
 10
75.6718746251
 20
48.0697200466
 30
0.0
 11
75.6718746251
 21
48.2043354312
 31
0.0
  0
LINE
  5
A1
330
1F
100
AcDbEntity
  8
0
  6
Continuous
 62
     7
370
    25
100
AcDbLine
 10
76.0564900098
 20
45.7823194461
 30
0.0
 11
75.9750597213
 21
45.6786535807
 31
0.0
  0
LINE
  5
A2
330
1F
100
AcDbEntity
  8
0
  6
Continuous
 62
     7
370
    25
100
AcDbLine
 10
75.3719948175
 20
46.2300357922
 30
0.0
 11
76.0564900098
 21
45.7823194461
 31
0.0
  0
SPLINE
  5
A3
330
1F
100
AcDbEntity
  8
0
  6
Continuous
 62
     7
370
    25
100
AcDbSpline
210
0.0
220
0.0
230
1.0
 70
     8
 71
     3
 72
    19
 73
    15
 74
     0
 42
0.000000001
 43
0.00000001
 40
0.0
 40
0.0
 40
0.0
 40
0.0
 40
0.0978059775289525
 40
0.1996122522918967
 40
0.3052960258330042
 40
0.4158173591641855
 40
0.4742405666184931
 40
0.5372869128296535
 40
0.6033858352934857
 40
0.6743111580696057
 40
0.7495304673574823
 40
0.828608314269512
 40
0.9120427387714449
 40
1.0
 40
1.0
 40
1.0
 40
1.0
 10
74.93629770206849
 20
46.39770406147676
 30
0.0
 10
74.95173975603181
 20
46.39716044077625
 30
0.0
 10
74.98325544913676
 20
46.39605096510656
 30
0.0
 10
75.03112492319916
 20
46.38942974213357
 30
0.0
 10
75.07991373638147
 20
46.37728561023453
 30
0.0
 10
75.12127330202749
 20
46.36414300526498
 30
0.0
 10
75.15552651583268
 20
46.35110157381995
 30
0.0
 10
75.18257537393974
 20
46.33900925850322
 30
0.0
 10
75.21113983661702
 20
46.32548857656375
 30
0.0
 10
75.24067943612262
 20
46.30964045444453
 30
0.0
 10
75.27203818279553
 20
46.29284016604483
 30
0.0
 10
75.30405476651222
 20
46.27321552269649
 30
0.0
 10
75.33789853177186
 20
46.25273690581616
 30
0.0
 10
75.36043118497356
 20
46.2377347931476
 30
0.0
 10
75.3719948174531
 20
46.23003579224599
 30
0.0
  0
SPLINE
  5
A4
330
1F
100
AcDbEntity
  8
0
  6
Continuous
 62
     7
370
    25
100
AcDbSpline
210
0.0
220
0.0
230
1.0
 70
     8
 71
     3
 72
    19
 73
    15
 74
     0
 42
0.000000001
 43
0.00000001
 40
0.0
 40
0.0
 40
0.0
 40
0.0
 40
0.0843261511037431
 40
0.1670353409858404
 40
0.2495407139852791
 40
0.3327066655796642
 40
0.4158726171740491
 40
0.4977774155681173
 40
0.5803136056784763
 40
0.6645325781316562
 40
0.7495711764063213
 40
0.8324741628544072
 40
0.9156738488962566
 40
0.9999999999999999
 40
0.9999999999999999
 40
0.9999999999999999
 40
0.9999999999999999
 10
74.47956693283773
 20
45.94337713839983
 30
0.0
 10
74.48022187650287
 20
45.96356144257157
 30
0.0
 10
74.48151920523189
 20
46.00354301514139
 30
0.0
 10
74.49307605993472
 20
46.06235701288974
 30
0.0
 10
74.51180758384889
 20
46.11886995010808
 30
0.0
 10
74.53761404789643
 20
46.17268458781351
 30
0.0
 10
74.57020900132794
 20
46.22253929679535
 30
0.0
 10
74.60945470471607
 20
46.2671277302189
 30
0.0
 10
74.65448378296546
 20
46.30629475556045
 30
0.0
 10
74.70543436880665
 20
46.33871812290038
 30
0.0
 10
74.75983151004446
 20
46.36514325528427
 30
0.0
 10
74.8170691187891
 20
46.38378128328119
 30
0.0
 10
74.87599526545156
 20
46.39583454463659
 30
0.0
 10
74.91610698442743
 20
46.39707810191752
 30
0.0
 10
74.93629770206849
 20
46.39770406147676
 30
0.0
  0
SPLINE
  5
A5
330
1F
100
AcDbEntity
  8
0
  6
Continuous
 62
     7
370
    25
100
AcDbSpline
210
0.0
220
0.0
230
1.0
 70
     8
 71
     3
 72
    19
 73
    15
 74
     0
 42
0.000000001
 43
0.00000001
 40
0.0
 40
0.0
 40
0.0
 40
0.0
 40
0.0859901205637197
 40
0.1691084375726415
 40
0.2505285789581879
 40
0.332255696176845
 40
0.4135763652356401
 40
0.4941261456201216
 40
0.5763059341204168
 40
0.660712671904547
 40
0.7461272722239101
 40
0.830014985960974
 40
0.9144197259288509
 40
1.0
 40
1.0
 40
1.0
 40
1.0
 10
74.93900202899157
 20
45.47462713839983
 30
0.0
 10
74.91802320570544
 20
45.47540993640297
 30
0.0
 10
74.87676618682036
 20
45.47694938938172
 30
0.0
 10
74.8164244376786
 20
45.48815595321499
 30
0.0
 10
74.75939954245776
 20
45.50749597851117
 30
0.0
 10
74.70546740273478
 20
45.53337061319152
 30
0.0
 10
74.65619717726906
 20
45.56694091714419
 30
0.0
 10
74.61167010523879
 20
45.60672357299968
 30
0.0
 10
74.57285822083736
 20
45.65309463807414
 30
0.0
 10
74.53956312197963
 20
45.70495603531032
 30
0.0
 10
74.51311020786191
 20
45.76108617310733
 30
0.0
 10
74.49355302852085
 20
45.81994045863319
 30
0.0
 10
74.48186711684097
 20
45.88101583721489
 30
0.0
 10
74.48033718758893
 20
45.92249442272939
 30
0.0
 10
74.47956693283773
 20
45.94337713839983
 30
0.0
  0
SPLINE
  5
A6
330
1F
100
AcDbEntity
  8
0
  6
Continuous
 62
     7
370
    25
100
AcDbSpline
210
0.0
220
0.0
230
1.0
 70
     8
 71
     3
 72
    23
 73
    19
 74
     0
 42
0.000000001
 43
0.00000001
 40
0.0
 40
0.0
 40
0.0
 40
0.0
 40
0.0652308037420297
 40
0.128404896003223
 40
0.1900670715964782
 40
0.2509433657682801
 40
0.3115458328521434
 40
0.3728628021568294
 40
0.4350236738562386
 40
0.4990717247070431
 40
0.5630910750496624
 40
0.6255101063303751
 40
0.6866800359296492
 40
0.7472825030135124
 40
0.8085634952159588
 40
0.8707421035159856
 40
0.9343409515059125
 40
1.0
 40
1.0
 40
1.0
 40
1.0
 10
75.38341308668386
 20
45.9196391576306
 30
0.0
 10
75.38300332452853
 20
45.90439380205839
 30
0.0
 10
75.38219671991962
 20
45.87438377329156
 30
0.0
 10
75.3759893553374
 20
45.83032371521699
 30
0.0
 10
75.36620716451299
 20
45.78798559979991
 30
0.0
 10
75.35194762624947
 20
45.74754490883331
 30
0.0
 10
75.33373233152278
 20
45.70885648803635
 30
0.0
 10
75.31190138711686
 20
45.67169831827555
 30
0.0
 10
75.28532752410683
 20
45.63676888537288
 30
0.0
 10
75.2556425430566
 20
45.60361837999636
 30
0.0
 10
75.22276383541582
 20
45.57352105254223
 30
0.0
 10
75.18787754825608
 20
45.54687417158901
 30
0.0
 10
75.15102002782828
 20
45.52449126084582
 30
0.0
 10
75.1122099424283
 20
45.50633100872528
 30
0.0
 10
75.07150711690234
 20
45.49222891789761
 30
0.0
 10
75.02896362855017
 20
45.48194849859322
 30
0.0
 10
74.98455014078155
 20
45.47587153024185
 30
0.0
 10
74.9543452085246
 20
45.47504631993538
 30
0.0
 10
74.93900202899157
 20
45.47462713839983
 30
0.0
  0
SPLINE
  5
A7
330
1F
100
AcDbEntity
  8
0
  6
Continuous
 62
     7
370
    25
100
AcDbSpline
210
0.0
220
0.0
230
1.0
 70
     8
 71
     3
 72
     9
 73
     5
 74
     0
 42
0.000000001
 43
0.00000001
 40
0.0
 40
0.0
 40
0.0
 40
0.0
 40
0.5126593363417812
 40
1.0
 40
1.0
 40
1.0
 40
1.0
 10
75.3689900097608
 20
46.07498771532291
 30
0.0
 10
75.3731959500409
 20
46.04860045375862
 30
0.0
 10
75.38140011210713
 20
45.99712911656895
 30
0.0
 10
75.3827535172993
 20
45.94502944577278
 30
0.0
 10
75.38341308668386
 20
45.9196391576306
 30
0.0
  0
LINE
  5
A8
330
1F
100
AcDbEntity
  8
0
  6
Continuous
 62
     7
370
    25
100
AcDbLine
 10
75.9750597213
 20
45.6786535807
 30
0.0
 11
75.3689900098
 21
46.0749877153
 31
0.0
  0
LINE
  5
A9
330
1F
100
AcDbEntity
  8
0
  6
Continuous
 62
     7
370
    25
100
AcDbLine
 10
76.0180284713
 20
47.0120525016
 30
0.0
 11
76.0180284713
 21
46.7347087516
 31
0.0
  0
LINE
  5
AA
330
1F
100
AcDbEntity
  8
0
  6
Continuous
 62
     7
370
    25
100
AcDbLine
 10
75.8641823175
 20
47.1000933669
 30
0.0
 11
76.0180284713
 21
47.0120525016
 31
0.0
  0
LINE
  5
AB
330
1F
100
AcDbEntity
  8
0
  6
Continuous
 62
     7
370
    25
100
AcDbLine
 10
75.8641823175
 20
46.8693241362
 30
0.0
 11
75.8641823175
 21
47.1000933669
 31
0.0
  0
LINE
  5
AC
330
1F
100
AcDbEntity
  8
0
  6
Continuous
 62
     7
370
    25
100
AcDbLine
 10
74.5180284713
 20
46.8693241362
 30
0.0
 11
75.8641823175
 21
46.8693241362
 31
0.0
  0
LINE
  5
AD
330
1F
100
AcDbEntity
  8
0
  6
Continuous
 62
     7
370
    25
100
AcDbLine
 10
74.5180284713
 20
46.7347087516
 30
0.0
 11
74.5180284713
 21
46.8693241362
 31
0.0
  0
LINE
  5
AE
330
1F
100
AcDbEntity
  8
0
  6
Continuous
 62
     7
370
    25
100
AcDbLine
 10
76.0180284713
 20
46.7347087516
 30
0.0
 11
74.5180284713
 21
46.7347087516
 31
0.0
  0
LINE
  5
AF
330
1F
100
AcDbEntity
  8
0
  6
Continuous
 62
     7
370
    25
100
AcDbLine
 10
75.398413229
 20
53.1705730077
 30
0.0
 11
77.3355480991
 21
53.1705730077
 31
0.0
  0
SPLINE
  5
B0
330
1F
100
AcDbEntity
  8
0
  6
Continuous
 62
     7
370
    25
100
AcDbSpline
210
0.0
220
0.0
230
1.0
 70
     8
 71
     3
 72
    12
 73
     8
 74
     0
 42
0.000000001
 43
0.00000001
 40
0.0
 40
0.0
 40
0.0
 40
0.0
 40
0.2499999999999999
 40
0.2499999999999999
 40
0.4999999999999999
 40
0.4999999999999999
 40
1.0
 40
1.0
 40
1.0
 40
1.0
 10
78.31802847129924
 20
46.81972004657983
 30
0.0
 10
78.31802847129924
 20
47.35725366948478
 30
0.0
 10
78.29508427674128
 20
47.89762041331631
 30
0.0
 10
78.20422757586813
 20
48.97871219813346
 30
0.0
 10
78.13695896343819
 20
49.51353031687548
 30
0.0
 10
77.87883931759583
 20
51.10321595147225
 30
0.0
 10
77.63206262999559
 20
52.14341654211157
 30
0.0
 10
77.33554809905179
 20
53.17057300766572
 30
0.0
  0
SPLINE
  5
B1
330
1F
100
AcDbEntity
  8
0
  6
Continuous
 62
     7
370
    25
100
AcDbSpline
210
0.0
220
0.0
230
1.0
 70
     8
 71
     3
 72
    10
 73
     6
 74
     0
 42
0.000000001
 43
0.00000001
 40
0.0
 40
0.0
 40
0.0
 40
0.0
 40
0.5
 40
0.5
 40
1.0
 40
1.0
 40
1.0
 40
1.0
 10
77.33554809905182
 20
40.46886708549395
 30
0.0
 10
77.63403065737538
 20
41.50284099787302
 30
0.0
 10
77.88389157074981
 20
42.56024303713316
 30
0.0
 10
78.22561435326037
 20
44.67917009730959
 30
0.0
 10
78.31802847129924
 20
45.74543746910169
 30
0.0
 10
78.31802847129924
 20
46.81972004657983
 30
0.0
  0
LINE
  5
B2
330
1F
100
AcDbEntity
  8
0
  6
Continuous
 62
     7
370
    25
100
AcDbLine
 10
75.398413229
 20
40.4688670855
 30
0.0
 11
77.3355480991
 21
40.4688670855
 31
0.0
  0
SPLINE
  5
B3
330
1F
100
AcDbEntity
  8
0
  6
Continuous
 62
     7
370
    25
100
AcDbSpline
210
0.0
220
0.0
230
1.0
 70
     8
 71
     3
 72
     8
 73
     4
 74
     0
 42
0.000000001
 43
0.00000001
 40
0.0
 40
0.0
 40
0.0
 40
0.0
 40
1.0
 40
1.0
 40
1.0
 40
1.0
 10
75.39841322902859
 20
40.46886708549395
 30
0.0
 10
75.37058017547268
 20
40.67661582549474
 30
0.0
 10
75.34375918770239
 20
40.88445447196776
 30
0.0
 10
75.31802847129926
 20
41.09238997227556
 30
0.0
  0
LINE
  5
B4
330
1F
100
AcDbEntity
  8
0
  6
Continuous
 62
     7
370
    25
100
AcDbLine
 10
73.3005088435
 20
40.4688670855
 30
0.0
 11
75.2376437136
 21
40.4688670855
 31
0.0
  0
SPLINE
  5
B5
330
1F
100
AcDbEntity
  8
0
  6
Continuous
 62
     7
370
    25
100
AcDbSpline
210
0.0
220
0.0
230
1.0
 70
     8
 71
     3
 72
    10
 73
     6
 74
     0
 42
0.000000001
 43
0.00000001
 40
0.0
 40
0.0
 40
0.0
 40
0.0
 40
0.5
 40
0.5
 40
1.0
 40
1.0
 40
1.0
 40
1.0
 10
73.30050884354668
 20
40.46886708549395
 30
0.0
 10
73.00202628522312
 20
41.50284099787302
 30
0.0
 10
72.7521653718487
 20
42.56024303713316
 30
0.0
 10
72.41044258933815
 20
44.67917009730959
 30
0.0
 10
72.31802847129926
 20
45.74543746910169
 30
0.0
 10
72.31802847129926
 20
46.81972004657983
 30
0.0
  0
SPLINE
  5
B6
330
1F
100
AcDbEntity
  8
0
  6
Continuous
 62
     7
370
    25
100
AcDbSpline
210
0.0
220
0.0
230
1.0
 70
     8
 71
     3
 72
    12
 73
     8
 74
     0
 42
0.000000001
 43
0.00000001
 40
0.0
 40
0.0
 40
0.0
 40
0.0
 40
0.2499999999999999
 40
0.2499999999999999
 40
0.4999999999999999
 40
0.4999999999999999
 40
1.0
 40
1.0
 40
1.0
 40
1.0
 10
72.31802847129926
 20
46.81972004657983
 30
0.0
 10
72.31802847129926
 20
47.35725366948478
 30
0.0
 10
72.34097266585722
 20
47.89762041331631
 30
0.0
 10
72.43182936673037
 20
48.97871219813346
 30
0.0
 10
72.49909797916033
 20
49.51353031687548
 30
0.0
 10
72.75721762500267
 20
51.10321595147225
 30
0.0
 10
73.00399431260291
 20
52.14341654211157
 30
0.0
 10
73.3005088435467
 20
53.17057300766572
 30
0.0
  0
LINE
  5
B7
330
1F
100
AcDbEntity
  8
0
  6
Continuous
 62
     7
370
    25
100
AcDbLine
 10
73.3005088435
 20
53.1705730077
 30
0.0
 11
75.2376437136
 21
53.1705730077
 31
0.0
  0
SPLINE
  5
B8
330
1F
100
AcDbEntity
  8
0
  6
Continuous
 62
     7
370
    25
100
AcDbSpline
210
0.0
220
0.0
230
1.0
 70
     8
 71
     3
 72
     8
 73
     4
 74
     0
 42
0.000000001
 43
0.00000001
 40
0.0
 40
0.0
 40
0.0
 40
0.0
 40
1.0
 40
1.0
 40
1.0
 40
1.0
 10
75.23764371356992
 20
53.17057300766572
 30
0.0
 10
75.26547676712582
 20
52.96282426766493
 30
0.0
 10
75.29229775489611
 20
52.75498562119191
 30
0.0
 10
75.31802847129926
 20
52.54705012088411
 30
0.0
  0
SPLINE
  5
B9
330
1F
100
AcDbEntity
  8
0
  6
Continuous
 62
     7
370
    25
100
AcDbSpline
210
0.0
220
0.0
230
1.0
 70
     8
 71
     3
 72
     8
 73
     4
 74
     0
 42
0.000000001
 43
0.00000001
 40
0.0
 40
0.0
 40
0.0
 40
0.0
 40
1.0
 40
1.0
 40
1.0
 40
1.0
 10
75.31802847129926
 20
52.54705012088412
 30
0.0
 10
75.34376896186886
 20
52.75506460835132
 30
0.0
 10
75.37059048151829
 20
52.96290119303647
 30
0.0
 10
75.39841322902859
 20
53.17057300766572
 30
0.0
  0
SPLINE
  5
BA
330
1F
100
AcDbEntity
  8
0
  6
Continuous
 62
     7
370
    25
100
AcDbSpline
210
0.0
220
0.0
230
1.0
 70
     8
 71
     3
 72
    12
 73
     8
 74
     0
 42
0.000000001
 43
0.00000001
 40
0.0
 40
0.0
 40
0.0
 40
0.0
 40
0.25
 40
0.25
 40
0.5
 40
0.5
 40
1.0
 40
1.0
 40
1.0
 40
1.0
 10
78.31802847129926
 20
37.29344060495101
 30
0.0
 10
78.31802847129926
 20
37.56292849917806
 30
0.0
 10
78.2948063169721
 20
37.83362538034508
 30
0.0
 10
78.20493916711133
 20
38.36912021127738
 30
0.0
 10
78.13838057802366
 20
38.63507661462931
 30
0.0
 10
77.88167110390197
 20
39.428222218071
 30
0.0
 10
77.63470843087957
 20
39.95070619115939
 30
0.0
 10
77.33554809905196
 20
40.46886708549396
 30
0.0
  0
SPLINE
  5
BB
330
1F
100
AcDbEntity
  8
0
  6
Continuous
 62
     7
370
    25
100
AcDbSpline
210
0.0
220
0.0
230
1.0
 70
     8
 71
     3
 72
    10
 73
     6
 74
     0
 42
0.000000001
 43
0.00000001
 40
0.0
 40
0.0
 40
0.0
 40
0.0
 40
0.5
 40
0.5
 40
1.0
 40
1.0
 40
1.0
 40
1.0
 10
77.33554809905213
 20
34.11801412440805
 30
0.0
 10
77.63545735067243
 20
34.63747218587436
 30
0.0
 10
77.88253801003836
 20
35.16072458807083
 30
0.0
 10
78.22439282407075
 20
36.21816859696621
 30
0.0
 10
78.31802847129926
 20
36.7524419753906
 30
0.0
 10
78.31802847129926
 20
37.29344060495101
 30
0.0
  0
LINE
  5
BC
330
1F
100
AcDbEntity
  8
0
  6
Continuous
 62
     7
370
    25
100
AcDbLine
 10
75.398413229
 20
34.1180141244
 30
0.0
 11
77.3355480991
 21
34.1180141244
 31
0.0
  0
SPLINE
  5
BD
330
1F
100
AcDbEntity
  8
0
  6
Continuous
 62
     7
370
    25
100
AcDbSpline
210
0.0
220
0.0
230
1.0
 70
     8
 71
     3
 72
     8
 73
     4
 74
     0
 42
0.000000001
 43
0.00000001
 40
0.0
 40
0.0
 40
0.0
 40
0.0
 40
1.0
 40
1.0
 40
1.0
 40
1.0
 10
75.39841322902859
 20
34.11801412440807
 30
0.0
 10
75.37058155597148
 20
34.22188334231682
 30
0.0
 10
75.34376049610543
 20
34.32580253090055
 30
0.0
 10
75.31802847129926
 20
34.42977556779887
 30
0.0
  0
SPLINE
  5
BE
330
1F
100
AcDbEntity
  8
0
  6
Continuous
 62
     7
370
    25
100
AcDbSpline
210
0.0
220
0.0
230
1.0
 70
     8
 71
     3
 72
     8
 73
     4
 74
     0
 42
0.000000001
 43
0.00000001
 40
0.0
 40
0.0
 40
0.0
 40
0.0
 40
1.0
 40
1.0
 40
1.0
 40
1.0
 10
75.31802847129926
 20
34.42977556779887
 30
0.0
 10
75.29228752146594
 20
34.32576646836052
 30
0.0
 10
75.26546597720503
 20
34.2218482258759
 30
0.0
 10
75.23764371356992
 20
34.11801412440807
 30
0.0
  0
LINE
  5
BF
330
1F
100
AcDbEntity
  8
0
  6
Continuous
 62
     7
370
    25
100
AcDbLine
 10
73.3005088435
 20
34.1180141244
 30
0.0
 11
75.2376437136
 21
34.1180141244
 31
0.0
  0
SPLINE
  5
C0
330
1F
100
AcDbEntity
  8
0
  6
Continuous
 62
     7
370
    25
100
AcDbSpline
210
0.0
220
0.0
230
1.0
 70
     8
 71
     3
 72
    10
 73
     6
 74
     0
 42
0.000000001
 43
0.00000001
 40
0.0
 40
0.0
 40
0.0
 40
0.0
 40
0.5
 40
0.5
 40
1.0
 40
1.0
 40
1.0
 40
1.0
 10
73.30050884354638
 20
34.11801412440805
 30
0.0
 10
73.00059959192608
 20
34.63747218587436
 30
0.0
 10
72.75351893256014
 20
35.16072458807083
 30
0.0
 10
72.41166411852775
 20
36.21816859696621
 30
0.0
 10
72.31802847129924
 20
36.7524419753906
 30
0.0
 10
72.31802847129924
 20
37.29344060495101
 30
0.0
  0
SPLINE
  5
C1
330
1F
100
AcDbEntity
  8
0
  6
Continuous
 62
     7
370
    25
100
AcDbSpline
210
0.0
220
0.0
230
1.0
 70
     8
 71
     3
 72
    12
 73
     8
 74
     0
 42
0.000000001
 43
0.00000001
 40
0.0
 40
0.0
 40
0.0
 40
0.0
 40
0.25
 40
0.25
 40
0.5
 40
0.5
 40
1.0
 40
1.0
 40
1.0
 40
1.0
 10
72.31802847129924
 20
37.29344060495101
 30
0.0
 10
72.31802847129924
 20
37.56292849917806
 30
0.0
 10
72.3412506256264
 20
37.83362538034508
 30
0.0
 10
72.43111777548717
 20
38.36912021127738
 30
0.0
 10
72.49767636457486
 20
38.63507661462931
 30
0.0
 10
72.75438583869654
 20
39.428222218071
 30
0.0
 10
73.00134851171894
 20
39.95070619115939
 30
0.0
 10
73.30050884354654
 20
40.46886708549396
 30
0.0
  0
SPLINE
  5
C2
330
1F
100
AcDbEntity
  8
0
  6
Continuous
 62
     7
370
    25
100
AcDbSpline
210
0.0
220
0.0
230
1.0
 70
     8
 71
     3
 72
     8
 73
     4
 74
     0
 42
0.000000001
 43
0.00000001
 40
0.0
 40
0.0
 40
0.0
 40
0.0
 40
1.0
 40
1.0
 40
1.0
 40
1.0
 10
75.31802847129926
 20
40.15710564210315
 30
0.0
 10
75.34376942113256
 20
40.2611147415415
 30
0.0
 10
75.37059096539348
 20
40.36503298402612
 30
0.0
 10
75.39841322902859
 20
40.46886708549395
 30
0.0
  0
LINE
  5
C3
330
1F
100
AcDbEntity
  8
0
  6
Continuous
 62
     7
370
    25
100
AcDbLine
 10
75.398413229
 20
59.5214259688
 30
0.0
 11
77.3355480991
 21
59.5214259688
 31
0.0
  0
SPLINE
  5
C4
330
1F
100
AcDbEntity
  8
0
  6
Continuous
 62
     7
370
    25
100
AcDbSpline
210
0.0
220
0.0
230
1.0
 70
     8
 71
     3
 72
    12
 73
     8
 74
     0
 42
0.000000001
 43
0.00000001
 40
0.0
 40
0.0
 40
0.0
 40
0.0
 40
0.2500000000000002
 40
0.2500000000000002
 40
0.5000000000000001
 40
0.5000000000000001
 40
1.0
 40
1.0
 40
1.0
 40
1.0
 10
78.31802847129926
 20
56.34599948820866
 30
0.0
 10
78.31802847129926
 20
56.6154873824357
 30
0.0
 10
78.2948063169721
 20
56.88618426360274
 30
0.0
 10
78.20493916711133
 20
57.42167909453504
 30
0.0
 10
78.13838057802366
 20
57.68763549788695
 30
0.0
 10
77.88167110390197
 20
58.48078110132865
 30
0.0
 10
77.63470843087957
 20
59.00326507441704
 30
0.0
 10
77.33554809905196
 20
59.52142596875161
 30
0.0
  0
SPLINE
  5
C5
330
1F
100
AcDbEntity
  8
0
  6
Continuous
 62
     7
370
    25
100
AcDbSpline
210
0.0
220
0.0
230
1.0
 70
     8
 71
     3
 72
    10
 73
     6
 74
     0
 42
0.000000001
 43
0.00000001
 40
0.0
 40
0.0
 40
0.0
 40
0.0
 40
0.5
 40
0.5
 40
1.0
 40
1.0
 40
1.0
 40
1.0
 10
77.33554809905212
 20
53.17057300766569
 30
0.0
 10
77.63545735067243
 20
53.69003106913202
 30
0.0
 10
77.88253801003836
 20
54.21328347132848
 30
0.0
 10
78.22439282407075
 20
55.27072748022385
 30
0.0
 10
78.31802847129926
 20
55.80500085864825
 30
0.0
 10
78.31802847129926
 20
56.34599948820866
 30
0.0
  0
SPLINE
  5
C6
330
1F
100
AcDbEntity
  8
0
  6
Continuous
 62
     7
370
    25
100
AcDbSpline
210
0.0
220
0.0
230
1.0
 70
     8
 71
     3
 72
     8
 73
     4
 74
     0
 42
0.000000001
 43
0.00000001
 40
0.0
 40
0.0
 40
0.0
 40
0.0
 40
1.0
 40
1.0
 40
1.0
 40
1.0
 10
75.39841322902859
 20
53.17057300766572
 30
0.0
 10
75.37058155597148
 20
53.27444222557447
 30
0.0
 10
75.34376049610545
 20
53.37836141415821
 30
0.0
 10
75.31802847129926
 20
53.48233445105652
 30
0.0
  0
SPLINE
  5
C7
330
1F
100
AcDbEntity
  8
0
  6
Continuous
 62
     7
370
    25
100
AcDbSpline
210
0.0
220
0.0
230
1.0
 70
     8
 71
     3
 72
     8
 73
     4
 74
     0
 42
0.000000001
 43
0.00000001
 40
0.0
 40
0.0
 40
0.0
 40
0.0
 40
1.0
 40
1.0
 40
1.0
 40
1.0
 10
75.31802847129926
 20
53.48233445105652
 30
0.0
 10
75.29228752146594
 20
53.37832535161817
 30
0.0
 10
75.26546597720503
 20
53.27440710913355
 30
0.0
 10
75.23764371356992
 20
53.17057300766572
 30
0.0
  0
SPLINE
  5
C8
330
1F
100
AcDbEntity
  8
0
  6
Continuous
 62
     7
370
    25
100
AcDbSpline
210
0.0
220
0.0
230
1.0
 70
     8
 71
     3
 72
    10
 73
     6
 74
     0
 42
0.000000001
 43
0.00000001
 40
0.0
 40
0.0
 40
0.0
 40
0.0
 40
0.5
 40
0.5
 40
1.0
 40
1.0
 40
1.0
 40
1.0
 10
73.30050884354638
 20
53.17057300766569
 30
0.0
 10
73.00059959192608
 20
53.69003106913202
 30
0.0
 10
72.75351893256014
 20
54.21328347132848
 30
0.0
 10
72.41166411852775
 20
55.27072748022385
 30
0.0
 10
72.31802847129924
 20
55.80500085864825
 30
0.0
 10
72.31802847129924
 20
56.34599948820866
 30
0.0
  0
SPLINE
  5
C9
330
1F
100
AcDbEntity
  8
0
  6
Continuous
 62
     7
370
    25
100
AcDbSpline
210
0.0
220
0.0
230
1.0
 70
     8
 71
     3
 72
    12
 73
     8
 74
     0
 42
0.000000001
 43
0.00000001
 40
0.0
 40
0.0
 40
0.0
 40
0.0
 40
0.2500000000000002
 40
0.2500000000000002
 40
0.5000000000000001
 40
0.5000000000000001
 40
1.0
 40
1.0
 40
1.0
 40
1.0
 10
72.31802847129924
 20
56.34599948820866
 30
0.0
 10
72.31802847129924
 20
56.6154873824357
 30
0.0
 10
72.3412506256264
 20
56.88618426360274
 30
0.0
 10
72.43111777548717
 20
57.42167909453504
 30
0.0
 10
72.49767636457486
 20
57.68763549788695
 30
0.0
 10
72.75438583869654
 20
58.48078110132865
 30
0.0
 10
73.00134851171894
 20
59.00326507441704
 30
0.0
 10
73.30050884354654
 20
59.52142596875161
 30
0.0
  0
LINE
  5
CA
330
1F
100
AcDbEntity
  8
0
  6
Continuous
 62
     7
370
    25
100
AcDbLine
 10
73.3005088435
 20
59.5214259688
 30
0.0
 11
75.2376437136
 21
59.5214259688
 31
0.0
  0
SPLINE
  5
CB
330
1F
100
AcDbEntity
  8
0
  6
Continuous
 62
     7
370
    25
100
AcDbSpline
210
0.0
220
0.0
230
1.0
 70
     8
 71
     3
 72
     8
 73
     4
 74
     0
 42
0.000000001
 43
0.00000001
 40
0.0
 40
0.0
 40
0.0
 40
0.0
 40
1.0
 40
1.0
 40
1.0
 40
1.0
 10
75.23764371356992
 20
59.5214259687516
 30
0.0
 10
75.26547538662702
 20
59.41755675084285
 30
0.0
 10
75.29229644649307
 20
59.31363756225911
 30
0.0
 10
75.31802847129926
 20
59.20966452536079
 30
0.0
  0
SPLINE
  5
CC
330
1F
100
AcDbEntity
  8
0
  6
Continuous
 62
     7
370
    25
100
AcDbSpline
210
0.0
220
0.0
230
1.0
 70
     8
 71
     3
 72
     8
 73
     4
 74
     0
 42
0.000000001
 43
0.00000001
 40
0.0
 40
0.0
 40
0.0
 40
0.0
 40
1.0
 40
1.0
 40
1.0
 40
1.0
 10
75.31802847129926
 20
59.20966452536079
 30
0.0
 10
75.34376942113256
 20
59.31367362479915
 30
0.0
 10
75.37059096539348
 20
59.41759186728377
 30
0.0
 10
75.39841322902859
 20
59.52142596875159
 30
0.0
  0
LINE
  5
CD
330
1F
100
AcDbEntity
  8
0
  6
Continuous
 62
     7
370
    25
100
AcDbLine
 10
78.3180284713
 20
46.8197200466
 30
0.0
 11
78.3180284713
 21
37.293440605
 31
0.0
  0
LINE
  5
CE
330
1F
100
AcDbEntity
  8
0
  6
Continuous
 62
     7
370
    25
100
AcDbLine
 10
78.3180284713
 20
56.3459994882
 30
0.0
 11
78.3180284713
 21
46.8197200466
 31
0.0
  0
LINE
  5
CF
330
1F
100
AcDbEntity
  8
0
  6
Continuous
 62
     7
370
    25
100
AcDbLine
 10
72.3180284713
 20
46.8197200466
 30
0.0
 11
72.3180284713
 21
56.3459994882
 31
0.0
  0
LINE
  5
D0
330
1F
100
AcDbEntity
  8
0
  6
Continuous
 62
     7
370
    25
100
AcDbLine
 10
72.3180284713
 20
37.293440605
 30
0.0
 11
72.3180284713
 21
46.8197200466
 31
0.0
  0
SPLINE
  5
D1
330
1F
100
AcDbEntity
  8
0
  6
Continuous
 62
     7
370
    25
100
AcDbSpline
210
0.0
220
0.0
230
1.0
 70
     8
 71
     3
 72
    23
 73
    19
 74
     0
 42
0.000000001
 43
0.00000001
 40
0.0
 40
0.0
 40
0.0
 40
0.0
 40
0.0611415679303346
 40
0.1200010135310724
 40
0.1782359705414084
 40
0.236495543407017
 40
0.294887248704973
 40
0.3546771928192958
 40
0.4166948132897785
 40
0.4806333779628396
 40
0.5458046334786409
 40
0.6097347883178745
 40
0.6729516883751544
 40
0.7360010960706833
 40
0.7998274385165253
 40
0.8647672769393869
 40
0.9310835057306723
 40
1.0
 40
1.0
 40
1.0
 40
1.0
 10
74.93088904822233
 20
45.60924252301522
 30
0.0
 10
74.94113075867249
 20
45.60947561405826
 30
0.0
 10
74.96123190550126
 20
45.60993309597043
 30
0.0
 10
74.9906525191043
 20
45.61520767102662
 30
0.0
 10
75.01917732783784
 20
45.62233186246844
 30
0.0
 10
75.04616376436262
 20
45.63384520880578
 30
0.0
 10
75.07235811219299
 20
45.64755854406943
 30
0.0
 10
75.09701171730406
 20
45.6650284323648
 30
0.0
 10
75.12082302074805
 20
45.68505808690278
 30
0.0
 10
75.14291543447818
 20
45.70825437036763
 30
0.0
 10
75.16312295414272
 20
45.73348985021719
 30
0.0
 10
75.18095947667844
 20
45.76032594397042
 30
0.0
 10
75.19601315132404
 20
45.78840056802446
 30
0.0
 10
75.20857330779273
 20
45.81768660255982
 30
0.0
 10
75.21763737634815
 20
45.84851925046072
 30
0.0
 10
75.22477447826707
 20
45.88040082881214
 30
0.0
 10
75.22857248647735
 20
45.9137390744576
 30
0.0
 10
75.2292312286024
 20
45.93635762104476
 30
0.0
 10
75.22956693283771
 20
45.94788434993829
 30
0.0
  0
SPLINE
  5
D2
330
1F
100
AcDbEntity
  8
0
  6
Continuous
 62
     7
370
    25
100
AcDbSpline
210
0.0
220
0.0
230
1.0
 70
     8
 71
     3
 72
    23
 73
    19
 74
     0
 42
0.000000001
 43
0.00000001
 40
0.0
 40
0.0
 40
0.0
 40
0.0
 40
0.0679503475997533
 40
0.1332598223836994
 40
0.1978002967596469
 40
0.2608458295516821
 40
0.3233192927503666
 40
0.3862817224595717
 40
0.4500615162333125
 40
0.5152075844858149
 40
0.5796407692199315
 40
0.6418172023841521
 40
0.7016924412115346
 40
0.7607690981778942
 40
0.8192540511346831
 40
0.8787376269055535
 40
0.938158297016091
 40
1.0
 40
1.0
 40
1.0
 40
1.0
 10
74.63341308668386
 20
45.93616559993829
 30
0.0
 10
74.63374267572499
 20
45.92503751091491
 30
0.0
 10
74.63438904441378
 20
45.90321382319132
 30
0.0
 10
74.63828069841199
 20
45.87099688510662
 30
0.0
 10
74.64516418952263
 20
45.8401052190869
 30
0.0
 10
74.65494602674283
 20
45.81051734024361
 30
0.0
 10
74.66686506857889
 20
45.78198673078284
 30
0.0
 10
74.68207342860669
 20
45.7549181765584
 30
0.0
 10
74.69985068011428
 20
45.72894623262731
 30
0.0
 10
74.72018923333249
 20
45.70463621992217
 30
0.0
 10
74.74204700680109
 20
45.68198453415881
 30
0.0
 10
74.76605560826964
 20
45.663034483088
 30
0.0
 10
74.7903707306147
 20
45.64593220129269
 30
0.0
 10
74.81646915262857
 20
45.63297782065061
 30
0.0
 10
74.84340555210744
 20
45.62211765099596
 30
0.0
 10
74.8715905128514
 20
45.61481690142867
 30
0.0
 10
74.90087873266685
 20
45.6100373357707
 30
0.0
 10
74.92075334255819
 20
45.60951096364967
 30
0.0
 10
74.93088904822233
 20
45.60924252301522
 30
0.0
  0
SPLINE
  5
D3
330
1F
100
AcDbEntity
  8
0
  6
Continuous
 62
     7
370
    25
100
AcDbSpline
210
0.0
220
0.0
230
1.0
 70
     8
 71
     3
 72
    23
 73
    19
 74
     0
 42
0.000000001
 43
0.00000001
 40
0.0
 40
0.0
 40
0.0
 40
0.0
 40
0.0618526459466918
 40
0.12128383061537
 40
0.1807779320756124
 40
0.2392732340142805
 40
0.2986414352139417
 40
0.3581858222417117
 40
0.4207600867589708
 40
0.4852046730216432
 40
0.5503622689482868
 40
0.6136499245309119
 40
0.6766234955168248
 40
0.7391080134690123
 40
0.8021647022429443
 40
0.8667165971324775
 40
0.9320376285055445
 40
1.0
 40
1.0
 40
1.0
 40
1.0
 10
74.93088904822233
 20
46.26308867686137
 30
0.0
 10
74.92075372836541
 20
46.26281954455391
 30
0.0
 10
74.90087987498464
 20
46.26229181616507
 30
0.0
 10
74.87158614957114
 20
46.25752212091187
 30
0.0
 10
74.84342183932016
 20
46.25018434925861
 30
0.0
 10
74.81636634461927
 20
46.23944379583682
 30
0.0
 10
74.79056724895585
 20
46.22597200137916
 30
0.0
 10
74.76584129381564
 20
46.20939347284724
 30
0.0
 10
74.74217141277556
 20
46.18998892475921
 30
0.0
 10
74.72015447622454
 20
46.16743152261387
 30
0.0
 10
74.69996000698514
 20
46.14310555137933
 30
0.0
 10
74.68197881366312
 20
46.11737922557419
 30
0.0
 10
74.66687941948916
 20
46.09033434492695
 30
0.0
 10
74.65494215823709
 20
46.06181658875586
 30
0.0
 10
74.6451652566948
 20
46.0322252279295
 30
0.0
 10
74.63828040758096
 20
46.00133451994315
 30
0.0
 10
74.63438912093521
 20
45.96911732270153
 30
0.0
 10
74.63374270156692
 20
45.94729367073092
 30
0.0
 10
74.63341308668386
 20
45.93616559993829
 30
0.0
  0
SPLINE
  5
D4
330
1F
100
AcDbEntity
  8
0
  6
Continuous
 62
     7
370
    25
100
AcDbSpline
210
0.0
220
0.0
230
1.0
 70
     8
 71
     3
 72
    23
 73
    19
 74
     0
 42
0.000000001
 43
0.00000001
 40
0.0
 40
0.0
 40
0.0
 40
0.0
 40
0.0705921865358075
 40
0.1385012886049303
 40
0.2037899961427016
 40
0.2667875726696014
 40
0.3290979656467185
 40
0.391174524603966
 40
0.4531677986176575
 40
0.5157967602265847
 40
0.5779688050530403
 40
0.6389663383752915
 40
0.698381066162843
 40
0.7573204555574266
 40
0.8164122397216688
 40
0.876279358230831
 40
0.9368234656501931
 40
1.0
 40
1.0
 40
1.0
 40
1.0
 10
75.22956693283771
 20
45.94788434993829
 30
0.0
 10
75.22922906838312
 20
45.95931066777611
 30
0.0
 10
75.22856618110576
 20
45.98172900926981
 30
0.0
 10
75.22482218898679
 20
46.01457846548504
 30
0.0
 10
75.2177283503664
 20
46.04558439917074
 30
0.0
 10
75.20855230681013
 20
46.07510094865489
 30
0.0
 10
75.1960584814133
 20
46.10282047400239
 30
0.0
 10
75.18106234886899
 20
46.12905917263073
 30
0.0
 10
75.1632329275962
 20
46.15355668057765
 30
0.0
 10
75.14276901126014
 20
46.17588277910983
 30
0.0
 10
75.12069125698027
 20
46.19638365154418
 30
0.0
 10
75.0969023332416
 20
46.21401774961914
 30
0.0
 10
75.07212903326081
 20
46.22924551072747
 30
0.0
 10
75.04613851807697
 20
46.24162241143044
 30
0.0
 10
75.01894745960229
 20
46.2512612897283
 30
0.0
 10
74.99067912874621
 20
46.25823332267099
 30
0.0
 10
74.96114444799115
 20
46.26211352187084
 30
0.0
 10
74.94111622951236
 20
46.2627590468796
 30
0.0
 10
74.93088904822233
 20
46.26308867686137
 30
0.0
  0
LINE
  5
D5
330
1F
100
AcDbEntity
  8
0
  6
Continuous
 62
     7
370
    25
100
AcDbLine
 10
75.3180284713
 20
52.5470501209
 30
0.0
 11
75.3180284713
 21
53.4823344511
 31
0.0
  0
LINE
  5
D6
330
1F
100
AcDbEntity
  8
0
  6
Continuous
 62
     7
370
    25
100
AcDbLine
 10
58.0144197443
 20
57.1264822739
 30
0.0
 11
58.0144197443
 21
36.5129578193
 31
0.0
  0
LINE
  5
D7
330
1F
100
AcDbEntity
  8
0
  6
Continuous
 62
     7
370
    25
100
AcDbLine
 10
55.3180284713
 20
38.0697200466
 30
0.0
 11
55.3180284713
 21
55.5697200466
 31
0.0
  0
LINE
  5
D8
330
1F
100
AcDbEntity
  8
0
  6
Continuous
 62
     7
370
    25
100
AcDbLine
 10
98.3180284713
 20
56.3197200466
 30
0.0
 11
98.3180284713
 21
37.3197200466
 31
0.0
  0
LINE
  5
D9
330
1F
100
AcDbEntity
  8
0
  6
Continuous
 62
     7
370
    25
100
AcDbLine
 10
92.8180284713
 20
56.3197200466
 30
0.0
 11
92.8180284713
 21
37.3197200466
 31
0.0
  0
LINE
  5
DA
330
1F
100
AcDbEntity
  8
0
  6
Continuous
 62
     7
370
    25
100
AcDbLine
 10
103.8180284713
 20
56.3197200466
 30
0.0
 11
103.8180284713
 21
37.3197200466
 31
0.0
  0
LINE
  5
DB
330
1F
100
AcDbEntity
  8
0
  6
Continuous
 62
     7
370
    25
100
AcDbLine
 10
87.3180284713
 20
56.3197200466
 30
0.0
 11
87.3180284713
 21
37.3197200466
 31
0.0
  0
LINE
  5
DC
330
1F
100
AcDbEntity
  8
0
  6
Continuous
 62
     7
370
    25
100
AcDbLine
 10
111.3180284713
 20
38.7574782449
 30
0.0
 11
111.3180284713
 21
54.8819618482
 31
0.0
  0
LINE
  5
DD
330
1F
100
AcDbEntity
  8
0
  6
Continuous
 62
     7
370
    25
100
AcDbLine
 10
72.3180284713
 20
35.8197200466
 30
0.0
 11
72.3180284713
 21
37.293440605
 31
0.0
  0
LINE
  5
DE
330
1F
100
AcDbEntity
  8
0
  6
Continuous
 62
     7
370
    25
100
AcDbLine
 10
78.3180284713
 20
37.293440605
 30
0.0
 11
78.3180284713
 21
35.8197200466
 31
0.0
  0
LINE
  5
DF
330
1F
100
AcDbEntity
  8
0
  6
Continuous
 62
     7
370
    25
100
AcDbLine
 10
72.3180284713
 20
56.3459994882
 30
0.0
 11
72.3180284713
 21
57.8197200466
 31
0.0
  0
LINE
  5
E0
330
1F
100
AcDbEntity
  8
0
  6
Continuous
 62
     7
370
    25
100
AcDbLine
 10
78.3180284713
 20
57.8197200466
 30
0.0
 11
78.3180284713
 21
56.3459994882
 31
0.0
  0
LINE
  5
E1
330
1F
100
AcDbEntity
  8
0
  6
Continuous
 62
     7
370
    25
100
AcDbLine
 10
75.3180284713
 20
59.2096645254
 30
0.0
 11
75.3180284713
 21
59.2214259688
 31
0.0
  0
LINE
  5
E2
330
1F
100
AcDbEntity
  8
0
  6
Continuous
 62
     7
370
    25
100
AcDbLine
 10
75.3180284713
 20
34.4180141244
 30
0.0
 11
75.3180284713
 21
34.4297755678
 31
0.0
  0
LINE
  5
E3
330
1F
100
AcDbEntity
  8
0
  6
Continuous
 62
     8
370
    25
100
AcDbLine
 10
110.8841103313
 20
38.2618642946
 30
0.0
 11
110.8841103313
 21
55.3775757986
 31
0.0
  0
LINE
  5
E4
330
1F
100
AcDbEntity
  8
0
  6
Continuous
 62
     7
370
    18
100
AcDbLine
 10
56.1992545023
 20
56.0784961328
 30
0.0
 11
71.8180284713
 21
56.5665828193
 31
0.0
  0
LINE
  5
E5
330
1F
100
AcDbEntity
  8
0
  6
Continuous
 62
     7
370
    18
100
AcDbLine
 10
56.1992545023
 20
37.5609439604
 30
0.0
 11
71.8180284713
 21
37.0728572739
 31
0.0
  0
LINE
  5
E6
330
1F
100
AcDbEntity
  8
0
  6
Continuous
 62
     7
370
    18
100
AcDbLine
 10
71.8180284713
 20
36.0815950466
 30
0.0
 11
71.8180284713
 21
57.5578450466
 31
0.0
  0
LINE
  5
E7
330
1F
100
AcDbEntity
  8
0
  6
CENTERX2
 62
     7
370
    18
100
AcDbLine
 10
112.3180284713
 20
46.8197200466
 30
0.0
 11
54.0046138378
 21
46.8197200466
 31
0.0
  0
CIRCLE
  5
E8
330
1F
100
AcDbEntity
  8
0
  6
Continuous
 62
     7
370
    25
100
AcDbCircle
 10
136.8150101774
 20
46.8197200466
 30
0.0
 40
8.062241801652618
  0
CIRCLE
  5
E9
330
1F
100
AcDbEntity
  8
0
  6
Continuous
 62
     7
370
    25
100
AcDbCircle
 10
136.8150101774
 20
46.8197200466
 30
0.0
 40
7.199999999999989
  0
CIRCLE
  5
EA
330
1F
100
AcDbEntity
  8
0
  6
Continuous
 62
     7
370
    25
100
AcDbCircle
 10
136.8150101774
 20
46.8197200466
 30
0.0
 40
8.557855751993934
  0
CIRCLE
  5
EB
330
1F
100
AcDbEntity
  8
0
  6
Continuous
 62
     7
370
    25
100
AcDbCircle
 10
136.8150101774
 20
46.8197200466
 30
0.0
 40
6.999999999999972
  0
CIRCLE
  5
EC
330
1F
100
AcDbEntity
  8
0
  6
Continuous
 62
     7
370
    25
100
AcDbCircle
 10
136.8150101774
 20
46.8197200466
 30
0.0
 40
9.499999999999993
  0
SPLINE
  5
ED
330
1F
100
AcDbEntity
  8
0
  6
Continuous
 62
     7
370
    25
100
AcDbSpline
210
0.0
220
0.0
230
1.0
 70
    24
 71
     3
 72
    10
 73
     6
 74
     0
 42
0.000000001
 43
0.00000001
 40
0.0
 40
0.0
 40
0.0
 40
0.0
 40
0.5000000000000001
 40
0.5000000000000001
 40
1.0
 40
1.0
 40
1.0
 40
1.0
 10
147.8150101774443
 20
40.46886708549394
 30
0.0
 10
147.8150101774443
 20
41.50284099787301
 30
0.0
 10
147.8150101774443
 20
42.56024303713315
 30
0.0
 10
147.8150101774443
 20
44.67917009730959
 30
0.0
 10
147.8150101774443
 20
45.74543746910169
 30
0.0
 10
147.8150101774443
 20
46.81972004657983
 30
0.0
  0
SPLINE
  5
EE
330
1F
100
AcDbEntity
  8
0
  6
Continuous
 62
     7
370
    25
100
AcDbSpline
210
0.0
220
0.0
230
1.0
 70
    24
 71
     3
 72
    10
 73
     6
 74
     0
 42
0.000000001
 43
0.00000001
 40
0.0
 40
0.0
 40
0.0
 40
0.0
 40
0.5
 40
0.5
 40
1.0
 40
1.0
 40
1.0
 40
1.0
 10
147.8150101774443
 20
40.46886708549396
 30
0.0
 10
146.9152824225834
 20
39.94940902402765
 30
0.0
 10
146.0089826767966
 20
39.42615662183119
 30
0.0
 10
144.1774359272305
 20
38.3687126129358
 30
0.0
 10
143.252047290668
 20
37.83443923451141
 30
0.0
 10
142.3150101774442
 20
37.293440604951
 30
0.0
  0
ARC
  5
EF
330
1F
100
AcDbEntity
  8
0
  6
Continuous
 62
     7
370
    25
100
AcDbCircle
 10
136.8150101774
 20
46.8197200466
 30
0.0
 40
11.00000000000003
100
AcDbArc
 50
300.0
 51
0.0
  0
ARC
  5
F0
330
1F
100
AcDbEntity
  8
0
  6
Continuous
 62
     7
370
    25
100
AcDbCircle
 10
136.8150101774
 20
46.8197200466
 30
0.0
 40
11.00000000000001
100
AcDbArc
 50
240.0
 51
300.0
  0
ARC
  5
F1
330
1F
100
AcDbEntity
  8
0
  6
Continuous
 62
     7
370
    25
100
AcDbCircle
 10
136.8150101774
 20
46.8197200466
 30
0.0
 40
11.0
100
AcDbArc
 50
180.0
 51
240.0
  0
ARC
  5
F2
330
1F
100
AcDbEntity
  8
0
  6
Continuous
 62
     7
370
    25
100
AcDbCircle
 10
136.8150101774
 20
46.8197200466
 30
0.0
 40
11.0
100
AcDbArc
 50
120.0
 51
180.0
  0
ARC
  5
F3
330
1F
100
AcDbEntity
  8
0
  6
Continuous
 62
     7
370
    25
100
AcDbCircle
 10
136.8150101774
 20
46.8197200466
 30
0.0
 40
11.0
100
AcDbArc
 50
60.0
 51
120.0
  0
ARC
  5
F4
330
1F
100
AcDbEntity
  8
0
  6
Continuous
 62
     7
370
    25
100
AcDbCircle
 10
136.8150101774
 20
46.8197200466
 30
0.0
 40
11.00000000000003
100
AcDbArc
 50
0.0
 51
60.0
  0
SPLINE
  5
F5
330
1F
100
AcDbEntity
  8
0
  6
Continuous
 62
     7
370
    25
100
AcDbSpline
210
0.0
220
0.0
230
1.0
 70
    24
 71
     3
 72
    12
 73
     8
 74
     0
 42
0.000000001
 43
0.00000001
 40
0.0
 40
0.0
 40
0.0
 40
0.0
 40
0.25
 40
0.25
 40
0.5
 40
0.5
 40
1.0
 40
1.0
 40
1.0
 40
1.0
 10
147.8150101774443
 20
46.81972004657983
 30
0.0
 10
147.8150101774443
 20
47.35725366948478
 30
0.0
 10
147.8150101774443
 20
47.89762041331631
 30
0.0
 10
147.8150101774443
 20
48.97871219813346
 30
0.0
 10
147.8150101774443
 20
49.51353031687547
 30
0.0
 10
147.8150101774443
 20
51.10321595147224
 30
0.0
 10
147.8150101774443
 20
52.14341654211157
 30
0.0
 10
147.8150101774443
 20
53.17057300766572
 30
0.0
  0
SPLINE
  5
F6
330
1F
100
AcDbEntity
  8
0
  6
Continuous
 62
     7
370
    25
100
AcDbSpline
210
0.0
220
0.0
230
1.0
 70
    24
 71
     3
 72
    12
 73
     8
 74
     0
 42
0.000000001
 43
0.00000001
 40
0.0
 40
0.0
 40
0.0
 40
0.0
 40
0.2500000000000001
 40
0.2500000000000001
 40
0.5000000000000001
 40
0.5000000000000001
 40
1.0
 40
1.0
 40
1.0
 40
1.0
 10
142.3150101774442
 20
56.34599948820866
 30
0.0
 10
142.7817769022702
 20
56.07651159398161
 30
0.0
 10
143.250637653902
 20
55.80581471281458
 30
0.0
 10
144.1781419082672
 20
55.27031988188227
 30
0.0
 10
144.638791911471
 20
55.00436347853036
 30
0.0
 10
146.0125603944319
 20
54.21121787508867
 30
0.0
 10
146.9175291819614
 20
53.68873390200028
 30
0.0
 10
147.8150101774443
 20
53.17057300766571
 30
0.0
  0
SPLINE
  5
F7
330
1F
100
AcDbEntity
  8
0
  6
Continuous
 62
     7
370
    25
100
AcDbSpline
210
0.0
220
0.0
230
1.0
 70
    24
 71
     3
 72
    10
 73
     6
 74
     0
 42
0.000000001
 43
0.00000001
 40
0.0
 40
0.0
 40
0.0
 40
0.0
 40
0.5
 40
0.5
 40
1.0
 40
1.0
 40
1.0
 40
1.0
 10
136.8150101774443
 20
34.11801412440805
 30
0.0
 10
135.9152824225834
 20
34.63747218587436
 30
0.0
 10
135.0089826767966
 20
35.16072458807083
 30
0.0
 10
133.1774359272305
 20
36.21816859696621
 30
0.0
 10
132.252047290668
 20
36.7524419753906
 30
0.0
 10
131.3150101774442
 20
37.29344060495101
 30
0.0
  0
SPLINE
  5
F8
330
1F
100
AcDbEntity
  8
0
  6
Continuous
 62
     7
370
    25
100
AcDbSpline
210
0.0
220
0.0
230
1.0
 70
    24
 71
     3
 72
    12
 73
     8
 74
     0
 42
0.000000001
 43
0.00000001
 40
0.0
 40
0.0
 40
0.0
 40
0.0
 40
0.2500000000000002
 40
0.2500000000000002
 40
0.5000000000000002
 40
0.5000000000000002
 40
1.0
 40
1.0
 40
1.0
 40
1.0
 10
142.3150101774442
 20
37.293440604951
 30
0.0
 10
141.8482434526182
 20
37.02395271072396
 30
0.0
 10
141.3793827009865
 20
36.75325582955693
 30
0.0
 10
140.4518784466213
 20
36.21776099862463
 30
0.0
 10
139.9912284434174
 20
35.95180459527271
 30
0.0
 10
138.6174599604566
 20
35.15865899183102
 30
0.0
 10
137.712491172927
 20
34.63617501874264
 30
0.0
 10
136.8150101774442
 20
34.11801412440806
 30
0.0
  0
SPLINE
  5
F9
330
1F
100
AcDbEntity
  8
0
  6
Continuous
 62
     7
370
    25
100
AcDbSpline
210
0.0
220
0.0
230
1.0
 70
    24
 71
     3
 72
    12
 73
     8
 74
     0
 42
0.000000001
 43
0.00000001
 40
0.0
 40
0.0
 40
0.0
 40
0.0
 40
0.2500000000000002
 40
0.2500000000000002
 40
0.5000000000000001
 40
0.5000000000000001
 40
1.0
 40
1.0
 40
1.0
 40
1.0
 10
131.3150101774442
 20
56.34599948820866
 30
0.0
 10
131.7817769022702
 20
56.6154873824357
 30
0.0
 10
132.250637653902
 20
56.88618426360274
 30
0.0
 10
133.1781419082672
 20
57.42167909453504
 30
0.0
 10
133.638791911471
 20
57.68763549788695
 30
0.0
 10
135.0125603944319
 20
58.48078110132865
 30
0.0
 10
135.9175291819614
 20
59.00326507441704
 30
0.0
 10
136.8150101774443
 20
59.52142596875161
 30
0.0
  0
SPLINE
  5
FA
330
1F
100
AcDbEntity
  8
0
  6
Continuous
 62
     7
370
    25
100
AcDbSpline
210
0.0
220
0.0
230
1.0
 70
    24
 71
     3
 72
    10
 73
     6
 74
     0
 42
0.000000001
 43
0.00000001
 40
0.0
 40
0.0
 40
0.0
 40
0.0
 40
0.5
 40
0.5
 40
1.0
 40
1.0
 40
1.0
 40
1.0
 10
136.8150101774442
 20
59.52142596875162
 30
0.0
 10
137.7147379323051
 20
59.00196790728531
 30
0.0
 10
138.6210376780918
 20
58.47871550508884
 30
0.0
 10
140.452584427658
 20
57.42127149619346
 30
0.0
 10
141.3779730642205
 20
56.88699811776907
 30
0.0
 10
142.3150101774442
 20
56.34599948820866
 30
0.0
  0
SPLINE
  5
FB
330
1F
100
AcDbEntity
  8
0
  6
Continuous
 62
     7
370
    25
100
AcDbSpline
210
0.0
220
0.0
230
1.0
 70
    24
 71
     3
 72
    10
 73
     6
 74
     0
 42
0.000000001
 43
0.00000001
 40
0.0
 40
0.0
 40
0.0
 40
0.0
 40
0.5
 40
0.5
 40
1.0
 40
1.0
 40
1.0
 40
1.0
 10
125.8150101774442
 20
40.46886708549395
 30
0.0
 10
125.8150101774442
 20
41.50284099787302
 30
0.0
 10
125.8150101774442
 20
42.56024303713316
 30
0.0
 10
125.8150101774442
 20
44.67917009730959
 30
0.0
 10
125.8150101774442
 20
45.74543746910169
 30
0.0
 10
125.8150101774442
 20
46.81972004657983
 30
0.0
  0
SPLINE
  5
FC
330
1F
100
AcDbEntity
  8
0
  6
Continuous
 62
     7
370
    25
100
AcDbSpline
210
0.0
220
0.0
230
1.0
 70
    24
 71
     3
 72
    12
 73
     8
 74
     0
 42
0.000000001
 43
0.00000001
 40
0.0
 40
0.0
 40
0.0
 40
0.0
 40
0.25
 40
0.25
 40
0.5
 40
0.5
 40
1.0
 40
1.0
 40
1.0
 40
1.0
 10
131.3150101774442
 20
37.29344060495101
 30
0.0
 10
130.8482434526182
 20
37.56292849917806
 30
0.0
 10
130.3793827009865
 20
37.83362538034508
 30
0.0
 10
129.4518784466213
 20
38.36912021127738
 30
0.0
 10
128.9912284434174
 20
38.63507661462931
 30
0.0
 10
127.6174599604566
 20
39.428222218071
 30
0.0
 10
126.712491172927
 20
39.95070619115939
 30
0.0
 10
125.8150101774442
 20
40.46886708549396
 30
0.0
  0
SPLINE
  5
FD
330
1F
100
AcDbEntity
  8
0
  6
Continuous
 62
     7
370
    25
100
AcDbSpline
210
0.0
220
0.0
230
1.0
 70
    24
 71
     3
 72
    12
 73
     8
 74
     0
 42
0.000000001
 43
0.00000001
 40
0.0
 40
0.0
 40
0.0
 40
0.0
 40
0.2499999999999999
 40
0.2499999999999999
 40
0.4999999999999999
 40
0.4999999999999999
 40
1.0
 40
1.0
 40
1.0
 40
1.0
 10
125.8150101774442
 20
46.81972004657983
 30
0.0
 10
125.8150101774442
 20
47.35725366948478
 30
0.0
 10
125.8150101774442
 20
47.89762041331631
 30
0.0
 10
125.8150101774442
 20
48.97871219813346
 30
0.0
 10
125.8150101774442
 20
49.51353031687548
 30
0.0
 10
125.8150101774442
 20
51.10321595147225
 30
0.0
 10
125.8150101774442
 20
52.14341654211157
 30
0.0
 10
125.8150101774442
 20
53.17057300766572
 30
0.0
  0
SPLINE
  5
FE
330
1F
100
AcDbEntity
  8
0
  6
Continuous
 62
     7
370
    25
100
AcDbSpline
210
0.0
220
0.0
230
1.0
 70
    24
 71
     3
 72
    10
 73
     6
 74
     0
 42
0.000000001
 43
0.00000001
 40
0.0
 40
0.0
 40
0.0
 40
0.0
 40
0.5
 40
0.5
 40
1.0
 40
1.0
 40
1.0
 40
1.0
 10
125.8150101774442
 20
53.17057300766569
 30
0.0
 10
126.7147379323051
 20
53.69003106913202
 30
0.0
 10
127.6210376780919
 20
54.21328347132848
 30
0.0
 10
129.4525844276579
 20
55.27072748022385
 30
0.0
 10
130.3779730642205
 20
55.80500085864825
 30
0.0
 10
131.3150101774442
 20
56.34599948820866
 30
0.0
  0
INSERT
  5
10A
330
1F
100
AcDbEntity
  8
0
  6
Continuous
 62
     7
370
    18
100
AcDbBlockReference
  2
SW_CENTERMARKSYMBOL_0
 10
136.8150101774
 20
46.8197200466
 30
0.0
  0
INSERT
  5
116
330
1F
100
AcDbEntity
  8
0
  6
Continuous
 62
     7
370
    18
100
AcDbBlockReference
  2
SW_CENTERMARKSYMBOL_1
 10
136.8150101774
 20
46.8197200466
 30
0.0
  0
LINE
  5
117
330
1F
100
AcDbEntity
  8
0
  6
Continuous
 62
     7
370
    25
100
AcDbLine
 10
72.3180284713
 20
94.319929105
 30
0.0
 11
58.0144197443
 21
93.8729413323
 31
0.0
  0
LINE
  5
118
330
1F
100
AcDbEntity
  8
0
  6
Continuous
 62
     7
370
    25
100
AcDbLine
 10
58.0144197443
 20
73.2594168777
 30
0.0
 11
72.3180284713
 21
72.812429105
 31
0.0
  0
LINE
  5
119
330
1F
100
AcDbEntity
  8
0
  6
Continuous
 62
     7
370
    25
100
AcDbLine
 10
58.0144197443
 20
93.8729413323
 30
0.0
 11
55.3180284713
 21
92.316179105
 31
0.0
  0
LINE
  5
11A
330
1F
100
AcDbEntity
  8
0
  6
Continuous
 62
     7
370
    25
100
AcDbLine
 10
55.3180284713
 20
74.816179105
 30
0.0
 11
58.0144197443
 21
73.2594168777
 31
0.0
  0
LINE
  5
11B
330
1F
100
AcDbEntity
  8
0
  6
Continuous
 62
     7
370
    25
100
AcDbLine
 10
92.8180284713
 20
74.066179105
 30
0.0
 11
98.3180284713
 21
75.066179105
 31
0.0
  0
LINE
  5
11C
330
1F
100
AcDbEntity
  8
0
  6
Continuous
 62
     7
370
    25
100
AcDbLine
 10
98.3180284713
 20
92.066179105
 30
0.0
 11
92.8180284713
 21
93.066179105
 31
0.0
  0
LINE
  5
11D
330
1F
100
AcDbEntity
  8
0
  6
Continuous
 62
     7
370
    25
100
AcDbLine
 10
98.3180284713
 20
74.066179105
 30
0.0
 11
103.8180284713
 21
75.066179105
 31
0.0
  0
LINE
  5
11E
330
1F
100
AcDbEntity
  8
0
  6
Continuous
 62
     7
370
    25
100
AcDbLine
 10
103.8180284713
 20
92.066179105
 30
0.0
 11
98.3180284713
 21
93.066179105
 31
0.0
  0
LINE
  5
11F
330
1F
100
AcDbEntity
  8
0
  6
Continuous
 62
     7
370
    25
100
AcDbLine
 10
87.3180284713
 20
74.066179105
 30
0.0
 11
92.8180284713
 21
75.066179105
 31
0.0
  0
LINE
  5
120
330
1F
100
AcDbEntity
  8
0
  6
Continuous
 62
     7
370
    25
100
AcDbLine
 10
92.8180284713
 20
92.066179105
 30
0.0
 11
87.3180284713
 21
93.066179105
 31
0.0
  0
LINE
  5
121
330
1F
100
AcDbEntity
  8
0
  6
Continuous
 62
     7
370
    25
100
AcDbLine
 10
87.3180284713
 20
93.066179105
 30
0.0
 11
78.3180284713
 21
93.066179105
 31
0.0
  0
LINE
  5
122
330
1F
100
AcDbEntity
  8
0
  6
Continuous
 62
     7
370
    25
100
AcDbLine
 10
78.3180284713
 20
74.066179105
 30
0.0
 11
87.3180284713
 21
74.066179105
 31
0.0
  0
LINE
  5
123
330
1F
100
AcDbEntity
  8
0
  6
Continuous
 62
     7
370
    25
100
AcDbLine
 10
103.8180284713
 20
74.066179105
 30
0.0
 11
110.8841103313
 21
75.008323353
 31
0.0
  0
LINE
  5
124
330
1F
100
AcDbEntity
  8
0
  6
Continuous
 62
     7
370
    25
100
AcDbLine
 10
110.8841103313
 20
92.124034857
 30
0.0
 11
103.8180284713
 21
93.066179105
 31
0.0
  0
ARC
  5
125
330
1F
100
AcDbEntity
  8
0
  6
Continuous
 62
     7
370
    25
100
AcDbCircle
 10
110.8180284713
 20
75.5039373034
 30
0.0
 40
0.5000000000000059
100
AcDbArc
 50
277.5946433686
 51
0.0
  0
ARC
  5
126
330
1F
100
AcDbEntity
  8
0
  6
Continuous
 62
     7
370
    25
100
AcDbCircle
 10
110.8180284713
 20
91.6284209067
 30
0.0
 40
0.5000000000000059
100
AcDbArc
 50
0.0
 51
82.4053566314
  0
LINE
  5
127
330
1F
100
AcDbEntity
  8
0
  6
Continuous
 62
     7
370
    25
100
AcDbLine
 10
75.398413229
 20
94.566179105
 30
0.0
 11
77.3355480991
 21
94.566179105
 31
0.0
  0
SPLINE
  5
128
330
1F
100
AcDbEntity
  8
0
  6
Continuous
 62
     7
370
    25
100
AcDbSpline
210
0.0
220
0.0
230
1.0
 70
     8
 71
     3
 72
    12
 73
     8
 74
     0
 42
0.000000001
 43
0.00000001
 40
0.0
 40
0.0
 40
0.0
 40
0.0
 40
0.2500000000000001
 40
0.2500000000000001
 40
0.5000000000000001
 40
0.5000000000000001
 40
1.0
 40
1.0
 40
1.0
 40
1.0
 10
78.31802847129926
 20
89.06617910500819
 30
0.0
 10
78.31802847129926
 20
89.53294582983418
 30
0.0
 10
78.2948063169721
 20
90.00180658146591
 30
0.0
 10
78.20493916711133
 20
90.92931083583117
 30
0.0
 10
78.13838057802366
 20
91.38996083903497
 30
0.0
 10
77.88167110390197
 20
92.76372932199585
 30
0.0
 10
77.63470843087957
 20
93.6686981095254
 30
0.0
 10
77.33554809905196
 20
94.56617910500822
 30
0.0
  0
SPLINE
  5
129
330
1F
100
AcDbEntity
  8
0
  6
Continuous
 62
     7
370
    25
100
AcDbSpline
210
0.0
220
0.0
230
1.0
 70
     8
 71
     3
 72
    10
 73
     6
 74
     0
 42
0.000000001
 43
0.00000001
 40
0.0
 40
0.0
 40
0.0
 40
0.0
 40
0.5
 40
0.5
 40
1.0
 40
1.0
 40
1.0
 40
1.0
 10
77.33554809905212
 20
83.56617910500815
 30
0.0
 10
77.63545735067243
 20
84.46590685986905
 30
0.0
 10
77.88253801003836
 20
85.37220660565579
 30
0.0
 10
78.22439282407075
 20
87.2037533552219
 30
0.0
 10
78.31802847129926
 20
88.12914199178442
 30
0.0
 10
78.31802847129926
 20
89.06617910500819
 30
0.0
  0
LINE
  5
12A
330
1F
100
AcDbEntity
  8
0
  6
Continuous
 62
     7
370
    25
100
AcDbLine
 10
75.398413229
 20
83.566179105
 30
0.0
 11
77.3355480991
 21
83.566179105
 31
0.0
  0
SPLINE
  5
12B
330
1F
100
AcDbEntity
  8
0
  6
Continuous
 62
     7
370
    25
100
AcDbSpline
210
0.0
220
0.0
230
1.0
 70
     8
 71
     3
 72
     8
 73
     4
 74
     0
 42
0.000000001
 43
0.00000001
 40
0.0
 40
0.0
 40
0.0
 40
0.0
 40
1.0
 40
1.0
 40
1.0
 40
1.0
 10
75.39841322902859
 20
83.56617910500819
 30
0.0
 10
75.37058155597148
 20
83.74608586776857
 30
0.0
 10
75.34376049610545
 20
83.92607918227695
 30
0.0
 10
75.31802847129926
 20
84.10616576480206
 30
0.0
  0
SPLINE
  5
12C
330
1F
100
AcDbEntity
  8
0
  6
Continuous
 62
     7
370
    25
100
AcDbSpline
210
0.0
220
0.0
230
1.0
 70
     8
 71
     3
 72
     8
 73
     4
 74
     0
 42
0.000000001
 43
0.00000001
 40
0.0
 40
0.0
 40
0.0
 40
0.0
 40
1.0
 40
1.0
 40
1.0
 40
1.0
 10
75.31802847129926
 20
84.10616576480207
 30
0.0
 10
75.29228752146594
 20
83.92601672012536
 30
0.0
 10
75.26546597720503
 20
83.74602504430872
 30
0.0
 10
75.23764371356992
 20
83.56617910500819
 30
0.0
  0
LINE
  5
12D
330
1F
100
AcDbEntity
  8
0
  6
Continuous
 62
     7
370
    25
100
AcDbLine
 10
73.3005088435
 20
83.566179105
 30
0.0
 11
75.2376437136
 21
83.566179105
 31
0.0
  0
SPLINE
  5
12E
330
1F
100
AcDbEntity
  8
0
  6
Continuous
 62
     7
370
    25
100
AcDbSpline
210
0.0
220
0.0
230
1.0
 70
     8
 71
     3
 72
    10
 73
     6
 74
     0
 42
0.000000001
 43
0.00000001
 40
0.0
 40
0.0
 40
0.0
 40
0.0
 40
0.5
 40
0.5
 40
1.0
 40
1.0
 40
1.0
 40
1.0
 10
73.30050884354638
 20
83.56617910500815
 30
0.0
 10
73.00059959192608
 20
84.46590685986905
 30
0.0
 10
72.75351893256014
 20
85.37220660565579
 30
0.0
 10
72.41166411852775
 20
87.2037533552219
 30
0.0
 10
72.31802847129924
 20
88.12914199178442
 30
0.0
 10
72.31802847129924
 20
89.06617910500819
 30
0.0
  0
SPLINE
  5
12F
330
1F
100
AcDbEntity
  8
0
  6
Continuous
 62
     7
370
    25
100
AcDbSpline
210
0.0
220
0.0
230
1.0
 70
     8
 71
     3
 72
    12
 73
     8
 74
     0
 42
0.000000001
 43
0.00000001
 40
0.0
 40
0.0
 40
0.0
 40
0.0
 40
0.2500000000000001
 40
0.2500000000000001
 40
0.5000000000000001
 40
0.5000000000000001
 40
1.0
 40
1.0
 40
1.0
 40
1.0
 10
72.31802847129924
 20
89.06617910500819
 30
0.0
 10
72.31802847129924
 20
89.53294582983418
 30
0.0
 10
72.3412506256264
 20
90.00180658146591
 30
0.0
 10
72.43111777548717
 20
90.92931083583117
 30
0.0
 10
72.49767636457486
 20
91.38996083903497
 30
0.0
 10
72.75438583869654
 20
92.76372932199585
 30
0.0
 10
73.00134851171894
 20
93.6686981095254
 30
0.0
 10
73.30050884354654
 20
94.56617910500822
 30
0.0
  0
LINE
  5
130
330
1F
100
AcDbEntity
  8
0
  6
Continuous
 62
     7
370
    25
100
AcDbLine
 10
73.3005088435
 20
94.566179105
 30
0.0
 11
75.2376437136
 21
94.566179105
 31
0.0
  0
SPLINE
  5
131
330
1F
100
AcDbEntity
  8
0
  6
Continuous
 62
     7
370
    25
100
AcDbSpline
210
0.0
220
0.0
230
1.0
 70
     8
 71
     3
 72
     8
 73
     4
 74
     0
 42
0.000000001
 43
0.00000001
 40
0.0
 40
0.0
 40
0.0
 40
0.0
 40
1.0
 40
1.0
 40
1.0
 40
1.0
 10
75.23764371356992
 20
94.56617910500819
 30
0.0
 10
75.26547538662702
 20
94.38627234224778
 30
0.0
 10
75.29229644649307
 20
94.20627902773943
 30
0.0
 10
75.31802847129926
 20
94.0261924452143
 30
0.0
  0
SPLINE
  5
132
330
1F
100
AcDbEntity
  8
0
  6
Continuous
 62
     7
370
    25
100
AcDbSpline
210
0.0
220
0.0
230
1.0
 70
     8
 71
     3
 72
     8
 73
     4
 74
     0
 42
0.000000001
 43
0.00000001
 40
0.0
 40
0.0
 40
0.0
 40
0.0
 40
1.0
 40
1.0
 40
1.0
 40
1.0
 10
75.31802847129926
 20
94.0261924452143
 30
0.0
 10
75.34376942113256
 20
94.20634148989102
 30
0.0
 10
75.37059096539348
 20
94.38633316570764
 30
0.0
 10
75.39841322902859
 20
94.56617910500819
 30
0.0
  0
SPLINE
  5
133
330
1F
100
AcDbEntity
  8
0
  6
Continuous
 62
     7
370
    25
100
AcDbSpline
210
0.0
220
0.0
230
1.0
 70
     8
 71
     3
 72
    12
 73
     8
 74
     0
 42
0.000000001
 43
0.00000001
 40
0.0
 40
0.0
 40
0.0
 40
0.0
 40
0.2500000000000002
 40
0.2500000000000002
 40
0.5000000000000001
 40
0.5000000000000001
 40
1.0
 40
1.0
 40
1.0
 40
1.0
 10
78.31802847129926
 20
78.06617910500819
 30
0.0
 10
78.31802847129926
 20
78.53294582983418
 30
0.0
 10
78.2948063169721
 20
79.00180658146591
 30
0.0
 10
78.20493916711133
 20
79.92931083583116
 30
0.0
 10
78.13838057802366
 20
80.38996083903497
 30
0.0
 10
77.88167110390197
 20
81.76372932199585
 30
0.0
 10
77.63470843087957
 20
82.66869810952541
 30
0.0
 10
77.33554809905196
 20
83.56617910500822
 30
0.0
  0
LINE
  5
134
330
1F
100
AcDbEntity
  8
0
  6
Continuous
 62
     7
370
    25
100
AcDbLine
 10
78.3180284713
 20
89.066179105
 30
0.0
 11
78.3180284713
 21
78.066179105
 31
0.0
  0
LINE
  5
135
330
1F
100
AcDbEntity
  8
0
  6
Continuous
 62
     7
370
    25
100
AcDbLine
 10
72.3180284713
 20
78.066179105
 30
0.0
 11
72.3180284713
 21
89.066179105
 31
0.0
  0
SPLINE
  5
136
330
1F
100
AcDbEntity
  8
0
  6
Continuous
 62
     7
370
    25
100
AcDbSpline
210
0.0
220
0.0
230
1.0
 70
     8
 71
     3
 72
    12
 73
     8
 74
     0
 42
0.000000001
 43
0.00000001
 40
0.0
 40
0.0
 40
0.0
 40
0.0
 40
0.2500000000000002
 40
0.2500000000000002
 40
0.5000000000000001
 40
0.5000000000000001
 40
1.0
 40
1.0
 40
1.0
 40
1.0
 10
72.31802847129924
 20
78.06617910500819
 30
0.0
 10
72.31802847129924
 20
78.53294582983418
 30
0.0
 10
72.3412506256264
 20
79.00180658146591
 30
0.0
 10
72.43111777548717
 20
79.92931083583116
 30
0.0
 10
72.49767636457486
 20
80.38996083903497
 30
0.0
 10
72.75438583869654
 20
81.76372932199585
 30
0.0
 10
73.00134851171894
 20
82.66869810952541
 30
0.0
 10
73.30050884354654
 20
83.56617910500822
 30
0.0
  0
LINE
  5
137
330
1F
100
AcDbEntity
  8
0
  6
Continuous
 62
     7
370
    25
100
AcDbLine
 10
75.3180284713
 20
83.0261924452
 30
0.0
 11
75.3180284713
 21
84.1061657648
 31
0.0
  0
SPLINE
  5
138
330
1F
100
AcDbEntity
  8
0
  6
Continuous
 62
     7
370
    25
100
AcDbSpline
210
0.0
220
0.0
230
1.0
 70
     8
 71
     3
 72
     8
 73
     4
 74
     0
 42
0.000000001
 43
0.00000001
 40
0.0
 40
0.0
 40
0.0
 40
0.0
 40
1.0
 40
1.0
 40
1.0
 40
1.0
 10
75.23764371356992
 20
83.56617910500819
 30
0.0
 10
75.26547538662702
 20
83.38627234224778
 30
0.0
 10
75.29229644649307
 20
83.20627902773941
 30
0.0
 10
75.31802847129926
 20
83.0261924452143
 30
0.0
  0
SPLINE
  5
139
330
1F
100
AcDbEntity
  8
0
  6
Continuous
 62
     7
370
    25
100
AcDbSpline
210
0.0
220
0.0
230
1.0
 70
     8
 71
     3
 72
     8
 73
     4
 74
     0
 42
0.000000001
 43
0.00000001
 40
0.0
 40
0.0
 40
0.0
 40
0.0
 40
1.0
 40
1.0
 40
1.0
 40
1.0
 10
75.31802847129926
 20
83.0261924452143
 30
0.0
 10
75.34376942113256
 20
83.20634148989102
 30
0.0
 10
75.37059096539348
 20
83.38633316570765
 30
0.0
 10
75.39841322902859
 20
83.56617910500819
 30
0.0
  0
SPLINE
  5
13A
330
1F
100
AcDbEntity
  8
0
  6
Continuous
 62
     7
370
    25
100
AcDbSpline
210
0.0
220
0.0
230
1.0
 70
     8
 71
     3
 72
    10
 73
     6
 74
     0
 42
0.000000001
 43
0.00000001
 40
0.0
 40
0.0
 40
0.0
 40
0.0
 40
0.5
 40
0.5
 40
1.0
 40
1.0
 40
1.0
 40
1.0
 10
77.33554809905212
 20
72.56617910500815
 30
0.0
 10
77.63545735067243
 20
73.46590685986905
 30
0.0
 10
77.88253801003836
 20
74.37220660565579
 30
0.0
 10
78.22439282407075
 20
76.2037533552219
 30
0.0
 10
78.31802847129926
 20
77.12914199178444
 30
0.0
 10
78.31802847129926
 20
78.06617910500819
 30
0.0
  0
LINE
  5
13B
330
1F
100
AcDbEntity
  8
0
  6
Continuous
 62
     7
370
    25
100
AcDbLine
 10
75.398413229
 20
72.566179105
 30
0.0
 11
77.3355480991
 21
72.566179105
 31
0.0
  0
SPLINE
  5
13C
330
1F
100
AcDbEntity
  8
0
  6
Continuous
 62
     7
370
    25
100
AcDbSpline
210
0.0
220
0.0
230
1.0
 70
     8
 71
     3
 72
     8
 73
     4
 74
     0
 42
0.000000001
 43
0.00000001
 40
0.0
 40
0.0
 40
0.0
 40
0.0
 40
1.0
 40
1.0
 40
1.0
 40
1.0
 10
75.39841322902859
 20
72.56617910500819
 30
0.0
 10
75.37058155597148
 20
72.74608586776858
 30
0.0
 10
75.34376049610545
 20
72.92607918227695
 30
0.0
 10
75.31802847129926
 20
73.10616576480206
 30
0.0
  0
SPLINE
  5
13D
330
1F
100
AcDbEntity
  8
0
  6
Continuous
 62
     7
370
    25
100
AcDbSpline
210
0.0
220
0.0
230
1.0
 70
     8
 71
     3
 72
     8
 73
     4
 74
     0
 42
0.000000001
 43
0.00000001
 40
0.0
 40
0.0
 40
0.0
 40
0.0
 40
1.0
 40
1.0
 40
1.0
 40
1.0
 10
75.31802847129926
 20
73.10616576480207
 30
0.0
 10
75.29228752146594
 20
72.92601672012536
 30
0.0
 10
75.26546597720503
 20
72.74602504430872
 30
0.0
 10
75.23764371356992
 20
72.56617910500819
 30
0.0
  0
LINE
  5
13E
330
1F
100
AcDbEntity
  8
0
  6
Continuous
 62
     7
370
    25
100
AcDbLine
 10
73.3005088435
 20
72.566179105
 30
0.0
 11
75.2376437136
 21
72.566179105
 31
0.0
  0
SPLINE
  5
13F
330
1F
100
AcDbEntity
  8
0
  6
Continuous
 62
     7
370
    25
100
AcDbSpline
210
0.0
220
0.0
230
1.0
 70
     8
 71
     3
 72
    10
 73
     6
 74
     0
 42
0.000000001
 43
0.00000001
 40
0.0
 40
0.0
 40
0.0
 40
0.0
 40
0.5
 40
0.5
 40
1.0
 40
1.0
 40
1.0
 40
1.0
 10
73.30050884354638
 20
72.56617910500815
 30
0.0
 10
73.00059959192608
 20
73.46590685986905
 30
0.0
 10
72.75351893256014
 20
74.37220660565579
 30
0.0
 10
72.41166411852775
 20
76.2037533552219
 30
0.0
 10
72.31802847129924
 20
77.12914199178444
 30
0.0
 10
72.31802847129924
 20
78.06617910500819
 30
0.0
  0
LINE
  5
140
330
1F
100
AcDbEntity
  8
0
  6
Continuous
 62
     7
370
    25
100
AcDbLine
 10
58.0144197443
 20
83.566179105
 30
0.0
 11
58.0144197443
 21
73.2594168777
 31
0.0
  0
LINE
  5
141
330
1F
100
AcDbEntity
  8
0
  6
Continuous
 62
     7
370
    25
100
AcDbLine
 10
58.0144197443
 20
93.8729413323
 30
0.0
 11
58.0144197443
 21
83.566179105
 31
0.0
  0
LINE
  5
142
330
1F
100
AcDbEntity
  8
0
  6
Continuous
 62
     7
370
    25
100
AcDbLine
 10
55.3180284713
 20
74.816179105
 30
0.0
 11
55.3180284713
 21
92.316179105
 31
0.0
  0
SPLINE
  5
143
330
1F
100
AcDbEntity
  8
0
  6
Continuous
 62
     7
370
    25
100
AcDbSpline
210
0.0
220
0.0
230
1.0
 70
    24
 71
     3
 72
    12
 73
     8
 74
     0
 42
0.000000001
 43
0.00000001
 40
0.0
 40
0.0
 40
0.0
 40
0.0
 40
0.25
 40
0.25
 40
0.5
 40
0.5
 40
1.0
 40
1.0
 40
1.0
 40
1.0
 10
72.31802847129926
 20
94.56617910500819
 30
0.0
 10
72.31802847129926
 20
94.56617910500819
 30
0.0
 10
72.34097266585722
 20
94.56617910500819
 30
0.0
 10
72.43182936673037
 20
94.56617910500819
 30
0.0
 10
72.49909797916033
 20
94.56617910500819
 30
0.0
 10
72.75721762500267
 20
94.56617910500819
 30
0.0
 10
73.00399431260291
 20
94.56617910500819
 30
0.0
 10
73.3005088435467
 20
94.56617910500819
 30
0.0
  0
LINE
  5
144
330
1F
100
AcDbEntity
  8
0
  6
Continuous
 62
     7
370
    25
100
AcDbLine
 10
72.3180284713
 20
94.566179105
 30
0.0
 11
72.3180284713
 21
89.066179105
 31
0.0
  0
SPLINE
  5
145
330
1F
100
AcDbEntity
  8
0
  6
Continuous
 62
     7
370
    25
100
AcDbSpline
210
0.0
220
0.0
230
1.0
 70
    24
 71
     3
 72
    12
 73
     8
 74
     0
 42
0.000000001
 43
0.00000001
 40
0.0
 40
0.0
 40
0.0
 40
0.0
 40
0.25
 40
0.25
 40
0.5
 40
0.5
 40
1.0
 40
1.0
 40
1.0
 40
1.0
 10
78.31802847129924
 20
94.56617910500819
 30
0.0
 10
78.31802847129924
 20
94.56617910500819
 30
0.0
 10
78.29508427674128
 20
94.56617910500819
 30
0.0
 10
78.20422757586813
 20
94.56617910500819
 30
0.0
 10
78.13695896343819
 20
94.56617910500819
 30
0.0
 10
77.87883931759583
 20
94.56617910500819
 30
0.0
 10
77.63206262999559
 20
94.56617910500819
 30
0.0
 10
77.33554809905179
 20
94.56617910500819
 30
0.0
  0
LINE
  5
146
330
1F
100
AcDbEntity
  8
0
  6
Continuous
 62
     7
370
    25
100
AcDbLine
 10
78.3180284713
 20
94.566179105
 30
0.0
 11
78.3180284713
 21
89.066179105
 31
0.0
  0
SPLINE
  5
147
330
1F
100
AcDbEntity
  8
0
  6
Continuous
 62
     7
370
    25
100
AcDbSpline
210
0.0
220
0.0
230
1.0
 70
    24
 71
     3
 72
    12
 73
     8
 74
     0
 42
0.000000001
 43
0.00000001
 40
0.0
 40
0.0
 40
0.0
 40
0.0
 40
0.2499999999999999
 40
0.2499999999999999
 40
0.4999999999999999
 40
0.4999999999999999
 40
1.0
 40
1.0
 40
1.0
 40
1.0
 10
78.31802847129924
 20
72.56617910500819
 30
0.0
 10
78.31802847129924
 20
72.56617910500819
 30
0.0
 10
78.29508427674128
 20
72.56617910500819
 30
0.0
 10
78.20422757586813
 20
72.56617910500819
 30
0.0
 10
78.13695896343819
 20
72.56617910500819
 30
0.0
 10
77.87883931759583
 20
72.56617910500819
 30
0.0
 10
77.63206262999559
 20
72.56617910500819
 30
0.0
 10
77.33554809905179
 20
72.56617910500819
 30
0.0
  0
LINE
  5
148
330
1F
100
AcDbEntity
  8
0
  6
Continuous
 62
     7
370
    25
100
AcDbLine
 10
78.3180284713
 20
78.066179105
 30
0.0
 11
78.3180284713
 21
72.566179105
 31
0.0
  0
SPLINE
  5
149
330
1F
100
AcDbEntity
  8
0
  6
Continuous
 62
     7
370
    25
100
AcDbSpline
210
0.0
220
0.0
230
1.0
 70
    24
 71
     3
 72
    12
 73
     8
 74
     0
 42
0.000000001
 43
0.00000001
 40
0.0
 40
0.0
 40
0.0
 40
0.0
 40
0.2499999999999999
 40
0.2499999999999999
 40
0.4999999999999999
 40
0.4999999999999999
 40
1.0
 40
1.0
 40
1.0
 40
1.0
 10
72.31802847129926
 20
72.56617910500819
 30
0.0
 10
72.31802847129926
 20
72.56617910500819
 30
0.0
 10
72.34097266585722
 20
72.56617910500819
 30
0.0
 10
72.43182936673037
 20
72.56617910500819
 30
0.0
 10
72.49909797916033
 20
72.56617910500819
 30
0.0
 10
72.75721762500267
 20
72.56617910500819
 30
0.0
 10
73.00399431260291
 20
72.56617910500819
 30
0.0
 10
73.3005088435467
 20
72.56617910500819
 30
0.0
  0
LINE
  5
14A
330
1F
100
AcDbEntity
  8
0
  6
Continuous
 62
     7
370
    25
100
AcDbLine
 10
72.3180284713
 20
72.566179105
 30
0.0
 11
72.3180284713
 21
78.066179105
 31
0.0
  0
LINE
  5
14B
330
1F
100
AcDbEntity
  8
0
  6
Continuous
 62
     7
370
    25
100
AcDbLine
 10
92.8180284713
 20
83.566179105
 30
0.0
 11
92.8180284713
 21
74.066179105
 31
0.0
  0
LINE
  5
14C
330
1F
100
AcDbEntity
  8
0
  6
Continuous
 62
     7
370
    25
100
AcDbLine
 10
92.8180284713
 20
93.066179105
 30
0.0
 11
92.8180284713
 21
83.566179105
 31
0.0
  0
LINE
  5
14D
330
1F
100
AcDbEntity
  8
0
  6
Continuous
 62
     7
370
    25
100
AcDbLine
 10
98.3180284713
 20
83.566179105
 30
0.0
 11
98.3180284713
 21
74.066179105
 31
0.0
  0
LINE
  5
14E
330
1F
100
AcDbEntity
  8
0
  6
Continuous
 62
     7
370
    25
100
AcDbLine
 10
98.3180284713
 20
93.066179105
 30
0.0
 11
98.3180284713
 21
83.566179105
 31
0.0
  0
LINE
  5
14F
330
1F
100
AcDbEntity
  8
0
  6
Continuous
 62
     7
370
    25
100
AcDbLine
 10
87.3180284713
 20
83.566179105
 30
0.0
 11
87.3180284713
 21
74.066179105
 31
0.0
  0
LINE
  5
150
330
1F
100
AcDbEntity
  8
0
  6
Continuous
 62
     7
370
    25
100
AcDbLine
 10
87.3180284713
 20
93.066179105
 30
0.0
 11
87.3180284713
 21
83.566179105
 31
0.0
  0
LINE
  5
151
330
1F
100
AcDbEntity
  8
0
  6
Continuous
 62
     7
370
    25
100
AcDbLine
 10
103.8180284713
 20
83.566179105
 30
0.0
 11
103.8180284713
 21
74.066179105
 31
0.0
  0
LINE
  5
152
330
1F
100
AcDbEntity
  8
0
  6
Continuous
 62
     7
370
    25
100
AcDbLine
 10
103.8180284713
 20
93.066179105
 30
0.0
 11
103.8180284713
 21
83.566179105
 31
0.0
  0
LINE
  5
153
330
1F
100
AcDbEntity
  8
0
  6
Continuous
 62
     7
370
    25
100
AcDbLine
 10
111.3180284713
 20
91.6284209067
 30
0.0
 11
111.3180284713
 21
75.5039373034
 31
0.0
  0
SPLINE
  5
154
330
1F
100
AcDbEntity
  8
0
  6
Continuous
 62
     7
370
    25
100
AcDbSpline
210
0.0
220
0.0
230
1.0
 70
    24
 71
     3
 72
     8
 73
     4
 74
     0
 42
0.000000001
 43
0.00000001
 40
0.0
 40
0.0
 40
0.0
 40
0.0
 40
1.0
 40
1.0
 40
1.0
 40
1.0
 10
75.31802847129926
 20
94.56617910500819
 30
0.0
 10
75.29228798072964
 20
94.56617910500819
 30
0.0
 10
75.26546646108022
 20
94.56617910500819
 30
0.0
 10
75.23764371356992
 20
94.56617910500819
 30
0.0
  0
LINE
  5
155
330
1F
100
AcDbEntity
  8
0
  6
Continuous
 62
     7
370
    25
100
AcDbLine
 10
75.3180284713
 20
94.0261924452
 30
0.0
 11
75.3180284713
 21
94.566179105
 31
0.0
  0
SPLINE
  5
156
330
1F
100
AcDbEntity
  8
0
  6
Continuous
 62
     7
370
    25
100
AcDbSpline
210
0.0
220
0.0
230
1.0
 70
    24
 71
     3
 72
     8
 73
     4
 74
     0
 42
0.000000001
 43
0.00000001
 40
0.0
 40
0.0
 40
0.0
 40
0.0
 40
1.0
 40
1.0
 40
1.0
 40
1.0
 10
75.39841322902859
 20
94.56617910500819
 30
0.0
 10
75.37058017547268
 20
94.56617910500819
 30
0.0
 10
75.34375918770239
 20
94.56617910500819
 30
0.0
 10
75.31802847129926
 20
94.56617910500819
 30
0.0
  0
LINE
  5
157
330
1F
100
AcDbEntity
  8
0
  6
Continuous
 62
     7
370
    25
100
AcDbLine
 10
75.3180284713
 20
72.566179105
 30
0.0
 11
75.3180284713
 21
73.1061657648
 31
0.0
  0
SPLINE
  5
158
330
1F
100
AcDbEntity
  8
0
  6
Continuous
 62
     7
370
    25
100
AcDbSpline
210
0.0
220
0.0
230
1.0
 70
    24
 71
     3
 72
     8
 73
     4
 74
     0
 42
0.000000001
 43
0.00000001
 40
0.0
 40
0.0
 40
0.0
 40
0.0
 40
1.0
 40
1.0
 40
1.0
 40
1.0
 10
75.23764371356992
 20
72.56617910500819
 30
0.0
 10
75.26547676712582
 20
72.56617910500819
 30
0.0
 10
75.29229775489611
 20
72.56617910500819
 30
0.0
 10
75.31802847129926
 20
72.56617910500819
 30
0.0
  0
SPLINE
  5
159
330
1F
100
AcDbEntity
  8
0
  6
Continuous
 62
     7
370
    25
100
AcDbSpline
210
0.0
220
0.0
230
1.0
 70
    24
 71
     3
 72
     8
 73
     4
 74
     0
 42
0.000000001
 43
0.00000001
 40
0.0
 40
0.0
 40
0.0
 40
0.0
 40
1.0
 40
1.0
 40
1.0
 40
1.0
 10
75.31802847129926
 20
72.56617910500819
 30
0.0
 10
75.34376896186886
 20
72.56617910500819
 30
0.0
 10
75.37059048151829
 20
72.56617910500819
 30
0.0
 10
75.39841322902859
 20
72.56617910500819
 30
0.0
  0
LINE
  5
15A
330
1F
100
AcDbEntity
  8
0
  6
Continuous
 62
     8
370
    25
100
AcDbLine
 10
110.8841103313
 20
83.566179105
 30
0.0
 11
110.8841103313
 21
92.124034857
 31
0.0
  0
LINE
  5
15B
330
1F
100
AcDbEntity
  8
0
  6
Continuous
 62
     8
370
    25
100
AcDbLine
 10
110.8841103313
 20
75.008323353
 30
0.0
 11
110.8841103313
 21
83.566179105
 31
0.0
  0
LINE
  5
15C
330
1F
100
AcDbEntity
  8
0
  6
Continuous
 62
     7
370
    18
100
AcDbLine
 10
56.1992545023
 20
92.8249551912
 30
0.0
 11
71.8180284713
 21
93.3130418777
 31
0.0
  0
LINE
  5
15D
330
1F
100
AcDbEntity
  8
0
  6
Continuous
 62
     7
370
    18
100
AcDbLine
 10
56.1992545023
 20
74.3074030188
 30
0.0
 11
71.8180284713
 21
73.8193163323
 31
0.0
  0
LINE
  5
15E
330
1F
100
AcDbEntity
  8
0
  6
Continuous
 62
     7
370
    18
100
AcDbLine
 10
71.8180284713
 20
72.828054105
 30
0.0
 11
71.8180284713
 21
94.304304105
 31
0.0
  0
LINE
  5
15F
330
1F
100
AcDbEntity
  8
0
  6
CENTERX2
 62
     7
370
    18
100
AcDbLine
 10
112.3180284713
 20
83.566179105
 30
0.0
 11
54.2139953709
 21
83.566179105
 31
0.0
  0
ENDSEC
  0
SECTION
  2
OBJECTS
  0
DICTIONARY
  5
C
330
0
100
AcDbDictionary
281
     1
  3
ACAD_GROUP
350
D
  3
ACAD_LAYOUT
350
1A
  3
ACAD_MLINESTYLE
350
17
  3
ACAD_PLOTSETTINGS
350
19
  3
ACAD_PLOTSTYLENAME
350
E
  3
ACAD_SCALELIST
350
47
  0
DICTIONARY
  5
D
102
{ACAD_REACTORS
330
C
102
}
330
C
100
AcDbDictionary
281
     1
  0
DICTIONARY
  5
1A
102
{ACAD_REACTORS
330
C
102
}
330
C
100
AcDbDictionary
281
     1
  3
Layout1
350
1E
  3
Layout2
350
26
  3
Model
350
22
  0
DICTIONARY
  5
17
102
{ACAD_REACTORS
330
C
102
}
330
C
100
AcDbDictionary
281
     1
  3
Standard
350
18
  0
DICTIONARY
  5
19
102
{ACAD_REACTORS
330
C
102
}
330
C
100
AcDbDictionary
281
     1
  0
ACDBDICTIONARYWDFLT
  5
E
102
{ACAD_REACTORS
330
C
102
}
330
C
100
AcDbDictionary
281
     1
  3
Normal
350
F
100
AcDbDictionaryWithDefault
340
F
  0
DICTIONARY
  5
47
102
{ACAD_REACTORS
330
C
102
}
330
C
100
AcDbDictionary
281
     1
  3
A0
350
48
  3
A1
350
49
  3
A2
350
4A
  3
A3
350
4B
  3
A4
350
4C
  3
A5
350
4D
  3
A6
350
4E
  3
A7
350
4F
  3
A8
350
50
  3
A9
350
51
  3
B0
350
52
  3
B1
350
53
  3
B2
350
54
  3
B3
350
55
  3
B4
350
56
  3
B5
350
57
  3
B6
350
58
  3
B7
350
59
  3
B8
350
5A
  3
B9
350
5B
  3
C0
350
5C
  3
C1
350
5D
  3
C2
350
5E
  3
C3
350
5F
  3
C4
350
60
  3
C5
350
61
  3
C6
350
62
  3
C7
350
63
  3
C8
350
64
  3
C9
350
65
  3
D0
350
66
  3
D1
350
67
  3
D2
350
68
  0
LAYOUT
  5
1E
102
{ACAD_REACTORS
330
1A
102
}
330
1A
100
AcDbPlotSettings
  1

  2
none_device
  4

  6

 40
0.0
 41
0.0
 42
0.0
 43
0.0
 44
0.0
 45
0.0
 46
0.0
 47
0.0
 48
0.0
 49
0.0
140
0.0
141
0.0
142
1.0
143
1.0
 70
   688
 72
     1
 73
     0
 74
     5
  7

 75
    16
147
1.0
148
0.0
149
0.0
100
AcDbLayout
  1
Layout1
 70
     1
 71
     1
 10
0.0
 20
0.0
 11
420.0
 21
297.0
 12
0.0
 22
0.0
 32
0.0
 14
1.0000000000E+20
 24
1.0000000000E+20
 34
1.0000000000E+20
 15
-1.0000000000E+20
 25
-1.0000000000E+20
 35
-1.0000000000E+20
146
0.0
 13
0.0
 23
0.0
 33
0.0
 16
1.0
 26
0.0
 36
0.0
 17
0.0
 27
1.0
 37
0.0
 76
     0
330
1B
  0
LAYOUT
  5
26
102
{ACAD_REACTORS
330
1A
102
}
330
1A
100
AcDbPlotSettings
  1

  2
none_device
  4

  6

 40
0.0
 41
0.0
 42
0.0
 43
0.0
 44
0.0
 45
0.0
 46
0.0
 47
0.0
 48
0.0
 49
0.0
140
0.0
141
0.0
142
1.0
143
1.0
 70
   688
 72
     1
 73
     0
 74
     5
  7

 75
    16
147
1.0
148
0.0
149
0.0
100
AcDbLayout
  1
Layout2
 70
     1
 71
     2
 10
0.0
 20
0.0
 11
0.0
 21
0.0
 12
0.0
 22
0.0
 32
0.0
 14
0.0
 24
0.0
 34
0.0
 15
0.0
 25
0.0
 35
0.0
146
0.0
 13
0.0
 23
0.0
 33
0.0
 16
1.0
 26
0.0
 36
0.0
 17
0.0
 27
1.0
 37
0.0
 76
     0
330
23
  0
LAYOUT
  5
22
102
{ACAD_REACTORS
330
1A
102
}
330
1A
100
AcDbPlotSettings
  1

  2
none_device
  4
Letter_(8.50_x_11.00_Inches)
  6

 40
6.35
 41
6.35
 42
6.35000508
 43
6.35000508
 44
215.9
 45
279.4
 46
0.0
 47
0.0
 48
0.0
 49
0.0
140
0.0
141
0.0
142
1.0
143
1.0
 70
  1712
 72
     1
 73
     0
 74
     0
  7

 75
     0
147
1.0
148
0.0
149
0.0
100
AcDbLayout
  1
Model
 70
     1
 71
     0
 10
0.0
 20
0.0
 11
215.9
 21
139.7
 12
0.0
 22
0.0
 32
0.0
 14
0.0
 24
0.0
 34
0.0
 15
215.9
 25
139.7
 35
0.0
146
0.0
 13
0.0
 23
0.0
 33
0.0
 16
1.0
 26
0.0
 36
0.0
 17
0.0
 27
1.0
 37
0.0
 76
     0
330
1F
331
29
  0
MLINESTYLE
  5
18
102
{ACAD_REACTORS
330
17
102
}
330
17
100
AcDbMlineStyle
  2
Standard
 70
     0
  3

 62
   256
 51
90.0
 52
90.0
 71
     2
 49
0.5
 62
   256
  6
BYLAYER
 49
-0.5
 62
   256
  6
BYLAYER
  0
ACDBPLACEHOLDER
  5
F
102
{ACAD_REACTORS
330
E
102
}
330
E
  0
SCALE
  5
48
102
{ACAD_REACTORS
330
47
102
}
330
47
100
AcDbScale
 70
     0
300
1:1
140
1.0
141
1.0
290
     1
  0
SCALE
  5
49
102
{ACAD_REACTORS
330
47
102
}
330
47
100
AcDbScale
 70
     0
300
1:2
140
1.0
141
2.0
290
     0
  0
SCALE
  5
4A
102
{ACAD_REACTORS
330
47
102
}
330
47
100
AcDbScale
 70
     0
300
1:4
140
1.0
141
4.0
290
     0
  0
SCALE
  5
4B
102
{ACAD_REACTORS
330
47
102
}
330
47
100
AcDbScale
 70
     0
300
1:5
140
1.0
141
5.0
290
     0
  0
SCALE
  5
4C
102
{ACAD_REACTORS
330
47
102
}
330
47
100
AcDbScale
 70
     0
300
1:8
140
1.0
141
8.0
290
     0
  0
SCALE
  5
4D
102
{ACAD_REACTORS
330
47
102
}
330
47
100
AcDbScale
 70
     0
300
1:10
140
1.0
141
10.0
290
     0
  0
SCALE
  5
4E
102
{ACAD_REACTORS
330
47
102
}
330
47
100
AcDbScale
 70
     0
300
1:16
140
1.0
141
16.0
290
     0
  0
SCALE
  5
4F
102
{ACAD_REACTORS
330
47
102
}
330
47
100
AcDbScale
 70
     0
300
1:20
140
1.0
141
20.0
290
     0
  0
SCALE
  5
50
102
{ACAD_REACTORS
330
47
102
}
330
47
100
AcDbScale
 70
     0
300
1:30
140
1.0
141
30.0
290
     0
  0
SCALE
  5
51
102
{ACAD_REACTORS
330
47
102
}
330
47
100
AcDbScale
 70
     0
300
1:40
140
1.0
141
40.0
290
     0
  0
SCALE
  5
52
102
{ACAD_REACTORS
330
47
102
}
330
47
100
AcDbScale
 70
     0
300
1:50
140
1.0
141
50.0
290
     0
  0
SCALE
  5
53
102
{ACAD_REACTORS
330
47
102
}
330
47
100
AcDbScale
 70
     0
300
1:100
140
1.0
141
100.0
290
     0
  0
SCALE
  5
54
102
{ACAD_REACTORS
330
47
102
}
330
47
100
AcDbScale
 70
     0
300
2:1
140
2.0
141
1.0
290
     0
  0
SCALE
  5
55
102
{ACAD_REACTORS
330
47
102
}
330
47
100
AcDbScale
 70
     0
300
4:1
140
4.0
141
1.0
290
     0
  0
SCALE
  5
56
102
{ACAD_REACTORS
330
47
102
}
330
47
100
AcDbScale
 70
     0
300
8:1
140
8.0
141
1.0
290
     0
  0
SCALE
  5
57
102
{ACAD_REACTORS
330
47
102
}
330
47
100
AcDbScale
 70
     0
300
10:1
140
10.0
141
1.0
290
     0
  0
SCALE
  5
58
102
{ACAD_REACTORS
330
47
102
}
330
47
100
AcDbScale
 70
     0
300
100:1
140
100.0
141
1.0
290
     0
  0
SCALE
  5
59
102
{ACAD_REACTORS
330
47
102
}
330
47
100
AcDbScale
 70
     0
300
1/128" = 1'-0"
140
0.0078125
141
12.0
290
     0
  0
SCALE
  5
5A
102
{ACAD_REACTORS
330
47
102
}
330
47
100
AcDbScale
 70
     0
300
1/64" = 1'-0"
140
0.015625
141
12.0
290
     0
  0
SCALE
  5
5B
102
{ACAD_REACTORS
330
47
102
}
330
47
100
AcDbScale
 70
     0
300
1/32" = 1'-0"
140
0.03125
141
12.0
290
     0
  0
SCALE
  5
5C
102
{ACAD_REACTORS
330
47
102
}
330
47
100
AcDbScale
 70
     0
300
1/16" = 1'-0"
140
0.0625
141
12.0
290
     0
  0
SCALE
  5
5D
102
{ACAD_REACTORS
330
47
102
}
330
47
100
AcDbScale
 70
     0
300
3/32" = 1'-0"
140
0.09375
141
12.0
290
     0
  0
SCALE
  5
5E
102
{ACAD_REACTORS
330
47
102
}
330
47
100
AcDbScale
 70
     0
300
1/8" = 1'-0"
140
0.125
141
12.0
290
     0
  0
SCALE
  5
5F
102
{ACAD_REACTORS
330
47
102
}
330
47
100
AcDbScale
 70
     0
300
3/16" = 1'-0"
140
0.1875
141
12.0
290
     0
  0
SCALE
  5
60
102
{ACAD_REACTORS
330
47
102
}
330
47
100
AcDbScale
 70
     0
300
1/4" = 1'-0"
140
0.25
141
12.0
290
     0
  0
SCALE
  5
61
102
{ACAD_REACTORS
330
47
102
}
330
47
100
AcDbScale
 70
     0
300
3/8" = 1'-0"
140
0.375
141
12.0
290
     0
  0
SCALE
  5
62
102
{ACAD_REACTORS
330
47
102
}
330
47
100
AcDbScale
 70
     0
300
1/2" = 1'-0"
140
0.5
141
12.0
290
     0
  0
SCALE
  5
63
102
{ACAD_REACTORS
330
47
102
}
330
47
100
AcDbScale
 70
     0
300
3/4" = 1'-0"
140
0.75
141
12.0
290
     0
  0
SCALE
  5
64
102
{ACAD_REACTORS
330
47
102
}
330
47
100
AcDbScale
 70
     0
300
1" = 1'-0"
140
1.0
141
12.0
290
     0
  0
SCALE
  5
65
102
{ACAD_REACTORS
330
47
102
}
330
47
100
AcDbScale
 70
     0
300
1-1/2" = 1'-0"
140
1.5
141
12.0
290
     0
  0
SCALE
  5
66
102
{ACAD_REACTORS
330
47
102
}
330
47
100
AcDbScale
 70
     0
300
3" = 1'-0"
140
3.0
141
12.0
290
     0
  0
SCALE
  5
67
102
{ACAD_REACTORS
330
47
102
}
330
47
100
AcDbScale
 70
     0
300
6" = 1'-0"
140
6.0
141
12.0
290
     0
  0
SCALE
  5
68
102
{ACAD_REACTORS
330
47
102
}
330
47
100
AcDbScale
 70
     0
300
1'-0" = 1'-0"
140
12.0
141
12.0
290
     0
  0
ENDSEC
  0
EOF
