  0
SECTION
  2
HEADER
  9
$ACADVER
  1
AC1015
  9
$ACADMAINTVER
 70
     6
  9
$DWGCODEPAGE
  3
DOS932
  9
$INSBASE
 10
0.0
 20
0.0
 30
0.0
  9
$EXTMIN
 10
0.0
 20
0.0
 30
0.0
  9
$EXTMAX
 10
215.9
 20
139.7
 30
0.0
  9
$LIMMIN
 10
0.0
 20
0.0
  9
$LIMMAX
 10
215.9
 20
139.7
  9
$ORTHOMODE
 70
     0
  9
$REGENMODE
 70
     1
  9
$FILLMODE
 70
     1
  9
$QTEXTMODE
 70
     0
  9
$MIRRTEXT
 70
     1
  9
$LTSCALE
 40
0.5
  9
$ATTMODE
 70
     1
  9
$TEXTSIZE
 40
1.75
  9
$TRACEWID
 40
1.0
  9
$TEXTSTYLE
  7
Standard
  9
$CLAYER
  8
0
  9
$CELTYPE
  6
ByLayer
  9
$CECOLOR
 62
   256
  9
$CELTSCALE
 40
1.0
  9
$DISPSILH
 70
     0
  9
$DIMSCALE
 40
1.0
  9
$DIMASZ
 40
1.651
  9
$DIMEXO
 40
0.5
  9
$DIMDLI
 40
3.75
  9
$DIMRND
 40
0.0
  9
$DIMDLE
 40
0.0
  9
$DIMEXE
 40
0.5
  9
$DIMTP
 40
0.0
  9
$DIMTM
 40
0.0
  9
$DIMTXT
 40
1.75
  9
$DIMCEN
 40
2.5
  9
$DIMTSZ
 40
0.0
  9
$DIMTOL
 70
     0
  9
$DIMLIM
 70
     0
  9
$DIMTIH
 70
     1
  9
$DIMTOH
 70
     1
  9
$DIMSE1
 70
     0
  9
$DIMSE2
 70
     0
  9
$DIMTAD
 70
     1
  9
$DIMZIN
 70
     1
  9
$DIMBLK
  1

  9
$DIMASO
 70
     1
  9
$DIMSHO
 70
     1
  9
$DIMPOST
  1

  9
$DIMAPOST
  1

  9
$DIMALT
 70
     0
  9
$DIMALTD
 70
     3
  9
$DIMALTF
 40
0.0393700787
  9
$DIMLFAC
 40
1.0
  9
$DIMTOFL
 70
     1
  9
$DIMTVP
 40
0.0
  9
$DIMTIX
 70
     0
  9
$DIMSOXD
 70
     0
  9
$DIMSAH
 70
     0
  9
$DIMBLK1
  1

  9
$DIMBLK2
  1

  9
$DIMSTYLE
  2
ISO-25
  9
$DIMCLRD
 70
     0
  9
$DIMCLRE
 70
     0
  9
$DIMCLRT
 70
     0
  9
$DIMTFAC
 40
1.0
  9
$DIMGAP
 40
0.762
  9
$DIMJUST
 70
     0
  9
$DIMSD1
 70
     0
  9
$DIMSD2
 70
     0
  9
$DIMTOLJ
 70
     0
  9
$DIMTZIN
 70
     1
  9
$DIMALTZ
 70
     0
  9
$DIMALTTZ
 70
     0
  9
$DIMUPT
 70
     0
  9
$DIMDEC
 70
     2
  9
$DIMTDEC
 70
     2
  9
$DIMALTU
 70
     2
  9
$DIMALTTD
 70
     3
  9
$DIMTXSTY
  7
Standard
  9
$DIMAUNIT
 70
     0
  9
$DIMADEC
 70
     2
  9
$DIMALTRND
 40
0.0
  9
$DIMAZIN
 70
     0
  9
$DIMDSEP
 70
    44
  9
$DIMATFIT
 70
     3
  9
$DIMFRAC
 70
     0
  9
$DIMLDRBLK
  1

  9
$DIMLUNIT
 70
     2
  9
$DIMLWD
 70
    -2
  9
$DIMLWE
 70
    -2
  9
$DIMTMOVE
 70
     0
  9
$LUNITS
 70
     2
  9
$LUPREC
 70
     2
  9
$SKETCHINC
 40
1.0
  9
$FILLETRAD
 40
10.0
  9
$AUNITS
 70
     0
  9
$AUPREC
 70
     2
  9
$MENU
  1
.
  9
$ELEVATION
 40
0.0
  9
$PELEVATION
 40
0.0
  9
$THICKNESS
 40
0.0
  9
$LIMCHECK
 70
     0
  9
$CHAMFERA
 40
0.0
  9
$CHAMFERB
 40
0.0
  9
$CHAMFERC
 40
0.0
  9
$CHAMFERD
 40
0.0
  9
$SKPOLY
 70
     0
  9
$TDCREATE
 40
2460082.687023924
  9
$TDUCREATE
 40
2460082.312023924
  9
$TDUPDATE
 40
2460082.68702463
  9
$TDUUPDATE
 40
2460082.31202463
  9
$TDINDWG
 40
0.0000000116
  9
$TDUSRTIMER
 40
0.0000000116
  9
$USRTIMER
 70
     1
  9
$ANGBASE
 50
0.0
  9
$ANGDIR
 70
     0
  9
$PDMODE
 70
     0
  9
$PDSIZE
 40
-1.0
  9
$PLINEWID
 40
0.0
  9
$SPLFRAME
 70
     0
  9
$SPLINETYPE
 70
     6
  9
$SPLINESEGS
 70
     8
  9
$HANDSEED
  5
160
  9
$SURFTAB1
 70
     6
  9
$SURFTAB2
 70
     6
  9
$SURFTYPE
 70
     6
  9
$SURFU
 70
     6
  9
$SURFV
 70
     6
  9
$UCSBASE
  2

  9
$UCSNAME
  2

  9
$UCSORG
 10
0.0
 20
0.0
 30
0.0
  9
$UCSXDIR
 10
1.0
 20
0.0
 30
0.0
  9
$UCSYDIR
 10
0.0
 20
1.0
 30
0.0
  9
$UCSORTHOREF
  2

  9
$UCSORTHOVIEW
 70
     0
  9
$UCSORGTOP
 10
0.0
 20
0.0
 30
0.0
  9
$UCSORGBOTTOM
 10
0.0
 20
0.0
 30
0.0
  9
$UCSORGLEFT
 10
0.0
 20
0.0
 30
0.0
  9
$UCSORGRIGHT
 10
0.0
 20
0.0
 30
0.0
  9
$UCSORGFRONT
 10
0.0
 20
0.0
 30
0.0
  9
$UCSORGBACK
 10
0.0
 20
0.0
 30
0.0
  9
$PUCSBASE
  2

  9
$PUCSNAME
  2

  9
$PUCSORG
 10
0.0
 20
0.0
 30
0.0
  9
$PUCSXDIR
 10
1.0
 20
0.0
 30
0.0
  9
$PUCSYDIR
 10
0.0
 20
1.0
 30
0.0
  9
$PUCSORTHOREF
  2

  9
$PUCSORTHOVIEW
 70
     0
  9
$PUCSORGTOP
 10
0.0
 20
0.0
 30
0.0
  9
$PUCSORGBOTTOM
 10
0.0
 20
0.0
 30
0.0
  9
$PUCSORGLEFT
 10
0.0
 20
0.0
 30
0.0
  9
$PUCSORGRIGHT
 10
0.0
 20
0.0
 30
0.0
  9
$PUCSORGFRONT
 10
0.0
 20
0.0
 30
0.0
  9
$PUCSORGBACK
 10
0.0
 20
0.0
 30
0.0
  9
$USERI1
 70
     0
  9
$USERI2
 70
     0
  9
$USERI3
 70
     0
  9
$USERI4
 70
     0
  9
$USERI5
 70
     0
  9
$USERR1
 40
0.0
  9
$USERR2
 40
0.0
  9
$USERR3
 40
0.0
  9
$USERR4
 40
0.0
  9
$USERR5
 40
0.0
  9
$WORLDVIEW
 70
     1
  9
$SHADEDGE
 70
     3
  9
$SHADEDIF
 70
    70
  9
$TILEMODE
 70
     1
  9
$MAXACTVP
 70
    64
  9
$PINSBASE
 10
0.0
 20
0.0
 30
0.0
  9
$PLIMCHECK
 70
     0
  9
$PEXTMIN
 10
1.0000000000E+20
 20
1.0000000000E+20
 30
1.0000000000E+20
  9
$PEXTMAX
 10
-1.0000000000E+20
 20
-1.0000000000E+20
 30
-1.0000000000E+20
  9
$PLIMMIN
 10
0.0
 20
0.0
  9
$PLIMMAX
 10
420.0
 20
297.0
  9
$UNITMODE
 70
     0
  9
$VISRETAIN
 70
     1
  9
$PLINEGEN
 70
     0
  9
$PSLTSCALE
 70
     1
  9
$TREEDEPTH
 70
  3020
  9
$CMLSTYLE
  2
Standard
  9
$CMLJUST
 70
     0
  9
$CMLSCALE
 40
20.0
  9
$PROXYGRAPHICS
 70
     1
  9
$MEASUREMENT
 70
     1
  9
$CELWEIGHT
370
    -1
  9
$ENDCAPS
280
     0
  9
$JOINSTYLE
280
     0
  9
$LWDISPLAY
290
     1
  9
$INSUNITS
 70
     4
  9
$HYPERLINKBASE
  1

  9
$STYLESHEET
  1

  9
$XEDIT
290
     1
  9
$CEPSNTYPE
380
     0
  9
$PSTYLEMODE
290
     1
  9
$FINGERPRINTGUID
  2
{BF16F5F8-96F0-4FA0-8112-283A06E67683}
  9
$VERSIONGUID
  2
{FAEB1C32-E019-11D5-929B-00C0DF256EC4}
  9
$EXTNAMES
290
     1
  9
$PSVPSCALE
 40
0.0
  9
$OLESTARTUP
290
     0
  0
ENDSEC
  0
SECTION
  2
CLASSES
  0
CLASS
  1
ACDBDICTIONARYWDFLT
  2
AcDbDictionaryWithDefault
  3
ObjectDBX Classes
 90
        0
280
     0
281
     0
  0
CLASS
  1
VISUALSTYLE
  2
AcDbVisualStyle
  3
ObjectDBX Classes
 90
     4095
280
     0
281
     0
  0
CLASS
  1
MATERIAL
  2
AcDbMaterial
  3
ObjectDBX Classes
 90
     1153
280
     0
281
     0
  0
CLASS
  1
SCALE
  2
AcDbScale
  3
ObjectDBX Classes
 90
     1153
280
     0
281
     0
  0
CLASS
  1
TABLESTYLE
  2
AcDbTableStyle
  3
ObjectDBX Classes
 90
     4095
280
     0
281
     0
  0
CLASS
  1
MLEADERSTYLE
  2
AcDbMLeaderStyle
  3
ACDB_MLEADERSTYLE_CLASS
 90
     4095
280
     0
281
     0
  0
CLASS
  1
SUN
  2
AcDbSun
  3
SCENEOE
 90
     1153
280
     0
281
     0
  0
CLASS
  1
ACDBPLACEHOLDER
  2
AcDbPlaceHolder
  3
ObjectDBX Classes
 90
        0
280
     0
281
     0
  0
CLASS
  1
LAYOUT
  2
AcDbLayout
  3
ObjectDBX Classes
 90
        0
280
     0
281
     0
  0
ENDSEC
  0
SECTION
  2
TABLES
  0
TABLE
  2
VPORT
  5
8
330
0
100
AcDbSymbolTable
 70
     1
  0
VPORT
  5
29
330
8
100
AcDbSymbolTableRecord
100
AcDbViewportTableRecord
  2
*Active
 70
     0
 10
0.0
 20
0.0
 11
1.0
 21
1.0
 12
107.95
 22
69.85
 13
0.0
 23
0.0
 14
10.0
 24
10.0
 15
10.0
 25
10.0
 16
0.0
 26
0.0
 36
1.0
 17
0.0
 27
0.0
 37
0.0
 40
139.7
 41
1.5454545455
 42
50.0
 43
0.0
 44
0.0
 50
0.0
 51
0.0
 71
     0
 72
  2000
 73
     1
 74
     3
 75
     0
 76
     0
 77
     0
 78
     0
281
     0
 65
     1
110
0.0
120
0.0
130
0.0
111
1.0
121
0.0
131
0.0
112
0.0
122
1.0
132
0.0
 79
     0
146
0.0
  0
ENDTAB
  0
TABLE
  2
LTYPE
  5
5
330
0
100
AcDbSymbolTable
 70
     6
  0
LTYPE
  5
14
330
5
100
AcDbSymbolTableRecord
100
AcDbLinetypeTableRecord
  2
ByBlock
 70
     0
  3

 72
    65
 73
     0
 40
0.0
  0
LTYPE
  5
15
330
5
100
AcDbSymbolTableRecord
100
AcDbLinetypeTableRecord
  2
ByLayer
 70
     0
  3

 72
    65
 73
     0
 40
0.0
  0
LTYPE
  5
16
330
5
100
AcDbSymbolTableRecord
100
AcDbLinetypeTableRecord
  2
Continuous
 70
     0
  3
Solid line
 72
    65
 73
     0
 40
0.0
  0
LTYPE
  5
6E
330
5
100
AcDbSymbolTableRecord
100
AcDbLinetypeTableRecord
  2
HIDDEN
 70
     0
  3
Hidden __ __ __ __ __ __ __ __ __ __ __ __ __ __
 72
    65
 73
     2
 40
1.905
 49
1.27
 74
     0
 49
-0.635
 74
     0
  0
LTYPE
  5
6F
330
5
100
AcDbSymbolTableRecord
100
AcDbLinetypeTableRecord
  2
PHANTOM
 70
     0
  3
Phantom ______  __  __  ______  __  __  ______
 72
    65
 73
     6
 40
12.7
 49
6.35
 74
     0
 49
-1.27
 74
     0
 49
1.27
 74
     0
 49
-1.27
 74
     0
 49
1.27
 74
     0
 49
-1.27
 74
     0
  0
LTYPE
  5
70
330
5
100
AcDbSymbolTableRecord
100
AcDbLinetypeTableRecord
  2
CENTER
 70
     0
  3
Center ____ _ ____ _ ____ _ ____ _ ____ _ ____
 72
    65
 73
     4
 40
10.16
 49
6.35
 74
     0
 49
-1.27
 74
     0
 49
1.27
 74
     0
 49
-1.27
 74
     0
  0
LTYPE
  5
71
330
5
100
AcDbSymbolTableRecord
100
AcDbLinetypeTableRecord
  2
CENTERX2
 70
     0
  3
Center (2x) ________  __  ________  __  _____
 72
    65
 73
     4
 40
20.32
 49
12.7
 74
     0
 49
-2.54
 74
     0
 49
2.54
 74
     0
 49
-2.54
 74
     0
  0
LTYPE
  5
72
330
5
100
AcDbSymbolTableRecord
100
AcDbLinetypeTableRecord
  2
DOT2
 70
     0
  3
Dot (.5x) ........................................
 72
    65
 73
     2
 40
0.635
 49
0.0
 74
     0
 49
-0.635
 74
     0
  0
ENDTAB
  0
TABLE
  2
LAYER
  5
2
330
0
100
AcDbSymbolTable
 70
     1
  0
LAYER
  5
10
330
2
100
AcDbSymbolTableRecord
100
AcDbLayerTableRecord
  2
0
 70
     0
 62
     7
  6
Continuous
370
    -3
390
F
  0
ENDTAB
  0
TABLE
  2
STYLE
  5
3
330
0
100
AcDbSymbolTable
 70
     2
  0
STYLE
  5
11
330
3
100
AcDbSymbolTableRecord
100
AcDbTextStyleTableRecord
  2
Standard
 70
     0
 40
0.0
 41
1.0
 50
0.0
 71
     0
 42
1.75
  3
txt
  4
bigfont
  0
STYLE
  5
73
330
3
100
AcDbSymbolTableRecord
100
AcDbTextStyleTableRecord
  2
SLDTEXTSTYLE0
 70
     0
 40
0.0
 41
0.7
 50
0.0
 71
     0
 42
1.75
  3
TXT
  4
bigfont
  0
ENDTAB
  0
TABLE
  2
VIEW
  5
6
330
0
100
AcDbSymbolTable
 70
     0
  0
ENDTAB
  0
TABLE
  2
UCS
  5
7
330
0
100
AcDbSymbolTable
 70
     0
  0
ENDTAB
  0
TABLE
  2
APPID
  5
9
330
0
100
AcDbSymbolTable
 70
     1
  0
APPID
  5
12
330
9
100
AcDbSymbolTableRecord
100
AcDbRegAppTableRecord
  2
ACAD
 70
     0
  0
ENDTAB
  0
TABLE
  2
DIMSTYLE
  5
A
330
0
100
AcDbSymbolTable
 70
     1
100
AcDbDimStyleTable
  0
DIMSTYLE
105
27
330
A
100
AcDbSymbolTableRecord
100
AcDbDimStyleTableRecord
  2
ISO-25
 70
     0
 41
2.5
 42
0.625
 43
3.75
 44
1.25
 73
     0
 74
     0
 77
     1
 78
     8
140
2.5
141
2.5
143
0.0393700787
147
0.625
171
     3
172
     1
178
     0
271
     2
272
     2
274
     3
278
    44
283
     0
284
     8
340
11
  0
ENDTAB
  0
TABLE
  2
BLOCK_RECORD
  5
1
330
0
100
AcDbSymbolTable
 70
     3
  0
BLOCK_RECORD
  5
1F
330
1
100
AcDbSymbolTableRecord
100
AcDbBlockTableRecord
  2
*Model_Space
340
22
  0
BLOCK_RECORD
  5
1B
330
1
100
AcDbSymbolTableRecord
100
AcDbBlockTableRecord
  2
*Paper_Space
340
1E
  0
BLOCK_RECORD
  5
23
330
1
100
AcDbSymbolTableRecord
100
AcDbBlockTableRecord
  2
*Paper_Space0
340
26
  0
BLOCK_RECORD
  5
FF
330
1
100
AcDbSymbolTableRecord
100
AcDbBlockTableRecord
  2
SW_CENTERMARKSYMBOL_0
340
0
102
{BLKREFS
331
10A
102
}
  0
BLOCK_RECORD
  5
10B
330
1
100
AcDbSymbolTableRecord
100
AcDbBlockTableRecord
  2
SW_CENTERMARKSYMBOL_1
340
0
102
{BLKREFS
331
116
102
}
  0
ENDTAB
  0
ENDSEC
  0
SECTION
  2
BLOCKS
  0
BLOCK
  5
20
330
1F
100
AcDbEntity
  8
0
100
AcDbBlockBegin
  2
*Model_Space
 70
     0
 10
0.0
 20
0.0
 30
0.0
  3
*Model_Space
  1

  0
ENDBLK
  5
21
330
1F
100
AcDbEntity
  8
0
100
AcDbBlockEnd
  0
BLOCK
  5
1C
330
1B
100
AcDbEntity
 67
     1
  8
0
100
AcDbBlockBegin
  2
*Paper_Space
 70
     0
 10
0.0
 20
0.0
 30
0.0
  3
*Paper_Space
  1

  0
ENDBLK
  5
1D
330
1B
100
AcDbEntity
 67
     1
  8
0
100
AcDbBlockEnd
  0
BLOCK
  5
24
330
23
100
AcDbEntity
  8
0
100
AcDbBlockBegin
  2
*Paper_Space0
 70
     0
 10
0.0
 20
0.0
 30
0.0
  3
*Paper_Space0
  1

  0
ENDBLK
  5
25
330
23
100
AcDbEntity
  8
0
100
AcDbBlockEnd
  0
BLOCK
  5
100
330
FF
100
AcDbEntity
  8
0
100
AcDbBlockBegin
  2
SW_CENTERMARKSYMBOL_0
 70
     0
 10
0.0
 20
0.0
 30
0.0
  3
SW_CENTERMARKSYMBOL_0
  1

  0
LINE
  5
102
330
FF
100
AcDbEntity
  8
0
  6
Continuous
 62
     0
370
    18
100
AcDbLine
 10
0.0
 20
0.0
 30
0.0
 11
0.0
 21
2.5
 31
0.0
  0
LINE
  5
103
330
FF
100
AcDbEntity
  8
0
  6
Continuous
 62
     0
370
    18
100
AcDbLine
 10
0.0
 20
0.0
 30
0.0
 11
-2.5
 21
0.0
 31
0.0
  0
LINE
  5
104
330
FF
100
AcDbEntity
  8
0
  6
Continuous
 62
     0
370
    18
100
AcDbLine
 10
0.0
 20
0.0
 30
0.0
 11
0.0
 21
-2.5
 31
0.0
  0
LINE
  5
105
330
FF
100
AcDbEntity
  8
0
  6
Continuous
 62
     0
370
    18
100
AcDbLine
 10
0.0
 20
0.0
 30
0.0
 11
2.5
 21
0.0
 31
0.0
  0
LINE
  5
106
330
FF
100
AcDbEntity
  8
0
  6
Continuous
 62
     0
370
    18
100
AcDbLine
 10
0.0
 20
5.0
 30
0.0
 11
0.0
 21
8.0
 31
0.0
  0
LINE
  5
107
330
FF
100
AcDbEntity
  8
0
  6
Continuous
 62
     0
370
    18
100
AcDbLine
 10
-5.0
 20
0.0
 30
0.0
 11
-8.0
 21
0.0
 31
0.0
  0
LINE
  5
108
330
FF
100
AcDbEntity
  8
0
  6
Continuous
 62
     0
370
    18
100
AcDbLine
 10
0.0
 20
-5.0
 30
0.0
 11
0.0
 21
-8.0
 31
0.0
  0
LINE
  5
109
330
FF
100
AcDbEntity
  8
0
  6
Continuous
 62
     0
370
    18
100
AcDbLine
 10
5.0
 20
0.0
 30
0.0
 11
8.0
 21
0.0
 31
0.0
  0
ENDBLK
  5
101
330
FF
100
AcDbEntity
  8
0
100
AcDbBlockEnd
  0
BLOCK
  5
10C
330
10B
100
AcDbEntity
  8
0
100
AcDbBlockBegin
  2
SW_CENTERMARKSYMBOL_1
 70
     0
 10
0.0
 20
0.0
 30
0.0
  3
SW_CENTERMARKSYMBOL_1
  1

  0
LINE
  5
10E
330
10B
100
AcDbEntity
  8
0
  6
Continuous
 62
     0
370
    18
100
AcDbLine
 10
0.0
 20
0.0
 30
0.0
 11
0.0
 21
2.5
 31
0.0
  0
LINE
  5
10F
330
10B
100
AcDbEntity
  8
0
  6
Continuous
 62
     0
370
    18
100
AcDbLine
 10
0.0
 20
0.0
 30
0.0
 11
-2.5
 21
0.0
 31
0.0
  0
LINE
  5
110
330
10B
100
AcDbEntity
  8
0
  6
Continuous
 62
     0
370
    18
100
AcDbLine
 10
0.0
 20
0.0
 30
0.0
 11
0.0
 21
-2.5
 31
0.0
  0
LINE
  5
111
330
10B
100
AcDbEntity
  8
0
  6
Continuous
 62
     0
370
    18
100
AcDbLine
 10
0.0
 20
0.0
 30
0.0
 11
2.5
 21
0.0
 31
0.0
  0
LINE
  5
112
330
10B
100
AcDbEntity
  8
0
  6
Continuous
 62
     0
370
    18
100
AcDbLine
 10
0.0
 20
5.0
 30
0.0
 11
0.0
 21
13.5
 31
0.0
  0
LINE
  5
113
330
10B
100
AcDbEntity
  8
0
  6
Continuous
 62
     0
370
    18
100
AcDbLine
 10
-5.0
 20
0.0
 30
0.0
 11
-13.5
 21
0.0
 31
0.0
  0
LINE
  5
114
330
10B
100
AcDbEntity
  8
0
  6
Continuous
 62
     0
370
    18
100
AcDbLine
 10
0.0
 20
-5.0
 30
0.0
 11
0.0
 21
-13.5
 31
0.0
  0
LINE
  5
115
330
10B
100
AcDbEntity
  8
0
  6
Continuous
 62
     0
370
    18
100
AcDbLine
 10
5.0
 20
0.0
 30
0.0
 11
13.5
 21
0.0
 31
0.0
  0
ENDBLK
  5
10D
330
10B
100
AcDbEntity
  8
0
100
AcDbBlockEnd
  0
ENDSEC
  0
SECTION
  2
ENTITIES
  0
MTEXT
  5
74
330
1F
100
AcDbEntity
  8
0
  6
Continuous
 62
     7
370
     0
100
AcDbMText
 10
104.3634470938
 20
67.7352854558
 30
0.0
 40
2.38125
 41
0.0
 71
     1
 72
     1
  1
エースニップル　HN-8416
  7
SLDTEXTSTYLE0
 73
     1
 44
1.0
  0
LINE
  5
75
330
1F
100
AcDbEntity
  8
0
  6
Continuous
 62
     7
370
    25
100
AcDbLine
 10
71.2122710325
 20
56.5218189358
 30
0.0
 11
56.9086623054
 21
56.0748311631
 31
0.0
  0
LINE
  5
76
330
1F
100
AcDbEntity
  8
0
  6
Continuous
 62
     7
370
    25
100
AcDbLine
 10
56.9086623054
 20
35.4613067085
 30
0.0
 11
71.2122710325
 21
35.0143189358
 31
0.0
  0
LINE
  5
77
330
1F
100
AcDbEntity
  8
0
  6
Continuous
 62
     7
370
    25
100
AcDbLine
 10
56.9086623054
 20
56.0748311631
 30
0.0
 11
54.2122710325
 21
54.5180689358
 31
0.0
  0
LINE
  5
78
330
1F
100
AcDbEntity
  8
0
  6
Continuous
 62
     7
370
    25
100
AcDbLine
 10
54.2122710325
 20
37.0180689358
 30
0.0
 11
56.9086623054
 21
35.4613067085
 31
0.0
  0
LINE
  5
79
330
1F
100
AcDbEntity
  8
0
  6
Continuous
 62
     7
370
    25
100
AcDbLine
 10
95.2122710325
 20
37.7680689358
 30
0.0
 11
100.7122710325
 21
38.5180689358
 31
0.0
  0
LINE
  5
7A
330
1F
100
AcDbEntity
  8
0
  6
Continuous
 62
     7
370
    25
100
AcDbLine
 10
100.7122710325
 20
53.0180689358
 30
0.0
 11
95.2122710325
 21
53.7680689358
 31
0.0
  0
LINE
  5
7B
330
1F
100
AcDbEntity
  8
0
  6
Continuous
 62
     7
370
    25
100
AcDbLine
 10
89.7122710325
 20
37.7680689358
 30
0.0
 11
95.2122710325
 21
38.5180689358
 31
0.0
  0
LINE
  5
7C
330
1F
100
AcDbEntity
  8
0
  6
Continuous
 62
     7
370
    25
100
AcDbLine
 10
95.2122710325
 20
53.0180689358
 30
0.0
 11
89.7122710325
 21
53.7680689358
 31
0.0
  0
LINE
  5
7D
330
1F
100
AcDbEntity
  8
0
  6
Continuous
 62
     7
370
    25
100
AcDbLine
 10
100.7122710325
 20
37.7680689358
 30
0.0
 11
106.7695830865
 21
38.4669895574
 31
0.0
  0
LINE
  5
7E
330
1F
100
AcDbEntity
  8
0
  6
Continuous
 62
     7
370
    25
100
AcDbLine
 10
106.7695830865
 20
53.0691483142
 30
0.0
 11
100.7122710325
 21
53.7680689358
 31
0.0
  0
LINE
  5
7F
330
1F
100
AcDbEntity
  8
0
  6
Continuous
 62
     7
370
    25
100
AcDbLine
 10
84.2122710325
 20
53.7680689358
 30
0.0
 11
77.2122710325
 21
53.7680689358
 31
0.0
  0
LINE
  5
80
330
1F
100
AcDbEntity
  8
0
  6
Continuous
 62
     7
370
    25
100
AcDbLine
 10
77.2122710325
 20
37.7680689358
 30
0.0
 11
84.2122710325
 21
37.7680689358
 31
0.0
  0
LINE
  5
81
330
1F
100
AcDbEntity
  8
0
  6
Continuous
 62
     7
370
    25
100
AcDbLine
 10
84.2122710325
 20
37.7680689358
 30
0.0
 11
89.7122710325
 21
38.5180689358
 31
0.0
  0
LINE
  5
82
330
1F
100
AcDbEntity
  8
0
  6
Continuous
 62
     7
370
    25
100
AcDbLine
 10
89.7122710325
 20
53.0180689358
 30
0.0
 11
84.2122710325
 21
53.7680689358
 31
0.0
  0
ARC
  5
83
330
1F
100
AcDbEntity
  8
0
  6
Continuous
 62
     7
370
    25
100
AcDbCircle
 10
106.7122710325
 20
38.9636940253
 30
0.0
 40
0.5
100
AcDbArc
 50
276.5819446552
 51
0.0
  0
ARC
  5
84
330
1F
100
AcDbEntity
  8
0
  6
Continuous
 62
     7
370
    25
100
AcDbCircle
 10
106.7122710325
 20
52.5724438462
 30
0.0
 40
0.5
100
AcDbArc
 50
0.0
 51
83.4180553448
  0
LINE
  5
85
330
1F
100
AcDbEntity
  8
0
  6
Continuous
 62
     7
370
    25
100
AcDbLine
 10
76.2297906602
 20
33.0663630136
 30
0.0
 11
77.2122710325
 21
34.7680689358
 31
0.0
  0
LINE
  5
86
330
1F
100
AcDbEntity
  8
0
  6
Continuous
 62
     7
370
    25
100
AcDbLine
 10
71.2122710325
 20
34.7680689358
 30
0.0
 11
72.1947514047
 21
33.0663630136
 31
0.0
  0
LINE
  5
87
330
1F
100
AcDbEntity
  8
0
  6
Continuous
 62
     7
370
    25
100
AcDbLine
 10
77.2122710325
 20
56.7680689358
 30
0.0
 11
76.2297906602
 21
58.469774858
 31
0.0
  0
LINE
  5
88
330
1F
100
AcDbEntity
  8
0
  6
Continuous
 62
     7
370
    25
100
AcDbLine
 10
72.1947514047
 20
58.469774858
 30
0.0
 11
71.2122710325
 21
56.7680689358
 31
0.0
  0
LINE
  5
89
330
1F
100
AcDbEntity
  8
0
  6
Continuous
 62
     7
370
    25
100
AcDbLine
 10
74.2122710325
 20
58.169774858
 30
0.0
 11
74.1318862748
 21
58.469774858
 31
0.0
  0
LINE
  5
8A
330
1F
100
AcDbEntity
  8
0
  6
Continuous
 62
     7
370
    25
100
AcDbLine
 10
74.2926557902
 20
58.469774858
 30
0.0
 11
74.2122710325
 21
58.169774858
 31
0.0
  0
LINE
  5
8B
330
1F
100
AcDbEntity
  8
0
  6
Continuous
 62
     7
370
    25
100
AcDbLine
 10
74.1318862748
 20
33.0663630136
 30
0.0
 11
74.2122710325
 21
33.3663630136
 31
0.0
  0
LINE
  5
8C
330
1F
100
AcDbEntity
  8
0
  6
Continuous
 62
     7
370
    25
100
AcDbLine
 10
74.2122710325
 20
33.3663630136
 30
0.0
 11
74.2926557902
 21
33.0663630136
 31
0.0
  0
LINE
  5
8D
330
1F
100
AcDbEntity
  8
0
  6
Continuous
 62
     7
370
    25
100
AcDbLine
 10
74.2122710325
 20
39.1054545313
 30
0.0
 11
74.2122710325
 21
40.0407388615
 31
0.0
  0
SPLINE
  5
8E
330
1F
100
AcDbEntity
  8
0
  6
Continuous
 62
     7
370
    25
100
AcDbSpline
210
0.0
220
0.0
230
1.0
 70
     8
 71
     3
 72
     8
 73
     4
 74
     0
 42
0.000000001
 43
0.00000001
 40
0.0
 40
0.0
 40
0.0
 40
0.0
 40
1.0
 40
1.0
 40
1.0
 40
1.0
 10
74.1318862747659
 20
39.41721597470371
 30
0.0
 10
74.159717947823
 20
39.31334675679496
 30
0.0
 10
74.18653900768905
 20
39.20942756821122
 30
0.0
 10
74.21227103249522
 20
39.10545453131291
 30
0.0
  0
SPLINE
  5
8F
330
1F
100
AcDbEntity
  8
0
  6
Continuous
 62
     7
370
    25
100
AcDbSpline
210
0.0
220
0.0
230
1.0
 70
     8
 71
     3
 72
     8
 73
     4
 74
     0
 42
0.000000001
 43
0.00000001
 40
0.0
 40
0.0
 40
0.0
 40
0.0
 40
1.0
 40
1.0
 40
1.0
 40
1.0
 10
74.21227103249522
 20
40.04073886148532
 30
0.0
 10
74.18653054192562
 20
39.83272437401811
 30
0.0
 10
74.1597090222762
 20
39.62488778933295
 30
0.0
 10
74.1318862747659
 20
39.41721597470371
 30
0.0
  0
SPLINE
  5
90
330
1F
100
AcDbEntity
  8
0
  6
Continuous
 62
     7
370
    25
100
AcDbSpline
210
0.0
220
0.0
230
1.0
 70
     8
 71
     3
 72
    19
 73
    15
 74
     0
 42
0.000000001
 43
0.00000001
 40
0.0
 40
0.0
 40
0.0
 40
0.0
 40
0.1227280999764553
 40
0.239716523588393
 40
0.3518621792202463
 40
0.4632019818032239
 40
0.5202611541541643
 40
0.5794324380306665
 40
0.6405963441586369
 40
0.70529822908802
 40
0.7732361059084537
 40
0.844648929340316
 40
0.9200459817773698
 40
1.0
 40
1.0
 40
1.0
 40
1.0
 10
74.79688641711061
 20
46.70436701271267
 30
0.0
 10
74.79629127576283
 20
46.72144686339794
 30
0.0
 10
74.7951288262915
 20
46.75480778425034
 30
0.0
 10
74.78491141941136
 20
46.80289202785757
 30
0.0
 10
74.76872299147978
 20
46.84754669688662
 30
0.0
 10
74.74917551276657
 20
46.88156454696489
 30
0.0
 10
74.72994603040378
 20
46.90672715175654
 30
0.0
 10
74.71340290675673
 20
46.9250528537414
 30
0.0
 10
74.69464639288154
 20
46.94272070766382
 30
0.0
 10
74.67316201871178
 20
46.95903741091297
 30
0.0
 10
74.64968854491909
 20
46.97498069489983
 30
0.0
 10
74.62409668835008
 20
46.9903983250941
 30
0.0
 10
74.59602158572021
 20
47.00479508685699
 30
0.0
 10
74.57627836434322
 20
47.01355863146731
 30
0.0
 10
74.56611718634139
 20
47.01806893578959
 30
0.0
  0
SPLINE
  5
91
330
1F
100
AcDbEntity
  8
0
  6
Continuous
 62
     7
370
    25
100
AcDbSpline
210
0.0
220
0.0
230
1.0
 70
     8
 71
     3
 72
    23
 73
    19
 74
     0
 42
0.000000001
 43
0.00000001
 40
0.0
 40
0.0
 40
0.0
 40
0.0
 40
0.0552698294993248
 40
0.1099567044850939
 40
0.1632335040550556
 40
0.2180575651623569
 40
0.2732775387226747
 40
0.330881045495497
 40
0.3904799376860887
 40
0.4536559730386418
 40
0.5189026226022312
 40
0.5833461108214767
 40
0.6485466930814432
 40
0.7150552190344911
 40
0.7825206438000537
 40
0.8523352944264511
 40
0.9249348997257085
 40
1.0
 40
1.0
 40
1.0
 40
1.0
 10
74.56160997480292
 20
46.40268432040498
 30
0.0
 10
74.5694433129813
 20
46.40286190442649
 30
0.0
 10
74.58502736777241
 20
46.40321519941493
 30
0.0
 10
74.6077949780278
 20
46.40767147900278
 30
0.0
 10
74.6298678434978
 20
46.41436636401647
 30
0.0
 10
74.65114581063445
 20
46.42357630093846
 30
0.0
 10
74.67150537221887
 20
46.43588117121848
 30
0.0
 10
74.69097150544586
 20
46.4506511146794
 30
0.0
 10
74.70987044254917
 20
46.46789326006471
 30
0.0
 10
74.72729803525279
 20
46.48805823042406
 30
0.0
 10
74.74373671794518
 20
46.50988896147704
 30
0.0
 10
74.75794734762218
 20
46.53359086666098
 30
0.0
 10
74.76999226783963
 20
46.55864117152466
 30
0.0
 10
74.7799439396097
 20
46.58506291160596
 30
0.0
 10
74.7874251859785
 20
46.61296193153972
 30
0.0
 10
74.7927980552322
 20
46.64220162274047
 30
0.0
 10
74.79615694832589
 20
46.67283927431902
 30
0.0
 10
74.79664056924456
 20
46.69374143507643
 30
0.0
 10
74.79688641711061
 20
46.70436701271267
 30
0.0
  0
SPLINE
  5
92
330
1F
100
AcDbEntity
  8
0
  6
Continuous
 62
     7
370
    25
100
AcDbSpline
210
0.0
220
0.0
230
1.0
 70
     8
 71
     3
 72
    19
 73
    15
 74
     0
 42
0.000000001
 43
0.00000001
 40
0.0
 40
0.0
 40
0.0
 40
0.0
 40
0.1101423815503174
 40
0.2157418685830274
 40
0.3179605426392306
 40
0.4180517606815226
 40
0.5115631470355316
 40
0.5965727584443461
 40
0.6733290469034968
 40
0.7440491927238595
 40
0.8107168223002833
 40
0.8740854521098849
 40
0.9367096168966699
 40
1.0
 40
1.0
 40
1.0
 40
1.0
 10
74.31611718634139
 20
46.78729970502037
 30
0.0
 10
74.31643347530999
 20
46.7687425754882
 30
0.0
 10
74.31705300770194
 20
46.73239371736061
 30
0.0
 10
74.32449425481255
 20
46.67928893788199
 30
0.0
 10
74.33490358063241
 20
46.62844738825036
 30
0.0
 10
74.3504797522739
 20
46.58102958417556
 30
0.0
 10
74.3691756039739
 20
46.5379508660773
 30
0.0
 10
74.3902565420965
 20
46.50037143072429
 30
0.0
 10
74.41414029913732
 20
46.46918189603362
 30
0.0
 10
74.44051342368553
 20
46.44430433773218
 30
0.0
 10
74.46912921307705
 20
46.42604509328026
 30
0.0
 10
74.49864214043787
 20
46.41233972182483
 30
0.0
 10
74.52973887363986
 20
46.40430507777202
 30
0.0
 10
74.55094886680777
 20
46.40322647516881
 30
0.0
 10
74.56160997480292
 20
46.40268432040498
 30
0.0
  0
LINE
  5
93
330
1F
100
AcDbEntity
  8
0
  6
Continuous
 62
     7
370
    25
100
AcDbLine
 10
74.1622710325
 20
46.787299705
 30
0.0
 11
74.3161171863
 21
46.787299705
 31
0.0
  0
SPLINE
  5
94
330
1F
100
AcDbEntity
  8
0
  6
Continuous
 62
     7
370
    25
100
AcDbSpline
210
0.0
220
0.0
230
1.0
 70
     8
 71
     3
 72
    23
 73
    19
 74
     0
 42
0.000000001
 43
0.00000001
 40
0.0
 40
0.0
 40
0.0
 40
0.0
 40
0.0669051223273616
 40
0.1334773340846825
 40
0.2010229080576287
 40
0.2712178684297488
 40
0.3428591616573978
 40
0.4138109980627169
 40
0.4855518488903453
 40
0.5598002749200529
 40
0.5998999649035781
 40
0.6436094423977958
 40
0.6919106424505659
 40
0.7447030291556902
 40
0.8015038302285953
 40
0.8628660266331954
 40
0.9293326711591618
 40
1.0
 40
1.0
 40
1.0
 40
1.0
 10
73.84496334018755
 20
46.3257612434819
 30
0.0
 10
73.85893964407009
 20
46.32641707534692
 30
0.0
 10
73.88682270769368
 20
46.32772547574895
 30
0.0
 10
73.92784428865373
 20
46.33771504137402
 30
0.0
 10
73.96736953102572
 20
46.35414530282377
 30
0.0
 10
74.0047183972298
 20
46.37715047321704
 30
0.0
 10
74.0393504652451
 20
46.40514130688486
 30
0.0
 10
74.07012988420165
 20
46.4378468541513
 30
0.0
 10
74.09578275499372
 20
46.47534734164013
 30
0.0
 10
74.11344122922947
 20
46.51008420282485
 30
0.0
 10
74.12520985969513
 20
46.54092720457983
 30
0.0
 10
74.1334618030601
 20
46.56726957856194
 30
0.0
 10
74.14005826036407
 20
46.59678675686909
 30
0.0
 10
74.14643902108773
 20
46.62912439220596
 30
0.0
 10
74.15178824595583
 20
46.66441886840093
 30
0.0
 10
74.1562684314451
 20
46.70270198355097
 30
0.0
 10
74.15984765228914
 20
46.74398913924507
 30
0.0
 10
74.16144690962348
 20
46.77257101005354
 30
0.0
 10
74.16227103249523
 20
46.78729970502037
 30
0.0
  0
SPLINE
  5
95
330
1F
100
AcDbEntity
  8
0
  6
Continuous
 62
     7
370
    25
100
AcDbSpline
210
0.0
220
0.0
230
1.0
 70
     8
 71
     3
 72
    23
 73
    19
 74
     0
 42
0.000000001
 43
0.00000001
 40
0.0
 40
0.0
 40
0.0
 40
0.0
 40
0.0760618905628339
 40
0.1487324608035361
 40
0.2183745247439722
 40
0.2857225935927383
 40
0.3510576941824569
 40
0.414934915729319
 40
0.4784859417740854
 40
0.542169035281216
 40
0.6047501165431387
 40
0.6641185017301124
 40
0.7214996756099116
 40
0.7776159163852548
 40
0.8326661086975489
 40
0.8878580281135741
 40
0.9434676608977686
 40
1.0
 40
1.0
 40
1.0
 40
1.0
 10
73.52765564787984
 20
46.70767230117421
 30
0.0
 10
73.5279191779891
 20
46.69363489573842
 30
0.0
 10
73.528434488368
 20
46.66618596121532
 30
0.0
 10
73.53318721739102
 20
46.62613653335163
 30
0.0
 10
73.5400788225169
 20
46.58802385623672
 30
0.0
 10
73.55085863287894
 20
46.55223686962506
 30
0.0
 10
73.56379079620332
 20
46.51828860044853
 30
0.0
 10
73.58072137147602
 20
46.48693687215447
 30
0.0
 10
73.59984171911178
 20
46.45725998266536
 30
0.0
 10
73.62208236082775
 20
46.43012732769106
 30
0.0
 10
73.64612208715246
 20
46.40566591252019
 30
0.0
 10
73.67162609441458
 20
46.3845285471674
 30
0.0
 10
73.69780359241753
 20
46.36622117130386
 30
0.0
 10
73.72526524927616
 20
46.35150509632284
 30
0.0
 10
73.75374168821307
 20
46.33986399030605
 30
0.0
 10
73.78333949679138
 20
46.33194399492313
 30
0.0
 10
73.81380944294325
 20
46.3264358363304
 30
0.0
 10
73.83452190027268
 20
46.32598733784946
 30
0.0
 10
73.84496334018755
 20
46.3257612434819
 30
0.0
  0
SPLINE
  5
96
330
1F
100
AcDbEntity
  8
0
  6
Continuous
 62
     7
370
    25
100
AcDbSpline
210
0.0
220
0.0
230
1.0
 70
     8
 71
     3
 72
    15
 73
    11
 74
     0
 42
0.000000001
 43
0.00000001
 40
0.0
 40
0.0
 40
0.0
 40
0.0
 40
0.1182713048357256
 40
0.2361775330837632
 40
0.355662932948509
 40
0.4759041646706825
 40
0.6001273417110832
 40
0.7286081161551193
 40
0.8613134756739422
 40
1.0
 40
1.0
 40
1.0
 40
1.0
 10
73.60878545557216
 20
46.95827326271267
 30
0.0
 10
73.60231045533551
 20
46.94987472991618
 30
0.0
 10
73.58938044171359
 20
46.93310358868159
 30
0.0
 10
73.57287974376884
 20
46.90577434678226
 30
0.0
 10
73.5585821614825
 20
46.87703225274551
 30
0.0
 10
73.54766057760409
 20
46.84625453522227
 30
0.0
 10
73.53841300869445
 20
46.81410534788483
 30
0.0
 10
73.53236135763767
 20
46.78006504849976
 30
0.0
 10
73.52820928420486
 20
46.74443395545187
 30
0.0
 10
73.52784288499385
 20
46.72010491395913
 30
0.0
 10
73.52765564787984
 20
46.70767230117421
 30
0.0
  0
SPLINE
  5
97
330
1F
100
AcDbEntity
  8
0
  6
Continuous
 62
     7
370
    25
100
AcDbSpline
210
0.0
220
0.0
230
1.0
 70
     8
 71
     3
 72
    15
 73
    11
 74
     0
 42
0.000000001
 43
0.00000001
 40
0.0
 40
0.0
 40
0.0
 40
0.0
 40
0.1497703860319679
 40
0.2913164099952444
 40
0.4259663731047425
 40
0.5521595739695284
 40
0.6715274135235927
 40
0.7861216286916589
 40
0.8953250730704446
 40
1.0
 40
1.0
 40
1.0
 40
1.0
 10
73.81611718634139
 20
47.0757612434819
 30
0.0
 10
73.80456760922625
 20
47.07225411857893
 30
0.0
 10
73.78210267853278
 20
47.06543245601125
 30
0.0
 10
73.74977111895784
 20
47.0538206139962
 30
0.0
 10
73.72013195329006
 20
47.04059135453744
 30
0.0
 10
73.69296775815664
 20
47.02639940083627
 30
0.0
 10
73.66801101424342
 20
47.01149435254081
 30
0.0
 10
73.64592164180024
 20
46.99481652748235
 30
0.0
 10
73.62572941228177
 20
46.97760117956208
 30
0.0
 10
73.61435315002169
 20
46.96462431384008
 30
0.0
 10
73.60878545557216
 20
46.95827326271267
 30
0.0
  0
LINE
  5
98
330
1F
100
AcDbEntity
  8
0
  6
Continuous
 62
     7
370
    25
100
AcDbLine
 10
73.8161171863
 20
47.2103766281
 30
0.0
 11
73.8161171863
 21
47.0757612435
 31
0.0
  0
SPLINE
  5
99
330
1F
100
AcDbEntity
  8
0
  6
Continuous
 62
     7
370
    25
100
AcDbSpline
210
0.0
220
0.0
230
1.0
 70
     8
 71
     3
 72
    23
 73
    19
 74
     0
 42
0.000000001
 43
0.00000001
 40
0.0
 40
0.0
 40
0.0
 40
0.0
 40
0.0655411703374033
 40
0.1289631677825933
 40
0.1903771361885609
 40
0.2500923616690527
 40
0.308548432459201
 40
0.3663979630552958
 40
0.42454218926668
 40
0.4831699964229055
 40
0.5422433998311199
 40
0.6017393520173299
 40
0.6625060022496068
 40
0.7248555134488469
 40
0.7891278292811811
 40
0.8563463998785099
 40
0.9262952349869055
 40
1.0
 40
1.0
 40
1.0
 40
1.0
 10
73.3738094940337
 20
46.71007614732805
 30
0.0
 10
73.3741815854302
 20
46.72611299030654
 30
0.0
 10
73.37491373722042
 20
46.75766814962229
 30
0.0
 10
73.37991885201897
 20
46.80405822035929
 30
0.0
 10
73.38906028283516
 20
46.84833894865837
 30
0.0
 10
73.40136169942063
 20
46.89057020488265
 30
0.0
 10
73.41695816031228
 20
46.93078950619418
 30
0.0
 10
73.43638045946427
 20
46.96887412269891
 30
0.0
 10
73.45922824605792
 20
47.00505836277895
 30
0.0
 10
73.48577121226073
 20
47.03900077041234
 30
0.0
 10
73.51546321501363
 20
47.07069729942931
 30
0.0
 10
73.54883136214264
 20
47.09930560981365
 30
0.0
 10
73.58525882096593
 20
47.12530266393168
 30
0.0
 10
73.62516870219396
 20
47.14799236623661
 30
0.0
 10
73.6680452410273
 20
47.16840820307198
 30
0.0
 10
73.71443745461943
 20
47.18520004163511
 30
0.0
 10
73.76393060690043
 20
47.19997957105065
 30
0.0
 10
73.79842106697579
 20
47.20685105572755
 30
0.0
 10
73.81611718634139
 20
47.21037662809729
 30
0.0
  0
SPLINE
  5
9A
330
1F
100
AcDbEntity
  8
0
  6
Continuous
 62
     7
370
    25
100
AcDbSpline
210
0.0
220
0.0
230
1.0
 70
     8
 71
     3
 72
    19
 73
    15
 74
     0
 42
0.000000001
 43
0.00000001
 40
0.0
 40
0.0
 40
0.0
 40
0.0
 40
0.079641704194991
 40
0.158908613257856
 40
0.2395997983184508
 40
0.3224093988203483
 40
0.405827748173513
 40
0.4876442139503136
 40
0.5697199979738973
 40
0.6530646649976933
 40
0.7374573001733064
 40
0.8224924079539123
 40
0.9097550737466982
 40
1.0
 40
1.0
 40
1.0
 40
1.0
 10
73.85788401326445
 20
46.19114585886651
 30
0.0
 10
73.83688068226114
 20
46.19191662957803
 30
0.0
 10
73.79497286226572
 20
46.19345454374177
 30
0.0
 10
73.73304259622304
 20
46.20714517344482
 30
0.0
 10
73.67260942216078
 20
46.22849177774505
 30
0.0
 10
73.61456876323578
 20
46.25827572144546
 30
0.0
 10
73.56037737287616
 20
46.29512628383512
 30
0.0
 10
73.5121107888396
 20
46.33921042937451
 30
0.0
 10
73.47034268259227
 20
46.38945647951709
 30
0.0
 10
73.43555697633572
 20
46.44553558388794
 30
0.0
 10
73.4077299122584
 20
46.50626616303624
 30
0.0
 10
73.38842096661443
 20
46.57122858215594
 30
0.0
 10
73.3758437317867
 20
46.63947820999244
 30
0.0
 10
73.37449512581475
 20
46.68628139204824
 30
0.0
 10
73.3738094940337
 20
46.71007614732805
 30
0.0
  0
SPLINE
  5
9B
330
1F
100
AcDbEntity
  8
0
  6
Continuous
 62
     7
370
    25
100
AcDbSpline
210
0.0
220
0.0
230
1.0
 70
     8
 71
     3
 72
    15
 73
    11
 74
     0
 42
0.000000001
 43
0.00000001
 40
0.0
 40
0.0
 40
0.0
 40
0.0
 40
0.1281455049994643
 40
0.2541925386280419
 40
0.3781411397135888
 40
0.5013808330744057
 40
0.6239569784447038
 40
0.7470758858273289
 40
0.8728647202442611
 40
1.0
 40
1.0
 40
1.0
 40
1.0
 10
74.12441045557215
 20
46.28068912809728
 30
0.0
 10
74.11452961514715
 20
46.27346847190973
 30
0.0
 10
74.0949297399005
 20
46.2591454027792
 30
0.0
 10
74.06339874333491
 20
46.24151595411527
 30
0.0
 10
74.0316226440994
 20
46.22533974669417
 30
0.0
 10
73.99835204695557
 20
46.21343452628407
 30
0.0
 10
73.96465566233505
 20
46.20316079284601
 30
0.0
 10
73.92981191596913
 20
46.19640101833367
 30
0.0
 10
73.89415185294158
 20
46.19206151348798
 30
0.0
 10
73.87001612213257
 20
46.19145215837738
 30
0.0
 10
73.85788401326445
 20
46.19114585886651
 30
0.0
  0
SPLINE
  5
9C
330
1F
100
AcDbEntity
  8
0
  6
Continuous
 62
     7
370
    25
100
AcDbSpline
210
0.0
220
0.0
230
1.0
 70
     8
 71
     3
 72
    11
 73
     7
 74
     0
 42
0.000000001
 43
0.00000001
 40
0.0
 40
0.0
 40
0.0
 40
0.0
 40
0.253879600326656
 40
0.5030089172783633
 40
0.7502910806899731
 40
1.0
 40
1.0
 40
1.0
 40
1.0
 10
74.25241526326447
 20
46.44324922425113
 30
0.0
 10
74.24471033260383
 20
46.42729275800541
 30
0.0
 10
74.22944463648517
 20
46.39567838331947
 30
0.0
 10
74.19950645469206
 20
46.35258529923394
 30
0.0
 10
74.16493944868326
 20
46.31346620979524
 30
0.0
 10
74.137964026006
 20
46.29165033022219
 30
0.0
 10
74.12441045557215
 20
46.28068912809728
 30
0.0
  0
SPLINE
  5
9D
330
1F
100
AcDbEntity
  8
0
  6
Continuous
 62
     7
370
    25
100
AcDbSpline
210
0.0
220
0.0
230
1.0
 70
     8
 71
     3
 72
    15
 73
    11
 74
     0
 42
0.000000001
 43
0.00000001
 40
0.0
 40
0.0
 40
0.0
 40
0.0
 40
0.1280675485958904
 40
0.2506083188676684
 40
0.3706301659145029
 40
0.4900722467299488
 40
0.6103747641546199
 40
0.7343130699115256
 40
0.8632165042449895
 40
1.0
 40
1.0
 40
1.0
 40
1.0
 10
74.56100901326445
 20
46.26806893578959
 30
0.0
 10
74.54514895839064
 20
46.26856761766691
 30
0.0
 10
74.51411329219216
 20
46.26954346071453
 30
0.0
 10
74.46880407913295
 20
46.27782933452696
 30
0.0
 10
74.42610053615486
 20
46.2917734471882
 30
0.0
 10
74.3858228952448
 20
46.31108905972157
 30
0.0
 10
74.3482265353206
 20
46.33609258125312
 30
0.0
 10
74.31322686780896
 20
46.3663808799204
 30
0.0
 10
74.28066865718256
 20
46.40216773496704
 30
0.0
 10
74.2620174544788
 20
46.42928727983416
 30
0.0
 10
74.25241526326447
 20
46.44324922425113
 30
0.0
  0
SPLINE
  5
9E
330
1F
100
AcDbEntity
  8
0
  6
Continuous
 62
     7
370
    25
100
AcDbSpline
210
0.0
220
0.0
230
1.0
 70
     8
 71
     3
 72
    19
 73
    15
 74
     0
 42
0.000000001
 43
0.00000001
 40
0.0
 40
0.0
 40
0.0
 40
0.0
 40
0.0902542493426766
 40
0.1785397915286845
 40
0.2660930338538198
 40
0.3546309779571733
 40
0.4418861533505626
 40
0.5257469151636484
 40
0.6081136336036366
 40
0.6901972728278825
 40
0.770821484330335
 40
0.8483261812554109
 40
0.9240117400247433
 40
1.0
 40
1.0
 40
1.0
 40
1.0
 10
74.95073257095677
 20
46.70616989732806
 30
0.0
 10
74.95014147228036
 20
46.68659157929588
 30
0.0
 10
74.94897216850543
 20
46.64786200317725
 30
0.0
 10
74.93829455287154
 20
46.59096355448418
 30
0.0
 10
74.92139806757689
 20
46.53609491772613
 30
0.0
 10
74.89805218451818
 20
46.48385666866199
 30
0.0
 10
74.86925762173442
 20
46.43533448326359
 30
0.0
 10
74.83498702020809
 20
46.39216183180054
 30
0.0
 10
74.79590160528494
 20
46.35492389859885
 30
0.0
 10
74.75273050629127
 20
46.32368345103023
 30
0.0
 10
74.70659243083973
 20
46.29922273715007
 30
0.0
 10
74.65910664920519
 20
46.28118571994448
 30
0.0
 10
74.61038580432421
 20
46.27020499951649
 30
0.0
 10
74.57748982753485
 20
46.26878190374067
 30
0.0
 10
74.56100901326445
 20
46.26806893578959
 30
0.0
  0
SPLINE
  5
9F
330
1F
100
AcDbEntity
  8
0
  6
Continuous
 62
     7
370
    25
100
AcDbSpline
210
0.0
220
0.0
230
1.0
 70
     8
 71
     3
 72
    23
 73
    19
 74
     0
 42
0.000000001
 43
0.00000001
 40
0.0
 40
0.0
 40
0.0
 40
0.0
 40
0.0726253460834355
 40
0.1419766113262345
 40
0.2089849284189386
 40
0.2739568703644447
 40
0.336889347396841
 40
0.3987449534945902
 40
0.4601158852788617
 40
0.5208249225900291
 40
0.5809944586324857
 40
0.6401519276014648
 40
0.6986224507562546
 40
0.7572710809271643
 40
0.8164266940046602
 40
0.8762540482034705
 40
0.9371652930625374
 40
1.0
 40
1.0
 40
1.0
 40
1.0
 10
74.56611718634139
 20
47.15268432040498
 30
0.0
 10
74.58121682233083
 20
47.14903737011312
 30
0.0
 10
74.61073537564111
 20
47.14190788058865
 30
0.0
 10
74.65290991600425
 20
47.12703749195912
 30
0.0
 10
74.69281999660026
 20
47.11083781116143
 30
0.0
 10
74.7297183138983
 20
47.09138533777654
 30
0.0
 10
74.76434641506944
 20
47.07016730025106
 30
0.0
 10
74.79591889698436
 20
47.04585756244997
 30
0.0
 10
74.82523873932742
 20
47.01957768135029
 30
0.0
 10
74.8512586982805
 20
46.99050984593524
 30
0.0
 10
74.87482058222623
 20
46.96002613380347
 30
0.0
 10
74.89490989251583
 20
46.92769701105316
 30
0.0
 10
74.91219167231489
 20
46.89417291376576
 30
0.0
 10
74.92642891454719
 20
46.8592215710735
 30
0.0
 10
74.93715413897552
 20
46.82273892606264
 30
0.0
 10
74.94493562708585
 20
46.78505480178229
 30
0.0
 10
74.94998896174918
 20
46.7460704445903
 30
0.0
 10
74.95048214592906
 20
46.71960719147676
 30
0.0
 10
74.95073257095677
 20
46.70616989732806
 30
0.0
  0
LINE
  5
A0
330
1F
100
AcDbEntity
  8
0
  6
Continuous
 62
     7
370
    25
100
AcDbLine
 10
74.5661171863
 20
47.0180689358
 30
0.0
 11
74.5661171863
 21
47.1526843204
 31
0.0
  0
LINE
  5
A1
330
1F
100
AcDbEntity
  8
0
  6
Continuous
 62
     7
370
    25
100
AcDbLine
 10
74.950732571
 20
44.7306683353
 30
0.0
 11
74.8693022825
 21
44.6270024699
 31
0.0
  0
LINE
  5
A2
330
1F
100
AcDbEntity
  8
0
  6
Continuous
 62
     7
370
    25
100
AcDbLine
 10
74.2662373786
 20
45.1783846815
 30
0.0
 11
74.950732571
 21
44.7306683353
 31
0.0
  0
SPLINE
  5
A3
330
1F
100
AcDbEntity
  8
0
  6
Continuous
 62
     7
370
    25
100
AcDbSpline
210
0.0
220
0.0
230
1.0
 70
     8
 71
     3
 72
    19
 73
    15
 74
     0
 42
0.000000001
 43
0.00000001
 40
0.0
 40
0.0
 40
0.0
 40
0.0
 40
0.0978059775289525
 40
0.1996122522918967
 40
0.3052960258330042
 40
0.4158173591641855
 40
0.4742405666184931
 40
0.5372869128296535
 40
0.6033858352934857
 40
0.6743111580696057
 40
0.7495304673574823
 40
0.828608314269512
 40
0.9120427387714449
 40
1.0
 40
1.0
 40
1.0
 40
1.0
 10
73.83054026326447
 20
45.34605295068652
 30
0.0
 10
73.8459823172278
 20
45.34550932998602
 30
0.0
 10
73.87749801033274
 20
45.34439985431632
 30
0.0
 10
73.92536748439515
 20
45.33777863134333
 30
0.0
 10
73.97415629757745
 20
45.32563449944429
 30
0.0
 10
74.01551586322347
 20
45.31249189447474
 30
0.0
 10
74.04976907702866
 20
45.29945046302971
 30
0.0
 10
74.07681793513572
 20
45.28735814771299
 30
0.0
 10
74.105382397813
 20
45.27383746577351
 30
0.0
 10
74.1349219973186
 20
45.25798934365429
 30
0.0
 10
74.1662807439915
 20
45.24118905525459
 30
0.0
 10
74.1982973277082
 20
45.22156441190625
 30
0.0
 10
74.23214109296782
 20
45.20108579502592
 30
0.0
 10
74.25467374616953
 20
45.18608368235736
 30
0.0
 10
74.26623737864908
 20
45.17838468145575
 30
0.0
  0
SPLINE
  5
A4
330
1F
100
AcDbEntity
  8
0
  6
Continuous
 62
     7
370
    25
100
AcDbSpline
210
0.0
220
0.0
230
1.0
 70
     8
 71
     3
 72
    19
 73
    15
 74
     0
 42
0.000000001
 43
0.00000001
 40
0.0
 40
0.0
 40
0.0
 40
0.0
 40
0.0843261511037431
 40
0.1670353409858404
 40
0.2495407139852791
 40
0.3327066655796642
 40
0.4158726171740491
 40
0.4977774155681173
 40
0.5803136056784763
 40
0.6645325781316562
 40
0.7495711764063213
 40
0.8324741628544072
 40
0.9156738488962566
 40
0.9999999999999999
 40
0.9999999999999999
 40
0.9999999999999999
 40
0.9999999999999999
 10
73.3738094940337
 20
44.89172602760959
 30
0.0
 10
73.37446443769885
 20
44.91191033178133
 30
0.0
 10
73.37576176642787
 20
44.95189190435115
 30
0.0
 10
73.3873186211307
 20
45.0107059020995
 30
0.0
 10
73.40605014504487
 20
45.06721883931784
 30
0.0
 10
73.4318566090924
 20
45.12103347702327
 30
0.0
 10
73.4644515625239
 20
45.17088818600512
 30
0.0
 10
73.50369726591205
 20
45.21547661942866
 30
0.0
 10
73.54872634416144
 20
45.25464364477021
 30
0.0
 10
73.59967693000263
 20
45.28706701211014
 30
0.0
 10
73.65407407124044
 20
45.31349214449403
 30
0.0
 10
73.71131167998509
 20
45.33213017249096
 30
0.0
 10
73.77023782664754
 20
45.34418343384635
 30
0.0
 10
73.81034954562341
 20
45.34542699112728
 30
0.0
 10
73.83054026326447
 20
45.34605295068652
 30
0.0
  0
SPLINE
  5
A5
330
1F
100
AcDbEntity
  8
0
  6
Continuous
 62
     7
370
    25
100
AcDbSpline
210
0.0
220
0.0
230
1.0
 70
     8
 71
     3
 72
    19
 73
    15
 74
     0
 42
0.000000001
 43
0.00000001
 40
0.0
 40
0.0
 40
0.0
 40
0.0
 40
0.0859901205637197
 40
0.1691084375726415
 40
0.2505285789581879
 40
0.332255696176845
 40
0.4135763652356401
 40
0.4941261456201216
 40
0.5763059341204168
 40
0.660712671904547
 40
0.7461272722239101
 40
0.830014985960974
 40
0.9144197259288509
 40
1.0
 40
1.0
 40
1.0
 40
1.0
 10
73.83324459018755
 20
44.42297602760959
 30
0.0
 10
73.81226576690142
 20
44.42375882561273
 30
0.0
 10
73.77100874801634
 20
44.42529827859148
 30
0.0
 10
73.71066699887459
 20
44.43650484242475
 30
0.0
 10
73.65364210365374
 20
44.45584486772093
 30
0.0
 10
73.59970996393076
 20
44.48171950240128
 30
0.0
 10
73.55043973846504
 20
44.51528980635395
 30
0.0
 10
73.50591266643477
 20
44.55507246220944
 30
0.0
 10
73.46710078203336
 20
44.60144352728391
 30
0.0
 10
73.43380568317559
 20
44.65330492452008
 30
0.0
 10
73.4073527690579
 20
44.7094350623171
 30
0.0
 10
73.38779558971683
 20
44.76828934784295
 30
0.0
 10
73.37610967803695
 20
44.82936472642465
 30
0.0
 10
73.37457974878491
 20
44.87084331193915
 30
0.0
 10
73.3738094940337
 20
44.89172602760959
 30
0.0
  0
SPLINE
  5
A6
330
1F
100
AcDbEntity
  8
0
  6
Continuous
 62
     7
370
    25
100
AcDbSpline
210
0.0
220
0.0
230
1.0
 70
     8
 71
     3
 72
    23
 73
    19
 74
     0
 42
0.000000001
 43
0.00000001
 40
0.0
 40
0.0
 40
0.0
 40
0.0
 40
0.0652308037420297
 40
0.128404896003223
 40
0.1900670715964782
 40
0.2509433657682801
 40
0.3115458328521434
 40
0.3728628021568294
 40
0.4350236738562386
 40
0.4990717247070431
 40
0.5630910750496624
 40
0.6255101063303751
 40
0.6866800359296492
 40
0.7472825030135124
 40
0.8085634952159588
 40
0.8707421035159856
 40
0.9343409515059125
 40
1.0
 40
1.0
 40
1.0
 40
1.0
 10
74.27765564787984
 20
44.86798804684036
 30
0.0
 10
74.27724588572451
 20
44.85274269126815
 30
0.0
 10
74.2764392811156
 20
44.82273266250132
 30
0.0
 10
74.27023191653338
 20
44.77867260442675
 30
0.0
 10
74.26044972570897
 20
44.73633448900967
 30
0.0
 10
74.24619018744546
 20
44.69589379804307
 30
0.0
 10
74.22797489271876
 20
44.65720537724611
 30
0.0
 10
74.20614394831284
 20
44.62004720748531
 30
0.0
 10
74.17957008530281
 20
44.58511777458264
 30
0.0
 10
74.14988510425258
 20
44.55196726920612
 30
0.0
 10
74.1170063966118
 20
44.52186994175199
 30
0.0
 10
74.08212010945206
 20
44.49522306079877
 30
0.0
 10
74.04526258902426
 20
44.47284015005558
 30
0.0
 10
74.00645250362427
 20
44.45467989793504
 30
0.0
 10
73.96574967809832
 20
44.44057780710737
 30
0.0
 10
73.92320618974615
 20
44.43029738780298
 30
0.0
 10
73.87879270197753
 20
44.42422041945161
 30
0.0
 10
73.84858776972058
 20
44.42339520914514
 30
0.0
 10
73.83324459018755
 20
44.42297602760959
 30
0.0
  0
SPLINE
  5
A7
330
1F
100
AcDbEntity
  8
0
  6
Continuous
 62
     7
370
    25
100
AcDbSpline
210
0.0
220
0.0
230
1.0
 70
     8
 71
     3
 72
     9
 73
     5
 74
     0
 42
0.000000001
 43
0.00000001
 40
0.0
 40
0.0
 40
0.0
 40
0.0
 40
0.5126593363417812
 40
1.0
 40
1.0
 40
1.0
 40
1.0
 10
74.26323257095676
 20
45.02333660453267
 30
0.0
 10
74.26743851123688
 20
44.99694934296839
 30
0.0
 10
74.27564267330311
 20
44.94547800577871
 30
0.0
 10
74.27699607849529
 20
44.89337833498254
 30
0.0
 10
74.27765564787984
 20
44.86798804684036
 30
0.0
  0
LINE
  5
A8
330
1F
100
AcDbEntity
  8
0
  6
Continuous
 62
     7
370
    25
100
AcDbLine
 10
74.8693022825
 20
44.6270024699
 30
0.0
 11
74.263232571
 21
45.0233366045
 31
0.0
  0
LINE
  5
A9
330
1F
100
AcDbEntity
  8
0
  6
Continuous
 62
     7
370
    25
100
AcDbLine
 10
74.9122710325
 20
45.9604013908
 30
0.0
 11
74.9122710325
 21
45.6830576408
 31
0.0
  0
LINE
  5
AA
330
1F
100
AcDbEntity
  8
0
  6
Continuous
 62
     7
370
    25
100
AcDbLine
 10
74.7584248786
 20
46.0484422562
 30
0.0
 11
74.9122710325
 21
45.9604013908
 31
0.0
  0
LINE
  5
AB
330
1F
100
AcDbEntity
  8
0
  6
Continuous
 62
     7
370
    25
100
AcDbLine
 10
74.7584248786
 20
45.8176730254
 30
0.0
 11
74.7584248786
 21
46.0484422562
 31
0.0
  0
LINE
  5
AC
330
1F
100
AcDbEntity
  8
0
  6
Continuous
 62
     7
370
    25
100
AcDbLine
 10
73.4122710325
 20
45.8176730254
 30
0.0
 11
74.7584248786
 21
45.8176730254
 31
0.0
  0
LINE
  5
AD
330
1F
100
AcDbEntity
  8
0
  6
Continuous
 62
     7
370
    25
100
AcDbLine
 10
73.4122710325
 20
45.6830576408
 30
0.0
 11
73.4122710325
 21
45.8176730254
 31
0.0
  0
LINE
  5
AE
330
1F
100
AcDbEntity
  8
0
  6
Continuous
 62
     7
370
    25
100
AcDbLine
 10
74.9122710325
 20
45.6830576408
 30
0.0
 11
73.4122710325
 21
45.6830576408
 31
0.0
  0
LINE
  5
AF
330
1F
100
AcDbEntity
  8
0
  6
Continuous
 62
     7
370
    25
100
AcDbLine
 10
74.2926557902
 20
52.1189218969
 30
0.0
 11
76.2297906602
 21
52.1189218969
 31
0.0
  0
SPLINE
  5
B0
330
1F
100
AcDbEntity
  8
0
  6
Continuous
 62
     7
370
    25
100
AcDbSpline
210
0.0
220
0.0
230
1.0
 70
     8
 71
     3
 72
    12
 73
     8
 74
     0
 42
0.000000001
 43
0.00000001
 40
0.0
 40
0.0
 40
0.0
 40
0.0
 40
0.2499999999999999
 40
0.2499999999999999
 40
0.4999999999999999
 40
0.4999999999999999
 40
1.0
 40
1.0
 40
1.0
 40
1.0
 10
77.21227103249522
 20
45.76806893578959
 30
0.0
 10
77.21227103249522
 20
46.30560255869454
 30
0.0
 10
77.18932683793726
 20
46.84596930252607
 30
0.0
 10
77.09847013706411
 20
47.92706108734323
 30
0.0
 10
77.03120152463416
 20
48.46187920608524
 30
0.0
 10
76.77308187879181
 20
50.05156484068201
 30
0.0
 10
76.52630519119157
 20
51.09176543132133
 30
0.0
 10
76.22979066024777
 20
52.11892189687548
 30
0.0
  0
SPLINE
  5
B1
330
1F
100
AcDbEntity
  8
0
  6
Continuous
 62
     7
370
    25
100
AcDbSpline
210
0.0
220
0.0
230
1.0
 70
     8
 71
     3
 72
    10
 73
     6
 74
     0
 42
0.000000001
 43
0.00000001
 40
0.0
 40
0.0
 40
0.0
 40
0.0
 40
0.5
 40
0.5
 40
1.0
 40
1.0
 40
1.0
 40
1.0
 10
76.2297906602478
 20
39.41721597470371
 30
0.0
 10
76.52827321857136
 20
40.45118988708278
 30
0.0
 10
76.77813413194579
 20
41.50859192634292
 30
0.0
 10
77.11985691445635
 20
43.62751898651936
 30
0.0
 10
77.21227103249522
 20
44.69378635831145
 30
0.0
 10
77.21227103249522
 20
45.76806893578959
 30
0.0
  0
LINE
  5
B2
330
1F
100
AcDbEntity
  8
0
  6
Continuous
 62
     7
370
    25
100
AcDbLine
 10
74.2926557902
 20
39.4172159747
 30
0.0
 11
76.2297906602
 21
39.4172159747
 31
0.0
  0
SPLINE
  5
B3
330
1F
100
AcDbEntity
  8
0
  6
Continuous
 62
     7
370
    25
100
AcDbSpline
210
0.0
220
0.0
230
1.0
 70
     8
 71
     3
 72
     8
 73
     4
 74
     0
 42
0.000000001
 43
0.00000001
 40
0.0
 40
0.0
 40
0.0
 40
0.0
 40
1.0
 40
1.0
 40
1.0
 40
1.0
 10
74.29265579022457
 20
39.41721597470372
 30
0.0
 10
74.26482273666868
 20
39.6249647147045
 30
0.0
 10
74.23800174889837
 20
39.83280336117752
 30
0.0
 10
74.21227103249522
 20
40.04073886148532
 30
0.0
  0
LINE
  5
B4
330
1F
100
AcDbEntity
  8
0
  6
Continuous
 62
     7
370
    25
100
AcDbLine
 10
72.1947514047
 20
39.4172159747
 30
0.0
 11
74.1318862748
 21
39.4172159747
 31
0.0
  0
SPLINE
  5
B5
330
1F
100
AcDbEntity
  8
0
  6
Continuous
 62
     7
370
    25
100
AcDbSpline
210
0.0
220
0.0
230
1.0
 70
     8
 71
     3
 72
    10
 73
     6
 74
     0
 42
0.000000001
 43
0.00000001
 40
0.0
 40
0.0
 40
0.0
 40
0.0
 40
0.5
 40
0.5
 40
1.0
 40
1.0
 40
1.0
 40
1.0
 10
72.19475140474266
 20
39.41721597470371
 30
0.0
 10
71.8962688464191
 20
40.45118988708278
 30
0.0
 10
71.64640793304469
 20
41.50859192634292
 30
0.0
 10
71.30468515053411
 20
43.62751898651936
 30
0.0
 10
71.21227103249524
 20
44.69378635831145
 30
0.0
 10
71.21227103249524
 20
45.76806893578959
 30
0.0
  0
SPLINE
  5
B6
330
1F
100
AcDbEntity
  8
0
  6
Continuous
 62
     7
370
    25
100
AcDbSpline
210
0.0
220
0.0
230
1.0
 70
     8
 71
     3
 72
    12
 73
     8
 74
     0
 42
0.000000001
 43
0.00000001
 40
0.0
 40
0.0
 40
0.0
 40
0.0
 40
0.2499999999999999
 40
0.2499999999999999
 40
0.4999999999999999
 40
0.4999999999999999
 40
1.0
 40
1.0
 40
1.0
 40
1.0
 10
71.21227103249524
 20
45.76806893578959
 30
0.0
 10
71.21227103249524
 20
46.30560255869454
 30
0.0
 10
71.2352152270532
 20
46.84596930252607
 30
0.0
 10
71.32607192792635
 20
47.92706108734323
 30
0.0
 10
71.3933405403563
 20
48.46187920608524
 30
0.0
 10
71.65146018619865
 20
50.05156484068201
 30
0.0
 10
71.8982368737989
 20
51.09176543132133
 30
0.0
 10
72.19475140474269
 20
52.11892189687548
 30
0.0
  0
LINE
  5
B7
330
1F
100
AcDbEntity
  8
0
  6
Continuous
 62
     7
370
    25
100
AcDbLine
 10
72.1947514047
 20
52.1189218969
 30
0.0
 11
74.1318862748
 21
52.1189218969
 31
0.0
  0
SPLINE
  5
B8
330
1F
100
AcDbEntity
  8
0
  6
Continuous
 62
     7
370
    25
100
AcDbSpline
210
0.0
220
0.0
230
1.0
 70
     8
 71
     3
 72
     8
 73
     4
 74
     0
 42
0.000000001
 43
0.00000001
 40
0.0
 40
0.0
 40
0.0
 40
0.0
 40
1.0
 40
1.0
 40
1.0
 40
1.0
 10
74.1318862747659
 20
52.11892189687548
 30
0.0
 10
74.1597193283218
 20
51.91117315687469
 30
0.0
 10
74.18654031609209
 20
51.70333451040167
 30
0.0
 10
74.21227103249522
 20
51.49539901009387
 30
0.0
  0
SPLINE
  5
B9
330
1F
100
AcDbEntity
  8
0
  6
Continuous
 62
     7
370
    25
100
AcDbSpline
210
0.0
220
0.0
230
1.0
 70
     8
 71
     3
 72
     8
 73
     4
 74
     0
 42
0.000000001
 43
0.00000001
 40
0.0
 40
0.0
 40
0.0
 40
0.0
 40
1.0
 40
1.0
 40
1.0
 40
1.0
 10
74.21227103249522
 20
51.49539901009387
 30
0.0
 10
74.23801152306484
 20
51.70341349756108
 30
0.0
 10
74.26483304271426
 20
51.91125008224623
 30
0.0
 10
74.29265579022457
 20
52.11892189687548
 30
0.0
  0
SPLINE
  5
BA
330
1F
100
AcDbEntity
  8
0
  6
Continuous
 62
     7
370
    25
100
AcDbSpline
210
0.0
220
0.0
230
1.0
 70
     8
 71
     3
 72
    12
 73
     8
 74
     0
 42
0.000000001
 43
0.00000001
 40
0.0
 40
0.0
 40
0.0
 40
0.0
 40
0.25
 40
0.25
 40
0.5
 40
0.5
 40
1.0
 40
1.0
 40
1.0
 40
1.0
 10
77.21227103249524
 20
36.24178949416077
 30
0.0
 10
77.21227103249524
 20
36.51127738838782
 30
0.0
 10
77.18904887816808
 20
36.78197426955484
 30
0.0
 10
77.09918172830731
 20
37.31746910048714
 30
0.0
 10
77.03262313921962
 20
37.58342550383907
 30
0.0
 10
76.77591366509795
 20
38.37657110728076
 30
0.0
 10
76.52895099207555
 20
38.89905508036915
 30
0.0
 10
76.22979066024794
 20
39.41721597470372
 30
0.0
  0
SPLINE
  5
BB
330
1F
100
AcDbEntity
  8
0
  6
Continuous
 62
     7
370
    25
100
AcDbSpline
210
0.0
220
0.0
230
1.0
 70
     8
 71
     3
 72
    10
 73
     6
 74
     0
 42
0.000000001
 43
0.00000001
 40
0.0
 40
0.0
 40
0.0
 40
0.0
 40
0.5
 40
0.5
 40
1.0
 40
1.0
 40
1.0
 40
1.0
 10
76.2297906602481
 20
33.06636301361781
 30
0.0
 10
76.5296999118684
 20
33.58582107508412
 30
0.0
 10
76.77678057123434
 20
34.10907347728059
 30
0.0
 10
77.11863538526673
 20
35.16651748617597
 30
0.0
 10
77.21227103249524
 20
35.70079086460036
 30
0.0
 10
77.21227103249524
 20
36.24178949416077
 30
0.0
  0
LINE
  5
BC
330
1F
100
AcDbEntity
  8
0
  6
Continuous
 62
     7
370
    25
100
AcDbLine
 10
74.2926557902
 20
33.0663630136
 30
0.0
 11
76.2297906602
 21
33.0663630136
 31
0.0
  0
SPLINE
  5
BD
330
1F
100
AcDbEntity
  8
0
  6
Continuous
 62
     7
370
    25
100
AcDbSpline
210
0.0
220
0.0
230
1.0
 70
     8
 71
     3
 72
     8
 73
     4
 74
     0
 42
0.000000001
 43
0.00000001
 40
0.0
 40
0.0
 40
0.0
 40
0.0
 40
1.0
 40
1.0
 40
1.0
 40
1.0
 10
74.29265579022457
 20
33.06636301361783
 30
0.0
 10
74.26482411716746
 20
33.17023223152658
 30
0.0
 10
74.23800305730141
 20
33.27415142011031
 30
0.0
 10
74.21227103249522
 20
33.37812445700863
 30
0.0
  0
SPLINE
  5
BE
330
1F
100
AcDbEntity
  8
0
  6
Continuous
 62
     7
370
    25
100
AcDbSpline
210
0.0
220
0.0
230
1.0
 70
     8
 71
     3
 72
     8
 73
     4
 74
     0
 42
0.000000001
 43
0.00000001
 40
0.0
 40
0.0
 40
0.0
 40
0.0
 40
1.0
 40
1.0
 40
1.0
 40
1.0
 10
74.21227103249522
 20
33.37812445700863
 30
0.0
 10
74.18653008266192
 20
33.27411535757028
 30
0.0
 10
74.159708538401
 20
33.17019711508566
 30
0.0
 10
74.1318862747659
 20
33.06636301361783
 30
0.0
  0
LINE
  5
BF
330
1F
100
AcDbEntity
  8
0
  6
Continuous
 62
     7
370
    25
100
AcDbLine
 10
72.1947514047
 20
33.0663630136
 30
0.0
 11
74.1318862748
 21
33.0663630136
 31
0.0
  0
SPLINE
  5
C0
330
1F
100
AcDbEntity
  8
0
  6
Continuous
 62
     7
370
    25
100
AcDbSpline
210
0.0
220
0.0
230
1.0
 70
     8
 71
     3
 72
    10
 73
     6
 74
     0
 42
0.000000001
 43
0.00000001
 40
0.0
 40
0.0
 40
0.0
 40
0.0
 40
0.5
 40
0.5
 40
1.0
 40
1.0
 40
1.0
 40
1.0
 10
72.19475140474235
 20
33.06636301361781
 30
0.0
 10
71.89484215312206
 20
33.58582107508412
 30
0.0
 10
71.64776149375612
 20
34.10907347728059
 30
0.0
 10
71.30590667972373
 20
35.16651748617597
 30
0.0
 10
71.21227103249522
 20
35.70079086460036
 30
0.0
 10
71.21227103249522
 20
36.24178949416077
 30
0.0
  0
SPLINE
  5
C1
330
1F
100
AcDbEntity
  8
0
  6
Continuous
 62
     7
370
    25
100
AcDbSpline
210
0.0
220
0.0
230
1.0
 70
     8
 71
     3
 72
    12
 73
     8
 74
     0
 42
0.000000001
 43
0.00000001
 40
0.0
 40
0.0
 40
0.0
 40
0.0
 40
0.25
 40
0.25
 40
0.5
 40
0.5
 40
1.0
 40
1.0
 40
1.0
 40
1.0
 10
71.21227103249522
 20
36.24178949416077
 30
0.0
 10
71.21227103249522
 20
36.51127738838782
 30
0.0
 10
71.23549318682238
 20
36.78197426955484
 30
0.0
 10
71.32536033668315
 20
37.31746910048714
 30
0.0
 10
71.39191892577084
 20
37.58342550383907
 30
0.0
 10
71.64862839989252
 20
38.37657110728076
 30
0.0
 10
71.89559107291491
 20
38.89905508036915
 30
0.0
 10
72.19475140474252
 20
39.41721597470372
 30
0.0
  0
SPLINE
  5
C2
330
1F
100
AcDbEntity
  8
0
  6
Continuous
 62
     7
370
    25
100
AcDbSpline
210
0.0
220
0.0
230
1.0
 70
     8
 71
     3
 72
     8
 73
     4
 74
     0
 42
0.000000001
 43
0.00000001
 40
0.0
 40
0.0
 40
0.0
 40
0.0
 40
1.0
 40
1.0
 40
1.0
 40
1.0
 10
74.21227103249522
 20
39.10545453131291
 30
0.0
 10
74.23801198232854
 20
39.20946363075127
 30
0.0
 10
74.26483352658946
 20
39.31338187323588
 30
0.0
 10
74.29265579022457
 20
39.41721597470371
 30
0.0
  0
LINE
  5
C3
330
1F
100
AcDbEntity
  8
0
  6
Continuous
 62
     7
370
    25
100
AcDbLine
 10
74.2926557902
 20
58.469774858
 30
0.0
 11
76.2297906602
 21
58.469774858
 31
0.0
  0
SPLINE
  5
C4
330
1F
100
AcDbEntity
  8
0
  6
Continuous
 62
     7
370
    25
100
AcDbSpline
210
0.0
220
0.0
230
1.0
 70
     8
 71
     3
 72
    12
 73
     8
 74
     0
 42
0.000000001
 43
0.00000001
 40
0.0
 40
0.0
 40
0.0
 40
0.0
 40
0.2500000000000002
 40
0.2500000000000002
 40
0.5000000000000001
 40
0.5000000000000001
 40
1.0
 40
1.0
 40
1.0
 40
1.0
 10
77.21227103249524
 20
55.29434837741842
 30
0.0
 10
77.21227103249524
 20
55.56383627164546
 30
0.0
 10
77.18904887816808
 20
55.8345331528125
 30
0.0
 10
77.09918172830731
 20
56.3700279837448
 30
0.0
 10
77.03262313921962
 20
56.63598438709671
 30
0.0
 10
76.77591366509795
 20
57.42912999053841
 30
0.0
 10
76.52895099207555
 20
57.9516139636268
 30
0.0
 10
76.22979066024794
 20
58.46977485796137
 30
0.0
  0
SPLINE
  5
C5
330
1F
100
AcDbEntity
  8
0
  6
Continuous
 62
     7
370
    25
100
AcDbSpline
210
0.0
220
0.0
230
1.0
 70
     8
 71
     3
 72
    10
 73
     6
 74
     0
 42
0.000000001
 43
0.00000001
 40
0.0
 40
0.0
 40
0.0
 40
0.0
 40
0.5
 40
0.5
 40
1.0
 40
1.0
 40
1.0
 40
1.0
 10
76.2297906602481
 20
52.11892189687546
 30
0.0
 10
76.5296999118684
 20
52.63837995834178
 30
0.0
 10
76.77678057123434
 20
53.16163236053824
 30
0.0
 10
77.11863538526673
 20
54.21907636943362
 30
0.0
 10
77.21227103249524
 20
54.75334974785801
 30
0.0
 10
77.21227103249524
 20
55.29434837741842
 30
0.0
  0
SPLINE
  5
C6
330
1F
100
AcDbEntity
  8
0
  6
Continuous
 62
     7
370
    25
100
AcDbSpline
210
0.0
220
0.0
230
1.0
 70
     8
 71
     3
 72
     8
 73
     4
 74
     0
 42
0.000000001
 43
0.00000001
 40
0.0
 40
0.0
 40
0.0
 40
0.0
 40
1.0
 40
1.0
 40
1.0
 40
1.0
 10
74.29265579022457
 20
52.11892189687548
 30
0.0
 10
74.26482411716746
 20
52.22279111478423
 30
0.0
 10
74.23800305730141
 20
52.32671030336797
 30
0.0
 10
74.21227103249524
 20
52.43068334026628
 30
0.0
  0
SPLINE
  5
C7
330
1F
100
AcDbEntity
  8
0
  6
Continuous
 62
     7
370
    25
100
AcDbSpline
210
0.0
220
0.0
230
1.0
 70
     8
 71
     3
 72
     8
 73
     4
 74
     0
 42
0.000000001
 43
0.00000001
 40
0.0
 40
0.0
 40
0.0
 40
0.0
 40
1.0
 40
1.0
 40
1.0
 40
1.0
 10
74.21227103249522
 20
52.43068334026628
 30
0.0
 10
74.18653008266192
 20
52.32667424082793
 30
0.0
 10
74.159708538401
 20
52.22275599834331
 30
0.0
 10
74.1318862747659
 20
52.11892189687548
 30
0.0
  0
SPLINE
  5
C8
330
1F
100
AcDbEntity
  8
0
  6
Continuous
 62
     7
370
    25
100
AcDbSpline
210
0.0
220
0.0
230
1.0
 70
     8
 71
     3
 72
    10
 73
     6
 74
     0
 42
0.000000001
 43
0.00000001
 40
0.0
 40
0.0
 40
0.0
 40
0.0
 40
0.5
 40
0.5
 40
1.0
 40
1.0
 40
1.0
 40
1.0
 10
72.19475140474236
 20
52.11892189687546
 30
0.0
 10
71.89484215312206
 20
52.63837995834178
 30
0.0
 10
71.64776149375612
 20
53.16163236053824
 30
0.0
 10
71.30590667972373
 20
54.21907636943362
 30
0.0
 10
71.21227103249522
 20
54.75334974785801
 30
0.0
 10
71.21227103249522
 20
55.29434837741842
 30
0.0
  0
SPLINE
  5
C9
330
1F
100
AcDbEntity
  8
0
  6
Continuous
 62
     7
370
    25
100
AcDbSpline
210
0.0
220
0.0
230
1.0
 70
     8
 71
     3
 72
    12
 73
     8
 74
     0
 42
0.000000001
 43
0.00000001
 40
0.0
 40
0.0
 40
0.0
 40
0.0
 40
0.2500000000000002
 40
0.2500000000000002
 40
0.5000000000000001
 40
0.5000000000000001
 40
1.0
 40
1.0
 40
1.0
 40
1.0
 10
71.21227103249522
 20
55.29434837741842
 30
0.0
 10
71.21227103249522
 20
55.56383627164546
 30
0.0
 10
71.23549318682238
 20
55.8345331528125
 30
0.0
 10
71.32536033668315
 20
56.3700279837448
 30
0.0
 10
71.39191892577084
 20
56.63598438709671
 30
0.0
 10
71.64862839989252
 20
57.42912999053841
 30
0.0
 10
71.89559107291493
 20
57.9516139636268
 30
0.0
 10
72.19475140474252
 20
58.46977485796137
 30
0.0
  0
LINE
  5
CA
330
1F
100
AcDbEntity
  8
0
  6
Continuous
 62
     7
370
    25
100
AcDbLine
 10
72.1947514047
 20
58.469774858
 30
0.0
 11
74.1318862748
 21
58.469774858
 31
0.0
  0
SPLINE
  5
CB
330
1F
100
AcDbEntity
  8
0
  6
Continuous
 62
     7
370
    25
100
AcDbSpline
210
0.0
220
0.0
230
1.0
 70
     8
 71
     3
 72
     8
 73
     4
 74
     0
 42
0.000000001
 43
0.00000001
 40
0.0
 40
0.0
 40
0.0
 40
0.0
 40
1.0
 40
1.0
 40
1.0
 40
1.0
 10
74.1318862747659
 20
58.46977485796136
 30
0.0
 10
74.159717947823
 20
58.36590564005261
 30
0.0
 10
74.18653900768905
 20
58.26198645146887
 30
0.0
 10
74.21227103249522
 20
58.15801341457055
 30
0.0
  0
SPLINE
  5
CC
330
1F
100
AcDbEntity
  8
0
  6
Continuous
 62
     7
370
    25
100
AcDbSpline
210
0.0
220
0.0
230
1.0
 70
     8
 71
     3
 72
     8
 73
     4
 74
     0
 42
0.000000001
 43
0.00000001
 40
0.0
 40
0.0
 40
0.0
 40
0.0
 40
1.0
 40
1.0
 40
1.0
 40
1.0
 10
74.21227103249522
 20
58.15801341457055
 30
0.0
 10
74.23801198232854
 20
58.26202251400891
 30
0.0
 10
74.26483352658946
 20
58.36594075649353
 30
0.0
 10
74.29265579022457
 20
58.46977485796135
 30
0.0
  0
LINE
  5
CD
330
1F
100
AcDbEntity
  8
0
  6
Continuous
 62
     7
370
    25
100
AcDbLine
 10
77.2122710325
 20
45.7680689358
 30
0.0
 11
77.2122710325
 21
36.2417894942
 31
0.0
  0
LINE
  5
CE
330
1F
100
AcDbEntity
  8
0
  6
Continuous
 62
     7
370
    25
100
AcDbLine
 10
77.2122710325
 20
55.2943483774
 30
0.0
 11
77.2122710325
 21
45.7680689358
 31
0.0
  0
LINE
  5
CF
330
1F
100
AcDbEntity
  8
0
  6
Continuous
 62
     7
370
    25
100
AcDbLine
 10
71.2122710325
 20
45.7680689358
 30
0.0
 11
71.2122710325
 21
55.2943483774
 31
0.0
  0
LINE
  5
D0
330
1F
100
AcDbEntity
  8
0
  6
Continuous
 62
     7
370
    25
100
AcDbLine
 10
71.2122710325
 20
36.2417894942
 30
0.0
 11
71.2122710325
 21
45.7680689358
 31
0.0
  0
SPLINE
  5
D1
330
1F
100
AcDbEntity
  8
0
  6
Continuous
 62
     7
370
    25
100
AcDbSpline
210
0.0
220
0.0
230
1.0
 70
     8
 71
     3
 72
    23
 73
    19
 74
     0
 42
0.000000001
 43
0.00000001
 40
0.0
 40
0.0
 40
0.0
 40
0.0
 40
0.0611415679303346
 40
0.1200010135310724
 40
0.1782359705414084
 40
0.236495543407017
 40
0.294887248704973
 40
0.3546771928192958
 40
0.4166948132897785
 40
0.4806333779628396
 40
0.5458046334786409
 40
0.6097347883178745
 40
0.6729516883751544
 40
0.7360010960706833
 40
0.7998274385165253
 40
0.8647672769393869
 40
0.9310835057306723
 40
1.0
 40
1.0
 40
1.0
 40
1.0
 10
73.8251316094183
 20
44.55759141222498
 30
0.0
 10
73.83537331986847
 20
44.55782450326802
 30
0.0
 10
73.85547446669725
 20
44.55828198518019
 30
0.0
 10
73.88489508030028
 20
44.56355656023639
 30
0.0
 10
73.91341988903382
 20
44.5706807516782
 30
0.0
 10
73.9404063255586
 20
44.58219409801554
 30
0.0
 10
73.96660067338897
 20
44.59590743327919
 30
0.0
 10
73.99125427850004
 20
44.61337732157456
 30
0.0
 10
74.01506558194403
 20
44.63340697611254
 30
0.0
 10
74.03715799567416
 20
44.65660325957739
 30
0.0
 10
74.0573655153387
 20
44.68183873942695
 30
0.0
 10
74.07520203787442
 20
44.70867483318018
 30
0.0
 10
74.09025571252002
 20
44.73674945723423
 30
0.0
 10
74.10281586898871
 20
44.76603549176959
 30
0.0
 10
74.11187993754413
 20
44.79686813967048
 30
0.0
 10
74.11901703946305
 20
44.8287497180219
 30
0.0
 10
74.12281504767333
 20
44.86208796366736
 30
0.0
 10
74.12347378979837
 20
44.88470651025452
 30
0.0
 10
74.1238094940337
 20
44.89623323914805
 30
0.0
  0
SPLINE
  5
D2
330
1F
100
AcDbEntity
  8
0
  6
Continuous
 62
     7
370
    25
100
AcDbSpline
210
0.0
220
0.0
230
1.0
 70
     8
 71
     3
 72
    23
 73
    19
 74
     0
 42
0.000000001
 43
0.00000001
 40
0.0
 40
0.0
 40
0.0
 40
0.0
 40
0.0679503475997533
 40
0.1332598223836994
 40
0.1978002967596469
 40
0.2608458295516821
 40
0.3233192927503666
 40
0.3862817224595717
 40
0.4500615162333125
 40
0.5152075844858149
 40
0.5796407692199315
 40
0.6418172023841521
 40
0.7016924412115346
 40
0.7607690981778942
 40
0.8192540511346831
 40
0.8787376269055535
 40
0.938158297016091
 40
1.0
 40
1.0
 40
1.0
 40
1.0
 10
73.52765564787984
 20
44.88451448914805
 30
0.0
 10
73.52798523692097
 20
44.87338640012467
 30
0.0
 10
73.52863160560976
 20
44.85156271240108
 30
0.0
 10
73.53252325960797
 20
44.81934577431638
 30
0.0
 10
73.53940675071861
 20
44.78845410829666
 30
0.0
 10
73.54918858793881
 20
44.75886622945337
 30
0.0
 10
73.56110762977487
 20
44.7303356199926
 30
0.0
 10
73.57631598980267
 20
44.70326706576816
 30
0.0
 10
73.59409324131026
 20
44.67729512183707
 30
0.0
 10
73.61443179452847
 20
44.65298510913193
 30
0.0
 10
73.63628956799707
 20
44.63033342336858
 30
0.0
 10
73.66029816946562
 20
44.61138337229776
 30
0.0
 10
73.68461329181068
 20
44.59428109050246
 30
0.0
 10
73.71071171382455
 20
44.58132670986037
 30
0.0
 10
73.73764811330342
 20
44.57046654020572
 30
0.0
 10
73.76583307404738
 20
44.56316579063843
 30
0.0
 10
73.79512129386283
 20
44.55838622498047
 30
0.0
 10
73.81499590375417
 20
44.55785985285943
 30
0.0
 10
73.8251316094183
 20
44.55759141222498
 30
0.0
  0
SPLINE
  5
D3
330
1F
100
AcDbEntity
  8
0
  6
Continuous
 62
     7
370
    25
100
AcDbSpline
210
0.0
220
0.0
230
1.0
 70
     8
 71
     3
 72
    23
 73
    19
 74
     0
 42
0.000000001
 43
0.00000001
 40
0.0
 40
0.0
 40
0.0
 40
0.0
 40
0.0618526459466918
 40
0.12128383061537
 40
0.1807779320756124
 40
0.2392732340142805
 40
0.2986414352139417
 40
0.3581858222417117
 40
0.4207600867589708
 40
0.4852046730216432
 40
0.5503622689482868
 40
0.6136499245309119
 40
0.6766234955168248
 40
0.7391080134690123
 40
0.8021647022429443
 40
0.8667165971324775
 40
0.9320376285055445
 40
1.0
 40
1.0
 40
1.0
 40
1.0
 10
73.8251316094183
 20
45.21143756607113
 30
0.0
 10
73.81499628956139
 20
45.21116843376367
 30
0.0
 10
73.79512243618062
 20
45.21064070537483
 30
0.0
 10
73.76582871076712
 20
45.20587101012163
 30
0.0
 10
73.73766440051614
 20
45.19853323846837
 30
0.0
 10
73.71060890581525
 20
45.18779268504658
 30
0.0
 10
73.68480981015185
 20
45.17432089058892
 30
0.0
 10
73.66008385501162
 20
45.157742362057
 30
0.0
 10
73.63641397397154
 20
45.13833781396897
 30
0.0
 10
73.61439703742052
 20
45.11578041182363
 30
0.0
 10
73.59420256818112
 20
45.09145444058909
 30
0.0
 10
73.5762213748591
 20
45.06572811478395
 30
0.0
 10
73.56112198068513
 20
45.03868323413671
 30
0.0
 10
73.54918471943306
 20
45.01016547796562
 30
0.0
 10
73.53940781789078
 20
44.98057411713926
 30
0.0
 10
73.53252296877695
 20
44.94968340915291
 30
0.0
 10
73.52863168213119
 20
44.91746621191129
 30
0.0
 10
73.5279852627629
 20
44.89564255994068
 30
0.0
 10
73.52765564787984
 20
44.88451448914805
 30
0.0
  0
SPLINE
  5
D4
330
1F
100
AcDbEntity
  8
0
  6
Continuous
 62
     7
370
    25
100
AcDbSpline
210
0.0
220
0.0
230
1.0
 70
     8
 71
     3
 72
    23
 73
    19
 74
     0
 42
0.000000001
 43
0.00000001
 40
0.0
 40
0.0
 40
0.0
 40
0.0
 40
0.0705921865358075
 40
0.1385012886049303
 40
0.2037899961427016
 40
0.2667875726696014
 40
0.3290979656467185
 40
0.391174524603966
 40
0.4531677986176575
 40
0.5157967602265847
 40
0.5779688050530403
 40
0.6389663383752915
 40
0.698381066162843
 40
0.7573204555574266
 40
0.8164122397216688
 40
0.876279358230831
 40
0.9368234656501931
 40
1.0
 40
1.0
 40
1.0
 40
1.0
 10
74.1238094940337
 20
44.89623323914805
 30
0.0
 10
74.1234716295791
 20
44.90765955698587
 30
0.0
 10
74.12280874230173
 20
44.93007789847957
 30
0.0
 10
74.11906475018277
 20
44.9629273546948
 30
0.0
 10
74.11197091156238
 20
44.9939332883805
 30
0.0
 10
74.10279486800611
 20
45.02344983786465
 30
0.0
 10
74.0903010426093
 20
45.05116936321215
 30
0.0
 10
74.07530491006497
 20
45.07740806184049
 30
0.0
 10
74.05747548879218
 20
45.10190556978741
 30
0.0
 10
74.03701157245612
 20
45.12423166831959
 30
0.0
 10
74.01493381817625
 20
45.14473254075394
 30
0.0
 10
73.99114489443758
 20
45.1623666388289
 30
0.0
 10
73.96637159445679
 20
45.17759439993723
 30
0.0
 10
73.94038107927295
 20
45.1899713006402
 30
0.0
 10
73.91319002079827
 20
45.19961017893807
 30
0.0
 10
73.88492168994219
 20
45.20658221188075
 30
0.0
 10
73.85538700918713
 20
45.2104624110806
 30
0.0
 10
73.83535879070834
 20
45.21110793608936
 30
0.0
 10
73.8251316094183
 20
45.21143756607113
 30
0.0
  0
LINE
  5
D5
330
1F
100
AcDbEntity
  8
0
  6
Continuous
 62
     7
370
    25
100
AcDbLine
 10
74.2122710325
 20
51.4953990101
 30
0.0
 11
74.2122710325
 21
52.4306833403
 31
0.0
  0
LINE
  5
D6
330
1F
100
AcDbEntity
  8
0
  6
Continuous
 62
     7
370
    25
100
AcDbLine
 10
56.9086623054
 20
56.0748311631
 30
0.0
 11
56.9086623054
 21
35.4613067085
 31
0.0
  0
LINE
  5
D7
330
1F
100
AcDbEntity
  8
0
  6
Continuous
 62
     7
370
    25
100
AcDbLine
 10
54.2122710325
 20
37.0180689358
 30
0.0
 11
54.2122710325
 21
54.5180689358
 31
0.0
  0
LINE
  5
D8
330
1F
100
AcDbEntity
  8
0
  6
Continuous
 62
     7
370
    25
100
AcDbLine
 10
95.2122710325
 20
53.7680689358
 30
0.0
 11
95.2122710325
 21
37.7680689358
 31
0.0
  0
LINE
  5
D9
330
1F
100
AcDbEntity
  8
0
  6
Continuous
 62
     7
370
    25
100
AcDbLine
 10
89.7122710325
 20
53.7680689358
 30
0.0
 11
89.7122710325
 21
37.7680689358
 31
0.0
  0
LINE
  5
DA
330
1F
100
AcDbEntity
  8
0
  6
Continuous
 62
     7
370
    25
100
AcDbLine
 10
100.7122710325
 20
53.7680689358
 30
0.0
 11
100.7122710325
 21
37.7680689358
 31
0.0
  0
LINE
  5
DB
330
1F
100
AcDbEntity
  8
0
  6
Continuous
 62
     7
370
    25
100
AcDbLine
 10
84.2122710325
 20
53.7680689358
 30
0.0
 11
84.2122710325
 21
37.7680689358
 31
0.0
  0
LINE
  5
DC
330
1F
100
AcDbEntity
  8
0
  6
Continuous
 62
     7
370
    25
100
AcDbLine
 10
107.2122710325
 20
52.5724438427
 30
0.0
 11
107.2122710325
 21
38.9636940253
 31
0.0
  0
LINE
  5
DD
330
1F
100
AcDbEntity
  8
0
  6
Continuous
 62
     7
370
    25
100
AcDbLine
 10
77.2122710325
 20
36.2417894942
 30
0.0
 11
77.2122710325
 21
34.7680689358
 31
0.0
  0
LINE
  5
DE
330
1F
100
AcDbEntity
  8
0
  6
Continuous
 62
     7
370
    25
100
AcDbLine
 10
71.2122710325
 20
34.7680689358
 30
0.0
 11
71.2122710325
 21
36.2417894942
 31
0.0
  0
LINE
  5
DF
330
1F
100
AcDbEntity
  8
0
  6
Continuous
 62
     7
370
    25
100
AcDbLine
 10
77.2122710325
 20
56.7680689358
 30
0.0
 11
77.2122710325
 21
55.2943483774
 31
0.0
  0
LINE
  5
E0
330
1F
100
AcDbEntity
  8
0
  6
Continuous
 62
     7
370
    25
100
AcDbLine
 10
71.2122710325
 20
55.2943483774
 30
0.0
 11
71.2122710325
 21
56.7680689358
 31
0.0
  0
LINE
  5
E1
330
1F
100
AcDbEntity
  8
0
  6
Continuous
 62
     7
370
    25
100
AcDbLine
 10
74.2122710325
 20
58.1580134146
 30
0.0
 11
74.2122710325
 21
58.169774858
 31
0.0
  0
LINE
  5
E2
330
1F
100
AcDbEntity
  8
0
  6
Continuous
 62
     7
370
    25
100
AcDbLine
 10
74.2122710325
 20
33.3663630136
 30
0.0
 11
74.2122710325
 21
33.378124457
 31
0.0
  0
LINE
  5
E3
330
1F
100
AcDbEntity
  8
0
  6
Continuous
 62
     8
370
    25
100
AcDbLine
 10
106.7695830865
 20
38.4669895574
 30
0.0
 11
106.7695830865
 21
53.0691483142
 31
0.0
  0
LINE
  5
E4
330
1F
100
AcDbEntity
  8
0
  6
Continuous
 62
     7
370
    18
100
AcDbLine
 10
55.0934970634
 20
55.026845022
 30
0.0
 11
70.7122710325
 21
55.5149317085
 31
0.0
  0
LINE
  5
E5
330
1F
100
AcDbEntity
  8
0
  6
Continuous
 62
     7
370
    18
100
AcDbLine
 10
55.0934970634
 20
36.5092928496
 30
0.0
 11
70.7122710325
 21
36.0212061631
 31
0.0
  0
LINE
  5
E6
330
1F
100
AcDbEntity
  8
0
  6
Continuous
 62
     7
370
    18
100
AcDbLine
 10
70.7122710325
 20
35.0299439358
 30
0.0
 11
70.7122710325
 21
56.5061939358
 31
0.0
  0
LINE
  5
E7
330
1F
100
AcDbEntity
  8
0
  6
CENTERX2
 62
     7
370
    18
100
AcDbLine
 10
108.2122710325
 20
45.7680689358
 30
0.0
 11
52.8570492188
 21
45.7680689358
 31
0.0
  0
CIRCLE
  5
E8
330
1F
100
AcDbEntity
  8
0
  6
Continuous
 62
     7
370
    25
100
AcDbCircle
 10
131.5620719273
 20
45.7680689358
 30
0.0
 40
6.804374910449901
  0
CIRCLE
  5
E9
330
1F
100
AcDbEntity
  8
0
  6
Continuous
 62
     7
370
    25
100
AcDbCircle
 10
131.5620719273
 20
45.7680689358
 30
0.0
 40
7.301079378385481
  0
CIRCLE
  5
EA
330
1F
100
AcDbEntity
  8
0
  6
Continuous
 62
     7
370
    25
100
AcDbCircle
 10
131.5620719273
 20
45.7680689358
 30
0.0
 40
5.699999999999996
  0
CIRCLE
  5
EB
330
1F
100
AcDbEntity
  8
0
  6
Continuous
 62
     7
370
    25
100
AcDbCircle
 10
131.5620719273
 20
45.7680689358
 30
0.0
 40
5.5
  0
CIRCLE
  5
EC
330
1F
100
AcDbEntity
  8
0
  6
Continuous
 62
     7
370
    25
100
AcDbCircle
 10
131.5620719273
 20
45.7680689358
 30
0.0
 40
7.999999999999993
  0
SPLINE
  5
ED
330
1F
100
AcDbEntity
  8
0
  6
Continuous
 62
     7
370
    25
100
AcDbSpline
210
0.0
220
0.0
230
1.0
 70
    24
 71
     3
 72
    10
 73
     6
 74
     0
 42
0.000000001
 43
0.00000001
 40
0.0
 40
0.0
 40
0.0
 40
0.0
 40
0.5000000000000001
 40
0.5000000000000001
 40
1.0
 40
1.0
 40
1.0
 40
1.0
 10
142.5620719273493
 20
39.4172159747037
 30
0.0
 10
142.5620719273493
 20
40.45118988708277
 30
0.0
 10
142.5620719273493
 20
41.50859192634291
 30
0.0
 10
142.5620719273493
 20
43.62751898651936
 30
0.0
 10
142.5620719273493
 20
44.69378635831145
 30
0.0
 10
142.5620719273493
 20
45.76806893578959
 30
0.0
  0
SPLINE
  5
EE
330
1F
100
AcDbEntity
  8
0
  6
Continuous
 62
     7
370
    25
100
AcDbSpline
210
0.0
220
0.0
230
1.0
 70
    24
 71
     3
 72
    10
 73
     6
 74
     0
 42
0.000000001
 43
0.00000001
 40
0.0
 40
0.0
 40
0.0
 40
0.0
 40
0.5
 40
0.5
 40
1.0
 40
1.0
 40
1.0
 40
1.0
 10
142.5620719273493
 20
39.41721597470372
 30
0.0
 10
141.6623441724884
 20
38.89775791323741
 30
0.0
 10
140.7560444267017
 20
38.37450551104095
 30
0.0
 10
138.9244976771355
 20
37.31706150214557
 30
0.0
 10
137.999109040573
 20
36.78278812372117
 30
0.0
 10
137.0620719273493
 20
36.24178949416076
 30
0.0
  0
ARC
  5
EF
330
1F
100
AcDbEntity
  8
0
  6
Continuous
 62
     7
370
    25
100
AcDbCircle
 10
131.5620719273
 20
45.7680689358
 30
0.0
 40
11.0
100
AcDbArc
 50
300.0
 51
0.0
  0
ARC
  5
F0
330
1F
100
AcDbEntity
  8
0
  6
Continuous
 62
     7
370
    25
100
AcDbCircle
 10
131.5620719273
 20
45.7680689358
 30
0.0
 40
11.0
100
AcDbArc
 50
240.0
 51
300.0
  0
ARC
  5
F1
330
1F
100
AcDbEntity
  8
0
  6
Continuous
 62
     7
370
    25
100
AcDbCircle
 10
131.5620719273
 20
45.7680689358
 30
0.0
 40
11.0
100
AcDbArc
 50
180.0
 51
240.0
  0
ARC
  5
F2
330
1F
100
AcDbEntity
  8
0
  6
Continuous
 62
     7
370
    25
100
AcDbCircle
 10
131.5620719273
 20
45.7680689358
 30
0.0
 40
11.0
100
AcDbArc
 50
120.0
 51
180.0
  0
ARC
  5
F3
330
1F
100
AcDbEntity
  8
0
  6
Continuous
 62
     7
370
    25
100
AcDbCircle
 10
131.5620719273
 20
45.7680689358
 30
0.0
 40
11.0
100
AcDbArc
 50
60.0
 51
120.0
  0
ARC
  5
F4
330
1F
100
AcDbEntity
  8
0
  6
Continuous
 62
     7
370
    25
100
AcDbCircle
 10
131.5620719273
 20
45.7680689358
 30
0.0
 40
11.0
100
AcDbArc
 50
0.0
 51
60.0
  0
SPLINE
  5
F5
330
1F
100
AcDbEntity
  8
0
  6
Continuous
 62
     7
370
    25
100
AcDbSpline
210
0.0
220
0.0
230
1.0
 70
    24
 71
     3
 72
    12
 73
     8
 74
     0
 42
0.000000001
 43
0.00000001
 40
0.0
 40
0.0
 40
0.0
 40
0.0
 40
0.25
 40
0.25
 40
0.5
 40
0.5
 40
1.0
 40
1.0
 40
1.0
 40
1.0
 10
142.5620719273493
 20
45.76806893578959
 30
0.0
 10
142.5620719273493
 20
46.30560255869454
 30
0.0
 10
142.5620719273493
 20
46.84596930252607
 30
0.0
 10
142.5620719273493
 20
47.92706108734323
 30
0.0
 10
142.5620719273493
 20
48.46187920608524
 30
0.0
 10
142.5620719273493
 20
50.051564840682
 30
0.0
 10
142.5620719273493
 20
51.09176543132133
 30
0.0
 10
142.5620719273493
 20
52.11892189687548
 30
0.0
  0
SPLINE
  5
F6
330
1F
100
AcDbEntity
  8
0
  6
Continuous
 62
     7
370
    25
100
AcDbSpline
210
0.0
220
0.0
230
1.0
 70
    24
 71
     3
 72
    12
 73
     8
 74
     0
 42
0.000000001
 43
0.00000001
 40
0.0
 40
0.0
 40
0.0
 40
0.0
 40
0.2500000000000001
 40
0.2500000000000001
 40
0.5000000000000001
 40
0.5000000000000001
 40
1.0
 40
1.0
 40
1.0
 40
1.0
 10
137.0620719273493
 20
55.29434837741842
 30
0.0
 10
137.5288386521753
 20
55.02486048319138
 30
0.0
 10
137.997699403807
 20
54.75416360202434
 30
0.0
 10
138.9252036581723
 20
54.21866877109203
 30
0.0
 10
139.3858536613761
 20
53.95271236774012
 30
0.0
 10
140.7596221443369
 20
53.15956676429843
 30
0.0
 10
141.6645909318665
 20
52.63708279121004
 30
0.0
 10
142.5620719273493
 20
52.11892189687547
 30
0.0
  0
SPLINE
  5
F7
330
1F
100
AcDbEntity
  8
0
  6
Continuous
 62
     7
370
    25
100
AcDbSpline
210
0.0
220
0.0
230
1.0
 70
    24
 71
     3
 72
    10
 73
     6
 74
     0
 42
0.000000001
 43
0.00000001
 40
0.0
 40
0.0
 40
0.0
 40
0.0
 40
0.5
 40
0.5
 40
1.0
 40
1.0
 40
1.0
 40
1.0
 10
131.5620719273493
 20
33.06636301361781
 30
0.0
 10
130.6623441724884
 20
33.58582107508412
 30
0.0
 10
129.7560444267017
 20
34.10907347728059
 30
0.0
 10
127.9244976771356
 20
35.16651748617597
 30
0.0
 10
126.999109040573
 20
35.70079086460036
 30
0.0
 10
126.0620719273493
 20
36.24178949416077
 30
0.0
  0
SPLINE
  5
F8
330
1F
100
AcDbEntity
  8
0
  6
Continuous
 62
     7
370
    25
100
AcDbSpline
210
0.0
220
0.0
230
1.0
 70
    24
 71
     3
 72
    12
 73
     8
 74
     0
 42
0.000000001
 43
0.00000001
 40
0.0
 40
0.0
 40
0.0
 40
0.0
 40
0.2500000000000002
 40
0.2500000000000002
 40
0.5000000000000002
 40
0.5000000000000002
 40
1.0
 40
1.0
 40
1.0
 40
1.0
 10
137.0620719273493
 20
36.24178949416076
 30
0.0
 10
136.5953052025233
 20
35.97230159993372
 30
0.0
 10
136.1264444508916
 20
35.70160471876669
 30
0.0
 10
135.1989401965263
 20
35.16610988783439
 30
0.0
 10
134.7382901933225
 20
34.90015348448247
 30
0.0
 10
133.3645217103616
 20
34.10700788104078
 30
0.0
 10
132.4595529228321
 20
33.5845239079524
 30
0.0
 10
131.5620719273493
 20
33.06636301361782
 30
0.0
  0
SPLINE
  5
F9
330
1F
100
AcDbEntity
  8
0
  6
Continuous
 62
     7
370
    25
100
AcDbSpline
210
0.0
220
0.0
230
1.0
 70
    24
 71
     3
 72
    12
 73
     8
 74
     0
 42
0.000000001
 43
0.00000001
 40
0.0
 40
0.0
 40
0.0
 40
0.0
 40
0.2500000000000002
 40
0.2500000000000002
 40
0.5000000000000001
 40
0.5000000000000001
 40
1.0
 40
1.0
 40
1.0
 40
1.0
 10
126.0620719273493
 20
55.29434837741842
 30
0.0
 10
126.5288386521753
 20
55.56383627164546
 30
0.0
 10
126.997699403807
 20
55.8345331528125
 30
0.0
 10
127.9252036581723
 20
56.3700279837448
 30
0.0
 10
128.385853661376
 20
56.63598438709671
 30
0.0
 10
129.759622144337
 20
57.42912999053841
 30
0.0
 10
130.6645909318665
 20
57.9516139636268
 30
0.0
 10
131.5620719273493
 20
58.46977485796137
 30
0.0
  0
SPLINE
  5
FA
330
1F
100
AcDbEntity
  8
0
  6
Continuous
 62
     7
370
    25
100
AcDbSpline
210
0.0
220
0.0
230
1.0
 70
    24
 71
     3
 72
    10
 73
     6
 74
     0
 42
0.000000001
 43
0.00000001
 40
0.0
 40
0.0
 40
0.0
 40
0.0
 40
0.5
 40
0.5
 40
1.0
 40
1.0
 40
1.0
 40
1.0
 10
131.5620719273492
 20
58.46977485796138
 30
0.0
 10
132.4617996822101
 20
57.95031679649507
 30
0.0
 10
133.3680994279969
 20
57.4270643942986
 30
0.0
 10
135.199646177563
 20
56.36962038540322
 30
0.0
 10
136.1250348141255
 20
55.83534700697883
 30
0.0
 10
137.0620719273493
 20
55.29434837741842
 30
0.0
  0
SPLINE
  5
FB
330
1F
100
AcDbEntity
  8
0
  6
Continuous
 62
     7
370
    25
100
AcDbSpline
210
0.0
220
0.0
230
1.0
 70
    24
 71
     3
 72
    10
 73
     6
 74
     0
 42
0.000000001
 43
0.00000001
 40
0.0
 40
0.0
 40
0.0
 40
0.0
 40
0.5
 40
0.5
 40
1.0
 40
1.0
 40
1.0
 40
1.0
 10
120.5620719273493
 20
39.41721597470371
 30
0.0
 10
120.5620719273493
 20
40.45118988708278
 30
0.0
 10
120.5620719273493
 20
41.50859192634292
 30
0.0
 10
120.5620719273493
 20
43.62751898651936
 30
0.0
 10
120.5620719273493
 20
44.69378635831145
 30
0.0
 10
120.5620719273493
 20
45.76806893578959
 30
0.0
  0
SPLINE
  5
FC
330
1F
100
AcDbEntity
  8
0
  6
Continuous
 62
     7
370
    25
100
AcDbSpline
210
0.0
220
0.0
230
1.0
 70
    24
 71
     3
 72
    12
 73
     8
 74
     0
 42
0.000000001
 43
0.00000001
 40
0.0
 40
0.0
 40
0.0
 40
0.0
 40
0.25
 40
0.25
 40
0.5
 40
0.5
 40
1.0
 40
1.0
 40
1.0
 40
1.0
 10
126.0620719273493
 20
36.24178949416077
 30
0.0
 10
125.5953052025233
 20
36.51127738838782
 30
0.0
 10
125.1264444508916
 20
36.78197426955484
 30
0.0
 10
124.1989401965263
 20
37.31746910048714
 30
0.0
 10
123.7382901933225
 20
37.58342550383907
 30
0.0
 10
122.3645217103616
 20
38.37657110728076
 30
0.0
 10
121.4595529228321
 20
38.89905508036915
 30
0.0
 10
120.5620719273493
 20
39.41721597470372
 30
0.0
  0
SPLINE
  5
FD
330
1F
100
AcDbEntity
  8
0
  6
Continuous
 62
     7
370
    25
100
AcDbSpline
210
0.0
220
0.0
230
1.0
 70
    24
 71
     3
 72
    12
 73
     8
 74
     0
 42
0.000000001
 43
0.00000001
 40
0.0
 40
0.0
 40
0.0
 40
0.0
 40
0.2499999999999999
 40
0.2499999999999999
 40
0.4999999999999999
 40
0.4999999999999999
 40
1.0
 40
1.0
 40
1.0
 40
1.0
 10
120.5620719273493
 20
45.76806893578959
 30
0.0
 10
120.5620719273493
 20
46.30560255869454
 30
0.0
 10
120.5620719273493
 20
46.84596930252607
 30
0.0
 10
120.5620719273493
 20
47.92706108734323
 30
0.0
 10
120.5620719273493
 20
48.46187920608524
 30
0.0
 10
120.5620719273493
 20
50.05156484068201
 30
0.0
 10
120.5620719273493
 20
51.09176543132133
 30
0.0
 10
120.5620719273493
 20
52.11892189687548
 30
0.0
  0
SPLINE
  5
FE
330
1F
100
AcDbEntity
  8
0
  6
Continuous
 62
     7
370
    25
100
AcDbSpline
210
0.0
220
0.0
230
1.0
 70
    24
 71
     3
 72
    10
 73
     6
 74
     0
 42
0.000000001
 43
0.00000001
 40
0.0
 40
0.0
 40
0.0
 40
0.0
 40
0.5
 40
0.5
 40
1.0
 40
1.0
 40
1.0
 40
1.0
 10
120.5620719273493
 20
52.11892189687546
 30
0.0
 10
121.4617996822101
 20
52.63837995834178
 30
0.0
 10
122.3680994279969
 20
53.16163236053824
 30
0.0
 10
124.199646177563
 20
54.21907636943362
 30
0.0
 10
125.1250348141255
 20
54.75334974785801
 30
0.0
 10
126.0620719273493
 20
55.29434837741842
 30
0.0
  0
INSERT
  5
10A
330
1F
100
AcDbEntity
  8
0
  6
Continuous
 62
     7
370
    18
100
AcDbBlockReference
  2
SW_CENTERMARKSYMBOL_0
 10
131.5620719273
 20
45.7680689358
 30
0.0
  0
INSERT
  5
116
330
1F
100
AcDbEntity
  8
0
  6
Continuous
 62
     7
370
    18
100
AcDbBlockReference
  2
SW_CENTERMARKSYMBOL_1
 10
131.5620719273
 20
45.7680689358
 30
0.0
  0
LINE
  5
117
330
1F
100
AcDbEntity
  8
0
  6
Continuous
 62
     7
370
    25
100
AcDbLine
 10
71.2122710325
 20
92.0419004432
 30
0.0
 11
56.9086623054
 21
91.5949126705
 31
0.0
  0
LINE
  5
118
330
1F
100
AcDbEntity
  8
0
  6
Continuous
 62
     7
370
    25
100
AcDbLine
 10
56.9086623054
 20
70.9813882159
 30
0.0
 11
71.2122710325
 21
70.5344004432
 31
0.0
  0
LINE
  5
119
330
1F
100
AcDbEntity
  8
0
  6
Continuous
 62
     7
370
    25
100
AcDbLine
 10
56.9086623054
 20
91.5949126705
 30
0.0
 11
54.2122710325
 21
90.0381504432
 31
0.0
  0
LINE
  5
11A
330
1F
100
AcDbEntity
  8
0
  6
Continuous
 62
     7
370
    25
100
AcDbLine
 10
54.2122710325
 20
72.5381504432
 30
0.0
 11
56.9086623054
 21
70.9813882159
 31
0.0
  0
LINE
  5
11B
330
1F
100
AcDbEntity
  8
0
  6
Continuous
 62
     7
370
    25
100
AcDbLine
 10
95.2122710325
 20
73.2881504432
 30
0.0
 11
100.7122710325
 21
74.0381504432
 31
0.0
  0
LINE
  5
11C
330
1F
100
AcDbEntity
  8
0
  6
Continuous
 62
     7
370
    25
100
AcDbLine
 10
100.7122710325
 20
88.5381504432
 30
0.0
 11
95.2122710325
 21
89.2881504432
 31
0.0
  0
LINE
  5
11D
330
1F
100
AcDbEntity
  8
0
  6
Continuous
 62
     7
370
    25
100
AcDbLine
 10
89.7122710325
 20
73.2881504432
 30
0.0
 11
95.2122710325
 21
74.0381504432
 31
0.0
  0
LINE
  5
11E
330
1F
100
AcDbEntity
  8
0
  6
Continuous
 62
     7
370
    25
100
AcDbLine
 10
95.2122710325
 20
88.5381504432
 30
0.0
 11
89.7122710325
 21
89.2881504432
 31
0.0
  0
LINE
  5
11F
330
1F
100
AcDbEntity
  8
0
  6
Continuous
 62
     7
370
    25
100
AcDbLine
 10
84.2122710325
 20
73.2881504432
 30
0.0
 11
89.7122710325
 21
74.0381504432
 31
0.0
  0
LINE
  5
120
330
1F
100
AcDbEntity
  8
0
  6
Continuous
 62
     7
370
    25
100
AcDbLine
 10
89.7122710325
 20
88.5381504432
 30
0.0
 11
84.2122710325
 21
89.2881504432
 31
0.0
  0
LINE
  5
121
330
1F
100
AcDbEntity
  8
0
  6
Continuous
 62
     7
370
    25
100
AcDbLine
 10
84.2122710325
 20
89.2881504432
 30
0.0
 11
77.2122710325
 21
89.2881504432
 31
0.0
  0
LINE
  5
122
330
1F
100
AcDbEntity
  8
0
  6
Continuous
 62
     7
370
    25
100
AcDbLine
 10
77.2122710325
 20
73.2881504432
 30
0.0
 11
84.2122710325
 21
73.2881504432
 31
0.0
  0
LINE
  5
123
330
1F
100
AcDbEntity
  8
0
  6
Continuous
 62
     7
370
    25
100
AcDbLine
 10
100.7122710325
 20
73.2881504432
 30
0.0
 11
106.7695830865
 21
73.9870710648
 31
0.0
  0
LINE
  5
124
330
1F
100
AcDbEntity
  8
0
  6
Continuous
 62
     7
370
    25
100
AcDbLine
 10
106.7695830865
 20
88.5892298216
 30
0.0
 11
100.7122710325
 21
89.2881504432
 31
0.0
  0
ARC
  5
125
330
1F
100
AcDbEntity
  8
0
  6
Continuous
 62
     7
370
    25
100
AcDbCircle
 10
106.7122710325
 20
74.4837755328
 30
0.0
 40
0.5
100
AcDbArc
 50
276.5819446552
 51
0.0
  0
ARC
  5
126
330
1F
100
AcDbEntity
  8
0
  6
Continuous
 62
     7
370
    25
100
AcDbCircle
 10
106.7122710325
 20
88.0925253537
 30
0.0
 40
0.5
100
AcDbArc
 50
0.0
 51
83.4180553448
  0
LINE
  5
127
330
1F
100
AcDbEntity
  8
0
  6
Continuous
 62
     7
370
    25
100
AcDbLine
 10
74.2926557902
 20
92.2881504432
 30
0.0
 11
76.2297906602
 21
92.2881504432
 31
0.0
  0
SPLINE
  5
128
330
1F
100
AcDbEntity
  8
0
  6
Continuous
 62
     7
370
    25
100
AcDbSpline
210
0.0
220
0.0
230
1.0
 70
     8
 71
     3
 72
    12
 73
     8
 74
     0
 42
0.000000001
 43
0.00000001
 40
0.0
 40
0.0
 40
0.0
 40
0.0
 40
0.2500000000000001
 40
0.2500000000000001
 40
0.5000000000000001
 40
0.5000000000000001
 40
1.0
 40
1.0
 40
1.0
 40
1.0
 10
77.21227103249522
 20
86.78815044322441
 30
0.0
 10
77.21227103249522
 20
87.2549171680504
 30
0.0
 10
77.18904887816807
 20
87.72377791968212
 30
0.0
 10
77.0991817283073
 20
88.65128217404738
 30
0.0
 10
77.03262313921962
 20
89.11193217725119
 30
0.0
 10
76.77591366509793
 20
90.48570066021207
 30
0.0
 10
76.52895099207554
 20
91.39066944774162
 30
0.0
 10
76.22979066024793
 20
92.28815044322442
 30
0.0
  0
SPLINE
  5
129
330
1F
100
AcDbEntity
  8
0
  6
Continuous
 62
     7
370
    25
100
AcDbSpline
210
0.0
220
0.0
230
1.0
 70
     8
 71
     3
 72
    10
 73
     6
 74
     0
 42
0.000000001
 43
0.00000001
 40
0.0
 40
0.0
 40
0.0
 40
0.0
 40
0.5
 40
0.5
 40
1.0
 40
1.0
 40
1.0
 40
1.0
 10
76.22979066024809
 20
81.28815044322437
 30
0.0
 10
76.52969991186839
 20
82.18787819808526
 30
0.0
 10
76.77678057123433
 20
83.09417794387201
 30
0.0
 10
77.11863538526671
 20
84.92572469343813
 30
0.0
 10
77.21227103249522
 20
85.85111333000064
 30
0.0
 10
77.21227103249522
 20
86.78815044322441
 30
0.0
  0
LINE
  5
12A
330
1F
100
AcDbEntity
  8
0
  6
Continuous
 62
     7
370
    25
100
AcDbLine
 10
74.2926557902
 20
81.2881504432
 30
0.0
 11
76.2297906602
 21
81.2881504432
 31
0.0
  0
SPLINE
  5
12B
330
1F
100
AcDbEntity
  8
0
  6
Continuous
 62
     7
370
    25
100
AcDbSpline
210
0.0
220
0.0
230
1.0
 70
     8
 71
     3
 72
     8
 73
     4
 74
     0
 42
0.000000001
 43
0.00000001
 40
0.0
 40
0.0
 40
0.0
 40
0.0
 40
1.0
 40
1.0
 40
1.0
 40
1.0
 10
74.29265579022456
 20
81.28815044322441
 30
0.0
 10
74.26482411716745
 20
81.46805720598479
 30
0.0
 10
74.2380030573014
 20
81.64805052049316
 30
0.0
 10
74.21227103249522
 20
81.82813710301828
 30
0.0
  0
SPLINE
  5
12C
330
1F
100
AcDbEntity
  8
0
  6
Continuous
 62
     7
370
    25
100
AcDbSpline
210
0.0
220
0.0
230
1.0
 70
     8
 71
     3
 72
     8
 73
     4
 74
     0
 42
0.000000001
 43
0.00000001
 40
0.0
 40
0.0
 40
0.0
 40
0.0
 40
1.0
 40
1.0
 40
1.0
 40
1.0
 10
74.21227103249522
 20
81.82813710301828
 30
0.0
 10
74.1865300826619
 20
81.64798805834157
 30
0.0
 10
74.15970853840099
 20
81.46799638252494
 30
0.0
 10
74.13188627476589
 20
81.28815044322441
 30
0.0
  0
LINE
  5
12D
330
1F
100
AcDbEntity
  8
0
  6
Continuous
 62
     7
370
    25
100
AcDbLine
 10
72.1947514047
 20
81.2881504432
 30
0.0
 11
74.1318862748
 21
81.2881504432
 31
0.0
  0
SPLINE
  5
12E
330
1F
100
AcDbEntity
  8
0
  6
Continuous
 62
     7
370
    25
100
AcDbSpline
210
0.0
220
0.0
230
1.0
 70
     8
 71
     3
 72
    10
 73
     6
 74
     0
 42
0.000000001
 43
0.00000001
 40
0.0
 40
0.0
 40
0.0
 40
0.0
 40
0.5
 40
0.5
 40
1.0
 40
1.0
 40
1.0
 40
1.0
 10
72.19475140474235
 20
81.28815044322437
 30
0.0
 10
71.89484215312204
 20
82.18787819808526
 30
0.0
 10
71.64776149375611
 20
83.09417794387201
 30
0.0
 10
71.30590667972372
 20
84.92572469343813
 30
0.0
 10
71.21227103249521
 20
85.85111333000064
 30
0.0
 10
71.21227103249521
 20
86.78815044322441
 30
0.0
  0
SPLINE
  5
12F
330
1F
100
AcDbEntity
  8
0
  6
Continuous
 62
     7
370
    25
100
AcDbSpline
210
0.0
220
0.0
230
1.0
 70
     8
 71
     3
 72
    12
 73
     8
 74
     0
 42
0.000000001
 43
0.00000001
 40
0.0
 40
0.0
 40
0.0
 40
0.0
 40
0.2500000000000001
 40
0.2500000000000001
 40
0.5000000000000001
 40
0.5000000000000001
 40
1.0
 40
1.0
 40
1.0
 40
1.0
 10
71.21227103249521
 20
86.78815044322441
 30
0.0
 10
71.21227103249521
 20
87.2549171680504
 30
0.0
 10
71.23549318682237
 20
87.72377791968212
 30
0.0
 10
71.32536033668313
 20
88.65128217404738
 30
0.0
 10
71.39191892577082
 20
89.11193217725119
 30
0.0
 10
71.6486283998925
 20
90.48570066021207
 30
0.0
 10
71.89559107291491
 20
91.39066944774162
 30
0.0
 10
72.1947514047425
 20
92.28815044322442
 30
0.0
  0
LINE
  5
130
330
1F
100
AcDbEntity
  8
0
  6
Continuous
 62
     7
370
    25
100
AcDbLine
 10
72.1947514047
 20
92.2881504432
 30
0.0
 11
74.1318862748
 21
92.2881504432
 31
0.0
  0
SPLINE
  5
131
330
1F
100
AcDbEntity
  8
0
  6
Continuous
 62
     7
370
    25
100
AcDbSpline
210
0.0
220
0.0
230
1.0
 70
     8
 71
     3
 72
     8
 73
     4
 74
     0
 42
0.000000001
 43
0.00000001
 40
0.0
 40
0.0
 40
0.0
 40
0.0
 40
1.0
 40
1.0
 40
1.0
 40
1.0
 10
74.13188627476589
 20
92.2881504432244
 30
0.0
 10
74.15971794782298
 20
92.108243680464
 30
0.0
 10
74.18653900768903
 20
91.92825036595565
 30
0.0
 10
74.21227103249522
 20
91.74816378343053
 30
0.0
  0
SPLINE
  5
132
330
1F
100
AcDbEntity
  8
0
  6
Continuous
 62
     7
370
    25
100
AcDbSpline
210
0.0
220
0.0
230
1.0
 70
     8
 71
     3
 72
     8
 73
     4
 74
     0
 42
0.000000001
 43
0.00000001
 40
0.0
 40
0.0
 40
0.0
 40
0.0
 40
1.0
 40
1.0
 40
1.0
 40
1.0
 10
74.21227103249522
 20
91.74816378343053
 30
0.0
 10
74.23801198232853
 20
91.92831282810724
 30
0.0
 10
74.26483352658944
 20
92.10830450392386
 30
0.0
 10
74.29265579022456
 20
92.2881504432244
 30
0.0
  0
SPLINE
  5
133
330
1F
100
AcDbEntity
  8
0
  6
Continuous
 62
     7
370
    25
100
AcDbSpline
210
0.0
220
0.0
230
1.0
 70
     8
 71
     3
 72
    12
 73
     8
 74
     0
 42
0.000000001
 43
0.00000001
 40
0.0
 40
0.0
 40
0.0
 40
0.0
 40
0.2500000000000002
 40
0.2500000000000002
 40
0.5000000000000001
 40
0.5000000000000001
 40
1.0
 40
1.0
 40
1.0
 40
1.0
 10
77.21227103249522
 20
75.7881504432244
 30
0.0
 10
77.21227103249522
 20
76.2549171680504
 30
0.0
 10
77.18904887816807
 20
76.72377791968214
 30
0.0
 10
77.0991817283073
 20
77.65128217404738
 30
0.0
 10
77.03262313921962
 20
78.11193217725119
 30
0.0
 10
76.77591366509793
 20
79.48570066021207
 30
0.0
 10
76.52895099207554
 20
80.39066944774162
 30
0.0
 10
76.22979066024793
 20
81.28815044322444
 30
0.0
  0
LINE
  5
134
330
1F
100
AcDbEntity
  8
0
  6
Continuous
 62
     7
370
    25
100
AcDbLine
 10
77.2122710325
 20
86.7881504432
 30
0.0
 11
77.2122710325
 21
75.7881504432
 31
0.0
  0
LINE
  5
135
330
1F
100
AcDbEntity
  8
0
  6
Continuous
 62
     7
370
    25
100
AcDbLine
 10
71.2122710325
 20
75.7881504432
 30
0.0
 11
71.2122710325
 21
86.7881504432
 31
0.0
  0
SPLINE
  5
136
330
1F
100
AcDbEntity
  8
0
  6
Continuous
 62
     7
370
    25
100
AcDbSpline
210
0.0
220
0.0
230
1.0
 70
     8
 71
     3
 72
    12
 73
     8
 74
     0
 42
0.000000001
 43
0.00000001
 40
0.0
 40
0.0
 40
0.0
 40
0.0
 40
0.2500000000000002
 40
0.2500000000000002
 40
0.5000000000000001
 40
0.5000000000000001
 40
1.0
 40
1.0
 40
1.0
 40
1.0
 10
71.21227103249521
 20
75.7881504432244
 30
0.0
 10
71.21227103249521
 20
76.2549171680504
 30
0.0
 10
71.23549318682237
 20
76.72377791968214
 30
0.0
 10
71.32536033668313
 20
77.65128217404738
 30
0.0
 10
71.39191892577082
 20
78.11193217725119
 30
0.0
 10
71.6486283998925
 20
79.48570066021207
 30
0.0
 10
71.89559107291491
 20
80.39066944774162
 30
0.0
 10
72.1947514047425
 20
81.28815044322444
 30
0.0
  0
LINE
  5
137
330
1F
100
AcDbEntity
  8
0
  6
Continuous
 62
     7
370
    25
100
AcDbLine
 10
74.2122710325
 20
80.7481637834
 30
0.0
 11
74.2122710325
 21
81.828137103
 31
0.0
  0
SPLINE
  5
138
330
1F
100
AcDbEntity
  8
0
  6
Continuous
 62
     7
370
    25
100
AcDbSpline
210
0.0
220
0.0
230
1.0
 70
     8
 71
     3
 72
     8
 73
     4
 74
     0
 42
0.000000001
 43
0.00000001
 40
0.0
 40
0.0
 40
0.0
 40
0.0
 40
1.0
 40
1.0
 40
1.0
 40
1.0
 10
74.13188627476589
 20
81.28815044322441
 30
0.0
 10
74.15971794782298
 20
81.108243680464
 30
0.0
 10
74.18653900768903
 20
80.92825036595563
 30
0.0
 10
74.21227103249522
 20
80.74816378343053
 30
0.0
  0
SPLINE
  5
139
330
1F
100
AcDbEntity
  8
0
  6
Continuous
 62
     7
370
    25
100
AcDbSpline
210
0.0
220
0.0
230
1.0
 70
     8
 71
     3
 72
     8
 73
     4
 74
     0
 42
0.000000001
 43
0.00000001
 40
0.0
 40
0.0
 40
0.0
 40
0.0
 40
1.0
 40
1.0
 40
1.0
 40
1.0
 10
74.21227103249522
 20
80.74816378343053
 30
0.0
 10
74.23801198232853
 20
80.92831282810724
 30
0.0
 10
74.26483352658944
 20
81.10830450392386
 30
0.0
 10
74.29265579022456
 20
81.28815044322441
 30
0.0
  0
SPLINE
  5
13A
330
1F
100
AcDbEntity
  8
0
  6
Continuous
 62
     7
370
    25
100
AcDbSpline
210
0.0
220
0.0
230
1.0
 70
     8
 71
     3
 72
    10
 73
     6
 74
     0
 42
0.000000001
 43
0.00000001
 40
0.0
 40
0.0
 40
0.0
 40
0.0
 40
0.5
 40
0.5
 40
1.0
 40
1.0
 40
1.0
 40
1.0
 10
76.22979066024809
 20
70.28815044322437
 30
0.0
 10
76.52969991186839
 20
71.18787819808527
 30
0.0
 10
76.77678057123433
 20
72.094177943872
 30
0.0
 10
77.11863538526671
 20
73.92572469343813
 30
0.0
 10
77.21227103249522
 20
74.85111333000064
 30
0.0
 10
77.21227103249522
 20
75.7881504432244
 30
0.0
  0
LINE
  5
13B
330
1F
100
AcDbEntity
  8
0
  6
Continuous
 62
     7
370
    25
100
AcDbLine
 10
74.2926557902
 20
70.2881504432
 30
0.0
 11
76.2297906602
 21
70.2881504432
 31
0.0
  0
SPLINE
  5
13C
330
1F
100
AcDbEntity
  8
0
  6
Continuous
 62
     7
370
    25
100
AcDbSpline
210
0.0
220
0.0
230
1.0
 70
     8
 71
     3
 72
     8
 73
     4
 74
     0
 42
0.000000001
 43
0.00000001
 40
0.0
 40
0.0
 40
0.0
 40
0.0
 40
1.0
 40
1.0
 40
1.0
 40
1.0
 10
74.29265579022456
 20
70.28815044322441
 30
0.0
 10
74.26482411716745
 20
70.4680572059848
 30
0.0
 10
74.23800305730141
 20
70.64805052049317
 30
0.0
 10
74.21227103249522
 20
70.82813710301828
 30
0.0
  0
SPLINE
  5
13D
330
1F
100
AcDbEntity
  8
0
  6
Continuous
 62
     7
370
    25
100
AcDbSpline
210
0.0
220
0.0
230
1.0
 70
     8
 71
     3
 72
     8
 73
     4
 74
     0
 42
0.000000001
 43
0.00000001
 40
0.0
 40
0.0
 40
0.0
 40
0.0
 40
1.0
 40
1.0
 40
1.0
 40
1.0
 10
74.21227103249521
 20
70.82813710301829
 30
0.0
 10
74.1865300826619
 20
70.64798805834158
 30
0.0
 10
74.15970853840099
 20
70.46799638252494
 30
0.0
 10
74.13188627476589
 20
70.28815044322441
 30
0.0
  0
LINE
  5
13E
330
1F
100
AcDbEntity
  8
0
  6
Continuous
 62
     7
370
    25
100
AcDbLine
 10
72.1947514047
 20
70.2881504432
 30
0.0
 11
74.1318862748
 21
70.2881504432
 31
0.0
  0
SPLINE
  5
13F
330
1F
100
AcDbEntity
  8
0
  6
Continuous
 62
     7
370
    25
100
AcDbSpline
210
0.0
220
0.0
230
1.0
 70
     8
 71
     3
 72
    10
 73
     6
 74
     0
 42
0.000000001
 43
0.00000001
 40
0.0
 40
0.0
 40
0.0
 40
0.0
 40
0.5
 40
0.5
 40
1.0
 40
1.0
 40
1.0
 40
1.0
 10
72.19475140474235
 20
70.28815044322437
 30
0.0
 10
71.89484215312204
 20
71.18787819808527
 30
0.0
 10
71.64776149375611
 20
72.094177943872
 30
0.0
 10
71.30590667972372
 20
73.92572469343813
 30
0.0
 10
71.21227103249521
 20
74.85111333000064
 30
0.0
 10
71.21227103249521
 20
75.7881504432244
 30
0.0
  0
LINE
  5
140
330
1F
100
AcDbEntity
  8
0
  6
Continuous
 62
     7
370
    25
100
AcDbLine
 10
56.9086623054
 20
81.2881504432
 30
0.0
 11
56.9086623054
 21
70.9813882159
 31
0.0
  0
LINE
  5
141
330
1F
100
AcDbEntity
  8
0
  6
Continuous
 62
     7
370
    25
100
AcDbLine
 10
56.9086623054
 20
91.5949126705
 30
0.0
 11
56.9086623054
 21
81.2881504432
 31
0.0
  0
LINE
  5
142
330
1F
100
AcDbEntity
  8
0
  6
Continuous
 62
     7
370
    25
100
AcDbLine
 10
54.2122710325
 20
72.5381504432
 30
0.0
 11
54.2122710325
 21
90.0381504432
 31
0.0
  0
SPLINE
  5
143
330
1F
100
AcDbEntity
  8
0
  6
Continuous
 62
     7
370
    25
100
AcDbSpline
210
0.0
220
0.0
230
1.0
 70
    24
 71
     3
 72
    12
 73
     8
 74
     0
 42
0.000000001
 43
0.00000001
 40
0.0
 40
0.0
 40
0.0
 40
0.0
 40
0.25
 40
0.25
 40
0.5
 40
0.5
 40
1.0
 40
1.0
 40
1.0
 40
1.0
 10
71.21227103249522
 20
92.2881504432244
 30
0.0
 10
71.21227103249522
 20
92.2881504432244
 30
0.0
 10
71.23521522705319
 20
92.2881504432244
 30
0.0
 10
71.32607192792634
 20
92.2881504432244
 30
0.0
 10
71.39334054035629
 20
92.2881504432244
 30
0.0
 10
71.65146018619863
 20
92.2881504432244
 30
0.0
 10
71.89823687379888
 20
92.2881504432244
 30
0.0
 10
72.19475140474266
 20
92.2881504432244
 30
0.0
  0
LINE
  5
144
330
1F
100
AcDbEntity
  8
0
  6
Continuous
 62
     7
370
    25
100
AcDbLine
 10
71.2122710325
 20
92.2881504432
 30
0.0
 11
71.2122710325
 21
86.7881504432
 31
0.0
  0
SPLINE
  5
145
330
1F
100
AcDbEntity
  8
0
  6
Continuous
 62
     7
370
    25
100
AcDbSpline
210
0.0
220
0.0
230
1.0
 70
    24
 71
     3
 72
    12
 73
     8
 74
     0
 42
0.000000001
 43
0.00000001
 40
0.0
 40
0.0
 40
0.0
 40
0.0
 40
0.25
 40
0.25
 40
0.5
 40
0.5
 40
1.0
 40
1.0
 40
1.0
 40
1.0
 10
77.21227103249521
 20
92.2881504432244
 30
0.0
 10
77.21227103249521
 20
92.2881504432244
 30
0.0
 10
77.18932683793724
 20
92.2881504432244
 30
0.0
 10
77.0984701370641
 20
92.2881504432244
 30
0.0
 10
77.03120152463416
 20
92.2881504432244
 30
0.0
 10
76.7730818787918
 20
92.2881504432244
 30
0.0
 10
76.52630519119155
 20
92.2881504432244
 30
0.0
 10
76.22979066024776
 20
92.2881504432244
 30
0.0
  0
LINE
  5
146
330
1F
100
AcDbEntity
  8
0
  6
Continuous
 62
     7
370
    25
100
AcDbLine
 10
77.2122710325
 20
92.2881504432
 30
0.0
 11
77.2122710325
 21
86.7881504432
 31
0.0
  0
SPLINE
  5
147
330
1F
100
AcDbEntity
  8
0
  6
Continuous
 62
     7
370
    25
100
AcDbSpline
210
0.0
220
0.0
230
1.0
 70
    24
 71
     3
 72
    12
 73
     8
 74
     0
 42
0.000000001
 43
0.00000001
 40
0.0
 40
0.0
 40
0.0
 40
0.0
 40
0.2499999999999999
 40
0.2499999999999999
 40
0.4999999999999999
 40
0.4999999999999999
 40
1.0
 40
1.0
 40
1.0
 40
1.0
 10
77.21227103249521
 20
70.28815044322441
 30
0.0
 10
77.21227103249521
 20
70.28815044322441
 30
0.0
 10
77.18932683793724
 20
70.28815044322441
 30
0.0
 10
77.0984701370641
 20
70.28815044322441
 30
0.0
 10
77.03120152463416
 20
70.28815044322441
 30
0.0
 10
76.7730818787918
 20
70.28815044322441
 30
0.0
 10
76.52630519119155
 20
70.28815044322441
 30
0.0
 10
76.22979066024776
 20
70.28815044322441
 30
0.0
  0
LINE
  5
148
330
1F
100
AcDbEntity
  8
0
  6
Continuous
 62
     7
370
    25
100
AcDbLine
 10
77.2122710325
 20
75.7881504432
 30
0.0
 11
77.2122710325
 21
70.2881504432
 31
0.0
  0
SPLINE
  5
149
330
1F
100
AcDbEntity
  8
0
  6
Continuous
 62
     7
370
    25
100
AcDbSpline
210
0.0
220
0.0
230
1.0
 70
    24
 71
     3
 72
    12
 73
     8
 74
     0
 42
0.000000001
 43
0.00000001
 40
0.0
 40
0.0
 40
0.0
 40
0.0
 40
0.2499999999999999
 40
0.2499999999999999
 40
0.4999999999999999
 40
0.4999999999999999
 40
1.0
 40
1.0
 40
1.0
 40
1.0
 10
71.21227103249522
 20
70.28815044322441
 30
0.0
 10
71.21227103249522
 20
70.28815044322441
 30
0.0
 10
71.23521522705319
 20
70.28815044322441
 30
0.0
 10
71.32607192792634
 20
70.28815044322441
 30
0.0
 10
71.39334054035629
 20
70.28815044322441
 30
0.0
 10
71.65146018619863
 20
70.28815044322441
 30
0.0
 10
71.89823687379888
 20
70.28815044322441
 30
0.0
 10
72.19475140474266
 20
70.28815044322441
 30
0.0
  0
LINE
  5
14A
330
1F
100
AcDbEntity
  8
0
  6
Continuous
 62
     7
370
    25
100
AcDbLine
 10
71.2122710325
 20
70.2881504432
 30
0.0
 11
71.2122710325
 21
75.7881504432
 31
0.0
  0
LINE
  5
14B
330
1F
100
AcDbEntity
  8
0
  6
Continuous
 62
     7
370
    25
100
AcDbLine
 10
95.2122710325
 20
81.2881504432
 30
0.0
 11
95.2122710325
 21
73.2881504432
 31
0.0
  0
LINE
  5
14C
330
1F
100
AcDbEntity
  8
0
  6
Continuous
 62
     7
370
    25
100
AcDbLine
 10
95.2122710325
 20
89.2881504432
 30
0.0
 11
95.2122710325
 21
81.2881504432
 31
0.0
  0
LINE
  5
14D
330
1F
100
AcDbEntity
  8
0
  6
Continuous
 62
     7
370
    25
100
AcDbLine
 10
89.7122710325
 20
81.2881504432
 30
0.0
 11
89.7122710325
 21
73.2881504432
 31
0.0
  0
LINE
  5
14E
330
1F
100
AcDbEntity
  8
0
  6
Continuous
 62
     7
370
    25
100
AcDbLine
 10
89.7122710325
 20
89.2881504432
 30
0.0
 11
89.7122710325
 21
81.2881504432
 31
0.0
  0
LINE
  5
14F
330
1F
100
AcDbEntity
  8
0
  6
Continuous
 62
     7
370
    25
100
AcDbLine
 10
84.2122710325
 20
81.2881504432
 30
0.0
 11
84.2122710325
 21
73.2881504432
 31
0.0
  0
LINE
  5
150
330
1F
100
AcDbEntity
  8
0
  6
Continuous
 62
     7
370
    25
100
AcDbLine
 10
84.2122710325
 20
89.2881504432
 30
0.0
 11
84.2122710325
 21
81.2881504432
 31
0.0
  0
LINE
  5
151
330
1F
100
AcDbEntity
  8
0
  6
Continuous
 62
     7
370
    25
100
AcDbLine
 10
100.7122710325
 20
81.2881504432
 30
0.0
 11
100.7122710325
 21
73.2881504432
 31
0.0
  0
LINE
  5
152
330
1F
100
AcDbEntity
  8
0
  6
Continuous
 62
     7
370
    25
100
AcDbLine
 10
100.7122710325
 20
89.2881504432
 30
0.0
 11
100.7122710325
 21
81.2881504432
 31
0.0
  0
LINE
  5
153
330
1F
100
AcDbEntity
  8
0
  6
Continuous
 62
     7
370
    25
100
AcDbLine
 10
107.2122710325
 20
88.0925253537
 30
0.0
 11
107.2122710325
 21
74.4837755328
 31
0.0
  0
LINE
  5
154
330
1F
100
AcDbEntity
  8
0
  6
Continuous
 62
     7
370
    25
100
AcDbLine
 10
74.2122710325
 20
91.7481637834
 30
0.0
 11
74.2122710325
 21
92.2881504432
 31
0.0
  0
SPLINE
  5
155
330
1F
100
AcDbEntity
  8
0
  6
Continuous
 62
     7
370
    25
100
AcDbSpline
210
0.0
220
0.0
230
1.0
 70
    24
 71
     3
 72
     8
 73
     4
 74
     0
 42
0.000000001
 43
0.00000001
 40
0.0
 40
0.0
 40
0.0
 40
0.0
 40
1.0
 40
1.0
 40
1.0
 40
1.0
 10
74.29265579022456
 20
92.2881504432244
 30
0.0
 10
74.26482273666865
 20
92.2881504432244
 30
0.0
 10
74.23800174889836
 20
92.2881504432244
 30
0.0
 10
74.21227103249522
 20
92.2881504432244
 30
0.0
  0
SPLINE
  5
156
330
1F
100
AcDbEntity
  8
0
  6
Continuous
 62
     7
370
    25
100
AcDbSpline
210
0.0
220
0.0
230
1.0
 70
    24
 71
     3
 72
     8
 73
     4
 74
     0
 42
0.000000001
 43
0.00000001
 40
0.0
 40
0.0
 40
0.0
 40
0.0
 40
1.0
 40
1.0
 40
1.0
 40
1.0
 10
74.21227103249522
 20
92.2881504432244
 30
0.0
 10
74.1865305419256
 20
92.2881504432244
 30
0.0
 10
74.15970902227619
 20
92.2881504432244
 30
0.0
 10
74.13188627476589
 20
92.2881504432244
 30
0.0
  0
LINE
  5
157
330
1F
100
AcDbEntity
  8
0
  6
Continuous
 62
     7
370
    25
100
AcDbLine
 10
74.2122710325
 20
70.2881504432
 30
0.0
 11
74.2122710325
 21
70.828137103
 31
0.0
  0
SPLINE
  5
158
330
1F
100
AcDbEntity
  8
0
  6
Continuous
 62
     7
370
    25
100
AcDbSpline
210
0.0
220
0.0
230
1.0
 70
    24
 71
     3
 72
     8
 73
     4
 74
     0
 42
0.000000001
 43
0.00000001
 40
0.0
 40
0.0
 40
0.0
 40
0.0
 40
1.0
 40
1.0
 40
1.0
 40
1.0
 10
74.21227103249521
 20
70.28815044322441
 30
0.0
 10
74.23801152306483
 20
70.28815044322441
 30
0.0
 10
74.26483304271426
 20
70.28815044322441
 30
0.0
 10
74.29265579022456
 20
70.28815044322441
 30
0.0
  0
SPLINE
  5
159
330
1F
100
AcDbEntity
  8
0
  6
Continuous
 62
     7
370
    25
100
AcDbSpline
210
0.0
220
0.0
230
1.0
 70
    24
 71
     3
 72
     8
 73
     4
 74
     0
 42
0.000000001
 43
0.00000001
 40
0.0
 40
0.0
 40
0.0
 40
0.0
 40
1.0
 40
1.0
 40
1.0
 40
1.0
 10
74.13188627476589
 20
70.28815044322441
 30
0.0
 10
74.15971932832178
 20
70.28815044322441
 30
0.0
 10
74.18654031609208
 20
70.28815044322441
 30
0.0
 10
74.21227103249522
 20
70.28815044322441
 30
0.0
  0
LINE
  5
15A
330
1F
100
AcDbEntity
  8
0
  6
Continuous
 62
     8
370
    25
100
AcDbLine
 10
106.7695830865
 20
81.2881504432
 30
0.0
 11
106.7695830865
 21
88.5892298216
 31
0.0
  0
LINE
  5
15B
330
1F
100
AcDbEntity
  8
0
  6
Continuous
 62
     8
370
    25
100
AcDbLine
 10
106.7695830865
 20
73.9870710648
 30
0.0
 11
106.7695830865
 21
81.2881504432
 31
0.0
  0
LINE
  5
15C
330
1F
100
AcDbEntity
  8
0
  6
Continuous
 62
     7
370
    18
100
AcDbLine
 10
55.0934970634
 20
90.5469265294
 30
0.0
 11
70.7122710325
 21
91.0350132159
 31
0.0
  0
LINE
  5
15D
330
1F
100
AcDbEntity
  8
0
  6
Continuous
 62
     7
370
    18
100
AcDbLine
 10
55.0934970634
 20
72.029374357
 30
0.0
 11
70.7122710325
 21
71.5412876705
 31
0.0
  0
LINE
  5
15E
330
1F
100
AcDbEntity
  8
0
  6
Continuous
 62
     7
370
    18
100
AcDbLine
 10
70.7122710325
 20
70.5500254432
 30
0.0
 11
70.7122710325
 21
92.0262754432
 31
0.0
  0
LINE
  5
15F
330
1F
100
AcDbEntity
  8
0
  6
CENTERX2
 62
     7
370
    18
100
AcDbLine
 10
108.2122710325
 20
81.2881504432
 30
0.0
 11
53.0439970162
 21
81.2881504432
 31
0.0
  0
ENDSEC
  0
SECTION
  2
OBJECTS
  0
DICTIONARY
  5
C
330
0
100
AcDbDictionary
281
     1
  3
ACAD_GROUP
350
D
  3
ACAD_LAYOUT
350
1A
  3
ACAD_MLINESTYLE
350
17
  3
ACAD_PLOTSETTINGS
350
19
  3
ACAD_PLOTSTYLENAME
350
E
  3
ACAD_SCALELIST
350
47
  0
DICTIONARY
  5
D
102
{ACAD_REACTORS
330
C
102
}
330
C
100
AcDbDictionary
281
     1
  0
DICTIONARY
  5
1A
102
{ACAD_REACTORS
330
C
102
}
330
C
100
AcDbDictionary
281
     1
  3
Layout1
350
1E
  3
Layout2
350
26
  3
Model
350
22
  0
DICTIONARY
  5
17
102
{ACAD_REACTORS
330
C
102
}
330
C
100
AcDbDictionary
281
     1
  3
Standard
350
18
  0
DICTIONARY
  5
19
102
{ACAD_REACTORS
330
C
102
}
330
C
100
AcDbDictionary
281
     1
  0
ACDBDICTIONARYWDFLT
  5
E
102
{ACAD_REACTORS
330
C
102
}
330
C
100
AcDbDictionary
281
     1
  3
Normal
350
F
100
AcDbDictionaryWithDefault
340
F
  0
DICTIONARY
  5
47
102
{ACAD_REACTORS
330
C
102
}
330
C
100
AcDbDictionary
281
     1
  3
A0
350
48
  3
A1
350
49
  3
A2
350
4A
  3
A3
350
4B
  3
A4
350
4C
  3
A5
350
4D
  3
A6
350
4E
  3
A7
350
4F
  3
A8
350
50
  3
A9
350
51
  3
B0
350
52
  3
B1
350
53
  3
B2
350
54
  3
B3
350
55
  3
B4
350
56
  3
B5
350
57
  3
B6
350
58
  3
B7
350
59
  3
B8
350
5A
  3
B9
350
5B
  3
C0
350
5C
  3
C1
350
5D
  3
C2
350
5E
  3
C3
350
5F
  3
C4
350
60
  3
C5
350
61
  3
C6
350
62
  3
C7
350
63
  3
C8
350
64
  3
C9
350
65
  3
D0
350
66
  3
D1
350
67
  3
D2
350
68
  0
LAYOUT
  5
1E
102
{ACAD_REACTORS
330
1A
102
}
330
1A
100
AcDbPlotSettings
  1

  2
none_device
  4

  6

 40
0.0
 41
0.0
 42
0.0
 43
0.0
 44
0.0
 45
0.0
 46
0.0
 47
0.0
 48
0.0
 49
0.0
140
0.0
141
0.0
142
1.0
143
1.0
 70
   688
 72
     1
 73
     0
 74
     5
  7

 75
    16
147
1.0
148
0.0
149
0.0
100
AcDbLayout
  1
Layout1
 70
     1
 71
     1
 10
0.0
 20
0.0
 11
420.0
 21
297.0
 12
0.0
 22
0.0
 32
0.0
 14
1.0000000000E+20
 24
1.0000000000E+20
 34
1.0000000000E+20
 15
-1.0000000000E+20
 25
-1.0000000000E+20
 35
-1.0000000000E+20
146
0.0
 13
0.0
 23
0.0
 33
0.0
 16
1.0
 26
0.0
 36
0.0
 17
0.0
 27
1.0
 37
0.0
 76
     0
330
1B
  0
LAYOUT
  5
26
102
{ACAD_REACTORS
330
1A
102
}
330
1A
100
AcDbPlotSettings
  1

  2
none_device
  4

  6

 40
0.0
 41
0.0
 42
0.0
 43
0.0
 44
0.0
 45
0.0
 46
0.0
 47
0.0
 48
0.0
 49
0.0
140
0.0
141
0.0
142
1.0
143
1.0
 70
   688
 72
     1
 73
     0
 74
     5
  7

 75
    16
147
1.0
148
0.0
149
0.0
100
AcDbLayout
  1
Layout2
 70
     1
 71
     2
 10
0.0
 20
0.0
 11
0.0
 21
0.0
 12
0.0
 22
0.0
 32
0.0
 14
0.0
 24
0.0
 34
0.0
 15
0.0
 25
0.0
 35
0.0
146
0.0
 13
0.0
 23
0.0
 33
0.0
 16
1.0
 26
0.0
 36
0.0
 17
0.0
 27
1.0
 37
0.0
 76
     0
330
23
  0
LAYOUT
  5
22
102
{ACAD_REACTORS
330
1A
102
}
330
1A
100
AcDbPlotSettings
  1

  2
none_device
  4
Letter_(8.50_x_11.00_Inches)
  6

 40
6.35
 41
6.35
 42
6.35000508
 43
6.35000508
 44
215.9
 45
279.4
 46
0.0
 47
0.0
 48
0.0
 49
0.0
140
0.0
141
0.0
142
1.0
143
1.0
 70
  1712
 72
     1
 73
     0
 74
     0
  7

 75
     0
147
1.0
148
0.0
149
0.0
100
AcDbLayout
  1
Model
 70
     1
 71
     0
 10
0.0
 20
0.0
 11
215.9
 21
139.7
 12
0.0
 22
0.0
 32
0.0
 14
0.0
 24
0.0
 34
0.0
 15
215.9
 25
139.7
 35
0.0
146
0.0
 13
0.0
 23
0.0
 33
0.0
 16
1.0
 26
0.0
 36
0.0
 17
0.0
 27
1.0
 37
0.0
 76
     0
330
1F
331
29
  0
MLINESTYLE
  5
18
102
{ACAD_REACTORS
330
17
102
}
330
17
100
AcDbMlineStyle
  2
Standard
 70
     0
  3

 62
   256
 51
90.0
 52
90.0
 71
     2
 49
0.5
 62
   256
  6
BYLAYER
 49
-0.5
 62
   256
  6
BYLAYER
  0
ACDBPLACEHOLDER
  5
F
102
{ACAD_REACTORS
330
E
102
}
330
E
  0
SCALE
  5
48
102
{ACAD_REACTORS
330
47
102
}
330
47
100
AcDbScale
 70
     0
300
1:1
140
1.0
141
1.0
290
     1
  0
SCALE
  5
49
102
{ACAD_REACTORS
330
47
102
}
330
47
100
AcDbScale
 70
     0
300
1:2
140
1.0
141
2.0
290
     0
  0
SCALE
  5
4A
102
{ACAD_REACTORS
330
47
102
}
330
47
100
AcDbScale
 70
     0
300
1:4
140
1.0
141
4.0
290
     0
  0
SCALE
  5
4B
102
{ACAD_REACTORS
330
47
102
}
330
47
100
AcDbScale
 70
     0
300
1:5
140
1.0
141
5.0
290
     0
  0
SCALE
  5
4C
102
{ACAD_REACTORS
330
47
102
}
330
47
100
AcDbScale
 70
     0
300
1:8
140
1.0
141
8.0
290
     0
  0
SCALE
  5
4D
102
{ACAD_REACTORS
330
47
102
}
330
47
100
AcDbScale
 70
     0
300
1:10
140
1.0
141
10.0
290
     0
  0
SCALE
  5
4E
102
{ACAD_REACTORS
330
47
102
}
330
47
100
AcDbScale
 70
     0
300
1:16
140
1.0
141
16.0
290
     0
  0
SCALE
  5
4F
102
{ACAD_REACTORS
330
47
102
}
330
47
100
AcDbScale
 70
     0
300
1:20
140
1.0
141
20.0
290
     0
  0
SCALE
  5
50
102
{ACAD_REACTORS
330
47
102
}
330
47
100
AcDbScale
 70
     0
300
1:30
140
1.0
141
30.0
290
     0
  0
SCALE
  5
51
102
{ACAD_REACTORS
330
47
102
}
330
47
100
AcDbScale
 70
     0
300
1:40
140
1.0
141
40.0
290
     0
  0
SCALE
  5
52
102
{ACAD_REACTORS
330
47
102
}
330
47
100
AcDbScale
 70
     0
300
1:50
140
1.0
141
50.0
290
     0
  0
SCALE
  5
53
102
{ACAD_REACTORS
330
47
102
}
330
47
100
AcDbScale
 70
     0
300
1:100
140
1.0
141
100.0
290
     0
  0
SCALE
  5
54
102
{ACAD_REACTORS
330
47
102
}
330
47
100
AcDbScale
 70
     0
300
2:1
140
2.0
141
1.0
290
     0
  0
SCALE
  5
55
102
{ACAD_REACTORS
330
47
102
}
330
47
100
AcDbScale
 70
     0
300
4:1
140
4.0
141
1.0
290
     0
  0
SCALE
  5
56
102
{ACAD_REACTORS
330
47
102
}
330
47
100
AcDbScale
 70
     0
300
8:1
140
8.0
141
1.0
290
     0
  0
SCALE
  5
57
102
{ACAD_REACTORS
330
47
102
}
330
47
100
AcDbScale
 70
     0
300
10:1
140
10.0
141
1.0
290
     0
  0
SCALE
  5
58
102
{ACAD_REACTORS
330
47
102
}
330
47
100
AcDbScale
 70
     0
300
100:1
140
100.0
141
1.0
290
     0
  0
SCALE
  5
59
102
{ACAD_REACTORS
330
47
102
}
330
47
100
AcDbScale
 70
     0
300
1/128" = 1'-0"
140
0.0078125
141
12.0
290
     0
  0
SCALE
  5
5A
102
{ACAD_REACTORS
330
47
102
}
330
47
100
AcDbScale
 70
     0
300
1/64" = 1'-0"
140
0.015625
141
12.0
290
     0
  0
SCALE
  5
5B
102
{ACAD_REACTORS
330
47
102
}
330
47
100
AcDbScale
 70
     0
300
1/32" = 1'-0"
140
0.03125
141
12.0
290
     0
  0
SCALE
  5
5C
102
{ACAD_REACTORS
330
47
102
}
330
47
100
AcDbScale
 70
     0
300
1/16" = 1'-0"
140
0.0625
141
12.0
290
     0
  0
SCALE
  5
5D
102
{ACAD_REACTORS
330
47
102
}
330
47
100
AcDbScale
 70
     0
300
3/32" = 1'-0"
140
0.09375
141
12.0
290
     0
  0
SCALE
  5
5E
102
{ACAD_REACTORS
330
47
102
}
330
47
100
AcDbScale
 70
     0
300
1/8" = 1'-0"
140
0.125
141
12.0
290
     0
  0
SCALE
  5
5F
102
{ACAD_REACTORS
330
47
102
}
330
47
100
AcDbScale
 70
     0
300
3/16" = 1'-0"
140
0.1875
141
12.0
290
     0
  0
SCALE
  5
60
102
{ACAD_REACTORS
330
47
102
}
330
47
100
AcDbScale
 70
     0
300
1/4" = 1'-0"
140
0.25
141
12.0
290
     0
  0
SCALE
  5
61
102
{ACAD_REACTORS
330
47
102
}
330
47
100
AcDbScale
 70
     0
300
3/8" = 1'-0"
140
0.375
141
12.0
290
     0
  0
SCALE
  5
62
102
{ACAD_REACTORS
330
47
102
}
330
47
100
AcDbScale
 70
     0
300
1/2" = 1'-0"
140
0.5
141
12.0
290
     0
  0
SCALE
  5
63
102
{ACAD_REACTORS
330
47
102
}
330
47
100
AcDbScale
 70
     0
300
3/4" = 1'-0"
140
0.75
141
12.0
290
     0
  0
SCALE
  5
64
102
{ACAD_REACTORS
330
47
102
}
330
47
100
AcDbScale
 70
     0
300
1" = 1'-0"
140
1.0
141
12.0
290
     0
  0
SCALE
  5
65
102
{ACAD_REACTORS
330
47
102
}
330
47
100
AcDbScale
 70
     0
300
1-1/2" = 1'-0"
140
1.5
141
12.0
290
     0
  0
SCALE
  5
66
102
{ACAD_REACTORS
330
47
102
}
330
47
100
AcDbScale
 70
     0
300
3" = 1'-0"
140
3.0
141
12.0
290
     0
  0
SCALE
  5
67
102
{ACAD_REACTORS
330
47
102
}
330
47
100
AcDbScale
 70
     0
300
6" = 1'-0"
140
6.0
141
12.0
290
     0
  0
SCALE
  5
68
102
{ACAD_REACTORS
330
47
102
}
330
47
100
AcDbScale
 70
     0
300
1'-0" = 1'-0"
140
12.0
141
12.0
290
     0
  0
ENDSEC
  0
EOF
