  0
SECTION
  2
HEADER
  9
$ACADVER
  1
AC1015
  9
$ACADMAINTVER
 70
     6
  9
$DWGCODEPAGE
  3
DOS932
  9
$INSBASE
 10
0.0
 20
0.0
 30
0.0
  9
$EXTMIN
 10
0.0
 20
0.0
 30
0.0
  9
$EXTMAX
 10
215.9
 20
139.7
 30
0.0
  9
$LIMMIN
 10
0.0
 20
0.0
  9
$LIMMAX
 10
215.9
 20
139.7
  9
$ORTHOMODE
 70
     0
  9
$REGENMODE
 70
     1
  9
$FILLMODE
 70
     1
  9
$QTEXTMODE
 70
     0
  9
$MIRRTEXT
 70
     1
  9
$LTSCALE
 40
0.5
  9
$ATTMODE
 70
     1
  9
$TEXTSIZE
 40
1.75
  9
$TRACEWID
 40
1.0
  9
$TEXTSTYLE
  7
Standard
  9
$CLAYER
  8
0
  9
$CELTYPE
  6
ByLayer
  9
$CECOLOR
 62
   256
  9
$CELTSCALE
 40
1.0
  9
$DISPSILH
 70
     0
  9
$DIMSCALE
 40
1.0
  9
$DIMASZ
 40
1.651
  9
$DIMEXO
 40
0.5
  9
$DIMDLI
 40
3.75
  9
$DIMRND
 40
0.0
  9
$DIMDLE
 40
0.0
  9
$DIMEXE
 40
0.5
  9
$DIMTP
 40
0.0
  9
$DIMTM
 40
0.0
  9
$DIMTXT
 40
1.75
  9
$DIMCEN
 40
2.5
  9
$DIMTSZ
 40
0.0
  9
$DIMTOL
 70
     0
  9
$DIMLIM
 70
     0
  9
$DIMTIH
 70
     1
  9
$DIMTOH
 70
     1
  9
$DIMSE1
 70
     0
  9
$DIMSE2
 70
     0
  9
$DIMTAD
 70
     1
  9
$DIMZIN
 70
     1
  9
$DIMBLK
  1

  9
$DIMASO
 70
     1
  9
$DIMSHO
 70
     1
  9
$DIMPOST
  1

  9
$DIMAPOST
  1

  9
$DIMALT
 70
     0
  9
$DIMALTD
 70
     3
  9
$DIMALTF
 40
0.0393700787
  9
$DIMLFAC
 40
1.0
  9
$DIMTOFL
 70
     1
  9
$DIMTVP
 40
0.0
  9
$DIMTIX
 70
     0
  9
$DIMSOXD
 70
     0
  9
$DIMSAH
 70
     0
  9
$DIMBLK1
  1

  9
$DIMBLK2
  1

  9
$DIMSTYLE
  2
ISO-25
  9
$DIMCLRD
 70
     0
  9
$DIMCLRE
 70
     0
  9
$DIMCLRT
 70
     0
  9
$DIMTFAC
 40
1.0
  9
$DIMGAP
 40
0.762
  9
$DIMJUST
 70
     0
  9
$DIMSD1
 70
     0
  9
$DIMSD2
 70
     0
  9
$DIMTOLJ
 70
     0
  9
$DIMTZIN
 70
     1
  9
$DIMALTZ
 70
     0
  9
$DIMALTTZ
 70
     0
  9
$DIMUPT
 70
     0
  9
$DIMDEC
 70
     2
  9
$DIMTDEC
 70
     2
  9
$DIMALTU
 70
     2
  9
$DIMALTTD
 70
     3
  9
$DIMTXSTY
  7
Standard
  9
$DIMAUNIT
 70
     0
  9
$DIMADEC
 70
     2
  9
$DIMALTRND
 40
0.0
  9
$DIMAZIN
 70
     0
  9
$DIMDSEP
 70
    44
  9
$DIMATFIT
 70
     3
  9
$DIMFRAC
 70
     0
  9
$DIMLDRBLK
  1

  9
$DIMLUNIT
 70
     2
  9
$DIMLWD
 70
    -2
  9
$DIMLWE
 70
    -2
  9
$DIMTMOVE
 70
     0
  9
$LUNITS
 70
     2
  9
$LUPREC
 70
     2
  9
$SKETCHINC
 40
1.0
  9
$FILLETRAD
 40
10.0
  9
$AUNITS
 70
     0
  9
$AUPREC
 70
     2
  9
$MENU
  1
.
  9
$ELEVATION
 40
0.0
  9
$PELEVATION
 40
0.0
  9
$THICKNESS
 40
0.0
  9
$LIMCHECK
 70
     0
  9
$CHAMFERA
 40
0.0
  9
$CHAMFERB
 40
0.0
  9
$CHAMFERC
 40
0.0
  9
$CHAMFERD
 40
0.0
  9
$SKPOLY
 70
     0
  9
$TDCREATE
 40
2460082.686047755
  9
$TDUCREATE
 40
2460082.311047755
  9
$TDUPDATE
 40
2460082.686048287
  9
$TDUUPDATE
 40
2460082.311048287
  9
$TDINDWG
 40
0.0000000116
  9
$TDUSRTIMER
 40
0.0000000116
  9
$USRTIMER
 70
     1
  9
$ANGBASE
 50
0.0
  9
$ANGDIR
 70
     0
  9
$PDMODE
 70
     0
  9
$PDSIZE
 40
-1.0
  9
$PLINEWID
 40
0.0
  9
$SPLFRAME
 70
     0
  9
$SPLINETYPE
 70
     6
  9
$SPLINESEGS
 70
     8
  9
$HANDSEED
  5
160
  9
$SURFTAB1
 70
     6
  9
$SURFTAB2
 70
     6
  9
$SURFTYPE
 70
     6
  9
$SURFU
 70
     6
  9
$SURFV
 70
     6
  9
$UCSBASE
  2

  9
$UCSNAME
  2

  9
$UCSORG
 10
0.0
 20
0.0
 30
0.0
  9
$UCSXDIR
 10
1.0
 20
0.0
 30
0.0
  9
$UCSYDIR
 10
0.0
 20
1.0
 30
0.0
  9
$UCSORTHOREF
  2

  9
$UCSORTHOVIEW
 70
     0
  9
$UCSORGTOP
 10
0.0
 20
0.0
 30
0.0
  9
$UCSORGBOTTOM
 10
0.0
 20
0.0
 30
0.0
  9
$UCSORGLEFT
 10
0.0
 20
0.0
 30
0.0
  9
$UCSORGRIGHT
 10
0.0
 20
0.0
 30
0.0
  9
$UCSORGFRONT
 10
0.0
 20
0.0
 30
0.0
  9
$UCSORGBACK
 10
0.0
 20
0.0
 30
0.0
  9
$PUCSBASE
  2

  9
$PUCSNAME
  2

  9
$PUCSORG
 10
0.0
 20
0.0
 30
0.0
  9
$PUCSXDIR
 10
1.0
 20
0.0
 30
0.0
  9
$PUCSYDIR
 10
0.0
 20
1.0
 30
0.0
  9
$PUCSORTHOREF
  2

  9
$PUCSORTHOVIEW
 70
     0
  9
$PUCSORGTOP
 10
0.0
 20
0.0
 30
0.0
  9
$PUCSORGBOTTOM
 10
0.0
 20
0.0
 30
0.0
  9
$PUCSORGLEFT
 10
0.0
 20
0.0
 30
0.0
  9
$PUCSORGRIGHT
 10
0.0
 20
0.0
 30
0.0
  9
$PUCSORGFRONT
 10
0.0
 20
0.0
 30
0.0
  9
$PUCSORGBACK
 10
0.0
 20
0.0
 30
0.0
  9
$USERI1
 70
     0
  9
$USERI2
 70
     0
  9
$USERI3
 70
     0
  9
$USERI4
 70
     0
  9
$USERI5
 70
     0
  9
$USERR1
 40
0.0
  9
$USERR2
 40
0.0
  9
$USERR3
 40
0.0
  9
$USERR4
 40
0.0
  9
$USERR5
 40
0.0
  9
$WORLDVIEW
 70
     1
  9
$SHADEDGE
 70
     3
  9
$SHADEDIF
 70
    70
  9
$TILEMODE
 70
     1
  9
$MAXACTVP
 70
    64
  9
$PINSBASE
 10
0.0
 20
0.0
 30
0.0
  9
$PLIMCHECK
 70
     0
  9
$PEXTMIN
 10
1.0000000000E+20
 20
1.0000000000E+20
 30
1.0000000000E+20
  9
$PEXTMAX
 10
-1.0000000000E+20
 20
-1.0000000000E+20
 30
-1.0000000000E+20
  9
$PLIMMIN
 10
0.0
 20
0.0
  9
$PLIMMAX
 10
420.0
 20
297.0
  9
$UNITMODE
 70
     0
  9
$VISRETAIN
 70
     1
  9
$PLINEGEN
 70
     0
  9
$PSLTSCALE
 70
     1
  9
$TREEDEPTH
 70
  3020
  9
$CMLSTYLE
  2
Standard
  9
$CMLJUST
 70
     0
  9
$CMLSCALE
 40
20.0
  9
$PROXYGRAPHICS
 70
     1
  9
$MEASUREMENT
 70
     1
  9
$CELWEIGHT
370
    -1
  9
$ENDCAPS
280
     0
  9
$JOINSTYLE
280
     0
  9
$LWDISPLAY
290
     1
  9
$INSUNITS
 70
     4
  9
$HYPERLINKBASE
  1

  9
$STYLESHEET
  1

  9
$XEDIT
290
     1
  9
$CEPSNTYPE
380
     0
  9
$PSTYLEMODE
290
     1
  9
$FINGERPRINTGUID
  2
{C77B48BE-9D17-406B-A6B5-E597E81BD0A9}
  9
$VERSIONGUID
  2
{FAEB1C32-E019-11D5-929B-00C0DF256EC4}
  9
$EXTNAMES
290
     1
  9
$PSVPSCALE
 40
0.0
  9
$OLESTARTUP
290
     0
  0
ENDSEC
  0
SECTION
  2
CLASSES
  0
CLASS
  1
ACDBDICTIONARYWDFLT
  2
AcDbDictionaryWithDefault
  3
ObjectDBX Classes
 90
        0
280
     0
281
     0
  0
CLASS
  1
VISUALSTYLE
  2
AcDbVisualStyle
  3
ObjectDBX Classes
 90
     4095
280
     0
281
     0
  0
CLASS
  1
MATERIAL
  2
AcDbMaterial
  3
ObjectDBX Classes
 90
     1153
280
     0
281
     0
  0
CLASS
  1
SCALE
  2
AcDbScale
  3
ObjectDBX Classes
 90
     1153
280
     0
281
     0
  0
CLASS
  1
TABLESTYLE
  2
AcDbTableStyle
  3
ObjectDBX Classes
 90
     4095
280
     0
281
     0
  0
CLASS
  1
MLEADERSTYLE
  2
AcDbMLeaderStyle
  3
ACDB_MLEADERSTYLE_CLASS
 90
     4095
280
     0
281
     0
  0
CLASS
  1
SUN
  2
AcDbSun
  3
SCENEOE
 90
     1153
280
     0
281
     0
  0
CLASS
  1
ACDBPLACEHOLDER
  2
AcDbPlaceHolder
  3
ObjectDBX Classes
 90
        0
280
     0
281
     0
  0
CLASS
  1
LAYOUT
  2
AcDbLayout
  3
ObjectDBX Classes
 90
        0
280
     0
281
     0
  0
ENDSEC
  0
SECTION
  2
TABLES
  0
TABLE
  2
VPORT
  5
8
330
0
100
AcDbSymbolTable
 70
     1
  0
VPORT
  5
29
330
8
100
AcDbSymbolTableRecord
100
AcDbViewportTableRecord
  2
*Active
 70
     0
 10
0.0
 20
0.0
 11
1.0
 21
1.0
 12
107.95
 22
69.85
 13
0.0
 23
0.0
 14
10.0
 24
10.0
 15
10.0
 25
10.0
 16
0.0
 26
0.0
 36
1.0
 17
0.0
 27
0.0
 37
0.0
 40
139.7
 41
1.5454545455
 42
50.0
 43
0.0
 44
0.0
 50
0.0
 51
0.0
 71
     0
 72
  2000
 73
     1
 74
     3
 75
     0
 76
     0
 77
     0
 78
     0
281
     0
 65
     1
110
0.0
120
0.0
130
0.0
111
1.0
121
0.0
131
0.0
112
0.0
122
1.0
132
0.0
 79
     0
146
0.0
  0
ENDTAB
  0
TABLE
  2
LTYPE
  5
5
330
0
100
AcDbSymbolTable
 70
     6
  0
LTYPE
  5
14
330
5
100
AcDbSymbolTableRecord
100
AcDbLinetypeTableRecord
  2
ByBlock
 70
     0
  3

 72
    65
 73
     0
 40
0.0
  0
LTYPE
  5
15
330
5
100
AcDbSymbolTableRecord
100
AcDbLinetypeTableRecord
  2
ByLayer
 70
     0
  3

 72
    65
 73
     0
 40
0.0
  0
LTYPE
  5
16
330
5
100
AcDbSymbolTableRecord
100
AcDbLinetypeTableRecord
  2
Continuous
 70
     0
  3
Solid line
 72
    65
 73
     0
 40
0.0
  0
LTYPE
  5
6E
330
5
100
AcDbSymbolTableRecord
100
AcDbLinetypeTableRecord
  2
HIDDEN
 70
     0
  3
Hidden __ __ __ __ __ __ __ __ __ __ __ __ __ __
 72
    65
 73
     2
 40
1.905
 49
1.27
 74
     0
 49
-0.635
 74
     0
  0
LTYPE
  5
6F
330
5
100
AcDbSymbolTableRecord
100
AcDbLinetypeTableRecord
  2
PHANTOM
 70
     0
  3
Phantom ______  __  __  ______  __  __  ______
 72
    65
 73
     6
 40
12.7
 49
6.35
 74
     0
 49
-1.27
 74
     0
 49
1.27
 74
     0
 49
-1.27
 74
     0
 49
1.27
 74
     0
 49
-1.27
 74
     0
  0
LTYPE
  5
70
330
5
100
AcDbSymbolTableRecord
100
AcDbLinetypeTableRecord
  2
CENTER
 70
     0
  3
Center ____ _ ____ _ ____ _ ____ _ ____ _ ____
 72
    65
 73
     4
 40
10.16
 49
6.35
 74
     0
 49
-1.27
 74
     0
 49
1.27
 74
     0
 49
-1.27
 74
     0
  0
LTYPE
  5
71
330
5
100
AcDbSymbolTableRecord
100
AcDbLinetypeTableRecord
  2
CENTERX2
 70
     0
  3
Center (2x) ________  __  ________  __  _____
 72
    65
 73
     4
 40
20.32
 49
12.7
 74
     0
 49
-2.54
 74
     0
 49
2.54
 74
     0
 49
-2.54
 74
     0
  0
LTYPE
  5
72
330
5
100
AcDbSymbolTableRecord
100
AcDbLinetypeTableRecord
  2
DOT2
 70
     0
  3
Dot (.5x) ........................................
 72
    65
 73
     2
 40
0.635
 49
0.0
 74
     0
 49
-0.635
 74
     0
  0
ENDTAB
  0
TABLE
  2
LAYER
  5
2
330
0
100
AcDbSymbolTable
 70
     1
  0
LAYER
  5
10
330
2
100
AcDbSymbolTableRecord
100
AcDbLayerTableRecord
  2
0
 70
     0
 62
     7
  6
Continuous
370
    -3
390
F
  0
ENDTAB
  0
TABLE
  2
STYLE
  5
3
330
0
100
AcDbSymbolTable
 70
     2
  0
STYLE
  5
11
330
3
100
AcDbSymbolTableRecord
100
AcDbTextStyleTableRecord
  2
Standard
 70
     0
 40
0.0
 41
1.0
 50
0.0
 71
     0
 42
1.75
  3
txt
  4
bigfont
  0
STYLE
  5
73
330
3
100
AcDbSymbolTableRecord
100
AcDbTextStyleTableRecord
  2
SLDTEXTSTYLE0
 70
     0
 40
0.0
 41
0.7
 50
0.0
 71
     0
 42
1.75
  3
TXT
  4
bigfont
  0
ENDTAB
  0
TABLE
  2
VIEW
  5
6
330
0
100
AcDbSymbolTable
 70
     0
  0
ENDTAB
  0
TABLE
  2
UCS
  5
7
330
0
100
AcDbSymbolTable
 70
     0
  0
ENDTAB
  0
TABLE
  2
APPID
  5
9
330
0
100
AcDbSymbolTable
 70
     1
  0
APPID
  5
12
330
9
100
AcDbSymbolTableRecord
100
AcDbRegAppTableRecord
  2
ACAD
 70
     0
  0
ENDTAB
  0
TABLE
  2
DIMSTYLE
  5
A
330
0
100
AcDbSymbolTable
 70
     1
100
AcDbDimStyleTable
  0
DIMSTYLE
105
27
330
A
100
AcDbSymbolTableRecord
100
AcDbDimStyleTableRecord
  2
ISO-25
 70
     0
 41
2.5
 42
0.625
 43
3.75
 44
1.25
 73
     0
 74
     0
 77
     1
 78
     8
140
2.5
141
2.5
143
0.0393700787
147
0.625
171
     3
172
     1
178
     0
271
     2
272
     2
274
     3
278
    44
283
     0
284
     8
340
11
  0
ENDTAB
  0
TABLE
  2
BLOCK_RECORD
  5
1
330
0
100
AcDbSymbolTable
 70
     3
  0
BLOCK_RECORD
  5
1F
330
1
100
AcDbSymbolTableRecord
100
AcDbBlockTableRecord
  2
*Model_Space
340
22
  0
BLOCK_RECORD
  5
1B
330
1
100
AcDbSymbolTableRecord
100
AcDbBlockTableRecord
  2
*Paper_Space
340
1E
  0
BLOCK_RECORD
  5
23
330
1
100
AcDbSymbolTableRecord
100
AcDbBlockTableRecord
  2
*Paper_Space0
340
26
  0
BLOCK_RECORD
  5
FF
330
1
100
AcDbSymbolTableRecord
100
AcDbBlockTableRecord
  2
SW_CENTERMARKSYMBOL_0
340
0
102
{BLKREFS
331
10A
102
}
  0
BLOCK_RECORD
  5
10B
330
1
100
AcDbSymbolTableRecord
100
AcDbBlockTableRecord
  2
SW_CENTERMARKSYMBOL_1
340
0
102
{BLKREFS
331
116
102
}
  0
ENDTAB
  0
ENDSEC
  0
SECTION
  2
BLOCKS
  0
BLOCK
  5
20
330
1F
100
AcDbEntity
  8
0
100
AcDbBlockBegin
  2
*Model_Space
 70
     0
 10
0.0
 20
0.0
 30
0.0
  3
*Model_Space
  1

  0
ENDBLK
  5
21
330
1F
100
AcDbEntity
  8
0
100
AcDbBlockEnd
  0
BLOCK
  5
1C
330
1B
100
AcDbEntity
 67
     1
  8
0
100
AcDbBlockBegin
  2
*Paper_Space
 70
     0
 10
0.0
 20
0.0
 30
0.0
  3
*Paper_Space
  1

  0
ENDBLK
  5
1D
330
1B
100
AcDbEntity
 67
     1
  8
0
100
AcDbBlockEnd
  0
BLOCK
  5
24
330
23
100
AcDbEntity
  8
0
100
AcDbBlockBegin
  2
*Paper_Space0
 70
     0
 10
0.0
 20
0.0
 30
0.0
  3
*Paper_Space0
  1

  0
ENDBLK
  5
25
330
23
100
AcDbEntity
  8
0
100
AcDbBlockEnd
  0
BLOCK
  5
100
330
FF
100
AcDbEntity
  8
0
100
AcDbBlockBegin
  2
SW_CENTERMARKSYMBOL_0
 70
     0
 10
0.0
 20
0.0
 30
0.0
  3
SW_CENTERMARKSYMBOL_0
  1

  0
LINE
  5
102
330
FF
100
AcDbEntity
  8
0
  6
Continuous
 62
     0
370
    18
100
AcDbLine
 10
0.0
 20
0.0
 30
0.0
 11
0.0
 21
2.5
 31
0.0
  0
LINE
  5
103
330
FF
100
AcDbEntity
  8
0
  6
Continuous
 62
     0
370
    18
100
AcDbLine
 10
0.0
 20
0.0
 30
0.0
 11
-2.5
 21
0.0
 31
0.0
  0
LINE
  5
104
330
FF
100
AcDbEntity
  8
0
  6
Continuous
 62
     0
370
    18
100
AcDbLine
 10
0.0
 20
0.0
 30
0.0
 11
0.0
 21
-2.5
 31
0.0
  0
LINE
  5
105
330
FF
100
AcDbEntity
  8
0
  6
Continuous
 62
     0
370
    18
100
AcDbLine
 10
0.0
 20
0.0
 30
0.0
 11
2.5
 21
0.0
 31
0.0
  0
LINE
  5
106
330
FF
100
AcDbEntity
  8
0
  6
Continuous
 62
     0
370
    18
100
AcDbLine
 10
0.0
 20
5.0
 30
0.0
 11
0.0
 21
7.5
 31
0.0
  0
LINE
  5
107
330
FF
100
AcDbEntity
  8
0
  6
Continuous
 62
     0
370
    18
100
AcDbLine
 10
-5.0
 20
0.0
 30
0.0
 11
-7.5
 21
0.0
 31
0.0
  0
LINE
  5
108
330
FF
100
AcDbEntity
  8
0
  6
Continuous
 62
     0
370
    18
100
AcDbLine
 10
0.0
 20
-5.0
 30
0.0
 11
0.0
 21
-7.5
 31
0.0
  0
LINE
  5
109
330
FF
100
AcDbEntity
  8
0
  6
Continuous
 62
     0
370
    18
100
AcDbLine
 10
5.0
 20
0.0
 30
0.0
 11
7.5
 21
0.0
 31
0.0
  0
ENDBLK
  5
101
330
FF
100
AcDbEntity
  8
0
100
AcDbBlockEnd
  0
BLOCK
  5
10C
330
10B
100
AcDbEntity
  8
0
100
AcDbBlockBegin
  2
SW_CENTERMARKSYMBOL_1
 70
     0
 10
0.0
 20
0.0
 30
0.0
  3
SW_CENTERMARKSYMBOL_1
  1

  0
LINE
  5
10E
330
10B
100
AcDbEntity
  8
0
  6
Continuous
 62
     0
370
    18
100
AcDbLine
 10
0.0
 20
0.0
 30
0.0
 11
0.0
 21
2.5
 31
0.0
  0
LINE
  5
10F
330
10B
100
AcDbEntity
  8
0
  6
Continuous
 62
     0
370
    18
100
AcDbLine
 10
0.0
 20
0.0
 30
0.0
 11
-2.5
 21
0.0
 31
0.0
  0
LINE
  5
110
330
10B
100
AcDbEntity
  8
0
  6
Continuous
 62
     0
370
    18
100
AcDbLine
 10
0.0
 20
0.0
 30
0.0
 11
0.0
 21
-2.5
 31
0.0
  0
LINE
  5
111
330
10B
100
AcDbEntity
  8
0
  6
Continuous
 62
     0
370
    18
100
AcDbLine
 10
0.0
 20
0.0
 30
0.0
 11
2.5
 21
0.0
 31
0.0
  0
LINE
  5
112
330
10B
100
AcDbEntity
  8
0
  6
Continuous
 62
     0
370
    18
100
AcDbLine
 10
0.0
 20
5.0
 30
0.0
 11
0.0
 21
13.5
 31
0.0
  0
LINE
  5
113
330
10B
100
AcDbEntity
  8
0
  6
Continuous
 62
     0
370
    18
100
AcDbLine
 10
-5.0
 20
0.0
 30
0.0
 11
-13.5
 21
0.0
 31
0.0
  0
LINE
  5
114
330
10B
100
AcDbEntity
  8
0
  6
Continuous
 62
     0
370
    18
100
AcDbLine
 10
0.0
 20
-5.0
 30
0.0
 11
0.0
 21
-13.5
 31
0.0
  0
LINE
  5
115
330
10B
100
AcDbEntity
  8
0
  6
Continuous
 62
     0
370
    18
100
AcDbLine
 10
5.0
 20
0.0
 30
0.0
 11
13.5
 21
0.0
 31
0.0
  0
ENDBLK
  5
10D
330
10B
100
AcDbEntity
  8
0
100
AcDbBlockEnd
  0
ENDSEC
  0
SECTION
  2
ENTITIES
  0
MTEXT
  5
74
330
1F
100
AcDbEntity
  8
0
  6
Continuous
 62
     7
370
     0
100
AcDbMText
 10
100.9983867405
 20
67.4548637597
 30
0.0
 40
2.38125
 41
0.0
 71
     1
 72
     1
  1
エースニップル　HN-8414
  7
SLDTEXTSTYLE0
 73
     1
 44
1.0
  0
LINE
  5
75
330
1F
100
AcDbEntity
  8
0
  6
Continuous
 62
     7
370
    25
100
AcDbLine
 10
72.231104
 20
57.4455921734
 30
0.0
 11
57.927495273
 21
56.9986044007
 31
0.0
  0
LINE
  5
76
330
1F
100
AcDbEntity
  8
0
  6
Continuous
 62
     7
370
    25
100
AcDbLine
 10
57.927495273
 20
36.3850799461
 30
0.0
 11
72.231104
 21
35.9380921734
 31
0.0
  0
LINE
  5
77
330
1F
100
AcDbEntity
  8
0
  6
Continuous
 62
     7
370
    25
100
AcDbLine
 10
57.927495273
 20
56.9986044007
 30
0.0
 11
55.231104
 21
55.4418421734
 31
0.0
  0
LINE
  5
78
330
1F
100
AcDbEntity
  8
0
  6
Continuous
 62
     7
370
    25
100
AcDbLine
 10
55.231104
 20
37.9418421734
 30
0.0
 11
57.927495273
 21
36.3850799461
 31
0.0
  0
LINE
  5
79
330
1F
100
AcDbEntity
  8
0
  6
Continuous
 62
     7
370
    25
100
AcDbLine
 10
101.731104
 20
39.6918421734
 30
0.0
 11
107.788416054
 21
40.390762795
 31
0.0
  0
LINE
  5
7A
330
1F
100
AcDbEntity
  8
0
  6
Continuous
 62
     7
370
    25
100
AcDbLine
 10
107.788416054
 20
52.9929215518
 30
0.0
 11
101.731104
 21
53.6918421734
 31
0.0
  0
LINE
  5
7B
330
1F
100
AcDbEntity
  8
0
  6
Continuous
 62
     7
370
    25
100
AcDbLine
 10
96.231104
 20
39.6918421734
 30
0.0
 11
101.731104
 21
40.4418421734
 31
0.0
  0
LINE
  5
7C
330
1F
100
AcDbEntity
  8
0
  6
Continuous
 62
     7
370
    25
100
AcDbLine
 10
101.731104
 20
52.9418421734
 30
0.0
 11
96.231104
 21
53.6918421734
 31
0.0
  0
LINE
  5
7D
330
1F
100
AcDbEntity
  8
0
  6
Continuous
 62
     7
370
    25
100
AcDbLine
 10
90.731104
 20
39.6918421734
 30
0.0
 11
96.231104
 21
40.4418421734
 31
0.0
  0
LINE
  5
7E
330
1F
100
AcDbEntity
  8
0
  6
Continuous
 62
     7
370
    25
100
AcDbLine
 10
96.231104
 20
52.9418421734
 30
0.0
 11
90.731104
 21
53.6918421734
 31
0.0
  0
LINE
  5
7F
330
1F
100
AcDbEntity
  8
0
  6
Continuous
 62
     7
370
    25
100
AcDbLine
 10
85.231104
 20
53.6918421734
 30
0.0
 11
78.231104
 21
53.6918421734
 31
0.0
  0
LINE
  5
80
330
1F
100
AcDbEntity
  8
0
  6
Continuous
 62
     7
370
    25
100
AcDbLine
 10
78.231104
 20
39.6918421734
 30
0.0
 11
85.231104
 21
39.6918421734
 31
0.0
  0
LINE
  5
81
330
1F
100
AcDbEntity
  8
0
  6
Continuous
 62
     7
370
    25
100
AcDbLine
 10
85.231104
 20
39.6918421734
 30
0.0
 11
90.731104
 21
40.4418421734
 31
0.0
  0
LINE
  5
82
330
1F
100
AcDbEntity
  8
0
  6
Continuous
 62
     7
370
    25
100
AcDbLine
 10
90.731104
 20
52.9418421734
 30
0.0
 11
85.231104
 21
53.6918421734
 31
0.0
  0
ARC
  5
83
330
1F
100
AcDbEntity
  8
0
  6
Continuous
 62
     7
370
    25
100
AcDbCircle
 10
107.731104
 20
40.887467263
 30
0.0
 40
0.5000000000000008
100
AcDbArc
 50
276.5819446552
 51
0.0
  0
ARC
  5
84
330
1F
100
AcDbEntity
  8
0
  6
Continuous
 62
     7
370
    25
100
AcDbCircle
 10
107.731104
 20
52.4962170839
 30
0.0
 40
0.5000000000000079
100
AcDbArc
 50
0.0
 51
83.4180553448
  0
LINE
  5
85
330
1F
100
AcDbEntity
  8
0
  6
Continuous
 62
     7
370
    25
100
AcDbLine
 10
72.231104
 20
35.6918421734
 30
0.0
 11
73.2135843722
 21
33.9901362512
 31
0.0
  0
LINE
  5
86
330
1F
100
AcDbEntity
  8
0
  6
Continuous
 62
     7
370
    25
100
AcDbLine
 10
77.2486236278
 20
33.9901362512
 30
0.0
 11
78.231104
 21
35.6918421734
 31
0.0
  0
LINE
  5
87
330
1F
100
AcDbEntity
  8
0
  6
Continuous
 62
     7
370
    25
100
AcDbLine
 10
73.2135843722
 20
59.3935480956
 30
0.0
 11
72.231104
 21
57.6918421734
 31
0.0
  0
LINE
  5
88
330
1F
100
AcDbEntity
  8
0
  6
Continuous
 62
     7
370
    25
100
AcDbLine
 10
78.231104
 20
57.6918421734
 30
0.0
 11
77.2486236278
 21
59.3935480956
 31
0.0
  0
LINE
  5
89
330
1F
100
AcDbEntity
  8
0
  6
Continuous
 62
     7
370
    25
100
AcDbLine
 10
75.231104
 20
59.0935480956
 30
0.0
 11
75.1507192423
 21
59.3935480956
 31
0.0
  0
LINE
  5
8A
330
1F
100
AcDbEntity
  8
0
  6
Continuous
 62
     7
370
    25
100
AcDbLine
 10
75.3114887577
 20
59.3935480956
 30
0.0
 11
75.231104
 21
59.0935480956
 31
0.0
  0
LINE
  5
8B
330
1F
100
AcDbEntity
  8
0
  6
Continuous
 62
     7
370
    25
100
AcDbLine
 10
75.1507192423
 20
33.9901362512
 30
0.0
 11
75.231104
 21
34.2901362512
 31
0.0
  0
LINE
  5
8C
330
1F
100
AcDbEntity
  8
0
  6
Continuous
 62
     7
370
    25
100
AcDbLine
 10
75.231104
 20
34.2901362512
 30
0.0
 11
75.3114887577
 21
33.9901362512
 31
0.0
  0
LINE
  5
8D
330
1F
100
AcDbEntity
  8
0
  6
Continuous
 62
     7
370
    25
100
AcDbLine
 10
75.231104
 20
40.0292277689
 30
0.0
 11
75.231104
 21
40.9645120991
 31
0.0
  0
SPLINE
  5
8E
330
1F
100
AcDbEntity
  8
0
  6
Continuous
 62
     7
370
    25
100
AcDbSpline
210
0.0
220
0.0
230
1.0
 70
     8
 71
     3
 72
     8
 73
     4
 74
     0
 42
0.000000001
 43
0.00000001
 40
0.0
 40
0.0
 40
0.0
 40
0.0
 40
1.0
 40
1.0
 40
1.0
 40
1.0
 10
75.15071924227065
 20
40.34098921232453
 30
0.0
 10
75.17855091532776
 20
40.23711999441577
 30
0.0
 10
75.20537197519381
 20
40.13320080583203
 30
0.0
 10
75.23110399999999
 20
40.02922776893372
 30
0.0
  0
SPLINE
  5
8F
330
1F
100
AcDbEntity
  8
0
  6
Continuous
 62
     7
370
    25
100
AcDbSpline
210
0.0
220
0.0
230
1.0
 70
     8
 71
     3
 72
     8
 73
     4
 74
     0
 42
0.000000001
 43
0.00000001
 40
0.0
 40
0.0
 40
0.0
 40
0.0
 40
1.0
 40
1.0
 40
1.0
 40
1.0
 10
75.23110399999999
 20
40.96451209910614
 30
0.0
 10
75.20536350943037
 20
40.75649761163892
 30
0.0
 10
75.17854198978095
 20
40.54866102695377
 30
0.0
 10
75.15071924227065
 20
40.34098921232453
 30
0.0
  0
SPLINE
  5
90
330
1F
100
AcDbEntity
  8
0
  6
Continuous
 62
     7
370
    25
100
AcDbSpline
210
0.0
220
0.0
230
1.0
 70
     8
 71
     3
 72
    19
 73
    15
 74
     0
 42
0.000000001
 43
0.00000001
 40
0.0
 40
0.0
 40
0.0
 40
0.0
 40
0.1227280999764553
 40
0.239716523588393
 40
0.3518621792202463
 40
0.4632019818032239
 40
0.5202611541541643
 40
0.5794324380306665
 40
0.6405963441586369
 40
0.70529822908802
 40
0.7732361059084537
 40
0.844648929340316
 40
0.9200459817773698
 40
1.0
 40
1.0
 40
1.0
 40
1.0
 10
75.81571938461538
 20
47.62814025033348
 30
0.0
 10
75.81512424326759
 20
47.64522010101875
 30
0.0
 10
75.81396179379627
 20
47.67858102187115
 30
0.0
 10
75.80374438691612
 20
47.72666526547838
 30
0.0
 10
75.78755595898454
 20
47.77131993450743
 30
0.0
 10
75.76800848027132
 20
47.8053377845857
 30
0.0
 10
75.74877899790853
 20
47.83050038937736
 30
0.0
 10
75.73223587426148
 20
47.84882609136221
 30
0.0
 10
75.71347936038629
 20
47.86649394528464
 30
0.0
 10
75.69199498621654
 20
47.88281064853378
 30
0.0
 10
75.66852151242384
 20
47.89875393252065
 30
0.0
 10
75.64292965585483
 20
47.91417156271491
 30
0.0
 10
75.61485455322496
 20
47.92856832447781
 30
0.0
 10
75.59511133184797
 20
47.93733186908813
 30
0.0
 10
75.58495015384614
 20
47.94184217341041
 30
0.0
  0
SPLINE
  5
91
330
1F
100
AcDbEntity
  8
0
  6
Continuous
 62
     7
370
    25
100
AcDbSpline
210
0.0
220
0.0
230
1.0
 70
     8
 71
     3
 72
    23
 73
    19
 74
     0
 42
0.000000001
 43
0.00000001
 40
0.0
 40
0.0
 40
0.0
 40
0.0
 40
0.0552698294993248
 40
0.1099567044850939
 40
0.1632335040550556
 40
0.2180575651623569
 40
0.2732775387226747
 40
0.330881045495497
 40
0.3904799376860887
 40
0.4536559730386418
 40
0.5189026226022312
 40
0.5833461108214767
 40
0.6485466930814432
 40
0.7150552190344911
 40
0.7825206438000537
 40
0.8523352944264511
 40
0.9249348997257085
 40
1.0
 40
1.0
 40
1.0
 40
1.0
 10
75.58044294230767
 20
47.32645755802579
 30
0.0
 10
75.58827628048606
 20
47.3266351420473
 30
0.0
 10
75.60386033527716
 20
47.32698843703575
 30
0.0
 10
75.62662794553256
 20
47.33144471662359
 30
0.0
 10
75.64870081100256
 20
47.33813960163729
 30
0.0
 10
75.66997877813921
 20
47.34734953855927
 30
0.0
 10
75.69033833972364
 20
47.3596544088393
 30
0.0
 10
75.70980447295061
 20
47.37442435230021
 30
0.0
 10
75.72870341005392
 20
47.39166649768552
 30
0.0
 10
75.74613100275754
 20
47.41183146804487
 30
0.0
 10
75.76256968544993
 20
47.43366219909785
 30
0.0
 10
75.77678031512693
 20
47.45736410428179
 30
0.0
 10
75.78882523534439
 20
47.48241440914548
 30
0.0
 10
75.79877690711444
 20
47.50883614922677
 30
0.0
 10
75.80625815348326
 20
47.53673516916053
 30
0.0
 10
75.81163102273696
 20
47.56597486036128
 30
0.0
 10
75.81498991583065
 20
47.59661251193983
 30
0.0
 10
75.81547353674932
 20
47.61751467269725
 30
0.0
 10
75.81571938461538
 20
47.62814025033348
 30
0.0
  0
SPLINE
  5
92
330
1F
100
AcDbEntity
  8
0
  6
Continuous
 62
     7
370
    25
100
AcDbSpline
210
0.0
220
0.0
230
1.0
 70
     8
 71
     3
 72
    19
 73
    15
 74
     0
 42
0.000000001
 43
0.00000001
 40
0.0
 40
0.0
 40
0.0
 40
0.0
 40
0.1101423815503174
 40
0.2157418685830274
 40
0.3179605426392306
 40
0.4180517606815226
 40
0.5115631470355316
 40
0.5965727584443461
 40
0.6733290469034968
 40
0.7440491927238595
 40
0.8107168223002833
 40
0.8740854521098849
 40
0.9367096168966699
 40
1.0
 40
1.0
 40
1.0
 40
1.0
 10
75.33495015384614
 20
47.71107294264118
 30
0.0
 10
75.33526644281474
 20
47.69251581310901
 30
0.0
 10
75.3358859752067
 20
47.65616695498142
 30
0.0
 10
75.3433272223173
 20
47.6030621755028
 30
0.0
 10
75.35373654813718
 20
47.55222062587117
 30
0.0
 10
75.36931271977865
 20
47.50480282179637
 30
0.0
 10
75.38800857147865
 20
47.46172410369811
 30
0.0
 10
75.40908950960124
 20
47.4241446683451
 30
0.0
 10
75.43297326664208
 20
47.39295513365443
 30
0.0
 10
75.45934639119028
 20
47.36807757535299
 30
0.0
 10
75.4879621805818
 20
47.34981833090107
 30
0.0
 10
75.51747510794262
 20
47.33611295944564
 30
0.0
 10
75.54857184114461
 20
47.32807831539283
 30
0.0
 10
75.56978183431252
 20
47.32699971278962
 30
0.0
 10
75.58044294230767
 20
47.32645755802579
 30
0.0
  0
LINE
  5
93
330
1F
100
AcDbEntity
  8
0
  6
Continuous
 62
     7
370
    25
100
AcDbLine
 10
75.181104
 20
47.7110729426
 30
0.0
 11
75.3349501538
 21
47.7110729426
 31
0.0
  0
SPLINE
  5
94
330
1F
100
AcDbEntity
  8
0
  6
Continuous
 62
     7
370
    25
100
AcDbSpline
210
0.0
220
0.0
230
1.0
 70
     8
 71
     3
 72
    23
 73
    19
 74
     0
 42
0.000000001
 43
0.00000001
 40
0.0
 40
0.0
 40
0.0
 40
0.0
 40
0.0669051223273616
 40
0.1334773340846825
 40
0.2010229080576287
 40
0.2712178684297488
 40
0.3428591616573978
 40
0.4138109980627169
 40
0.4855518488903453
 40
0.5598002749200529
 40
0.5998999649035781
 40
0.6436094423977958
 40
0.6919106424505659
 40
0.7447030291556902
 40
0.8015038302285953
 40
0.8628660266331954
 40
0.9293326711591618
 40
1.0
 40
1.0
 40
1.0
 40
1.0
 10
74.8637963076923
 20
47.24953448110271
 30
0.0
 10
74.87777261157484
 20
47.25019031296774
 30
0.0
 10
74.90565567519845
 20
47.25149871336976
 30
0.0
 10
74.94667725615848
 20
47.26148827899483
 30
0.0
 10
74.98620249853049
 20
47.27791854044459
 30
0.0
 10
75.02355136473454
 20
47.30092371083786
 30
0.0
 10
75.05818343274987
 20
47.32891454450567
 30
0.0
 10
75.08896285170641
 20
47.36162009177212
 30
0.0
 10
75.11461572249847
 20
47.39912057926094
 30
0.0
 10
75.13227419673423
 20
47.43385744044566
 30
0.0
 10
75.14404282719988
 20
47.46470044220064
 30
0.0
 10
75.15229477056485
 20
47.49104281618276
 30
0.0
 10
75.15889122786882
 20
47.5205599944899
 30
0.0
 10
75.16527198859248
 20
47.55289762982677
 30
0.0
 10
75.17062121346058
 20
47.58819210602174
 30
0.0
 10
75.17510139894985
 20
47.62647522117178
 30
0.0
 10
75.1786806197939
 20
47.66776237686588
 30
0.0
 10
75.18027987712821
 20
47.69634424767435
 30
0.0
 10
75.18110399999999
 20
47.71107294264118
 30
0.0
  0
SPLINE
  5
95
330
1F
100
AcDbEntity
  8
0
  6
Continuous
 62
     7
370
    25
100
AcDbSpline
210
0.0
220
0.0
230
1.0
 70
     8
 71
     3
 72
    23
 73
    19
 74
     0
 42
0.000000001
 43
0.00000001
 40
0.0
 40
0.0
 40
0.0
 40
0.0
 40
0.0760618905628339
 40
0.1487324608035361
 40
0.2183745247439722
 40
0.2857225935927383
 40
0.3510576941824569
 40
0.414934915729319
 40
0.4784859417740854
 40
0.542169035281216
 40
0.6047501165431387
 40
0.6641185017301124
 40
0.7214996756099116
 40
0.7776159163852548
 40
0.8326661086975489
 40
0.8878580281135741
 40
0.9434676608977686
 40
1.0
 40
1.0
 40
1.0
 40
1.0
 10
74.5464886153846
 20
47.63144553879502
 30
0.0
 10
74.54675214549385
 20
47.61740813335923
 30
0.0
 10
74.54726745587276
 20
47.58995919883613
 30
0.0
 10
74.55202018489578
 20
47.54990977097244
 30
0.0
 10
74.55891179002167
 20
47.51179709385753
 30
0.0
 10
74.56969160038369
 20
47.47601010724588
 30
0.0
 10
74.58262376370807
 20
47.44206183806934
 30
0.0
 10
74.59955433898077
 20
47.41071010977528
 30
0.0
 10
74.61867468661654
 20
47.38103322028618
 30
0.0
 10
74.6409153283325
 20
47.35390056531187
 30
0.0
 10
74.66495505465723
 20
47.32943915014101
 30
0.0
 10
74.69045906191933
 20
47.30830178478821
 30
0.0
 10
74.71663655992228
 20
47.28999440892467
 30
0.0
 10
74.74409821678093
 20
47.27527833394365
 30
0.0
 10
74.77257465571782
 20
47.26363722792686
 30
0.0
 10
74.80217246429615
 20
47.25571723254394
 30
0.0
 10
74.83264241044802
 20
47.25020907395121
 30
0.0
 10
74.85335486777743
 20
47.24976057547028
 30
0.0
 10
74.8637963076923
 20
47.24953448110271
 30
0.0
  0
SPLINE
  5
96
330
1F
100
AcDbEntity
  8
0
  6
Continuous
 62
     7
370
    25
100
AcDbSpline
210
0.0
220
0.0
230
1.0
 70
     8
 71
     3
 72
    15
 73
    11
 74
     0
 42
0.000000001
 43
0.00000001
 40
0.0
 40
0.0
 40
0.0
 40
0.0
 40
0.1182713048357256
 40
0.2361775330837632
 40
0.355662932948509
 40
0.4759041646706825
 40
0.6001273417110832
 40
0.7286081161551193
 40
0.8613134756739422
 40
1.0
 40
1.0
 40
1.0
 40
1.0
 10
74.62761842307691
 20
47.88204650033349
 30
0.0
 10
74.62114342284026
 20
47.873647967537
 30
0.0
 10
74.60821340921835
 20
47.8568768263024
 30
0.0
 10
74.59171271127359
 20
47.82954758440307
 30
0.0
 10
74.57741512898725
 20
47.80080549036633
 30
0.0
 10
74.56649354510884
 20
47.77002777284309
 30
0.0
 10
74.5572459761992
 20
47.73787858550564
 30
0.0
 10
74.55119432514243
 20
47.70383828612058
 30
0.0
 10
74.54704225170961
 20
47.66820719307268
 30
0.0
 10
74.5466758524986
 20
47.64387815157994
 30
0.0
 10
74.5464886153846
 20
47.63144553879502
 30
0.0
  0
SPLINE
  5
97
330
1F
100
AcDbEntity
  8
0
  6
Continuous
 62
     7
370
    25
100
AcDbSpline
210
0.0
220
0.0
230
1.0
 70
     8
 71
     3
 72
    15
 73
    11
 74
     0
 42
0.000000001
 43
0.00000001
 40
0.0
 40
0.0
 40
0.0
 40
0.0
 40
0.1497703860319679
 40
0.2913164099952444
 40
0.4259663731047425
 40
0.5521595739695284
 40
0.6715274135235927
 40
0.7861216286916589
 40
0.8953250730704446
 40
1.0
 40
1.0
 40
1.0
 40
1.0
 10
74.83495015384614
 20
47.99953448110271
 30
0.0
 10
74.823400576731
 20
47.99602735619974
 30
0.0
 10
74.80093564603753
 20
47.98920569363207
 30
0.0
 10
74.76860408646259
 20
47.97759385161702
 30
0.0
 10
74.73896492079481
 20
47.96436459215825
 30
0.0
 10
74.7118007256614
 20
47.95017263845708
 30
0.0
 10
74.68684398174817
 20
47.93526759016162
 30
0.0
 10
74.66475460930499
 20
47.91858976510316
 30
0.0
 10
74.64456237978652
 20
47.90137441718289
 30
0.0
 10
74.63318611752644
 20
47.88839755146089
 30
0.0
 10
74.62761842307691
 20
47.88204650033349
 30
0.0
  0
LINE
  5
98
330
1F
100
AcDbEntity
  8
0
  6
Continuous
 62
     7
370
    25
100
AcDbLine
 10
74.8349501538
 20
48.1341498657
 30
0.0
 11
74.8349501538
 21
47.9995344811
 31
0.0
  0
SPLINE
  5
99
330
1F
100
AcDbEntity
  8
0
  6
Continuous
 62
     7
370
    25
100
AcDbSpline
210
0.0
220
0.0
230
1.0
 70
     8
 71
     3
 72
    23
 73
    19
 74
     0
 42
0.000000001
 43
0.00000001
 40
0.0
 40
0.0
 40
0.0
 40
0.0
 40
0.0655411703374033
 40
0.1289631677825933
 40
0.1903771361885609
 40
0.2500923616690527
 40
0.308548432459201
 40
0.3663979630552958
 40
0.42454218926668
 40
0.4831699964229055
 40
0.5422433998311199
 40
0.6017393520173299
 40
0.6625060022496068
 40
0.7248555134488469
 40
0.7891278292811811
 40
0.8563463998785099
 40
0.9262952349869055
 40
1.0
 40
1.0
 40
1.0
 40
1.0
 10
74.39264246153844
 20
47.63384938494887
 30
0.0
 10
74.39301455293494
 20
47.64988622792735
 30
0.0
 10
74.39374670472517
 20
47.6814413872431
 30
0.0
 10
74.39875181952372
 20
47.7278314579801
 30
0.0
 10
74.40789325033992
 20
47.77211218627918
 30
0.0
 10
74.42019466692538
 20
47.81434344250346
 30
0.0
 10
74.43579112781704
 20
47.85456274381499
 30
0.0
 10
74.45521342696902
 20
47.89264736031972
 30
0.0
 10
74.47806121356267
 20
47.92883160039977
 30
0.0
 10
74.50460417976548
 20
47.96277400803316
 30
0.0
 10
74.53429618251837
 20
47.99447053705012
 30
0.0
 10
74.56766432964739
 20
48.02307884743446
 30
0.0
 10
74.60409178847068
 20
48.0490759015525
 30
0.0
 10
74.64400166969871
 20
48.07176560385742
 30
0.0
 10
74.68687820853205
 20
48.09218144069279
 30
0.0
 10
74.73327042212419
 20
48.10897327925592
 30
0.0
 10
74.78276357440518
 20
48.12375280867147
 30
0.0
 10
74.81725403448054
 20
48.13062429334836
 30
0.0
 10
74.83495015384614
 20
48.1341498657181
 30
0.0
  0
SPLINE
  5
9A
330
1F
100
AcDbEntity
  8
0
  6
Continuous
 62
     7
370
    25
100
AcDbSpline
210
0.0
220
0.0
230
1.0
 70
     8
 71
     3
 72
    19
 73
    15
 74
     0
 42
0.000000001
 43
0.00000001
 40
0.0
 40
0.0
 40
0.0
 40
0.0
 40
0.079641704194991
 40
0.158908613257856
 40
0.2395997983184508
 40
0.3224093988203483
 40
0.405827748173513
 40
0.4876442139503136
 40
0.5697199979738973
 40
0.6530646649976933
 40
0.7374573001733064
 40
0.8224924079539123
 40
0.9097550737466982
 40
1.0
 40
1.0
 40
1.0
 40
1.0
 10
74.87671698076922
 20
47.11491909648733
 30
0.0
 10
74.8557136497659
 20
47.11568986719885
 30
0.0
 10
74.81380582977047
 20
47.11722778136259
 30
0.0
 10
74.7518755637278
 20
47.13091841106564
 30
0.0
 10
74.69144238966554
 20
47.15226501536586
 30
0.0
 10
74.63340173074054
 20
47.18204895906628
 30
0.0
 10
74.57921034038091
 20
47.21889952145593
 30
0.0
 10
74.53094375634437
 20
47.26298366699532
 30
0.0
 10
74.48917565009702
 20
47.31322971713791
 30
0.0
 10
74.45438994384047
 20
47.36930882150875
 30
0.0
 10
74.42656287976315
 20
47.43003940065706
 30
0.0
 10
74.4072539341192
 20
47.49500181977675
 30
0.0
 10
74.39467669929145
 20
47.56325144761325
 30
0.0
 10
74.3933280933195
 20
47.61005462966906
 30
0.0
 10
74.39264246153844
 20
47.63384938494887
 30
0.0
  0
SPLINE
  5
9B
330
1F
100
AcDbEntity
  8
0
  6
Continuous
 62
     7
370
    25
100
AcDbSpline
210
0.0
220
0.0
230
1.0
 70
     8
 71
     3
 72
    15
 73
    11
 74
     0
 42
0.000000001
 43
0.00000001
 40
0.0
 40
0.0
 40
0.0
 40
0.0
 40
0.1281455049994643
 40
0.2541925386280419
 40
0.3781411397135888
 40
0.5013808330744057
 40
0.6239569784447038
 40
0.7470758858273289
 40
0.8728647202442611
 40
1.0
 40
1.0
 40
1.0
 40
1.0
 10
75.14324342307691
 20
47.2044623657181
 30
0.0
 10
75.13336258265191
 20
47.19724170953054
 30
0.0
 10
75.11376270740524
 20
47.18291864040001
 30
0.0
 10
75.08223171083966
 20
47.16528919173609
 30
0.0
 10
75.05045561160416
 20
47.14911298431499
 30
0.0
 10
75.01718501446032
 20
47.13720776390488
 30
0.0
 10
74.98348862983981
 20
47.12693403046683
 30
0.0
 10
74.94864488347389
 20
47.12017425595449
 30
0.0
 10
74.91298482044633
 20
47.11583475110879
 30
0.0
 10
74.88884908963732
 20
47.11522539599819
 30
0.0
 10
74.87671698076922
 20
47.11491909648733
 30
0.0
  0
SPLINE
  5
9C
330
1F
100
AcDbEntity
  8
0
  6
Continuous
 62
     7
370
    25
100
AcDbSpline
210
0.0
220
0.0
230
1.0
 70
     8
 71
     3
 72
    11
 73
     7
 74
     0
 42
0.000000001
 43
0.00000001
 40
0.0
 40
0.0
 40
0.0
 40
0.0
 40
0.253879600326656
 40
0.5030089172783633
 40
0.7502910806899731
 40
1.0
 40
1.0
 40
1.0
 40
1.0
 10
75.27124823076922
 20
47.36702246187195
 30
0.0
 10
75.26354330010858
 20
47.35106599562623
 30
0.0
 10
75.24827760398993
 20
47.31945162094028
 30
0.0
 10
75.21833942219682
 20
47.27635853685475
 30
0.0
 10
75.183772416188
 20
47.23723944741606
 30
0.0
 10
75.15679699351077
 20
47.215423567843
 30
0.0
 10
75.14324342307691
 20
47.2044623657181
 30
0.0
  0
SPLINE
  5
9D
330
1F
100
AcDbEntity
  8
0
  6
Continuous
 62
     7
370
    25
100
AcDbSpline
210
0.0
220
0.0
230
1.0
 70
     8
 71
     3
 72
    15
 73
    11
 74
     0
 42
0.000000001
 43
0.00000001
 40
0.0
 40
0.0
 40
0.0
 40
0.0
 40
0.1280675485958904
 40
0.2506083188676684
 40
0.3706301659145029
 40
0.4900722467299488
 40
0.6103747641546199
 40
0.7343130699115256
 40
0.8632165042449895
 40
1.0
 40
1.0
 40
1.0
 40
1.0
 10
75.57984198076922
 20
47.19184217341041
 30
0.0
 10
75.56398192589539
 20
47.19234085528772
 30
0.0
 10
75.53294625969691
 20
47.19331669833534
 30
0.0
 10
75.4876370466377
 20
47.20160257214778
 30
0.0
 10
75.44493350365963
 20
47.21554668480901
 30
0.0
 10
75.40465586274955
 20
47.23486229734238
 30
0.0
 10
75.36705950282537
 20
47.25986581887393
 30
0.0
 10
75.33205983531371
 20
47.29015411754121
 30
0.0
 10
75.29950162468732
 20
47.32594097258785
 30
0.0
 10
75.28085042198354
 20
47.35306051745498
 30
0.0
 10
75.27124823076922
 20
47.36702246187195
 30
0.0
  0
SPLINE
  5
9E
330
1F
100
AcDbEntity
  8
0
  6
Continuous
 62
     7
370
    25
100
AcDbSpline
210
0.0
220
0.0
230
1.0
 70
     8
 71
     3
 72
    19
 73
    15
 74
     0
 42
0.000000001
 43
0.00000001
 40
0.0
 40
0.0
 40
0.0
 40
0.0
 40
0.0902542493426766
 40
0.1785397915286845
 40
0.2660930338538198
 40
0.3546309779571733
 40
0.4418861533505626
 40
0.5257469151636484
 40
0.6081136336036366
 40
0.6901972728278825
 40
0.770821484330335
 40
0.8483261812554109
 40
0.9240117400247433
 40
1.0
 40
1.0
 40
1.0
 40
1.0
 10
75.96956553846152
 20
47.62994313494887
 30
0.0
 10
75.96897443978511
 20
47.61036481691669
 30
0.0
 10
75.96780513601018
 20
47.57163524079807
 30
0.0
 10
75.9571275203763
 20
47.514736792105
 30
0.0
 10
75.94023103508164
 20
47.45986815534695
 30
0.0
 10
75.91688515202293
 20
47.40762990628281
 30
0.0
 10
75.88809058923917
 20
47.3591077208844
 30
0.0
 10
75.85381998771284
 20
47.31593506942136
 30
0.0
 10
75.8147345727897
 20
47.27869713621966
 30
0.0
 10
75.77156347379604
 20
47.24745668865104
 30
0.0
 10
75.72542539834448
 20
47.22299597477089
 30
0.0
 10
75.67793961670993
 20
47.2049589575653
 30
0.0
 10
75.62921877182896
 20
47.1939782371373
 30
0.0
 10
75.5963227950396
 20
47.19255514136148
 30
0.0
 10
75.57984198076922
 20
47.19184217341041
 30
0.0
  0
SPLINE
  5
9F
330
1F
100
AcDbEntity
  8
0
  6
Continuous
 62
     7
370
    25
100
AcDbSpline
210
0.0
220
0.0
230
1.0
 70
     8
 71
     3
 72
    23
 73
    19
 74
     0
 42
0.000000001
 43
0.00000001
 40
0.0
 40
0.0
 40
0.0
 40
0.0
 40
0.0726253460834355
 40
0.1419766113262345
 40
0.2089849284189386
 40
0.2739568703644447
 40
0.336889347396841
 40
0.3987449534945902
 40
0.4601158852788617
 40
0.5208249225900291
 40
0.5809944586324857
 40
0.6401519276014648
 40
0.6986224507562546
 40
0.7572710809271643
 40
0.8164266940046602
 40
0.8762540482034705
 40
0.9371652930625374
 40
1.0
 40
1.0
 40
1.0
 40
1.0
 10
75.58495015384614
 20
48.07645755802579
 30
0.0
 10
75.6000497898356
 20
48.07281060773393
 30
0.0
 10
75.62956834314586
 20
48.06568111820946
 30
0.0
 10
75.671742883509
 20
48.05081072957994
 30
0.0
 10
75.71165296410503
 20
48.03461104878225
 30
0.0
 10
75.74855128140305
 20
48.01515857539735
 30
0.0
 10
75.7831793825742
 20
47.99394053787187
 30
0.0
 10
75.81475186448912
 20
47.96963080007078
 30
0.0
 10
75.84407170683218
 20
47.94335091897111
 30
0.0
 10
75.87009166578527
 20
47.91428308355605
 30
0.0
 10
75.89365354973098
 20
47.88379937142429
 30
0.0
 10
75.91374286002058
 20
47.85147024867397
 30
0.0
 10
75.93102463981964
 20
47.81794615138657
 30
0.0
 10
75.94526188205195
 20
47.78299480869431
 30
0.0
 10
75.95598710648026
 20
47.74651216368346
 30
0.0
 10
75.96376859459062
 20
47.70882803940311
 30
0.0
 10
75.96882192925395
 20
47.66984368221112
 30
0.0
 10
75.96931511343381
 20
47.64338042909758
 30
0.0
 10
75.96956553846152
 20
47.62994313494887
 30
0.0
  0
LINE
  5
A0
330
1F
100
AcDbEntity
  8
0
  6
Continuous
 62
     7
370
    25
100
AcDbLine
 10
75.5849501538
 20
47.9418421734
 30
0.0
 11
75.5849501538
 21
48.076457558
 31
0.0
  0
LINE
  5
A1
330
1F
100
AcDbEntity
  8
0
  6
Continuous
 62
     7
370
    25
100
AcDbLine
 10
75.9695655385
 20
45.6544415729
 30
0.0
 11
75.88813525
 21
45.5507757075
 31
0.0
  0
LINE
  5
A2
330
1F
100
AcDbEntity
  8
0
  6
Continuous
 62
     7
370
    25
100
AcDbLine
 10
75.2850703462
 20
46.1021579191
 30
0.0
 11
75.9695655385
 21
45.6544415729
 31
0.0
  0
SPLINE
  5
A3
330
1F
100
AcDbEntity
  8
0
  6
Continuous
 62
     7
370
    25
100
AcDbSpline
210
0.0
220
0.0
230
1.0
 70
     8
 71
     3
 72
    19
 73
    15
 74
     0
 42
0.000000001
 43
0.00000001
 40
0.0
 40
0.0
 40
0.0
 40
0.0
 40
0.0978059775289525
 40
0.1996122522918967
 40
0.3052960258330042
 40
0.4158173591641855
 40
0.4742405666184931
 40
0.5372869128296535
 40
0.6033858352934857
 40
0.6743111580696057
 40
0.7495304673574823
 40
0.828608314269512
 40
0.9120427387714449
 40
1.0
 40
1.0
 40
1.0
 40
1.0
 10
74.84937323076922
 20
46.26982618830733
 30
0.0
 10
74.86481528473254
 20
46.26928256760683
 30
0.0
 10
74.89633097783751
 20
46.26817309193714
 30
0.0
 10
74.94420045189989
 20
46.26155186896414
 30
0.0
 10
74.9929892650822
 20
46.24940773706511
 30
0.0
 10
75.03434883072822
 20
46.23626513209555
 30
0.0
 10
75.06860204453342
 20
46.22322370065052
 30
0.0
 10
75.09565090264047
 20
46.2111313853338
 30
0.0
 10
75.12421536531775
 20
46.19761070339433
 30
0.0
 10
75.15375496482335
 20
46.18176258127511
 30
0.0
 10
75.18511371149626
 20
46.16496229287541
 30
0.0
 10
75.21713029521295
 20
46.14533764952706
 30
0.0
 10
75.25097406047259
 20
46.12485903264673
 30
0.0
 10
75.2735067136743
 20
46.10985691997818
 30
0.0
 10
75.28507034615384
 20
46.10215791907656
 30
0.0
  0
SPLINE
  5
A4
330
1F
100
AcDbEntity
  8
0
  6
Continuous
 62
     7
370
    25
100
AcDbSpline
210
0.0
220
0.0
230
1.0
 70
     8
 71
     3
 72
    19
 73
    15
 74
     0
 42
0.000000001
 43
0.00000001
 40
0.0
 40
0.0
 40
0.0
 40
0.0
 40
0.0843261511037431
 40
0.1670353409858404
 40
0.2495407139852791
 40
0.3327066655796642
 40
0.4158726171740491
 40
0.4977774155681173
 40
0.5803136056784763
 40
0.6645325781316562
 40
0.7495711764063213
 40
0.8324741628544072
 40
0.9156738488962566
 40
0.9999999999999999
 40
0.9999999999999999
 40
0.9999999999999999
 40
0.9999999999999999
 10
74.39264246153844
 20
45.81549926523041
 30
0.0
 10
74.3932974052036
 20
45.83568356940214
 30
0.0
 10
74.39459473393264
 20
45.87566514197196
 30
0.0
 10
74.40615158863547
 20
45.93447913972032
 30
0.0
 10
74.42488311254962
 20
45.99099207693865
 30
0.0
 10
74.45068957659716
 20
46.04480671464408
 30
0.0
 10
74.48328453002866
 20
46.09466142362593
 30
0.0
 10
74.5225302334168
 20
46.13924985704948
 30
0.0
 10
74.5675593116662
 20
46.17841688239103
 30
0.0
 10
74.6185098975074
 20
46.21084024973096
 30
0.0
 10
74.6729070387452
 20
46.23726538211485
 30
0.0
 10
74.73014464748984
 20
46.25590341011177
 30
0.0
 10
74.7890707941523
 20
46.26795667146716
 30
0.0
 10
74.82918251312816
 20
46.2692002287481
 30
0.0
 10
74.84937323076922
 20
46.26982618830733
 30
0.0
  0
SPLINE
  5
A5
330
1F
100
AcDbEntity
  8
0
  6
Continuous
 62
     7
370
    25
100
AcDbSpline
210
0.0
220
0.0
230
1.0
 70
     8
 71
     3
 72
    19
 73
    15
 74
     0
 42
0.000000001
 43
0.00000001
 40
0.0
 40
0.0
 40
0.0
 40
0.0
 40
0.0859901205637197
 40
0.1691084375726415
 40
0.2505285789581879
 40
0.332255696176845
 40
0.4135763652356401
 40
0.4941261456201216
 40
0.5763059341204168
 40
0.660712671904547
 40
0.7461272722239101
 40
0.830014985960974
 40
0.9144197259288509
 40
1.0
 40
1.0
 40
1.0
 40
1.0
 10
74.8520775576923
 20
45.34674926523041
 30
0.0
 10
74.83109873440617
 20
45.34753206323354
 30
0.0
 10
74.78984171552109
 20
45.3490715162123
 30
0.0
 10
74.72949996637934
 20
45.36027808004557
 30
0.0
 10
74.6724750711585
 20
45.37961810534174
 30
0.0
 10
74.61854293143553
 20
45.40549274002209
 30
0.0
 10
74.56927270596981
 20
45.43906304397476
 30
0.0
 10
74.52474563393952
 20
45.47884569983025
 30
0.0
 10
74.4859337495381
 20
45.52521676490473
 30
0.0
 10
74.45263865068036
 20
45.57707816214089
 30
0.0
 10
74.42618573656264
 20
45.63320829993791
 30
0.0
 10
74.4066285572216
 20
45.69206258546377
 30
0.0
 10
74.3949426455417
 20
45.75313796404546
 30
0.0
 10
74.39341271628966
 20
45.79461654955996
 30
0.0
 10
74.39264246153844
 20
45.81549926523041
 30
0.0
  0
SPLINE
  5
A6
330
1F
100
AcDbEntity
  8
0
  6
Continuous
 62
     7
370
    25
100
AcDbSpline
210
0.0
220
0.0
230
1.0
 70
     8
 71
     3
 72
    23
 73
    19
 74
     0
 42
0.000000001
 43
0.00000001
 40
0.0
 40
0.0
 40
0.0
 40
0.0
 40
0.0652308037420297
 40
0.128404896003223
 40
0.1900670715964782
 40
0.2509433657682801
 40
0.3115458328521434
 40
0.3728628021568294
 40
0.4350236738562386
 40
0.4990717247070431
 40
0.5630910750496624
 40
0.6255101063303751
 40
0.6866800359296492
 40
0.7472825030135124
 40
0.8085634952159588
 40
0.8707421035159856
 40
0.9343409515059125
 40
1.0
 40
1.0
 40
1.0
 40
1.0
 10
75.2964886153846
 20
45.79176128446117
 30
0.0
 10
75.29607885322926
 20
45.77651592888896
 30
0.0
 10
75.29527224862035
 20
45.74650590012213
 30
0.0
 10
75.28906488403814
 20
45.70244584204757
 30
0.0
 10
75.27928269321373
 20
45.66010772663049
 30
0.0
 10
75.26502315495021
 20
45.61966703566389
 30
0.0
 10
75.24680786022351
 20
45.58097861486692
 30
0.0
 10
75.2249769158176
 20
45.54382044510612
 30
0.0
 10
75.19840305280756
 20
45.50889101220346
 30
0.0
 10
75.16871807175733
 20
45.47574050682693
 30
0.0
 10
75.13583936411655
 20
45.44564317937281
 30
0.0
 10
75.10095307695681
 20
45.41899629841959
 30
0.0
 10
75.06409555652901
 20
45.3966133876764
 30
0.0
 10
75.02528547112902
 20
45.37845313555586
 30
0.0
 10
74.98458264560308
 20
45.36435104472819
 30
0.0
 10
74.9420391572509
 20
45.35407062542379
 30
0.0
 10
74.89762566948228
 20
45.34799365707243
 30
0.0
 10
74.86742073722534
 20
45.34716844676596
 30
0.0
 10
74.8520775576923
 20
45.34674926523041
 30
0.0
  0
SPLINE
  5
A7
330
1F
100
AcDbEntity
  8
0
  6
Continuous
 62
     7
370
    25
100
AcDbSpline
210
0.0
220
0.0
230
1.0
 70
     8
 71
     3
 72
     9
 73
     5
 74
     0
 42
0.000000001
 43
0.00000001
 40
0.0
 40
0.0
 40
0.0
 40
0.0
 40
0.5126593363417812
 40
1.0
 40
1.0
 40
1.0
 40
1.0
 10
75.28206553846152
 20
45.94710984215349
 30
0.0
 10
75.28627147874163
 20
45.9207225805892
 30
0.0
 10
75.29447564080786
 20
45.86925124339952
 30
0.0
 10
75.29582904600005
 20
45.81715157260335
 30
0.0
 10
75.2964886153846
 20
45.79176128446117
 30
0.0
  0
LINE
  5
A8
330
1F
100
AcDbEntity
  8
0
  6
Continuous
 62
     7
370
    25
100
AcDbLine
 10
75.88813525
 20
45.5507757075
 30
0.0
 11
75.2820655385
 21
45.9471098422
 31
0.0
  0
LINE
  5
A9
330
1F
100
AcDbEntity
  8
0
  6
Continuous
 62
     7
370
    25
100
AcDbLine
 10
75.931104
 20
46.8841746284
 30
0.0
 11
75.931104
 21
46.6068308784
 31
0.0
  0
LINE
  5
AA
330
1F
100
AcDbEntity
  8
0
  6
Continuous
 62
     7
370
    25
100
AcDbLine
 10
75.7772578462
 20
46.9722154938
 30
0.0
 11
75.931104
 21
46.8841746284
 31
0.0
  0
LINE
  5
AB
330
1F
100
AcDbEntity
  8
0
  6
Continuous
 62
     7
370
    25
100
AcDbLine
 10
75.7772578462
 20
46.741446263
 30
0.0
 11
75.7772578462
 21
46.9722154938
 31
0.0
  0
LINE
  5
AC
330
1F
100
AcDbEntity
  8
0
  6
Continuous
 62
     7
370
    25
100
AcDbLine
 10
74.431104
 20
46.741446263
 30
0.0
 11
75.7772578462
 21
46.741446263
 31
0.0
  0
LINE
  5
AD
330
1F
100
AcDbEntity
  8
0
  6
Continuous
 62
     7
370
    25
100
AcDbLine
 10
74.431104
 20
46.6068308784
 30
0.0
 11
74.431104
 21
46.741446263
 31
0.0
  0
LINE
  5
AE
330
1F
100
AcDbEntity
  8
0
  6
Continuous
 62
     7
370
    25
100
AcDbLine
 10
75.931104
 20
46.6068308784
 30
0.0
 11
74.431104
 21
46.6068308784
 31
0.0
  0
LINE
  5
AF
330
1F
100
AcDbEntity
  8
0
  6
Continuous
 62
     7
370
    25
100
AcDbLine
 10
75.3114887577
 20
53.0426951345
 30
0.0
 11
77.2486236278
 21
53.0426951345
 31
0.0
  0
SPLINE
  5
B0
330
1F
100
AcDbEntity
  8
0
  6
Continuous
 62
     7
370
    25
100
AcDbSpline
210
0.0
220
0.0
230
1.0
 70
     8
 71
     3
 72
    12
 73
     8
 74
     0
 42
0.000000001
 43
0.00000001
 40
0.0
 40
0.0
 40
0.0
 40
0.0
 40
0.2499999999999999
 40
0.2499999999999999
 40
0.4999999999999999
 40
0.4999999999999999
 40
1.0
 40
1.0
 40
1.0
 40
1.0
 10
78.23110399999999
 20
46.69184217341041
 30
0.0
 10
78.23110399999999
 20
47.22937579631535
 30
0.0
 10
78.20815980544202
 20
47.76974254014689
 30
0.0
 10
78.11730310456886
 20
48.85083432496404
 30
0.0
 10
78.05003449213892
 20
49.38565244370606
 30
0.0
 10
77.79191484629656
 20
50.97533807830283
 30
0.0
 10
77.54513815869632
 20
52.01553866894214
 30
0.0
 10
77.24862362775254
 20
53.0426951344963
 30
0.0
  0
SPLINE
  5
B1
330
1F
100
AcDbEntity
  8
0
  6
Continuous
 62
     7
370
    25
100
AcDbSpline
210
0.0
220
0.0
230
1.0
 70
     8
 71
     3
 72
    10
 73
     6
 74
     0
 42
0.000000001
 43
0.00000001
 40
0.0
 40
0.0
 40
0.0
 40
0.0
 40
0.5
 40
0.5
 40
1.0
 40
1.0
 40
1.0
 40
1.0
 10
77.24862362775256
 20
40.34098921232452
 30
0.0
 10
77.54710618607612
 20
41.37496312470359
 30
0.0
 10
77.79696709945054
 20
42.43236516396373
 30
0.0
 10
78.1386898819611
 20
44.55129222414017
 30
0.0
 10
78.23110399999999
 20
45.61755959593226
 30
0.0
 10
78.23110399999999
 20
46.69184217341041
 30
0.0
  0
LINE
  5
B2
330
1F
100
AcDbEntity
  8
0
  6
Continuous
 62
     7
370
    25
100
AcDbLine
 10
75.3114887577
 20
40.3409892123
 30
0.0
 11
77.2486236278
 21
40.3409892123
 31
0.0
  0
SPLINE
  5
B3
330
1F
100
AcDbEntity
  8
0
  6
Continuous
 62
     7
370
    25
100
AcDbSpline
210
0.0
220
0.0
230
1.0
 70
     8
 71
     3
 72
     8
 73
     4
 74
     0
 42
0.000000001
 43
0.00000001
 40
0.0
 40
0.0
 40
0.0
 40
0.0
 40
1.0
 40
1.0
 40
1.0
 40
1.0
 10
75.31148875772932
 20
40.34098921232454
 30
0.0
 10
75.28365570417341
 20
40.54873795232532
 30
0.0
 10
75.25683471640312
 20
40.75657659879833
 30
0.0
 10
75.23110399999999
 20
40.96451209910614
 30
0.0
  0
LINE
  5
B4
330
1F
100
AcDbEntity
  8
0
  6
Continuous
 62
     7
370
    25
100
AcDbLine
 10
73.2135843722
 20
40.3409892123
 30
0.0
 11
75.1507192423
 21
40.3409892123
 31
0.0
  0
SPLINE
  5
B5
330
1F
100
AcDbEntity
  8
0
  6
Continuous
 62
     7
370
    25
100
AcDbSpline
210
0.0
220
0.0
230
1.0
 70
     8
 71
     3
 72
    10
 73
     6
 74
     0
 42
0.000000001
 43
0.00000001
 40
0.0
 40
0.0
 40
0.0
 40
0.0
 40
0.5
 40
0.5
 40
1.0
 40
1.0
 40
1.0
 40
1.0
 10
73.21358437224741
 20
40.34098921232452
 30
0.0
 10
72.91510181392385
 20
41.37496312470359
 30
0.0
 10
72.66524090054943
 20
42.43236516396373
 30
0.0
 10
72.32351811803888
 20
44.55129222414017
 30
0.0
 10
72.23110399999999
 20
45.61755959593226
 30
0.0
 10
72.23110399999999
 20
46.69184217341041
 30
0.0
  0
SPLINE
  5
B6
330
1F
100
AcDbEntity
  8
0
  6
Continuous
 62
     7
370
    25
100
AcDbSpline
210
0.0
220
0.0
230
1.0
 70
     8
 71
     3
 72
    12
 73
     8
 74
     0
 42
0.000000001
 43
0.00000001
 40
0.0
 40
0.0
 40
0.0
 40
0.0
 40
0.2499999999999999
 40
0.2499999999999999
 40
0.4999999999999999
 40
0.4999999999999999
 40
1.0
 40
1.0
 40
1.0
 40
1.0
 10
72.23110399999999
 20
46.69184217341041
 30
0.0
 10
72.23110399999999
 20
47.22937579631535
 30
0.0
 10
72.25404819455795
 20
47.76974254014689
 30
0.0
 10
72.3449048954311
 20
48.85083432496404
 30
0.0
 10
72.41217350786106
 20
49.38565244370606
 30
0.0
 10
72.67029315370341
 20
50.97533807830283
 30
0.0
 10
72.91706984130366
 20
52.01553866894214
 30
0.0
 10
73.21358437224742
 20
53.0426951344963
 30
0.0
  0
LINE
  5
B7
330
1F
100
AcDbEntity
  8
0
  6
Continuous
 62
     7
370
    25
100
AcDbLine
 10
73.2135843722
 20
53.0426951345
 30
0.0
 11
75.1507192423
 21
53.0426951345
 31
0.0
  0
SPLINE
  5
B8
330
1F
100
AcDbEntity
  8
0
  6
Continuous
 62
     7
370
    25
100
AcDbSpline
210
0.0
220
0.0
230
1.0
 70
     8
 71
     3
 72
     8
 73
     4
 74
     0
 42
0.000000001
 43
0.00000001
 40
0.0
 40
0.0
 40
0.0
 40
0.0
 40
1.0
 40
1.0
 40
1.0
 40
1.0
 10
75.15071924227065
 20
53.0426951344963
 30
0.0
 10
75.17855229582655
 20
52.8349463944955
 30
0.0
 10
75.20537328359684
 20
52.62710774802249
 30
0.0
 10
75.23110399999999
 20
52.41917224771468
 30
0.0
  0
SPLINE
  5
B9
330
1F
100
AcDbEntity
  8
0
  6
Continuous
 62
     7
370
    25
100
AcDbSpline
210
0.0
220
0.0
230
1.0
 70
     8
 71
     3
 72
     8
 73
     4
 74
     0
 42
0.000000001
 43
0.00000001
 40
0.0
 40
0.0
 40
0.0
 40
0.0
 40
1.0
 40
1.0
 40
1.0
 40
1.0
 10
75.23110399999997
 20
52.41917224771468
 30
0.0
 10
75.2568444905696
 20
52.62718673518189
 30
0.0
 10
75.28366601021902
 20
52.83502331986705
 30
0.0
 10
75.31148875772932
 20
53.04269513449629
 30
0.0
  0
SPLINE
  5
BA
330
1F
100
AcDbEntity
  8
0
  6
Continuous
 62
     7
370
    25
100
AcDbSpline
210
0.0
220
0.0
230
1.0
 70
     8
 71
     3
 72
    12
 73
     8
 74
     0
 42
0.000000001
 43
0.00000001
 40
0.0
 40
0.0
 40
0.0
 40
0.0
 40
0.25
 40
0.25
 40
0.5
 40
0.5
 40
1.0
 40
1.0
 40
1.0
 40
1.0
 10
78.231104
 20
37.16556273178158
 30
0.0
 10
78.231104
 20
37.43505062600863
 30
0.0
 10
78.20788184567283
 20
37.70574750717566
 30
0.0
 10
78.11801469581208
 20
38.24124233810796
 30
0.0
 10
78.05145610672439
 20
38.50719874145989
 30
0.0
 10
77.79474663260271
 20
39.30034434490157
 30
0.0
 10
77.5477839595803
 20
39.82282831798997
 30
0.0
 10
77.24862362775269
 20
40.34098921232454
 30
0.0
  0
SPLINE
  5
BB
330
1F
100
AcDbEntity
  8
0
  6
Continuous
 62
     7
370
    25
100
AcDbSpline
210
0.0
220
0.0
230
1.0
 70
     8
 71
     3
 72
    10
 73
     6
 74
     0
 42
0.000000001
 43
0.00000001
 40
0.0
 40
0.0
 40
0.0
 40
0.0
 40
0.5
 40
0.5
 40
1.0
 40
1.0
 40
1.0
 40
1.0
 10
77.24862362775286
 20
33.99013625123862
 30
0.0
 10
77.54853287937316
 20
34.50959431270493
 30
0.0
 10
77.79561353873909
 20
35.0328467149014
 30
0.0
 10
78.13746835277148
 20
36.09029072379678
 30
0.0
 10
78.231104
 20
36.62456410222118
 30
0.0
 10
78.231104
 20
37.16556273178158
 30
0.0
  0
LINE
  5
BC
330
1F
100
AcDbEntity
  8
0
  6
Continuous
 62
     7
370
    25
100
AcDbLine
 10
75.3114887577
 20
33.9901362512
 30
0.0
 11
77.2486236278
 21
33.9901362512
 31
0.0
  0
SPLINE
  5
BD
330
1F
100
AcDbEntity
  8
0
  6
Continuous
 62
     7
370
    25
100
AcDbSpline
210
0.0
220
0.0
230
1.0
 70
     8
 71
     3
 72
     8
 73
     4
 74
     0
 42
0.000000001
 43
0.00000001
 40
0.0
 40
0.0
 40
0.0
 40
0.0
 40
1.0
 40
1.0
 40
1.0
 40
1.0
 10
75.31148875772932
 20
33.99013625123865
 30
0.0
 10
75.28365708467221
 20
34.0940054691474
 30
0.0
 10
75.25683602480616
 20
34.19792465773113
 30
0.0
 10
75.23110399999999
 20
34.30189769462945
 30
0.0
  0
SPLINE
  5
BE
330
1F
100
AcDbEntity
  8
0
  6
Continuous
 62
     7
370
    25
100
AcDbSpline
210
0.0
220
0.0
230
1.0
 70
     8
 71
     3
 72
     8
 73
     4
 74
     0
 42
0.000000001
 43
0.00000001
 40
0.0
 40
0.0
 40
0.0
 40
0.0
 40
1.0
 40
1.0
 40
1.0
 40
1.0
 10
75.23110399999999
 20
34.30189769462945
 30
0.0
 10
75.20536305016667
 20
34.1978885951911
 30
0.0
 10
75.17854150590577
 20
34.09397035270648
 30
0.0
 10
75.15071924227065
 20
33.99013625123865
 30
0.0
  0
LINE
  5
BF
330
1F
100
AcDbEntity
  8
0
  6
Continuous
 62
     7
370
    25
100
AcDbLine
 10
73.2135843722
 20
33.9901362512
 30
0.0
 11
75.1507192423
 21
33.9901362512
 31
0.0
  0
SPLINE
  5
C0
330
1F
100
AcDbEntity
  8
0
  6
Continuous
 62
     7
370
    25
100
AcDbSpline
210
0.0
220
0.0
230
1.0
 70
     8
 71
     3
 72
    10
 73
     6
 74
     0
 42
0.000000001
 43
0.00000001
 40
0.0
 40
0.0
 40
0.0
 40
0.0
 40
0.5
 40
0.5
 40
1.0
 40
1.0
 40
1.0
 40
1.0
 10
73.21358437224713
 20
33.99013625123862
 30
0.0
 10
72.9136751206268
 20
34.50959431270493
 30
0.0
 10
72.66659446126087
 20
35.0328467149014
 30
0.0
 10
72.3247396472285
 20
36.09029072379678
 30
0.0
 10
72.23110399999997
 20
36.62456410222118
 30
0.0
 10
72.23110399999997
 20
37.16556273178158
 30
0.0
  0
SPLINE
  5
C1
330
1F
100
AcDbEntity
  8
0
  6
Continuous
 62
     7
370
    25
100
AcDbSpline
210
0.0
220
0.0
230
1.0
 70
     8
 71
     3
 72
    12
 73
     8
 74
     0
 42
0.000000001
 43
0.00000001
 40
0.0
 40
0.0
 40
0.0
 40
0.0
 40
0.25
 40
0.25
 40
0.5
 40
0.5
 40
1.0
 40
1.0
 40
1.0
 40
1.0
 10
72.23110399999997
 20
37.16556273178158
 30
0.0
 10
72.23110399999997
 20
37.43505062600863
 30
0.0
 10
72.25432615432715
 20
37.70574750717566
 30
0.0
 10
72.3441933041879
 20
38.24124233810796
 30
0.0
 10
72.41075189327559
 20
38.50719874145989
 30
0.0
 10
72.66746136739727
 20
39.30034434490157
 30
0.0
 10
72.91442404041968
 20
39.82282831798997
 30
0.0
 10
73.21358437224727
 20
40.34098921232454
 30
0.0
  0
SPLINE
  5
C2
330
1F
100
AcDbEntity
  8
0
  6
Continuous
 62
     7
370
    25
100
AcDbSpline
210
0.0
220
0.0
230
1.0
 70
     8
 71
     3
 72
     8
 73
     4
 74
     0
 42
0.000000001
 43
0.00000001
 40
0.0
 40
0.0
 40
0.0
 40
0.0
 40
1.0
 40
1.0
 40
1.0
 40
1.0
 10
75.23110399999999
 20
40.02922776893372
 30
0.0
 10
75.2568449498333
 20
40.13323686837208
 30
0.0
 10
75.2836664940942
 20
40.2371551108567
 30
0.0
 10
75.31148875772932
 20
40.34098921232453
 30
0.0
  0
LINE
  5
C3
330
1F
100
AcDbEntity
  8
0
  6
Continuous
 62
     7
370
    25
100
AcDbLine
 10
75.3114887577
 20
59.3935480956
 30
0.0
 11
77.2486236278
 21
59.3935480956
 31
0.0
  0
SPLINE
  5
C4
330
1F
100
AcDbEntity
  8
0
  6
Continuous
 62
     7
370
    25
100
AcDbSpline
210
0.0
220
0.0
230
1.0
 70
     8
 71
     3
 72
    12
 73
     8
 74
     0
 42
0.000000001
 43
0.00000001
 40
0.0
 40
0.0
 40
0.0
 40
0.0
 40
0.2500000000000002
 40
0.2500000000000002
 40
0.5000000000000001
 40
0.5000000000000001
 40
1.0
 40
1.0
 40
1.0
 40
1.0
 10
78.231104
 20
56.21812161503924
 30
0.0
 10
78.231104
 20
56.48760950926628
 30
0.0
 10
78.20788184567283
 20
56.75830639043332
 30
0.0
 10
78.11801469581208
 20
57.29380122136561
 30
0.0
 10
78.05145610672439
 20
57.55975762471753
 30
0.0
 10
77.79474663260271
 20
58.35290322815923
 30
0.0
 10
77.5477839595803
 20
58.87538720124761
 30
0.0
 10
77.24862362775269
 20
59.39354809558218
 30
0.0
  0
SPLINE
  5
C5
330
1F
100
AcDbEntity
  8
0
  6
Continuous
 62
     7
370
    25
100
AcDbSpline
210
0.0
220
0.0
230
1.0
 70
     8
 71
     3
 72
    10
 73
     6
 74
     0
 42
0.000000001
 43
0.00000001
 40
0.0
 40
0.0
 40
0.0
 40
0.0
 40
0.5
 40
0.5
 40
1.0
 40
1.0
 40
1.0
 40
1.0
 10
77.24862362775285
 20
53.04269513449627
 30
0.0
 10
77.54853287937316
 20
53.56215319596259
 30
0.0
 10
77.79561353873909
 20
54.08540559815906
 30
0.0
 10
78.13746835277148
 20
55.14284960705443
 30
0.0
 10
78.231104
 20
55.67712298547882
 30
0.0
 10
78.231104
 20
56.21812161503924
 30
0.0
  0
SPLINE
  5
C6
330
1F
100
AcDbEntity
  8
0
  6
Continuous
 62
     7
370
    25
100
AcDbSpline
210
0.0
220
0.0
230
1.0
 70
     8
 71
     3
 72
     8
 73
     4
 74
     0
 42
0.000000001
 43
0.00000001
 40
0.0
 40
0.0
 40
0.0
 40
0.0
 40
1.0
 40
1.0
 40
1.0
 40
1.0
 10
75.31148875772932
 20
53.0426951344963
 30
0.0
 10
75.28365708467221
 20
53.14656435240504
 30
0.0
 10
75.25683602480618
 20
53.25048354098878
 30
0.0
 10
75.23110399999999
 20
53.35445657788709
 30
0.0
  0
SPLINE
  5
C7
330
1F
100
AcDbEntity
  8
0
  6
Continuous
 62
     7
370
    25
100
AcDbSpline
210
0.0
220
0.0
230
1.0
 70
     8
 71
     3
 72
     8
 73
     4
 74
     0
 42
0.000000001
 43
0.00000001
 40
0.0
 40
0.0
 40
0.0
 40
0.0
 40
1.0
 40
1.0
 40
1.0
 40
1.0
 10
75.23110399999997
 20
53.35445657788709
 30
0.0
 10
75.20536305016667
 20
53.25044747844875
 30
0.0
 10
75.17854150590577
 20
53.14652923596412
 30
0.0
 10
75.15071924227065
 20
53.0426951344963
 30
0.0
  0
SPLINE
  5
C8
330
1F
100
AcDbEntity
  8
0
  6
Continuous
 62
     7
370
    25
100
AcDbSpline
210
0.0
220
0.0
230
1.0
 70
     8
 71
     3
 72
    10
 73
     6
 74
     0
 42
0.000000001
 43
0.00000001
 40
0.0
 40
0.0
 40
0.0
 40
0.0
 40
0.5
 40
0.5
 40
1.0
 40
1.0
 40
1.0
 40
1.0
 10
73.21358437224713
 20
53.04269513449627
 30
0.0
 10
72.9136751206268
 20
53.56215319596259
 30
0.0
 10
72.66659446126087
 20
54.08540559815906
 30
0.0
 10
72.3247396472285
 20
55.14284960705443
 30
0.0
 10
72.23110399999997
 20
55.67712298547882
 30
0.0
 10
72.23110399999997
 20
56.21812161503924
 30
0.0
  0
SPLINE
  5
C9
330
1F
100
AcDbEntity
  8
0
  6
Continuous
 62
     7
370
    25
100
AcDbSpline
210
0.0
220
0.0
230
1.0
 70
     8
 71
     3
 72
    12
 73
     8
 74
     0
 42
0.000000001
 43
0.00000001
 40
0.0
 40
0.0
 40
0.0
 40
0.0
 40
0.2500000000000002
 40
0.2500000000000002
 40
0.5000000000000001
 40
0.5000000000000001
 40
1.0
 40
1.0
 40
1.0
 40
1.0
 10
72.23110399999997
 20
56.21812161503924
 30
0.0
 10
72.23110399999997
 20
56.48760950926628
 30
0.0
 10
72.25432615432715
 20
56.75830639043332
 30
0.0
 10
72.3441933041879
 20
57.29380122136561
 30
0.0
 10
72.41075189327559
 20
57.55975762471753
 30
0.0
 10
72.66746136739727
 20
58.35290322815923
 30
0.0
 10
72.91442404041968
 20
58.87538720124761
 30
0.0
 10
73.21358437224727
 20
59.39354809558218
 30
0.0
  0
LINE
  5
CA
330
1F
100
AcDbEntity
  8
0
  6
Continuous
 62
     7
370
    25
100
AcDbLine
 10
73.2135843722
 20
59.3935480956
 30
0.0
 11
75.1507192423
 21
59.3935480956
 31
0.0
  0
SPLINE
  5
CB
330
1F
100
AcDbEntity
  8
0
  6
Continuous
 62
     7
370
    25
100
AcDbSpline
210
0.0
220
0.0
230
1.0
 70
     8
 71
     3
 72
     8
 73
     4
 74
     0
 42
0.000000001
 43
0.00000001
 40
0.0
 40
0.0
 40
0.0
 40
0.0
 40
1.0
 40
1.0
 40
1.0
 40
1.0
 10
75.15071924227065
 20
59.39354809558218
 30
0.0
 10
75.17855091532776
 20
59.28967887767342
 30
0.0
 10
75.20537197519381
 20
59.18575968908969
 30
0.0
 10
75.23110399999999
 20
59.08178665219137
 30
0.0
  0
SPLINE
  5
CC
330
1F
100
AcDbEntity
  8
0
  6
Continuous
 62
     7
370
    25
100
AcDbSpline
210
0.0
220
0.0
230
1.0
 70
     8
 71
     3
 72
     8
 73
     4
 74
     0
 42
0.000000001
 43
0.00000001
 40
0.0
 40
0.0
 40
0.0
 40
0.0
 40
1.0
 40
1.0
 40
1.0
 40
1.0
 10
75.23110399999999
 20
59.08178665219137
 30
0.0
 10
75.2568449498333
 20
59.18579575162973
 30
0.0
 10
75.2836664940942
 20
59.28971399411435
 30
0.0
 10
75.31148875772932
 20
59.39354809558217
 30
0.0
  0
LINE
  5
CD
330
1F
100
AcDbEntity
  8
0
  6
Continuous
 62
     7
370
    25
100
AcDbLine
 10
78.231104
 20
46.6918421734
 30
0.0
 11
78.231104
 21
37.1655627318
 31
0.0
  0
LINE
  5
CE
330
1F
100
AcDbEntity
  8
0
  6
Continuous
 62
     7
370
    25
100
AcDbLine
 10
78.231104
 20
56.218121615
 30
0.0
 11
78.231104
 21
46.6918421734
 31
0.0
  0
LINE
  5
CF
330
1F
100
AcDbEntity
  8
0
  6
Continuous
 62
     7
370
    25
100
AcDbLine
 10
72.231104
 20
46.6918421734
 30
0.0
 11
72.231104
 21
56.218121615
 31
0.0
  0
LINE
  5
D0
330
1F
100
AcDbEntity
  8
0
  6
Continuous
 62
     7
370
    25
100
AcDbLine
 10
72.231104
 20
37.1655627318
 30
0.0
 11
72.231104
 21
46.6918421734
 31
0.0
  0
SPLINE
  5
D1
330
1F
100
AcDbEntity
  8
0
  6
Continuous
 62
     7
370
    25
100
AcDbSpline
210
0.0
220
0.0
230
1.0
 70
     8
 71
     3
 72
    23
 73
    19
 74
     0
 42
0.000000001
 43
0.00000001
 40
0.0
 40
0.0
 40
0.0
 40
0.0
 40
0.0611415679303346
 40
0.1200010135310724
 40
0.1782359705414084
 40
0.236495543407017
 40
0.294887248704973
 40
0.3546771928192958
 40
0.4166948132897785
 40
0.4806333779628396
 40
0.5458046334786409
 40
0.6097347883178745
 40
0.6729516883751544
 40
0.7360010960706833
 40
0.7998274385165253
 40
0.8647672769393869
 40
0.9310835057306723
 40
1.0
 40
1.0
 40
1.0
 40
1.0
 10
74.84396457692307
 20
45.48136464984579
 30
0.0
 10
74.85420628737322
 20
45.48159774088884
 30
0.0
 10
74.874307434202
 20
45.48205522280101
 30
0.0
 10
74.90372804780505
 20
45.4873297978572
 30
0.0
 10
74.93225285653857
 20
45.49445398929901
 30
0.0
 10
74.95923929306335
 20
45.50596733563636
 30
0.0
 10
74.98543364089372
 20
45.5196806709
 30
0.0
 10
75.01008724600479
 20
45.53715055919537
 30
0.0
 10
75.03389854944878
 20
45.55718021373335
 30
0.0
 10
75.05599096317891
 20
45.58037649719821
 30
0.0
 10
75.07619848284345
 20
45.60561197704777
 30
0.0
 10
75.09403500537917
 20
45.632448070801
 30
0.0
 10
75.10908868002478
 20
45.66052269485504
 30
0.0
 10
75.12164883649348
 20
45.6898087293904
 30
0.0
 10
75.13071290504888
 20
45.72064137729129
 30
0.0
 10
75.1378500069678
 20
45.75252295564272
 30
0.0
 10
75.14164801517809
 20
45.78586120128818
 30
0.0
 10
75.14230675730313
 20
45.80847974787534
 30
0.0
 10
75.14264246153844
 20
45.82000647676887
 30
0.0
  0
SPLINE
  5
D2
330
1F
100
AcDbEntity
  8
0
  6
Continuous
 62
     7
370
    25
100
AcDbSpline
210
0.0
220
0.0
230
1.0
 70
     8
 71
     3
 72
    23
 73
    19
 74
     0
 42
0.000000001
 43
0.00000001
 40
0.0
 40
0.0
 40
0.0
 40
0.0
 40
0.0679503475997533
 40
0.1332598223836994
 40
0.1978002967596469
 40
0.2608458295516821
 40
0.3233192927503666
 40
0.3862817224595717
 40
0.4500615162333125
 40
0.5152075844858149
 40
0.5796407692199315
 40
0.6418172023841521
 40
0.7016924412115346
 40
0.7607690981778942
 40
0.8192540511346831
 40
0.8787376269055535
 40
0.938158297016091
 40
1.0
 40
1.0
 40
1.0
 40
1.0
 10
74.5464886153846
 20
45.80828772676887
 30
0.0
 10
74.54681820442573
 20
45.79715963774549
 30
0.0
 10
74.54746457311451
 20
45.7753359500219
 30
0.0
 10
74.55135622711273
 20
45.7431190119372
 30
0.0
 10
74.55823971822336
 20
45.71222734591748
 30
0.0
 10
74.56802155544356
 20
45.68263946707418
 30
0.0
 10
74.57994059727963
 20
45.65410885761342
 30
0.0
 10
74.59514895730742
 20
45.62704030338897
 30
0.0
 10
74.61292620881501
 20
45.60106835945788
 30
0.0
 10
74.63326476203322
 20
45.57675834675275
 30
0.0
 10
74.65512253550183
 20
45.55410666098939
 30
0.0
 10
74.67913113697037
 20
45.53515660991857
 30
0.0
 10
74.70344625931544
 20
45.51805432812328
 30
0.0
 10
74.7295446813293
 20
45.50509994748118
 30
0.0
 10
74.75648108080819
 20
45.49423977782654
 30
0.0
 10
74.78466604155214
 20
45.48693902825924
 30
0.0
 10
74.81395426136758
 20
45.48215946260128
 30
0.0
 10
74.83382887125892
 20
45.48163309048024
 30
0.0
 10
74.84396457692307
 20
45.48136464984579
 30
0.0
  0
SPLINE
  5
D3
330
1F
100
AcDbEntity
  8
0
  6
Continuous
 62
     7
370
    25
100
AcDbSpline
210
0.0
220
0.0
230
1.0
 70
     8
 71
     3
 72
    23
 73
    19
 74
     0
 42
0.000000001
 43
0.00000001
 40
0.0
 40
0.0
 40
0.0
 40
0.0
 40
0.0618526459466918
 40
0.12128383061537
 40
0.1807779320756124
 40
0.2392732340142805
 40
0.2986414352139417
 40
0.3581858222417117
 40
0.4207600867589708
 40
0.4852046730216432
 40
0.5503622689482868
 40
0.6136499245309119
 40
0.6766234955168248
 40
0.7391080134690123
 40
0.8021647022429443
 40
0.8667165971324775
 40
0.9320376285055445
 40
1.0
 40
1.0
 40
1.0
 40
1.0
 10
74.84396457692307
 20
46.13521080369195
 30
0.0
 10
74.83382925706616
 20
46.13494167138449
 30
0.0
 10
74.81395540368538
 20
46.13441394299564
 30
0.0
 10
74.78466167827187
 20
46.12964424774244
 30
0.0
 10
74.7564973680209
 20
46.12230647608919
 30
0.0
 10
74.72944187332001
 20
46.1115659226674
 30
0.0
 10
74.7036427776566
 20
46.09809412820973
 30
0.0
 10
74.67891682251637
 20
46.08151559967781
 30
0.0
 10
74.65524694147629
 20
46.06211105158978
 30
0.0
 10
74.63323000492528
 20
46.03955364944445
 30
0.0
 10
74.61303553568587
 20
46.0152276782099
 30
0.0
 10
74.59505434236385
 20
45.98950135240477
 30
0.0
 10
74.5799549481899
 20
45.96245647175753
 30
0.0
 10
74.56801768693782
 20
45.93393871558644
 30
0.0
 10
74.55824078539553
 20
45.90434735476008
 30
0.0
 10
74.55135593628171
 20
45.87345664677373
 30
0.0
 10
74.54746464963596
 20
45.8412394495321
 30
0.0
 10
74.54681823026765
 20
45.8194157975615
 30
0.0
 10
74.5464886153846
 20
45.80828772676887
 30
0.0
  0
SPLINE
  5
D4
330
1F
100
AcDbEntity
  8
0
  6
Continuous
 62
     7
370
    25
100
AcDbSpline
210
0.0
220
0.0
230
1.0
 70
     8
 71
     3
 72
    23
 73
    19
 74
     0
 42
0.000000001
 43
0.00000001
 40
0.0
 40
0.0
 40
0.0
 40
0.0
 40
0.0705921865358075
 40
0.1385012886049303
 40
0.2037899961427016
 40
0.2667875726696014
 40
0.3290979656467185
 40
0.391174524603966
 40
0.4531677986176575
 40
0.5157967602265847
 40
0.5779688050530403
 40
0.6389663383752915
 40
0.698381066162843
 40
0.7573204555574266
 40
0.8164122397216688
 40
0.876279358230831
 40
0.9368234656501931
 40
1.0
 40
1.0
 40
1.0
 40
1.0
 10
75.14264246153844
 20
45.82000647676887
 30
0.0
 10
75.14230459708385
 20
45.83143279460668
 30
0.0
 10
75.1416417098065
 20
45.85385113610039
 30
0.0
 10
75.13789771768754
 20
45.88670059231561
 30
0.0
 10
75.13080387906713
 20
45.91770652600132
 30
0.0
 10
75.12162783551086
 20
45.94722307548546
 30
0.0
 10
75.10913401011406
 20
45.97494260083296
 30
0.0
 10
75.09413787756974
 20
46.0011812994613
 30
0.0
 10
75.07630845629694
 20
46.02567880740823
 30
0.0
 10
75.05584453996087
 20
46.0480049059404
 30
0.0
 10
75.033766785681
 20
46.06850577837476
 30
0.0
 10
75.00997786194235
 20
46.08613987644971
 30
0.0
 10
74.98520456196155
 20
46.10136763755805
 30
0.0
 10
74.9592140467777
 20
46.11374453826102
 30
0.0
 10
74.93202298830302
 20
46.12338341655888
 30
0.0
 10
74.90375465744695
 20
46.13035544950156
 30
0.0
 10
74.87421997669189
 20
46.13423564870141
 30
0.0
 10
74.85419175821309
 20
46.13488117371018
 30
0.0
 10
74.84396457692307
 20
46.13521080369195
 30
0.0
  0
LINE
  5
D5
330
1F
100
AcDbEntity
  8
0
  6
Continuous
 62
     7
370
    25
100
AcDbLine
 10
75.231104
 20
52.4191722477
 30
0.0
 11
75.231104
 21
53.3544565779
 31
0.0
  0
LINE
  5
D6
330
1F
100
AcDbEntity
  8
0
  6
Continuous
 62
     7
370
    25
100
AcDbLine
 10
57.927495273
 20
56.9986044007
 30
0.0
 11
57.927495273
 21
36.3850799461
 31
0.0
  0
LINE
  5
D7
330
1F
100
AcDbEntity
  8
0
  6
Continuous
 62
     7
370
    25
100
AcDbLine
 10
55.231104
 20
37.9418421734
 30
0.0
 11
55.231104
 21
55.4418421734
 31
0.0
  0
LINE
  5
D8
330
1F
100
AcDbEntity
  8
0
  6
Continuous
 62
     7
370
    25
100
AcDbLine
 10
101.731104
 20
53.6918421734
 30
0.0
 11
101.731104
 21
39.6918421734
 31
0.0
  0
LINE
  5
D9
330
1F
100
AcDbEntity
  8
0
  6
Continuous
 62
     7
370
    25
100
AcDbLine
 10
96.231104
 20
53.6918421734
 30
0.0
 11
96.231104
 21
39.6918421734
 31
0.0
  0
LINE
  5
DA
330
1F
100
AcDbEntity
  8
0
  6
Continuous
 62
     7
370
    25
100
AcDbLine
 10
90.731104
 20
53.6918421734
 30
0.0
 11
90.731104
 21
39.6918421734
 31
0.0
  0
LINE
  5
DB
330
1F
100
AcDbEntity
  8
0
  6
Continuous
 62
     7
370
    25
100
AcDbLine
 10
85.231104
 20
53.6918421734
 30
0.0
 11
85.231104
 21
39.6918421734
 31
0.0
  0
LINE
  5
DC
330
1F
100
AcDbEntity
  8
0
  6
Continuous
 62
     7
370
    25
100
AcDbLine
 10
108.231104
 20
52.4962170798
 30
0.0
 11
108.231104
 21
40.887467263
 31
0.0
  0
LINE
  5
DD
330
1F
100
AcDbEntity
  8
0
  6
Continuous
 62
     7
370
    25
100
AcDbLine
 10
72.231104
 20
35.6918421734
 30
0.0
 11
72.231104
 21
37.1655627318
 31
0.0
  0
LINE
  5
DE
330
1F
100
AcDbEntity
  8
0
  6
Continuous
 62
     7
370
    25
100
AcDbLine
 10
78.231104
 20
37.1655627318
 30
0.0
 11
78.231104
 21
35.6918421734
 31
0.0
  0
LINE
  5
DF
330
1F
100
AcDbEntity
  8
0
  6
Continuous
 62
     7
370
    25
100
AcDbLine
 10
72.231104
 20
56.218121615
 30
0.0
 11
72.231104
 21
57.6918421734
 31
0.0
  0
LINE
  5
E0
330
1F
100
AcDbEntity
  8
0
  6
Continuous
 62
     7
370
    25
100
AcDbLine
 10
78.231104
 20
57.6918421734
 30
0.0
 11
78.231104
 21
56.218121615
 31
0.0
  0
LINE
  5
E1
330
1F
100
AcDbEntity
  8
0
  6
Continuous
 62
     7
370
    25
100
AcDbLine
 10
75.231104
 20
59.0817866522
 30
0.0
 11
75.231104
 21
59.0935480956
 31
0.0
  0
LINE
  5
E2
330
1F
100
AcDbEntity
  8
0
  6
Continuous
 62
     7
370
    25
100
AcDbLine
 10
75.231104
 20
34.2901362512
 30
0.0
 11
75.231104
 21
34.3018976946
 31
0.0
  0
LINE
  5
E3
330
1F
100
AcDbEntity
  8
0
  6
Continuous
 62
     8
370
    25
100
AcDbLine
 10
107.788416054
 20
40.390762795
 30
0.0
 11
107.788416054
 21
52.9929215518
 31
0.0
  0
LINE
  5
E4
330
1F
100
AcDbEntity
  8
0
  6
Continuous
 62
     7
370
    18
100
AcDbLine
 10
56.112330031
 20
55.9506182596
 30
0.0
 11
71.731104
 21
56.4387049461
 31
0.0
  0
LINE
  5
E5
330
1F
100
AcDbEntity
  8
0
  6
Continuous
 62
     7
370
    18
100
AcDbLine
 10
56.112330031
 20
37.4330660872
 30
0.0
 11
71.731104
 21
36.9449794007
 31
0.0
  0
LINE
  5
E6
330
1F
100
AcDbEntity
  8
0
  6
Continuous
 62
     7
370
    18
100
AcDbLine
 10
71.731104
 20
35.9537171734
 30
0.0
 11
71.731104
 21
57.4299671734
 31
0.0
  0
LINE
  5
E7
330
1F
100
AcDbEntity
  8
0
  6
CENTERX2
 62
     7
370
    18
100
AcDbLine
 10
109.231104
 20
46.6918421734
 30
0.0
 11
53.5955401503
 21
46.6918421734
 31
0.0
  0
CIRCLE
  5
E8
330
1F
100
AcDbEntity
  8
0
  6
Continuous
 62
     7
370
    25
100
AcDbCircle
 10
133.2406258382
 20
46.6918421734
 30
0.0
 40
5.804374910449901
  0
CIRCLE
  5
E9
330
1F
100
AcDbEntity
  8
0
  6
Continuous
 62
     7
370
    25
100
AcDbCircle
 10
133.2406258382
 20
46.6918421734
 30
0.0
 40
5.20000000000001
  0
CIRCLE
  5
EA
330
1F
100
AcDbEntity
  8
0
  6
Continuous
 62
     7
370
    25
100
AcDbCircle
 10
133.2406258382
 20
46.6918421734
 30
0.0
 40
6.301079378385481
  0
CIRCLE
  5
EB
330
1F
100
AcDbEntity
  8
0
  6
Continuous
 62
     7
370
    25
100
AcDbCircle
 10
133.2406258382
 20
46.6918421734
 30
0.0
 40
5.0
  0
CIRCLE
  5
EC
330
1F
100
AcDbEntity
  8
0
  6
Continuous
 62
     7
370
    25
100
AcDbCircle
 10
133.2406258382
 20
46.6918421734
 30
0.0
 40
7.0
  0
SPLINE
  5
ED
330
1F
100
AcDbEntity
  8
0
  6
Continuous
 62
     7
370
    25
100
AcDbSpline
210
0.0
220
0.0
230
1.0
 70
    24
 71
     3
 72
    10
 73
     6
 74
     0
 42
0.000000001
 43
0.00000001
 40
0.0
 40
0.0
 40
0.0
 40
0.0
 40
0.5000000000000001
 40
0.5000000000000001
 40
1.0
 40
1.0
 40
1.0
 40
1.0
 10
144.2406258381503
 20
40.34098921232452
 30
0.0
 10
144.2406258381503
 20
41.37496312470358
 30
0.0
 10
144.2406258381503
 20
42.43236516396372
 30
0.0
 10
144.2406258381503
 20
44.55129222414017
 30
0.0
 10
144.2406258381503
 20
45.61755959593226
 30
0.0
 10
144.2406258381503
 20
46.69184217341041
 30
0.0
  0
SPLINE
  5
EE
330
1F
100
AcDbEntity
  8
0
  6
Continuous
 62
     7
370
    25
100
AcDbSpline
210
0.0
220
0.0
230
1.0
 70
    24
 71
     3
 72
    10
 73
     6
 74
     0
 42
0.000000001
 43
0.00000001
 40
0.0
 40
0.0
 40
0.0
 40
0.0
 40
0.5
 40
0.5
 40
1.0
 40
1.0
 40
1.0
 40
1.0
 10
144.2406258381504
 20
40.34098921232454
 30
0.0
 10
143.3408980832894
 20
39.82153115085823
 30
0.0
 10
142.4345983375027
 20
39.29827874866177
 30
0.0
 10
140.6030515879366
 20
38.24083473976638
 30
0.0
 10
139.677662951374
 20
37.70656136134198
 30
0.0
 10
138.7406258381503
 20
37.16556273178158
 30
0.0
  0
ARC
  5
EF
330
1F
100
AcDbEntity
  8
0
  6
Continuous
 62
     7
370
    25
100
AcDbCircle
 10
133.2406258382
 20
46.6918421734
 30
0.0
 40
11.0
100
AcDbArc
 50
300.0
 51
0.0
  0
ARC
  5
F0
330
1F
100
AcDbEntity
  8
0
  6
Continuous
 62
     7
370
    25
100
AcDbCircle
 10
133.2406258382
 20
46.6918421734
 30
0.0
 40
11.0
100
AcDbArc
 50
240.0
 51
300.0
  0
ARC
  5
F1
330
1F
100
AcDbEntity
  8
0
  6
Continuous
 62
     7
370
    25
100
AcDbCircle
 10
133.2406258382
 20
46.6918421734
 30
0.0
 40
11.0
100
AcDbArc
 50
180.0
 51
240.0
  0
ARC
  5
F2
330
1F
100
AcDbEntity
  8
0
  6
Continuous
 62
     7
370
    25
100
AcDbCircle
 10
133.2406258382
 20
46.6918421734
 30
0.0
 40
11.0
100
AcDbArc
 50
120.0
 51
180.0
  0
ARC
  5
F3
330
1F
100
AcDbEntity
  8
0
  6
Continuous
 62
     7
370
    25
100
AcDbCircle
 10
133.2406258382
 20
46.6918421734
 30
0.0
 40
11.0
100
AcDbArc
 50
60.0
 51
120.0
  0
ARC
  5
F4
330
1F
100
AcDbEntity
  8
0
  6
Continuous
 62
     7
370
    25
100
AcDbCircle
 10
133.2406258382
 20
46.6918421734
 30
0.0
 40
11.0
100
AcDbArc
 50
0.0
 51
60.0
  0
SPLINE
  5
F5
330
1F
100
AcDbEntity
  8
0
  6
Continuous
 62
     7
370
    25
100
AcDbSpline
210
0.0
220
0.0
230
1.0
 70
    24
 71
     3
 72
    12
 73
     8
 74
     0
 42
0.000000001
 43
0.00000001
 40
0.0
 40
0.0
 40
0.0
 40
0.0
 40
0.25
 40
0.25
 40
0.5
 40
0.5
 40
1.0
 40
1.0
 40
1.0
 40
1.0
 10
144.2406258381503
 20
46.69184217341041
 30
0.0
 10
144.2406258381503
 20
47.22937579631535
 30
0.0
 10
144.2406258381503
 20
47.76974254014689
 30
0.0
 10
144.2406258381503
 20
48.85083432496404
 30
0.0
 10
144.2406258381503
 20
49.38565244370605
 30
0.0
 10
144.2406258381503
 20
50.97533807830282
 30
0.0
 10
144.2406258381503
 20
52.01553866894214
 30
0.0
 10
144.2406258381503
 20
53.0426951344963
 30
0.0
  0
SPLINE
  5
F6
330
1F
100
AcDbEntity
  8
0
  6
Continuous
 62
     7
370
    25
100
AcDbSpline
210
0.0
220
0.0
230
1.0
 70
    24
 71
     3
 72
    12
 73
     8
 74
     0
 42
0.000000001
 43
0.00000001
 40
0.0
 40
0.0
 40
0.0
 40
0.0
 40
0.2500000000000001
 40
0.2500000000000001
 40
0.5000000000000001
 40
0.5000000000000001
 40
1.0
 40
1.0
 40
1.0
 40
1.0
 10
138.7406258381503
 20
56.21812161503924
 30
0.0
 10
139.2073925629763
 20
55.94863372081219
 30
0.0
 10
139.676253314608
 20
55.67793683964516
 30
0.0
 10
140.6037575689733
 20
55.14244200871285
 30
0.0
 10
141.0644075721771
 20
54.87648560536093
 30
0.0
 10
142.4381760551379
 20
54.08334000191925
 30
0.0
 10
143.3431448426675
 20
53.56085602883086
 30
0.0
 10
144.2406258381503
 20
53.04269513449628
 30
0.0
  0
SPLINE
  5
F7
330
1F
100
AcDbEntity
  8
0
  6
Continuous
 62
     7
370
    25
100
AcDbSpline
210
0.0
220
0.0
230
1.0
 70
    24
 71
     3
 72
    10
 73
     6
 74
     0
 42
0.000000001
 43
0.00000001
 40
0.0
 40
0.0
 40
0.0
 40
0.0
 40
0.5
 40
0.5
 40
1.0
 40
1.0
 40
1.0
 40
1.0
 10
133.2406258381503
 20
33.99013625123862
 30
0.0
 10
132.3408980832894
 20
34.50959431270493
 30
0.0
 10
131.4345983375027
 20
35.0328467149014
 30
0.0
 10
129.6030515879366
 20
36.09029072379678
 30
0.0
 10
128.6776629513741
 20
36.62456410222118
 30
0.0
 10
127.7406258381503
 20
37.16556273178158
 30
0.0
  0
SPLINE
  5
F8
330
1F
100
AcDbEntity
  8
0
  6
Continuous
 62
     7
370
    25
100
AcDbSpline
210
0.0
220
0.0
230
1.0
 70
    24
 71
     3
 72
    12
 73
     8
 74
     0
 42
0.000000001
 43
0.00000001
 40
0.0
 40
0.0
 40
0.0
 40
0.0
 40
0.2500000000000002
 40
0.2500000000000002
 40
0.5000000000000002
 40
0.5000000000000002
 40
1.0
 40
1.0
 40
1.0
 40
1.0
 10
138.7406258381503
 20
37.16556273178158
 30
0.0
 10
138.2738591133243
 20
36.89607483755454
 30
0.0
 10
137.8049983616926
 20
36.6253779563875
 30
0.0
 10
136.8774941073273
 20
36.0898831254552
 30
0.0
 10
136.4168441041235
 20
35.82392672210329
 30
0.0
 10
135.0430756211626
 20
35.03078111866159
 30
0.0
 10
134.1381068336331
 20
34.50829714557322
 30
0.0
 10
133.2406258381503
 20
33.99013625123863
 30
0.0
  0
SPLINE
  5
F9
330
1F
100
AcDbEntity
  8
0
  6
Continuous
 62
     7
370
    25
100
AcDbSpline
210
0.0
220
0.0
230
1.0
 70
    24
 71
     3
 72
    12
 73
     8
 74
     0
 42
0.000000001
 43
0.00000001
 40
0.0
 40
0.0
 40
0.0
 40
0.0
 40
0.2500000000000002
 40
0.2500000000000002
 40
0.5000000000000001
 40
0.5000000000000001
 40
1.0
 40
1.0
 40
1.0
 40
1.0
 10
127.7406258381503
 20
56.21812161503924
 30
0.0
 10
128.2073925629763
 20
56.48760950926628
 30
0.0
 10
128.676253314608
 20
56.75830639043332
 30
0.0
 10
129.6037575689733
 20
57.29380122136561
 30
0.0
 10
130.0644075721771
 20
57.55975762471753
 30
0.0
 10
131.438176055138
 20
58.35290322815923
 30
0.0
 10
132.3431448426675
 20
58.87538720124761
 30
0.0
 10
133.2406258381503
 20
59.39354809558218
 30
0.0
  0
SPLINE
  5
FA
330
1F
100
AcDbEntity
  8
0
  6
Continuous
 62
     7
370
    25
100
AcDbSpline
210
0.0
220
0.0
230
1.0
 70
    24
 71
     3
 72
    10
 73
     6
 74
     0
 42
0.000000001
 43
0.00000001
 40
0.0
 40
0.0
 40
0.0
 40
0.0
 40
0.5
 40
0.5
 40
1.0
 40
1.0
 40
1.0
 40
1.0
 10
133.2406258381502
 20
59.3935480955822
 30
0.0
 10
134.1403535930112
 20
58.87409003411588
 30
0.0
 10
135.0466533387979
 20
58.35083763191942
 30
0.0
 10
136.878200088364
 20
57.29339362302403
 30
0.0
 10
137.8035887249265
 20
56.75912024459964
 30
0.0
 10
138.7406258381503
 20
56.21812161503924
 30
0.0
  0
SPLINE
  5
FB
330
1F
100
AcDbEntity
  8
0
  6
Continuous
 62
     7
370
    25
100
AcDbSpline
210
0.0
220
0.0
230
1.0
 70
    24
 71
     3
 72
    10
 73
     6
 74
     0
 42
0.000000001
 43
0.00000001
 40
0.0
 40
0.0
 40
0.0
 40
0.0
 40
0.5
 40
0.5
 40
1.0
 40
1.0
 40
1.0
 40
1.0
 10
122.2406258381503
 20
40.34098921232452
 30
0.0
 10
122.2406258381503
 20
41.37496312470359
 30
0.0
 10
122.2406258381503
 20
42.43236516396373
 30
0.0
 10
122.2406258381503
 20
44.55129222414017
 30
0.0
 10
122.2406258381503
 20
45.61755959593226
 30
0.0
 10
122.2406258381503
 20
46.69184217341041
 30
0.0
  0
SPLINE
  5
FC
330
1F
100
AcDbEntity
  8
0
  6
Continuous
 62
     7
370
    25
100
AcDbSpline
210
0.0
220
0.0
230
1.0
 70
    24
 71
     3
 72
    12
 73
     8
 74
     0
 42
0.000000001
 43
0.00000001
 40
0.0
 40
0.0
 40
0.0
 40
0.0
 40
0.25
 40
0.25
 40
0.5
 40
0.5
 40
1.0
 40
1.0
 40
1.0
 40
1.0
 10
127.7406258381503
 20
37.16556273178158
 30
0.0
 10
127.2738591133243
 20
37.43505062600863
 30
0.0
 10
126.8049983616926
 20
37.70574750717566
 30
0.0
 10
125.8774941073273
 20
38.24124233810796
 30
0.0
 10
125.4168441041235
 20
38.50719874145989
 30
0.0
 10
124.0430756211626
 20
39.30034434490157
 30
0.0
 10
123.1381068336331
 20
39.82282831798997
 30
0.0
 10
122.2406258381503
 20
40.34098921232454
 30
0.0
  0
SPLINE
  5
FD
330
1F
100
AcDbEntity
  8
0
  6
Continuous
 62
     7
370
    25
100
AcDbSpline
210
0.0
220
0.0
230
1.0
 70
    24
 71
     3
 72
    12
 73
     8
 74
     0
 42
0.000000001
 43
0.00000001
 40
0.0
 40
0.0
 40
0.0
 40
0.0
 40
0.2499999999999999
 40
0.2499999999999999
 40
0.4999999999999999
 40
0.4999999999999999
 40
1.0
 40
1.0
 40
1.0
 40
1.0
 10
122.2406258381503
 20
46.69184217341041
 30
0.0
 10
122.2406258381503
 20
47.22937579631535
 30
0.0
 10
122.2406258381503
 20
47.76974254014689
 30
0.0
 10
122.2406258381503
 20
48.85083432496404
 30
0.0
 10
122.2406258381503
 20
49.38565244370606
 30
0.0
 10
122.2406258381503
 20
50.97533807830283
 30
0.0
 10
122.2406258381503
 20
52.01553866894214
 30
0.0
 10
122.2406258381503
 20
53.0426951344963
 30
0.0
  0
SPLINE
  5
FE
330
1F
100
AcDbEntity
  8
0
  6
Continuous
 62
     7
370
    25
100
AcDbSpline
210
0.0
220
0.0
230
1.0
 70
    24
 71
     3
 72
    10
 73
     6
 74
     0
 42
0.000000001
 43
0.00000001
 40
0.0
 40
0.0
 40
0.0
 40
0.0
 40
0.5
 40
0.5
 40
1.0
 40
1.0
 40
1.0
 40
1.0
 10
122.2406258381503
 20
53.04269513449627
 30
0.0
 10
123.1403535930112
 20
53.56215319596259
 30
0.0
 10
124.0466533387979
 20
54.08540559815906
 30
0.0
 10
125.878200088364
 20
55.14284960705443
 30
0.0
 10
126.8035887249265
 20
55.67712298547882
 30
0.0
 10
127.7406258381503
 20
56.21812161503924
 30
0.0
  0
INSERT
  5
10A
330
1F
100
AcDbEntity
  8
0
  6
Continuous
 62
     7
370
    18
100
AcDbBlockReference
  2
SW_CENTERMARKSYMBOL_0
 10
133.2406258382
 20
46.6918421734
 30
0.0
  0
INSERT
  5
116
330
1F
100
AcDbEntity
  8
0
  6
Continuous
 62
     7
370
    18
100
AcDbBlockReference
  2
SW_CENTERMARKSYMBOL_1
 10
133.2406258382
 20
46.6918421734
 30
0.0
  0
LINE
  5
117
330
1F
100
AcDbEntity
  8
0
  6
Continuous
 62
     7
370
    25
100
AcDbLine
 10
72.231104
 20
91.8488328613
 30
0.0
 11
57.927495273
 21
91.4018450886
 31
0.0
  0
LINE
  5
118
330
1F
100
AcDbEntity
  8
0
  6
Continuous
 62
     7
370
    25
100
AcDbLine
 10
57.927495273
 20
70.788320634
 30
0.0
 11
72.231104
 21
70.3413328613
 31
0.0
  0
LINE
  5
119
330
1F
100
AcDbEntity
  8
0
  6
Continuous
 62
     7
370
    25
100
AcDbLine
 10
57.927495273
 20
91.4018450886
 30
0.0
 11
55.231104
 21
89.8450828613
 31
0.0
  0
LINE
  5
11A
330
1F
100
AcDbEntity
  8
0
  6
Continuous
 62
     7
370
    25
100
AcDbLine
 10
55.231104
 20
72.3450828613
 30
0.0
 11
57.927495273
 21
70.788320634
 31
0.0
  0
LINE
  5
11B
330
1F
100
AcDbEntity
  8
0
  6
Continuous
 62
     7
370
    25
100
AcDbLine
 10
85.231104
 20
74.0950828613
 30
0.0
 11
90.731104
 21
74.8450828613
 31
0.0
  0
LINE
  5
11C
330
1F
100
AcDbEntity
  8
0
  6
Continuous
 62
     7
370
    25
100
AcDbLine
 10
90.731104
 20
87.3450828613
 30
0.0
 11
85.231104
 21
88.0950828613
 31
0.0
  0
LINE
  5
11D
330
1F
100
AcDbEntity
  8
0
  6
Continuous
 62
     7
370
    25
100
AcDbLine
 10
85.231104
 20
88.0950828613
 30
0.0
 11
78.231104
 21
88.0950828613
 31
0.0
  0
LINE
  5
11E
330
1F
100
AcDbEntity
  8
0
  6
Continuous
 62
     7
370
    25
100
AcDbLine
 10
78.231104
 20
74.0950828613
 30
0.0
 11
85.231104
 21
74.0950828613
 31
0.0
  0
LINE
  5
11F
330
1F
100
AcDbEntity
  8
0
  6
Continuous
 62
     7
370
    25
100
AcDbLine
 10
101.731104
 20
74.0950828613
 30
0.0
 11
107.788416054
 21
74.7940034829
 31
0.0
  0
LINE
  5
120
330
1F
100
AcDbEntity
  8
0
  6
Continuous
 62
     7
370
    25
100
AcDbLine
 10
107.788416054
 20
87.3961622397
 30
0.0
 11
101.731104
 21
88.0950828613
 31
0.0
  0
LINE
  5
121
330
1F
100
AcDbEntity
  8
0
  6
Continuous
 62
     7
370
    25
100
AcDbLine
 10
90.731104
 20
74.0950828613
 30
0.0
 11
96.231104
 21
74.8450828613
 31
0.0
  0
LINE
  5
122
330
1F
100
AcDbEntity
  8
0
  6
Continuous
 62
     7
370
    25
100
AcDbLine
 10
96.231104
 20
87.3450828613
 30
0.0
 11
90.731104
 21
88.0950828613
 31
0.0
  0
LINE
  5
123
330
1F
100
AcDbEntity
  8
0
  6
Continuous
 62
     7
370
    25
100
AcDbLine
 10
96.231104
 20
74.0950828613
 30
0.0
 11
101.731104
 21
74.8450828613
 31
0.0
  0
LINE
  5
124
330
1F
100
AcDbEntity
  8
0
  6
Continuous
 62
     7
370
    25
100
AcDbLine
 10
101.731104
 20
87.3450828613
 30
0.0
 11
96.231104
 21
88.0950828613
 31
0.0
  0
ARC
  5
125
330
1F
100
AcDbEntity
  8
0
  6
Continuous
 62
     7
370
    25
100
AcDbCircle
 10
107.731104
 20
75.2907079508
 30
0.0
 40
0.5000000000000079
100
AcDbArc
 50
276.5819446552
 51
0.0
  0
ARC
  5
126
330
1F
100
AcDbEntity
  8
0
  6
Continuous
 62
     7
370
    25
100
AcDbCircle
 10
107.731104
 20
86.8994577717
 30
0.0
 40
0.5000000000000079
100
AcDbArc
 50
0.0
 51
83.4180553448
  0
LINE
  5
127
330
1F
100
AcDbEntity
  8
0
  6
Continuous
 62
     7
370
    25
100
AcDbLine
 10
75.3114887577
 20
92.0950828613
 30
0.0
 11
77.2486236278
 21
92.0950828613
 31
0.0
  0
SPLINE
  5
128
330
1F
100
AcDbEntity
  8
0
  6
Continuous
 62
     7
370
    25
100
AcDbSpline
210
0.0
220
0.0
230
1.0
 70
     8
 71
     3
 72
    12
 73
     8
 74
     0
 42
0.000000001
 43
0.00000001
 40
0.0
 40
0.0
 40
0.0
 40
0.0
 40
0.2500000000000001
 40
0.2500000000000001
 40
0.5000000000000001
 40
0.5000000000000001
 40
1.0
 40
1.0
 40
1.0
 40
1.0
 10
78.231104
 20
86.59508286127168
 30
0.0
 10
78.231104
 20
87.06184958609767
 30
0.0
 10
78.20788184567283
 20
87.5307103377294
 30
0.0
 10
78.11801469581208
 20
88.45821459209466
 30
0.0
 10
78.05145610672439
 20
88.91886459529846
 30
0.0
 10
77.79474663260271
 20
90.29263307825934
 30
0.0
 10
77.5477839595803
 20
91.19760186578888
 30
0.0
 10
77.24862362775269
 20
92.0950828612717
 30
0.0
  0
SPLINE
  5
129
330
1F
100
AcDbEntity
  8
0
  6
Continuous
 62
     7
370
    25
100
AcDbSpline
210
0.0
220
0.0
230
1.0
 70
     8
 71
     3
 72
    10
 73
     6
 74
     0
 42
0.000000001
 43
0.00000001
 40
0.0
 40
0.0
 40
0.0
 40
0.0
 40
0.5
 40
0.5
 40
1.0
 40
1.0
 40
1.0
 40
1.0
 10
77.24862362775285
 20
81.09508286127164
 30
0.0
 10
77.54853287937316
 20
81.99481061613254
 30
0.0
 10
77.79561353873909
 20
82.90111036191928
 30
0.0
 10
78.13746835277148
 20
84.7326571114854
 30
0.0
 10
78.231104
 20
85.65804574804791
 30
0.0
 10
78.231104
 20
86.59508286127168
 30
0.0
  0
LINE
  5
12A
330
1F
100
AcDbEntity
  8
0
  6
Continuous
 62
     7
370
    25
100
AcDbLine
 10
75.3114887577
 20
81.0950828613
 30
0.0
 11
77.2486236278
 21
81.0950828613
 31
0.0
  0
SPLINE
  5
12B
330
1F
100
AcDbEntity
  8
0
  6
Continuous
 62
     7
370
    25
100
AcDbSpline
210
0.0
220
0.0
230
1.0
 70
     8
 71
     3
 72
     8
 73
     4
 74
     0
 42
0.000000001
 43
0.00000001
 40
0.0
 40
0.0
 40
0.0
 40
0.0
 40
1.0
 40
1.0
 40
1.0
 40
1.0
 10
75.31148875772932
 20
81.09508286127168
 30
0.0
 10
75.28365708467221
 20
81.27498962403207
 30
0.0
 10
75.25683602480616
 20
81.45498293854044
 30
0.0
 10
75.23110399999999
 20
81.63506952106556
 30
0.0
  0
SPLINE
  5
12C
330
1F
100
AcDbEntity
  8
0
  6
Continuous
 62
     7
370
    25
100
AcDbSpline
210
0.0
220
0.0
230
1.0
 70
     8
 71
     3
 72
     8
 73
     4
 74
     0
 42
0.000000001
 43
0.00000001
 40
0.0
 40
0.0
 40
0.0
 40
0.0
 40
1.0
 40
1.0
 40
1.0
 40
1.0
 10
75.23110399999999
 20
81.63506952106556
 30
0.0
 10
75.20536305016667
 20
81.45492047638885
 30
0.0
 10
75.17854150590577
 20
81.27492880057221
 30
0.0
 10
75.15071924227065
 20
81.09508286127168
 30
0.0
  0
LINE
  5
12D
330
1F
100
AcDbEntity
  8
0
  6
Continuous
 62
     7
370
    25
100
AcDbLine
 10
73.2135843722
 20
81.0950828613
 30
0.0
 11
75.1507192423
 21
81.0950828613
 31
0.0
  0
SPLINE
  5
12E
330
1F
100
AcDbEntity
  8
0
  6
Continuous
 62
     7
370
    25
100
AcDbSpline
210
0.0
220
0.0
230
1.0
 70
     8
 71
     3
 72
    10
 73
     6
 74
     0
 42
0.000000001
 43
0.00000001
 40
0.0
 40
0.0
 40
0.0
 40
0.0
 40
0.5
 40
0.5
 40
1.0
 40
1.0
 40
1.0
 40
1.0
 10
73.21358437224713
 20
81.09508286127164
 30
0.0
 10
72.9136751206268
 20
81.99481061613254
 30
0.0
 10
72.66659446126087
 20
82.90111036191928
 30
0.0
 10
72.3247396472285
 20
84.7326571114854
 30
0.0
 10
72.23110399999997
 20
85.65804574804791
 30
0.0
 10
72.23110399999997
 20
86.59508286127168
 30
0.0
  0
SPLINE
  5
12F
330
1F
100
AcDbEntity
  8
0
  6
Continuous
 62
     7
370
    25
100
AcDbSpline
210
0.0
220
0.0
230
1.0
 70
     8
 71
     3
 72
    12
 73
     8
 74
     0
 42
0.000000001
 43
0.00000001
 40
0.0
 40
0.0
 40
0.0
 40
0.0
 40
0.2500000000000001
 40
0.2500000000000001
 40
0.5000000000000001
 40
0.5000000000000001
 40
1.0
 40
1.0
 40
1.0
 40
1.0
 10
72.23110399999997
 20
86.59508286127168
 30
0.0
 10
72.23110399999997
 20
87.06184958609767
 30
0.0
 10
72.25432615432715
 20
87.5307103377294
 30
0.0
 10
72.3441933041879
 20
88.45821459209466
 30
0.0
 10
72.41075189327559
 20
88.91886459529846
 30
0.0
 10
72.66746136739727
 20
90.29263307825934
 30
0.0
 10
72.91442404041968
 20
91.19760186578888
 30
0.0
 10
73.21358437224727
 20
92.0950828612717
 30
0.0
  0
LINE
  5
130
330
1F
100
AcDbEntity
  8
0
  6
Continuous
 62
     7
370
    25
100
AcDbLine
 10
73.2135843722
 20
92.0950828613
 30
0.0
 11
75.1507192423
 21
92.0950828613
 31
0.0
  0
SPLINE
  5
131
330
1F
100
AcDbEntity
  8
0
  6
Continuous
 62
     7
370
    25
100
AcDbSpline
210
0.0
220
0.0
230
1.0
 70
     8
 71
     3
 72
     8
 73
     4
 74
     0
 42
0.000000001
 43
0.00000001
 40
0.0
 40
0.0
 40
0.0
 40
0.0
 40
1.0
 40
1.0
 40
1.0
 40
1.0
 10
75.15071924227065
 20
92.09508286127168
 30
0.0
 10
75.17855091532776
 20
91.91517609851127
 30
0.0
 10
75.20537197519381
 20
91.73518278400292
 30
0.0
 10
75.23110399999999
 20
91.5550962014778
 30
0.0
  0
SPLINE
  5
132
330
1F
100
AcDbEntity
  8
0
  6
Continuous
 62
     7
370
    25
100
AcDbSpline
210
0.0
220
0.0
230
1.0
 70
     8
 71
     3
 72
     8
 73
     4
 74
     0
 42
0.000000001
 43
0.00000001
 40
0.0
 40
0.0
 40
0.0
 40
0.0
 40
1.0
 40
1.0
 40
1.0
 40
1.0
 10
75.23110399999999
 20
91.5550962014778
 30
0.0
 10
75.2568449498333
 20
91.7352452461545
 30
0.0
 10
75.2836664940942
 20
91.91523692197113
 30
0.0
 10
75.31148875772932
 20
92.09508286127168
 30
0.0
  0
SPLINE
  5
133
330
1F
100
AcDbEntity
  8
0
  6
Continuous
 62
     7
370
    25
100
AcDbSpline
210
0.0
220
0.0
230
1.0
 70
     8
 71
     3
 72
    12
 73
     8
 74
     0
 42
0.000000001
 43
0.00000001
 40
0.0
 40
0.0
 40
0.0
 40
0.0
 40
0.2500000000000002
 40
0.2500000000000002
 40
0.5000000000000001
 40
0.5000000000000001
 40
1.0
 40
1.0
 40
1.0
 40
1.0
 10
78.231104
 20
75.59508286127168
 30
0.0
 10
78.231104
 20
76.06184958609767
 30
0.0
 10
78.20788184567283
 20
76.5307103377294
 30
0.0
 10
78.11801469581208
 20
77.45821459209465
 30
0.0
 10
78.05145610672439
 20
77.91886459529847
 30
0.0
 10
77.79474663260271
 20
79.29263307825934
 30
0.0
 10
77.5477839595803
 20
80.1976018657889
 30
0.0
 10
77.24862362775269
 20
81.0950828612717
 30
0.0
  0
LINE
  5
134
330
1F
100
AcDbEntity
  8
0
  6
Continuous
 62
     7
370
    25
100
AcDbLine
 10
78.231104
 20
86.5950828613
 30
0.0
 11
78.231104
 21
75.5950828613
 31
0.0
  0
LINE
  5
135
330
1F
100
AcDbEntity
  8
0
  6
Continuous
 62
     7
370
    25
100
AcDbLine
 10
72.231104
 20
75.5950828613
 30
0.0
 11
72.231104
 21
86.5950828613
 31
0.0
  0
SPLINE
  5
136
330
1F
100
AcDbEntity
  8
0
  6
Continuous
 62
     7
370
    25
100
AcDbSpline
210
0.0
220
0.0
230
1.0
 70
     8
 71
     3
 72
    12
 73
     8
 74
     0
 42
0.000000001
 43
0.00000001
 40
0.0
 40
0.0
 40
0.0
 40
0.0
 40
0.2500000000000002
 40
0.2500000000000002
 40
0.5000000000000001
 40
0.5000000000000001
 40
1.0
 40
1.0
 40
1.0
 40
1.0
 10
72.23110399999997
 20
75.59508286127168
 30
0.0
 10
72.23110399999997
 20
76.06184958609767
 30
0.0
 10
72.25432615432715
 20
76.5307103377294
 30
0.0
 10
72.3441933041879
 20
77.45821459209465
 30
0.0
 10
72.41075189327559
 20
77.91886459529847
 30
0.0
 10
72.66746136739727
 20
79.29263307825934
 30
0.0
 10
72.91442404041968
 20
80.1976018657889
 30
0.0
 10
73.21358437224727
 20
81.0950828612717
 30
0.0
  0
LINE
  5
137
330
1F
100
AcDbEntity
  8
0
  6
Continuous
 62
     7
370
    25
100
AcDbLine
 10
75.231104
 20
80.5550962015
 30
0.0
 11
75.231104
 21
81.6350695211
 31
0.0
  0
SPLINE
  5
138
330
1F
100
AcDbEntity
  8
0
  6
Continuous
 62
     7
370
    25
100
AcDbSpline
210
0.0
220
0.0
230
1.0
 70
     8
 71
     3
 72
     8
 73
     4
 74
     0
 42
0.000000001
 43
0.00000001
 40
0.0
 40
0.0
 40
0.0
 40
0.0
 40
1.0
 40
1.0
 40
1.0
 40
1.0
 10
75.15071924227065
 20
81.09508286127168
 30
0.0
 10
75.17855091532776
 20
80.91517609851127
 30
0.0
 10
75.20537197519381
 20
80.7351827840029
 30
0.0
 10
75.23110399999999
 20
80.5550962014778
 30
0.0
  0
SPLINE
  5
139
330
1F
100
AcDbEntity
  8
0
  6
Continuous
 62
     7
370
    25
100
AcDbSpline
210
0.0
220
0.0
230
1.0
 70
     8
 71
     3
 72
     8
 73
     4
 74
     0
 42
0.000000001
 43
0.00000001
 40
0.0
 40
0.0
 40
0.0
 40
0.0
 40
1.0
 40
1.0
 40
1.0
 40
1.0
 10
75.23110399999999
 20
80.5550962014778
 30
0.0
 10
75.2568449498333
 20
80.7352452461545
 30
0.0
 10
75.2836664940942
 20
80.91523692197114
 30
0.0
 10
75.31148875772932
 20
81.09508286127168
 30
0.0
  0
SPLINE
  5
13A
330
1F
100
AcDbEntity
  8
0
  6
Continuous
 62
     7
370
    25
100
AcDbSpline
210
0.0
220
0.0
230
1.0
 70
     8
 71
     3
 72
    10
 73
     6
 74
     0
 42
0.000000001
 43
0.00000001
 40
0.0
 40
0.0
 40
0.0
 40
0.0
 40
0.5
 40
0.5
 40
1.0
 40
1.0
 40
1.0
 40
1.0
 10
77.24862362775285
 20
70.09508286127164
 30
0.0
 10
77.54853287937316
 20
70.99481061613254
 30
0.0
 10
77.79561353873909
 20
71.90111036191928
 30
0.0
 10
78.13746835277148
 20
73.7326571114854
 30
0.0
 10
78.231104
 20
74.65804574804793
 30
0.0
 10
78.231104
 20
75.59508286127168
 30
0.0
  0
LINE
  5
13B
330
1F
100
AcDbEntity
  8
0
  6
Continuous
 62
     7
370
    25
100
AcDbLine
 10
75.3114887577
 20
70.0950828613
 30
0.0
 11
77.2486236278
 21
70.0950828613
 31
0.0
  0
SPLINE
  5
13C
330
1F
100
AcDbEntity
  8
0
  6
Continuous
 62
     7
370
    25
100
AcDbSpline
210
0.0
220
0.0
230
1.0
 70
     8
 71
     3
 72
     8
 73
     4
 74
     0
 42
0.000000001
 43
0.00000001
 40
0.0
 40
0.0
 40
0.0
 40
0.0
 40
1.0
 40
1.0
 40
1.0
 40
1.0
 10
75.31148875772932
 20
70.09508286127168
 30
0.0
 10
75.28365708467221
 20
70.27498962403207
 30
0.0
 10
75.25683602480618
 20
70.45498293854044
 30
0.0
 10
75.23110399999999
 20
70.63506952106555
 30
0.0
  0
SPLINE
  5
13D
330
1F
100
AcDbEntity
  8
0
  6
Continuous
 62
     7
370
    25
100
AcDbSpline
210
0.0
220
0.0
230
1.0
 70
     8
 71
     3
 72
     8
 73
     4
 74
     0
 42
0.000000001
 43
0.00000001
 40
0.0
 40
0.0
 40
0.0
 40
0.0
 40
1.0
 40
1.0
 40
1.0
 40
1.0
 10
75.23110399999997
 20
70.63506952106556
 30
0.0
 10
75.20536305016667
 20
70.45492047638885
 30
0.0
 10
75.17854150590577
 20
70.27492880057223
 30
0.0
 10
75.15071924227065
 20
70.09508286127168
 30
0.0
  0
LINE
  5
13E
330
1F
100
AcDbEntity
  8
0
  6
Continuous
 62
     7
370
    25
100
AcDbLine
 10
73.2135843722
 20
70.0950828613
 30
0.0
 11
75.1507192423
 21
70.0950828613
 31
0.0
  0
SPLINE
  5
13F
330
1F
100
AcDbEntity
  8
0
  6
Continuous
 62
     7
370
    25
100
AcDbSpline
210
0.0
220
0.0
230
1.0
 70
     8
 71
     3
 72
    10
 73
     6
 74
     0
 42
0.000000001
 43
0.00000001
 40
0.0
 40
0.0
 40
0.0
 40
0.0
 40
0.5
 40
0.5
 40
1.0
 40
1.0
 40
1.0
 40
1.0
 10
73.21358437224713
 20
70.09508286127164
 30
0.0
 10
72.9136751206268
 20
70.99481061613254
 30
0.0
 10
72.66659446126087
 20
71.90111036191928
 30
0.0
 10
72.3247396472285
 20
73.7326571114854
 30
0.0
 10
72.23110399999997
 20
74.65804574804793
 30
0.0
 10
72.23110399999997
 20
75.59508286127168
 30
0.0
  0
LINE
  5
140
330
1F
100
AcDbEntity
  8
0
  6
Continuous
 62
     7
370
    25
100
AcDbLine
 10
57.927495273
 20
81.0950828613
 30
0.0
 11
57.927495273
 21
70.788320634
 31
0.0
  0
LINE
  5
141
330
1F
100
AcDbEntity
  8
0
  6
Continuous
 62
     7
370
    25
100
AcDbLine
 10
57.927495273
 20
91.4018450886
 30
0.0
 11
57.927495273
 21
81.0950828613
 31
0.0
  0
LINE
  5
142
330
1F
100
AcDbEntity
  8
0
  6
Continuous
 62
     7
370
    25
100
AcDbLine
 10
55.231104
 20
72.3450828613
 30
0.0
 11
55.231104
 21
89.8450828613
 31
0.0
  0
SPLINE
  5
143
330
1F
100
AcDbEntity
  8
0
  6
Continuous
 62
     7
370
    25
100
AcDbSpline
210
0.0
220
0.0
230
1.0
 70
    24
 71
     3
 72
    12
 73
     8
 74
     0
 42
0.000000001
 43
0.00000001
 40
0.0
 40
0.0
 40
0.0
 40
0.0
 40
0.25
 40
0.25
 40
0.5
 40
0.5
 40
1.0
 40
1.0
 40
1.0
 40
1.0
 10
72.23110399999999
 20
92.09508286127168
 30
0.0
 10
72.23110399999999
 20
92.09508286127168
 30
0.0
 10
72.25404819455795
 20
92.09508286127168
 30
0.0
 10
72.3449048954311
 20
92.09508286127168
 30
0.0
 10
72.41217350786106
 20
92.09508286127168
 30
0.0
 10
72.67029315370341
 20
92.09508286127168
 30
0.0
 10
72.91706984130366
 20
92.09508286127168
 30
0.0
 10
73.21358437224742
 20
92.09508286127168
 30
0.0
  0
LINE
  5
144
330
1F
100
AcDbEntity
  8
0
  6
Continuous
 62
     7
370
    25
100
AcDbLine
 10
72.231104
 20
92.0950828613
 30
0.0
 11
72.231104
 21
86.5950828613
 31
0.0
  0
SPLINE
  5
145
330
1F
100
AcDbEntity
  8
0
  6
Continuous
 62
     7
370
    25
100
AcDbSpline
210
0.0
220
0.0
230
1.0
 70
    24
 71
     3
 72
    12
 73
     8
 74
     0
 42
0.000000001
 43
0.00000001
 40
0.0
 40
0.0
 40
0.0
 40
0.0
 40
0.25
 40
0.25
 40
0.5
 40
0.5
 40
1.0
 40
1.0
 40
1.0
 40
1.0
 10
78.23110399999999
 20
92.09508286127168
 30
0.0
 10
78.23110399999999
 20
92.09508286127168
 30
0.0
 10
78.20815980544202
 20
92.09508286127168
 30
0.0
 10
78.11730310456886
 20
92.09508286127168
 30
0.0
 10
78.05003449213892
 20
92.09508286127168
 30
0.0
 10
77.79191484629656
 20
92.09508286127168
 30
0.0
 10
77.54513815869632
 20
92.09508286127168
 30
0.0
 10
77.24862362775254
 20
92.09508286127168
 30
0.0
  0
LINE
  5
146
330
1F
100
AcDbEntity
  8
0
  6
Continuous
 62
     7
370
    25
100
AcDbLine
 10
78.231104
 20
92.0950828613
 30
0.0
 11
78.231104
 21
86.5950828613
 31
0.0
  0
SPLINE
  5
147
330
1F
100
AcDbEntity
  8
0
  6
Continuous
 62
     7
370
    25
100
AcDbSpline
210
0.0
220
0.0
230
1.0
 70
    24
 71
     3
 72
    12
 73
     8
 74
     0
 42
0.000000001
 43
0.00000001
 40
0.0
 40
0.0
 40
0.0
 40
0.0
 40
0.2499999999999999
 40
0.2499999999999999
 40
0.4999999999999999
 40
0.4999999999999999
 40
1.0
 40
1.0
 40
1.0
 40
1.0
 10
78.23110399999999
 20
70.09508286127168
 30
0.0
 10
78.23110399999999
 20
70.09508286127168
 30
0.0
 10
78.20815980544202
 20
70.09508286127168
 30
0.0
 10
78.11730310456886
 20
70.09508286127168
 30
0.0
 10
78.05003449213892
 20
70.09508286127168
 30
0.0
 10
77.79191484629656
 20
70.09508286127168
 30
0.0
 10
77.54513815869632
 20
70.09508286127168
 30
0.0
 10
77.24862362775254
 20
70.09508286127168
 30
0.0
  0
LINE
  5
148
330
1F
100
AcDbEntity
  8
0
  6
Continuous
 62
     7
370
    25
100
AcDbLine
 10
78.231104
 20
75.5950828613
 30
0.0
 11
78.231104
 21
70.0950828613
 31
0.0
  0
SPLINE
  5
149
330
1F
100
AcDbEntity
  8
0
  6
Continuous
 62
     7
370
    25
100
AcDbSpline
210
0.0
220
0.0
230
1.0
 70
    24
 71
     3
 72
    12
 73
     8
 74
     0
 42
0.000000001
 43
0.00000001
 40
0.0
 40
0.0
 40
0.0
 40
0.0
 40
0.2499999999999999
 40
0.2499999999999999
 40
0.4999999999999999
 40
0.4999999999999999
 40
1.0
 40
1.0
 40
1.0
 40
1.0
 10
72.23110399999999
 20
70.09508286127168
 30
0.0
 10
72.23110399999999
 20
70.09508286127168
 30
0.0
 10
72.25404819455795
 20
70.09508286127168
 30
0.0
 10
72.3449048954311
 20
70.09508286127168
 30
0.0
 10
72.41217350786106
 20
70.09508286127168
 30
0.0
 10
72.67029315370341
 20
70.09508286127168
 30
0.0
 10
72.91706984130366
 20
70.09508286127168
 30
0.0
 10
73.21358437224742
 20
70.09508286127168
 30
0.0
  0
LINE
  5
14A
330
1F
100
AcDbEntity
  8
0
  6
Continuous
 62
     7
370
    25
100
AcDbLine
 10
72.231104
 20
70.0950828613
 30
0.0
 11
72.231104
 21
75.5950828613
 31
0.0
  0
LINE
  5
14B
330
1F
100
AcDbEntity
  8
0
  6
Continuous
 62
     7
370
    25
100
AcDbLine
 10
85.231104
 20
81.0950828613
 30
0.0
 11
85.231104
 21
74.0950828613
 31
0.0
  0
LINE
  5
14C
330
1F
100
AcDbEntity
  8
0
  6
Continuous
 62
     7
370
    25
100
AcDbLine
 10
85.231104
 20
88.0950828613
 30
0.0
 11
85.231104
 21
81.0950828613
 31
0.0
  0
LINE
  5
14D
330
1F
100
AcDbEntity
  8
0
  6
Continuous
 62
     7
370
    25
100
AcDbLine
 10
101.731104
 20
81.0950828613
 30
0.0
 11
101.731104
 21
74.0950828613
 31
0.0
  0
LINE
  5
14E
330
1F
100
AcDbEntity
  8
0
  6
Continuous
 62
     7
370
    25
100
AcDbLine
 10
101.731104
 20
88.0950828613
 30
0.0
 11
101.731104
 21
81.0950828613
 31
0.0
  0
LINE
  5
14F
330
1F
100
AcDbEntity
  8
0
  6
Continuous
 62
     7
370
    25
100
AcDbLine
 10
90.731104
 20
81.0950828613
 30
0.0
 11
90.731104
 21
74.0950828613
 31
0.0
  0
LINE
  5
150
330
1F
100
AcDbEntity
  8
0
  6
Continuous
 62
     7
370
    25
100
AcDbLine
 10
90.731104
 20
88.0950828613
 30
0.0
 11
90.731104
 21
81.0950828613
 31
0.0
  0
LINE
  5
151
330
1F
100
AcDbEntity
  8
0
  6
Continuous
 62
     7
370
    25
100
AcDbLine
 10
96.231104
 20
81.0950828613
 30
0.0
 11
96.231104
 21
74.0950828613
 31
0.0
  0
LINE
  5
152
330
1F
100
AcDbEntity
  8
0
  6
Continuous
 62
     7
370
    25
100
AcDbLine
 10
96.231104
 20
88.0950828613
 30
0.0
 11
96.231104
 21
81.0950828613
 31
0.0
  0
LINE
  5
153
330
1F
100
AcDbEntity
  8
0
  6
Continuous
 62
     7
370
    25
100
AcDbLine
 10
75.231104
 20
91.5550962015
 30
0.0
 11
75.231104
 21
92.0950828613
 31
0.0
  0
SPLINE
  5
154
330
1F
100
AcDbEntity
  8
0
  6
Continuous
 62
     7
370
    25
100
AcDbSpline
210
0.0
220
0.0
230
1.0
 70
    24
 71
     3
 72
     8
 73
     4
 74
     0
 42
0.000000001
 43
0.00000001
 40
0.0
 40
0.0
 40
0.0
 40
0.0
 40
1.0
 40
1.0
 40
1.0
 40
1.0
 10
75.31148875772932
 20
92.09508286127168
 30
0.0
 10
75.28365570417341
 20
92.09508286127168
 30
0.0
 10
75.25683471640312
 20
92.09508286127168
 30
0.0
 10
75.23110399999999
 20
92.09508286127168
 30
0.0
  0
SPLINE
  5
155
330
1F
100
AcDbEntity
  8
0
  6
Continuous
 62
     7
370
    25
100
AcDbSpline
210
0.0
220
0.0
230
1.0
 70
    24
 71
     3
 72
     8
 73
     4
 74
     0
 42
0.000000001
 43
0.00000001
 40
0.0
 40
0.0
 40
0.0
 40
0.0
 40
1.0
 40
1.0
 40
1.0
 40
1.0
 10
75.23110399999999
 20
92.09508286127168
 30
0.0
 10
75.20536350943037
 20
92.09508286127168
 30
0.0
 10
75.17854198978095
 20
92.09508286127168
 30
0.0
 10
75.15071924227065
 20
92.09508286127168
 30
0.0
  0
LINE
  5
156
330
1F
100
AcDbEntity
  8
0
  6
Continuous
 62
     7
370
    25
100
AcDbLine
 10
75.231104
 20
70.0950828613
 30
0.0
 11
75.231104
 21
70.6350695211
 31
0.0
  0
SPLINE
  5
157
330
1F
100
AcDbEntity
  8
0
  6
Continuous
 62
     7
370
    25
100
AcDbSpline
210
0.0
220
0.0
230
1.0
 70
    24
 71
     3
 72
     8
 73
     4
 74
     0
 42
0.000000001
 43
0.00000001
 40
0.0
 40
0.0
 40
0.0
 40
0.0
 40
1.0
 40
1.0
 40
1.0
 40
1.0
 10
75.23110399999997
 20
70.09508286127168
 30
0.0
 10
75.2568444905696
 20
70.09508286127168
 30
0.0
 10
75.28366601021902
 20
70.09508286127168
 30
0.0
 10
75.31148875772932
 20
70.09508286127168
 30
0.0
  0
SPLINE
  5
158
330
1F
100
AcDbEntity
  8
0
  6
Continuous
 62
     7
370
    25
100
AcDbSpline
210
0.0
220
0.0
230
1.0
 70
    24
 71
     3
 72
     8
 73
     4
 74
     0
 42
0.000000001
 43
0.00000001
 40
0.0
 40
0.0
 40
0.0
 40
0.0
 40
1.0
 40
1.0
 40
1.0
 40
1.0
 10
75.15071924227065
 20
70.09508286127168
 30
0.0
 10
75.17855229582655
 20
70.09508286127168
 30
0.0
 10
75.20537328359684
 20
70.09508286127168
 30
0.0
 10
75.23110399999999
 20
70.09508286127168
 30
0.0
  0
LINE
  5
159
330
1F
100
AcDbEntity
  8
0
  6
Continuous
 62
     7
370
    25
100
AcDbLine
 10
108.231104
 20
86.8994577717
 30
0.0
 11
108.231104
 21
75.2907079508
 31
0.0
  0
LINE
  5
15A
330
1F
100
AcDbEntity
  8
0
  6
Continuous
 62
     8
370
    25
100
AcDbLine
 10
107.788416054
 20
81.0950828613
 30
0.0
 11
107.788416054
 21
87.3961622397
 31
0.0
  0
LINE
  5
15B
330
1F
100
AcDbEntity
  8
0
  6
Continuous
 62
     8
370
    25
100
AcDbLine
 10
107.788416054
 20
74.7940034829
 30
0.0
 11
107.788416054
 21
81.0950828613
 31
0.0
  0
LINE
  5
15C
330
1F
100
AcDbEntity
  8
0
  6
Continuous
 62
     7
370
    18
100
AcDbLine
 10
56.112330031
 20
90.3538589475
 30
0.0
 11
71.731104
 21
90.841945634
 31
0.0
  0
LINE
  5
15D
330
1F
100
AcDbEntity
  8
0
  6
Continuous
 62
     7
370
    18
100
AcDbLine
 10
56.112330031
 20
71.8363067751
 30
0.0
 11
71.731104
 21
71.3482200886
 31
0.0
  0
LINE
  5
15E
330
1F
100
AcDbEntity
  8
0
  6
Continuous
 62
     7
370
    18
100
AcDbLine
 10
71.731104
 20
70.3569578613
 30
0.0
 11
71.731104
 21
91.8332078613
 31
0.0
  0
LINE
  5
15F
330
1F
100
AcDbEntity
  8
0
  6
CENTERX2
 62
     7
370
    18
100
AcDbLine
 10
109.231104
 20
81.0950828613
 30
0.0
 11
53.7141478728
 21
81.0950828613
 31
0.0
  0
ENDSEC
  0
SECTION
  2
OBJECTS
  0
DICTIONARY
  5
C
330
0
100
AcDbDictionary
281
     1
  3
ACAD_GROUP
350
D
  3
ACAD_LAYOUT
350
1A
  3
ACAD_MLINESTYLE
350
17
  3
ACAD_PLOTSETTINGS
350
19
  3
ACAD_PLOTSTYLENAME
350
E
  3
ACAD_SCALELIST
350
47
  0
DICTIONARY
  5
D
102
{ACAD_REACTORS
330
C
102
}
330
C
100
AcDbDictionary
281
     1
  0
DICTIONARY
  5
1A
102
{ACAD_REACTORS
330
C
102
}
330
C
100
AcDbDictionary
281
     1
  3
Layout1
350
1E
  3
Layout2
350
26
  3
Model
350
22
  0
DICTIONARY
  5
17
102
{ACAD_REACTORS
330
C
102
}
330
C
100
AcDbDictionary
281
     1
  3
Standard
350
18
  0
DICTIONARY
  5
19
102
{ACAD_REACTORS
330
C
102
}
330
C
100
AcDbDictionary
281
     1
  0
ACDBDICTIONARYWDFLT
  5
E
102
{ACAD_REACTORS
330
C
102
}
330
C
100
AcDbDictionary
281
     1
  3
Normal
350
F
100
AcDbDictionaryWithDefault
340
F
  0
DICTIONARY
  5
47
102
{ACAD_REACTORS
330
C
102
}
330
C
100
AcDbDictionary
281
     1
  3
A0
350
48
  3
A1
350
49
  3
A2
350
4A
  3
A3
350
4B
  3
A4
350
4C
  3
A5
350
4D
  3
A6
350
4E
  3
A7
350
4F
  3
A8
350
50
  3
A9
350
51
  3
B0
350
52
  3
B1
350
53
  3
B2
350
54
  3
B3
350
55
  3
B4
350
56
  3
B5
350
57
  3
B6
350
58
  3
B7
350
59
  3
B8
350
5A
  3
B9
350
5B
  3
C0
350
5C
  3
C1
350
5D
  3
C2
350
5E
  3
C3
350
5F
  3
C4
350
60
  3
C5
350
61
  3
C6
350
62
  3
C7
350
63
  3
C8
350
64
  3
C9
350
65
  3
D0
350
66
  3
D1
350
67
  3
D2
350
68
  0
LAYOUT
  5
1E
102
{ACAD_REACTORS
330
1A
102
}
330
1A
100
AcDbPlotSettings
  1

  2
none_device
  4

  6

 40
0.0
 41
0.0
 42
0.0
 43
0.0
 44
0.0
 45
0.0
 46
0.0
 47
0.0
 48
0.0
 49
0.0
140
0.0
141
0.0
142
1.0
143
1.0
 70
   688
 72
     1
 73
     0
 74
     5
  7

 75
    16
147
1.0
148
0.0
149
0.0
100
AcDbLayout
  1
Layout1
 70
     1
 71
     1
 10
0.0
 20
0.0
 11
420.0
 21
297.0
 12
0.0
 22
0.0
 32
0.0
 14
1.0000000000E+20
 24
1.0000000000E+20
 34
1.0000000000E+20
 15
-1.0000000000E+20
 25
-1.0000000000E+20
 35
-1.0000000000E+20
146
0.0
 13
0.0
 23
0.0
 33
0.0
 16
1.0
 26
0.0
 36
0.0
 17
0.0
 27
1.0
 37
0.0
 76
     0
330
1B
  0
LAYOUT
  5
26
102
{ACAD_REACTORS
330
1A
102
}
330
1A
100
AcDbPlotSettings
  1

  2
none_device
  4

  6

 40
0.0
 41
0.0
 42
0.0
 43
0.0
 44
0.0
 45
0.0
 46
0.0
 47
0.0
 48
0.0
 49
0.0
140
0.0
141
0.0
142
1.0
143
1.0
 70
   688
 72
     1
 73
     0
 74
     5
  7

 75
    16
147
1.0
148
0.0
149
0.0
100
AcDbLayout
  1
Layout2
 70
     1
 71
     2
 10
0.0
 20
0.0
 11
0.0
 21
0.0
 12
0.0
 22
0.0
 32
0.0
 14
0.0
 24
0.0
 34
0.0
 15
0.0
 25
0.0
 35
0.0
146
0.0
 13
0.0
 23
0.0
 33
0.0
 16
1.0
 26
0.0
 36
0.0
 17
0.0
 27
1.0
 37
0.0
 76
     0
330
23
  0
LAYOUT
  5
22
102
{ACAD_REACTORS
330
1A
102
}
330
1A
100
AcDbPlotSettings
  1

  2
none_device
  4
Letter_(8.50_x_11.00_Inches)
  6

 40
6.35
 41
6.35
 42
6.35000508
 43
6.35000508
 44
215.9
 45
279.4
 46
0.0
 47
0.0
 48
0.0
 49
0.0
140
0.0
141
0.0
142
1.0
143
1.0
 70
  1712
 72
     1
 73
     0
 74
     0
  7

 75
     0
147
1.0
148
0.0
149
0.0
100
AcDbLayout
  1
Model
 70
     1
 71
     0
 10
0.0
 20
0.0
 11
215.9
 21
139.7
 12
0.0
 22
0.0
 32
0.0
 14
0.0
 24
0.0
 34
0.0
 15
215.9
 25
139.7
 35
0.0
146
0.0
 13
0.0
 23
0.0
 33
0.0
 16
1.0
 26
0.0
 36
0.0
 17
0.0
 27
1.0
 37
0.0
 76
     0
330
1F
331
29
  0
MLINESTYLE
  5
18
102
{ACAD_REACTORS
330
17
102
}
330
17
100
AcDbMlineStyle
  2
Standard
 70
     0
  3

 62
   256
 51
90.0
 52
90.0
 71
     2
 49
0.5
 62
   256
  6
BYLAYER
 49
-0.5
 62
   256
  6
BYLAYER
  0
ACDBPLACEHOLDER
  5
F
102
{ACAD_REACTORS
330
E
102
}
330
E
  0
SCALE
  5
48
102
{ACAD_REACTORS
330
47
102
}
330
47
100
AcDbScale
 70
     0
300
1:1
140
1.0
141
1.0
290
     1
  0
SCALE
  5
49
102
{ACAD_REACTORS
330
47
102
}
330
47
100
AcDbScale
 70
     0
300
1:2
140
1.0
141
2.0
290
     0
  0
SCALE
  5
4A
102
{ACAD_REACTORS
330
47
102
}
330
47
100
AcDbScale
 70
     0
300
1:4
140
1.0
141
4.0
290
     0
  0
SCALE
  5
4B
102
{ACAD_REACTORS
330
47
102
}
330
47
100
AcDbScale
 70
     0
300
1:5
140
1.0
141
5.0
290
     0
  0
SCALE
  5
4C
102
{ACAD_REACTORS
330
47
102
}
330
47
100
AcDbScale
 70
     0
300
1:8
140
1.0
141
8.0
290
     0
  0
SCALE
  5
4D
102
{ACAD_REACTORS
330
47
102
}
330
47
100
AcDbScale
 70
     0
300
1:10
140
1.0
141
10.0
290
     0
  0
SCALE
  5
4E
102
{ACAD_REACTORS
330
47
102
}
330
47
100
AcDbScale
 70
     0
300
1:16
140
1.0
141
16.0
290
     0
  0
SCALE
  5
4F
102
{ACAD_REACTORS
330
47
102
}
330
47
100
AcDbScale
 70
     0
300
1:20
140
1.0
141
20.0
290
     0
  0
SCALE
  5
50
102
{ACAD_REACTORS
330
47
102
}
330
47
100
AcDbScale
 70
     0
300
1:30
140
1.0
141
30.0
290
     0
  0
SCALE
  5
51
102
{ACAD_REACTORS
330
47
102
}
330
47
100
AcDbScale
 70
     0
300
1:40
140
1.0
141
40.0
290
     0
  0
SCALE
  5
52
102
{ACAD_REACTORS
330
47
102
}
330
47
100
AcDbScale
 70
     0
300
1:50
140
1.0
141
50.0
290
     0
  0
SCALE
  5
53
102
{ACAD_REACTORS
330
47
102
}
330
47
100
AcDbScale
 70
     0
300
1:100
140
1.0
141
100.0
290
     0
  0
SCALE
  5
54
102
{ACAD_REACTORS
330
47
102
}
330
47
100
AcDbScale
 70
     0
300
2:1
140
2.0
141
1.0
290
     0
  0
SCALE
  5
55
102
{ACAD_REACTORS
330
47
102
}
330
47
100
AcDbScale
 70
     0
300
4:1
140
4.0
141
1.0
290
     0
  0
SCALE
  5
56
102
{ACAD_REACTORS
330
47
102
}
330
47
100
AcDbScale
 70
     0
300
8:1
140
8.0
141
1.0
290
     0
  0
SCALE
  5
57
102
{ACAD_REACTORS
330
47
102
}
330
47
100
AcDbScale
 70
     0
300
10:1
140
10.0
141
1.0
290
     0
  0
SCALE
  5
58
102
{ACAD_REACTORS
330
47
102
}
330
47
100
AcDbScale
 70
     0
300
100:1
140
100.0
141
1.0
290
     0
  0
SCALE
  5
59
102
{ACAD_REACTORS
330
47
102
}
330
47
100
AcDbScale
 70
     0
300
1/128" = 1'-0"
140
0.0078125
141
12.0
290
     0
  0
SCALE
  5
5A
102
{ACAD_REACTORS
330
47
102
}
330
47
100
AcDbScale
 70
     0
300
1/64" = 1'-0"
140
0.015625
141
12.0
290
     0
  0
SCALE
  5
5B
102
{ACAD_REACTORS
330
47
102
}
330
47
100
AcDbScale
 70
     0
300
1/32" = 1'-0"
140
0.03125
141
12.0
290
     0
  0
SCALE
  5
5C
102
{ACAD_REACTORS
330
47
102
}
330
47
100
AcDbScale
 70
     0
300
1/16" = 1'-0"
140
0.0625
141
12.0
290
     0
  0
SCALE
  5
5D
102
{ACAD_REACTORS
330
47
102
}
330
47
100
AcDbScale
 70
     0
300
3/32" = 1'-0"
140
0.09375
141
12.0
290
     0
  0
SCALE
  5
5E
102
{ACAD_REACTORS
330
47
102
}
330
47
100
AcDbScale
 70
     0
300
1/8" = 1'-0"
140
0.125
141
12.0
290
     0
  0
SCALE
  5
5F
102
{ACAD_REACTORS
330
47
102
}
330
47
100
AcDbScale
 70
     0
300
3/16" = 1'-0"
140
0.1875
141
12.0
290
     0
  0
SCALE
  5
60
102
{ACAD_REACTORS
330
47
102
}
330
47
100
AcDbScale
 70
     0
300
1/4" = 1'-0"
140
0.25
141
12.0
290
     0
  0
SCALE
  5
61
102
{ACAD_REACTORS
330
47
102
}
330
47
100
AcDbScale
 70
     0
300
3/8" = 1'-0"
140
0.375
141
12.0
290
     0
  0
SCALE
  5
62
102
{ACAD_REACTORS
330
47
102
}
330
47
100
AcDbScale
 70
     0
300
1/2" = 1'-0"
140
0.5
141
12.0
290
     0
  0
SCALE
  5
63
102
{ACAD_REACTORS
330
47
102
}
330
47
100
AcDbScale
 70
     0
300
3/4" = 1'-0"
140
0.75
141
12.0
290
     0
  0
SCALE
  5
64
102
{ACAD_REACTORS
330
47
102
}
330
47
100
AcDbScale
 70
     0
300
1" = 1'-0"
140
1.0
141
12.0
290
     0
  0
SCALE
  5
65
102
{ACAD_REACTORS
330
47
102
}
330
47
100
AcDbScale
 70
     0
300
1-1/2" = 1'-0"
140
1.5
141
12.0
290
     0
  0
SCALE
  5
66
102
{ACAD_REACTORS
330
47
102
}
330
47
100
AcDbScale
 70
     0
300
3" = 1'-0"
140
3.0
141
12.0
290
     0
  0
SCALE
  5
67
102
{ACAD_REACTORS
330
47
102
}
330
47
100
AcDbScale
 70
     0
300
6" = 1'-0"
140
6.0
141
12.0
290
     0
  0
SCALE
  5
68
102
{ACAD_REACTORS
330
47
102
}
330
47
100
AcDbScale
 70
     0
300
1'-0" = 1'-0"
140
12.0
141
12.0
290
     0
  0
ENDSEC
  0
EOF
