  0
SECTION
  2
HEADER
  9
$ACADVER
  1
AC1015
  9
$ACADMAINTVER
 70
     6
  9
$DWGCODEPAGE
  3
DOS932
  9
$INSBASE
 10
0.0
 20
0.0
 30
0.0
  9
$EXTMIN
 10
0.0
 20
0.0
 30
0.0
  9
$EXTMAX
 10
215.9
 20
139.7
 30
0.0
  9
$LIMMIN
 10
0.0
 20
0.0
  9
$LIMMAX
 10
215.9
 20
139.7
  9
$ORTHOMODE
 70
     0
  9
$REGENMODE
 70
     1
  9
$FILLMODE
 70
     1
  9
$QTEXTMODE
 70
     0
  9
$MIRRTEXT
 70
     1
  9
$LTSCALE
 40
0.5
  9
$ATTMODE
 70
     1
  9
$TEXTSIZE
 40
1.75
  9
$TRACEWID
 40
1.0
  9
$TEXTSTYLE
  7
Standard
  9
$CLAYER
  8
0
  9
$CELTYPE
  6
ByLayer
  9
$CECOLOR
 62
   256
  9
$CELTSCALE
 40
1.0
  9
$DISPSILH
 70
     0
  9
$DIMSCALE
 40
1.0
  9
$DIMASZ
 40
1.651
  9
$DIMEXO
 40
0.5
  9
$DIMDLI
 40
3.75
  9
$DIMRND
 40
0.0
  9
$DIMDLE
 40
0.0
  9
$DIMEXE
 40
0.5
  9
$DIMTP
 40
0.0
  9
$DIMTM
 40
0.0
  9
$DIMTXT
 40
1.75
  9
$DIMCEN
 40
2.5
  9
$DIMTSZ
 40
0.0
  9
$DIMTOL
 70
     0
  9
$DIMLIM
 70
     0
  9
$DIMTIH
 70
     1
  9
$DIMTOH
 70
     1
  9
$DIMSE1
 70
     0
  9
$DIMSE2
 70
     0
  9
$DIMTAD
 70
     1
  9
$DIMZIN
 70
     1
  9
$DIMBLK
  1

  9
$DIMASO
 70
     1
  9
$DIMSHO
 70
     1
  9
$DIMPOST
  1

  9
$DIMAPOST
  1

  9
$DIMALT
 70
     0
  9
$DIMALTD
 70
     3
  9
$DIMALTF
 40
0.0393700787
  9
$DIMLFAC
 40
1.0
  9
$DIMTOFL
 70
     1
  9
$DIMTVP
 40
0.0
  9
$DIMTIX
 70
     0
  9
$DIMSOXD
 70
     0
  9
$DIMSAH
 70
     0
  9
$DIMBLK1
  1

  9
$DIMBLK2
  1

  9
$DIMSTYLE
  2
ISO-25
  9
$DIMCLRD
 70
     0
  9
$DIMCLRE
 70
     0
  9
$DIMCLRT
 70
     0
  9
$DIMTFAC
 40
1.0
  9
$DIMGAP
 40
0.762
  9
$DIMJUST
 70
     0
  9
$DIMSD1
 70
     0
  9
$DIMSD2
 70
     0
  9
$DIMTOLJ
 70
     0
  9
$DIMTZIN
 70
     1
  9
$DIMALTZ
 70
     0
  9
$DIMALTTZ
 70
     0
  9
$DIMUPT
 70
     0
  9
$DIMDEC
 70
     2
  9
$DIMTDEC
 70
     2
  9
$DIMALTU
 70
     2
  9
$DIMALTTD
 70
     3
  9
$DIMTXSTY
  7
Standard
  9
$DIMAUNIT
 70
     0
  9
$DIMADEC
 70
     2
  9
$DIMALTRND
 40
0.0
  9
$DIMAZIN
 70
     0
  9
$DIMDSEP
 70
    44
  9
$DIMATFIT
 70
     3
  9
$DIMFRAC
 70
     0
  9
$DIMLDRBLK
  1

  9
$DIMLUNIT
 70
     2
  9
$DIMLWD
 70
    -2
  9
$DIMLWE
 70
    -2
  9
$DIMTMOVE
 70
     0
  9
$LUNITS
 70
     2
  9
$LUPREC
 70
     2
  9
$SKETCHINC
 40
1.0
  9
$FILLETRAD
 40
10.0
  9
$AUNITS
 70
     0
  9
$AUPREC
 70
     2
  9
$MENU
  1
.
  9
$ELEVATION
 40
0.0
  9
$PELEVATION
 40
0.0
  9
$THICKNESS
 40
0.0
  9
$LIMCHECK
 70
     0
  9
$CHAMFERA
 40
0.0
  9
$CHAMFERB
 40
0.0
  9
$CHAMFERC
 40
0.0
  9
$CHAMFERD
 40
0.0
  9
$SKPOLY
 70
     0
  9
$TDCREATE
 40
2460082.684608113
  9
$TDUCREATE
 40
2460082.309608113
  9
$TDUPDATE
 40
2460082.684608634
  9
$TDUUPDATE
 40
2460082.309608634
  9
$TDINDWG
 40
0.0000000116
  9
$TDUSRTIMER
 40
0.0000000116
  9
$USRTIMER
 70
     1
  9
$ANGBASE
 50
0.0
  9
$ANGDIR
 70
     0
  9
$PDMODE
 70
     0
  9
$PDSIZE
 40
-1.0
  9
$PLINEWID
 40
0.0
  9
$SPLFRAME
 70
     0
  9
$SPLINETYPE
 70
     6
  9
$SPLINESEGS
 70
     8
  9
$HANDSEED
  5
160
  9
$SURFTAB1
 70
     6
  9
$SURFTAB2
 70
     6
  9
$SURFTYPE
 70
     6
  9
$SURFU
 70
     6
  9
$SURFV
 70
     6
  9
$UCSBASE
  2

  9
$UCSNAME
  2

  9
$UCSORG
 10
0.0
 20
0.0
 30
0.0
  9
$UCSXDIR
 10
1.0
 20
0.0
 30
0.0
  9
$UCSYDIR
 10
0.0
 20
1.0
 30
0.0
  9
$UCSORTHOREF
  2

  9
$UCSORTHOVIEW
 70
     0
  9
$UCSORGTOP
 10
0.0
 20
0.0
 30
0.0
  9
$UCSORGBOTTOM
 10
0.0
 20
0.0
 30
0.0
  9
$UCSORGLEFT
 10
0.0
 20
0.0
 30
0.0
  9
$UCSORGRIGHT
 10
0.0
 20
0.0
 30
0.0
  9
$UCSORGFRONT
 10
0.0
 20
0.0
 30
0.0
  9
$UCSORGBACK
 10
0.0
 20
0.0
 30
0.0
  9
$PUCSBASE
  2

  9
$PUCSNAME
  2

  9
$PUCSORG
 10
0.0
 20
0.0
 30
0.0
  9
$PUCSXDIR
 10
1.0
 20
0.0
 30
0.0
  9
$PUCSYDIR
 10
0.0
 20
1.0
 30
0.0
  9
$PUCSORTHOREF
  2

  9
$PUCSORTHOVIEW
 70
     0
  9
$PUCSORGTOP
 10
0.0
 20
0.0
 30
0.0
  9
$PUCSORGBOTTOM
 10
0.0
 20
0.0
 30
0.0
  9
$PUCSORGLEFT
 10
0.0
 20
0.0
 30
0.0
  9
$PUCSORGRIGHT
 10
0.0
 20
0.0
 30
0.0
  9
$PUCSORGFRONT
 10
0.0
 20
0.0
 30
0.0
  9
$PUCSORGBACK
 10
0.0
 20
0.0
 30
0.0
  9
$USERI1
 70
     0
  9
$USERI2
 70
     0
  9
$USERI3
 70
     0
  9
$USERI4
 70
     0
  9
$USERI5
 70
     0
  9
$USERR1
 40
0.0
  9
$USERR2
 40
0.0
  9
$USERR3
 40
0.0
  9
$USERR4
 40
0.0
  9
$USERR5
 40
0.0
  9
$WORLDVIEW
 70
     1
  9
$SHADEDGE
 70
     3
  9
$SHADEDIF
 70
    70
  9
$TILEMODE
 70
     1
  9
$MAXACTVP
 70
    64
  9
$PINSBASE
 10
0.0
 20
0.0
 30
0.0
  9
$PLIMCHECK
 70
     0
  9
$PEXTMIN
 10
1.0000000000E+20
 20
1.0000000000E+20
 30
1.0000000000E+20
  9
$PEXTMAX
 10
-1.0000000000E+20
 20
-1.0000000000E+20
 30
-1.0000000000E+20
  9
$PLIMMIN
 10
0.0
 20
0.0
  9
$PLIMMAX
 10
420.0
 20
297.0
  9
$UNITMODE
 70
     0
  9
$VISRETAIN
 70
     1
  9
$PLINEGEN
 70
     0
  9
$PSLTSCALE
 70
     1
  9
$TREEDEPTH
 70
  3020
  9
$CMLSTYLE
  2
Standard
  9
$CMLJUST
 70
     0
  9
$CMLSCALE
 40
20.0
  9
$PROXYGRAPHICS
 70
     1
  9
$MEASUREMENT
 70
     1
  9
$CELWEIGHT
370
    -1
  9
$ENDCAPS
280
     0
  9
$JOINSTYLE
280
     0
  9
$LWDISPLAY
290
     1
  9
$INSUNITS
 70
     4
  9
$HYPERLINKBASE
  1

  9
$STYLESHEET
  1

  9
$XEDIT
290
     1
  9
$CEPSNTYPE
380
     0
  9
$PSTYLEMODE
290
     1
  9
$FINGERPRINTGUID
  2
{CEBB49BA-FBAC-4D0C-ABD8-14A7B3893588}
  9
$VERSIONGUID
  2
{FAEB1C32-E019-11D5-929B-00C0DF256EC4}
  9
$EXTNAMES
290
     1
  9
$PSVPSCALE
 40
0.0
  9
$OLESTARTUP
290
     0
  0
ENDSEC
  0
SECTION
  2
CLASSES
  0
CLASS
  1
ACDBDICTIONARYWDFLT
  2
AcDbDictionaryWithDefault
  3
ObjectDBX Classes
 90
        0
280
     0
281
     0
  0
CLASS
  1
VISUALSTYLE
  2
AcDbVisualStyle
  3
ObjectDBX Classes
 90
     4095
280
     0
281
     0
  0
CLASS
  1
MATERIAL
  2
AcDbMaterial
  3
ObjectDBX Classes
 90
     1153
280
     0
281
     0
  0
CLASS
  1
SCALE
  2
AcDbScale
  3
ObjectDBX Classes
 90
     1153
280
     0
281
     0
  0
CLASS
  1
TABLESTYLE
  2
AcDbTableStyle
  3
ObjectDBX Classes
 90
     4095
280
     0
281
     0
  0
CLASS
  1
MLEADERSTYLE
  2
AcDbMLeaderStyle
  3
ACDB_MLEADERSTYLE_CLASS
 90
     4095
280
     0
281
     0
  0
CLASS
  1
SUN
  2
AcDbSun
  3
SCENEOE
 90
     1153
280
     0
281
     0
  0
CLASS
  1
ACDBPLACEHOLDER
  2
AcDbPlaceHolder
  3
ObjectDBX Classes
 90
        0
280
     0
281
     0
  0
CLASS
  1
LAYOUT
  2
AcDbLayout
  3
ObjectDBX Classes
 90
        0
280
     0
281
     0
  0
ENDSEC
  0
SECTION
  2
TABLES
  0
TABLE
  2
VPORT
  5
8
330
0
100
AcDbSymbolTable
 70
     1
  0
VPORT
  5
29
330
8
100
AcDbSymbolTableRecord
100
AcDbViewportTableRecord
  2
*Active
 70
     0
 10
0.0
 20
0.0
 11
1.0
 21
1.0
 12
107.95
 22
69.85
 13
0.0
 23
0.0
 14
10.0
 24
10.0
 15
10.0
 25
10.0
 16
0.0
 26
0.0
 36
1.0
 17
0.0
 27
0.0
 37
0.0
 40
139.7
 41
1.5454545455
 42
50.0
 43
0.0
 44
0.0
 50
0.0
 51
0.0
 71
     0
 72
  2000
 73
     1
 74
     3
 75
     0
 76
     0
 77
     0
 78
     0
281
     0
 65
     1
110
0.0
120
0.0
130
0.0
111
1.0
121
0.0
131
0.0
112
0.0
122
1.0
132
0.0
 79
     0
146
0.0
  0
ENDTAB
  0
TABLE
  2
LTYPE
  5
5
330
0
100
AcDbSymbolTable
 70
     6
  0
LTYPE
  5
14
330
5
100
AcDbSymbolTableRecord
100
AcDbLinetypeTableRecord
  2
ByBlock
 70
     0
  3

 72
    65
 73
     0
 40
0.0
  0
LTYPE
  5
15
330
5
100
AcDbSymbolTableRecord
100
AcDbLinetypeTableRecord
  2
ByLayer
 70
     0
  3

 72
    65
 73
     0
 40
0.0
  0
LTYPE
  5
16
330
5
100
AcDbSymbolTableRecord
100
AcDbLinetypeTableRecord
  2
Continuous
 70
     0
  3
Solid line
 72
    65
 73
     0
 40
0.0
  0
LTYPE
  5
6E
330
5
100
AcDbSymbolTableRecord
100
AcDbLinetypeTableRecord
  2
HIDDEN
 70
     0
  3
Hidden __ __ __ __ __ __ __ __ __ __ __ __ __ __
 72
    65
 73
     2
 40
1.905
 49
1.27
 74
     0
 49
-0.635
 74
     0
  0
LTYPE
  5
6F
330
5
100
AcDbSymbolTableRecord
100
AcDbLinetypeTableRecord
  2
PHANTOM
 70
     0
  3
Phantom ______  __  __  ______  __  __  ______
 72
    65
 73
     6
 40
12.7
 49
6.35
 74
     0
 49
-1.27
 74
     0
 49
1.27
 74
     0
 49
-1.27
 74
     0
 49
1.27
 74
     0
 49
-1.27
 74
     0
  0
LTYPE
  5
70
330
5
100
AcDbSymbolTableRecord
100
AcDbLinetypeTableRecord
  2
CENTER
 70
     0
  3
Center ____ _ ____ _ ____ _ ____ _ ____ _ ____
 72
    65
 73
     4
 40
10.16
 49
6.35
 74
     0
 49
-1.27
 74
     0
 49
1.27
 74
     0
 49
-1.27
 74
     0
  0
LTYPE
  5
71
330
5
100
AcDbSymbolTableRecord
100
AcDbLinetypeTableRecord
  2
CENTERX2
 70
     0
  3
Center (2x) ________  __  ________  __  _____
 72
    65
 73
     4
 40
20.32
 49
12.7
 74
     0
 49
-2.54
 74
     0
 49
2.54
 74
     0
 49
-2.54
 74
     0
  0
LTYPE
  5
72
330
5
100
AcDbSymbolTableRecord
100
AcDbLinetypeTableRecord
  2
DOT2
 70
     0
  3
Dot (.5x) ........................................
 72
    65
 73
     2
 40
0.635
 49
0.0
 74
     0
 49
-0.635
 74
     0
  0
ENDTAB
  0
TABLE
  2
LAYER
  5
2
330
0
100
AcDbSymbolTable
 70
     1
  0
LAYER
  5
10
330
2
100
AcDbSymbolTableRecord
100
AcDbLayerTableRecord
  2
0
 70
     0
 62
     7
  6
Continuous
370
    -3
390
F
  0
ENDTAB
  0
TABLE
  2
STYLE
  5
3
330
0
100
AcDbSymbolTable
 70
     2
  0
STYLE
  5
11
330
3
100
AcDbSymbolTableRecord
100
AcDbTextStyleTableRecord
  2
Standard
 70
     0
 40
0.0
 41
1.0
 50
0.0
 71
     0
 42
1.75
  3
txt
  4
bigfont
  0
STYLE
  5
73
330
3
100
AcDbSymbolTableRecord
100
AcDbTextStyleTableRecord
  2
SLDTEXTSTYLE0
 70
     0
 40
0.0
 41
0.7
 50
0.0
 71
     0
 42
1.75
  3
TXT
  4
bigfont
  0
ENDTAB
  0
TABLE
  2
VIEW
  5
6
330
0
100
AcDbSymbolTable
 70
     0
  0
ENDTAB
  0
TABLE
  2
UCS
  5
7
330
0
100
AcDbSymbolTable
 70
     0
  0
ENDTAB
  0
TABLE
  2
APPID
  5
9
330
0
100
AcDbSymbolTable
 70
     1
  0
APPID
  5
12
330
9
100
AcDbSymbolTableRecord
100
AcDbRegAppTableRecord
  2
ACAD
 70
     0
  0
ENDTAB
  0
TABLE
  2
DIMSTYLE
  5
A
330
0
100
AcDbSymbolTable
 70
     1
100
AcDbDimStyleTable
  0
DIMSTYLE
105
27
330
A
100
AcDbSymbolTableRecord
100
AcDbDimStyleTableRecord
  2
ISO-25
 70
     0
 41
2.5
 42
0.625
 43
3.75
 44
1.25
 73
     0
 74
     0
 77
     1
 78
     8
140
2.5
141
2.5
143
0.0393700787
147
0.625
171
     3
172
     1
178
     0
271
     2
272
     2
274
     3
278
    44
283
     0
284
     8
340
11
  0
ENDTAB
  0
TABLE
  2
BLOCK_RECORD
  5
1
330
0
100
AcDbSymbolTable
 70
     3
  0
BLOCK_RECORD
  5
1F
330
1
100
AcDbSymbolTableRecord
100
AcDbBlockTableRecord
  2
*Model_Space
340
22
  0
BLOCK_RECORD
  5
1B
330
1
100
AcDbSymbolTableRecord
100
AcDbBlockTableRecord
  2
*Paper_Space
340
1E
  0
BLOCK_RECORD
  5
23
330
1
100
AcDbSymbolTableRecord
100
AcDbBlockTableRecord
  2
*Paper_Space0
340
26
  0
BLOCK_RECORD
  5
FF
330
1
100
AcDbSymbolTableRecord
100
AcDbBlockTableRecord
  2
SW_CENTERMARKSYMBOL_0
340
0
102
{BLKREFS
331
10A
102
}
  0
BLOCK_RECORD
  5
10B
330
1
100
AcDbSymbolTableRecord
100
AcDbBlockTableRecord
  2
SW_CENTERMARKSYMBOL_1
340
0
102
{BLKREFS
331
116
102
}
  0
ENDTAB
  0
ENDSEC
  0
SECTION
  2
BLOCKS
  0
BLOCK
  5
20
330
1F
100
AcDbEntity
  8
0
100
AcDbBlockBegin
  2
*Model_Space
 70
     0
 10
0.0
 20
0.0
 30
0.0
  3
*Model_Space
  1

  0
ENDBLK
  5
21
330
1F
100
AcDbEntity
  8
0
100
AcDbBlockEnd
  0
BLOCK
  5
1C
330
1B
100
AcDbEntity
 67
     1
  8
0
100
AcDbBlockBegin
  2
*Paper_Space
 70
     0
 10
0.0
 20
0.0
 30
0.0
  3
*Paper_Space
  1

  0
ENDBLK
  5
1D
330
1B
100
AcDbEntity
 67
     1
  8
0
100
AcDbBlockEnd
  0
BLOCK
  5
24
330
23
100
AcDbEntity
  8
0
100
AcDbBlockBegin
  2
*Paper_Space0
 70
     0
 10
0.0
 20
0.0
 30
0.0
  3
*Paper_Space0
  1

  0
ENDBLK
  5
25
330
23
100
AcDbEntity
  8
0
100
AcDbBlockEnd
  0
BLOCK
  5
100
330
FF
100
AcDbEntity
  8
0
100
AcDbBlockBegin
  2
SW_CENTERMARKSYMBOL_0
 70
     0
 10
0.0
 20
0.0
 30
0.0
  3
SW_CENTERMARKSYMBOL_0
  1

  0
LINE
  5
102
330
FF
100
AcDbEntity
  8
0
  6
Continuous
 62
     0
370
    18
100
AcDbLine
 10
0.0
 20
0.0
 30
0.0
 11
0.0
 21
2.5
 31
0.0
  0
LINE
  5
103
330
FF
100
AcDbEntity
  8
0
  6
Continuous
 62
     0
370
    18
100
AcDbLine
 10
0.0
 20
0.0
 30
0.0
 11
-2.5
 21
0.0
 31
0.0
  0
LINE
  5
104
330
FF
100
AcDbEntity
  8
0
  6
Continuous
 62
     0
370
    18
100
AcDbLine
 10
0.0
 20
0.0
 30
0.0
 11
0.0
 21
-2.5
 31
0.0
  0
LINE
  5
105
330
FF
100
AcDbEntity
  8
0
  6
Continuous
 62
     0
370
    18
100
AcDbLine
 10
0.0
 20
0.0
 30
0.0
 11
2.5
 21
0.0
 31
0.0
  0
LINE
  5
106
330
FF
100
AcDbEntity
  8
0
  6
Continuous
 62
     0
370
    18
100
AcDbLine
 10
0.0
 20
5.0
 30
0.0
 11
0.0
 21
7.0
 31
0.0
  0
LINE
  5
107
330
FF
100
AcDbEntity
  8
0
  6
Continuous
 62
     0
370
    18
100
AcDbLine
 10
-5.0
 20
0.0
 30
0.0
 11
-7.0
 21
0.0
 31
0.0
  0
LINE
  5
108
330
FF
100
AcDbEntity
  8
0
  6
Continuous
 62
     0
370
    18
100
AcDbLine
 10
0.0
 20
-5.0
 30
0.0
 11
0.0
 21
-7.0
 31
0.0
  0
LINE
  5
109
330
FF
100
AcDbEntity
  8
0
  6
Continuous
 62
     0
370
    18
100
AcDbLine
 10
5.0
 20
0.0
 30
0.0
 11
7.0
 21
0.0
 31
0.0
  0
ENDBLK
  5
101
330
FF
100
AcDbEntity
  8
0
100
AcDbBlockEnd
  0
BLOCK
  5
10C
330
10B
100
AcDbEntity
  8
0
100
AcDbBlockBegin
  2
SW_CENTERMARKSYMBOL_1
 70
     0
 10
0.0
 20
0.0
 30
0.0
  3
SW_CENTERMARKSYMBOL_1
  1

  0
LINE
  5
10E
330
10B
100
AcDbEntity
  8
0
  6
Continuous
 62
     0
370
    18
100
AcDbLine
 10
0.0
 20
0.0
 30
0.0
 11
0.0
 21
2.5
 31
0.0
  0
LINE
  5
10F
330
10B
100
AcDbEntity
  8
0
  6
Continuous
 62
     0
370
    18
100
AcDbLine
 10
0.0
 20
0.0
 30
0.0
 11
-2.5
 21
0.0
 31
0.0
  0
LINE
  5
110
330
10B
100
AcDbEntity
  8
0
  6
Continuous
 62
     0
370
    18
100
AcDbLine
 10
0.0
 20
0.0
 30
0.0
 11
0.0
 21
-2.5
 31
0.0
  0
LINE
  5
111
330
10B
100
AcDbEntity
  8
0
  6
Continuous
 62
     0
370
    18
100
AcDbLine
 10
0.0
 20
0.0
 30
0.0
 11
2.5
 21
0.0
 31
0.0
  0
LINE
  5
112
330
10B
100
AcDbEntity
  8
0
  6
Continuous
 62
     0
370
    18
100
AcDbLine
 10
0.0
 20
5.0
 30
0.0
 11
0.0
 21
13.5
 31
0.0
  0
LINE
  5
113
330
10B
100
AcDbEntity
  8
0
  6
Continuous
 62
     0
370
    18
100
AcDbLine
 10
-5.0
 20
0.0
 30
0.0
 11
-13.5
 21
0.0
 31
0.0
  0
LINE
  5
114
330
10B
100
AcDbEntity
  8
0
  6
Continuous
 62
     0
370
    18
100
AcDbLine
 10
0.0
 20
-5.0
 30
0.0
 11
0.0
 21
-13.5
 31
0.0
  0
LINE
  5
115
330
10B
100
AcDbEntity
  8
0
  6
Continuous
 62
     0
370
    18
100
AcDbLine
 10
5.0
 20
0.0
 30
0.0
 11
13.5
 21
0.0
 31
0.0
  0
ENDBLK
  5
10D
330
10B
100
AcDbEntity
  8
0
100
AcDbBlockEnd
  0
ENDSEC
  0
SECTION
  2
ENTITIES
  0
MTEXT
  5
74
330
1F
100
AcDbEntity
  8
0
  6
Continuous
 62
     7
370
     0
100
AcDbMText
 10
100.9983867405
 20
67.4548637597
 30
0.0
 40
2.38125
 41
0.0
 71
     1
 72
     1
  1
エースニップル　HN-8413
  7
SLDTEXTSTYLE0
 73
     1
 44
1.0
  0
LINE
  5
75
330
1F
100
AcDbEntity
  8
0
  6
Continuous
 62
     7
370
    25
100
AcDbLine
 10
69.7104661117
 20
57.461760878
 30
0.0
 11
55.4068573846
 21
57.0147731053
 31
0.0
  0
LINE
  5
76
330
1F
100
AcDbEntity
  8
0
  6
Continuous
 62
     7
370
    25
100
AcDbLine
 10
55.4068573846
 20
36.4012486508
 30
0.0
 11
69.7104661117
 21
35.954260878
 31
0.0
  0
LINE
  5
77
330
1F
100
AcDbEntity
  8
0
  6
Continuous
 62
     7
370
    25
100
AcDbLine
 10
55.4068573846
 20
57.0147731053
 30
0.0
 11
52.7104661117
 21
55.458010878
 31
0.0
  0
LINE
  5
78
330
1F
100
AcDbEntity
  8
0
  6
Continuous
 62
     7
370
    25
100
AcDbLine
 10
52.7104661117
 20
37.958010878
 30
0.0
 11
55.4068573846
 21
36.4012486508
 31
0.0
  0
LINE
  5
79
330
1F
100
AcDbEntity
  8
0
  6
Continuous
 62
     7
370
    25
100
AcDbLine
 10
99.2104661117
 20
40.208010878
 30
0.0
 11
105.2677781656
 21
40.9069314997
 31
0.0
  0
LINE
  5
7A
330
1F
100
AcDbEntity
  8
0
  6
Continuous
 62
     7
370
    25
100
AcDbLine
 10
105.2677781656
 20
52.5090902564
 30
0.0
 11
99.2104661117
 21
53.208010878
 31
0.0
  0
LINE
  5
7B
330
1F
100
AcDbEntity
  8
0
  6
Continuous
 62
     7
370
    25
100
AcDbLine
 10
82.7104661117
 20
53.208010878
 30
0.0
 11
75.7104661117
 21
53.208010878
 31
0.0
  0
LINE
  5
7C
330
1F
100
AcDbEntity
  8
0
  6
Continuous
 62
     7
370
    25
100
AcDbLine
 10
75.7104661117
 20
40.208010878
 30
0.0
 11
82.7104661117
 21
40.208010878
 31
0.0
  0
LINE
  5
7D
330
1F
100
AcDbEntity
  8
0
  6
Continuous
 62
     7
370
    25
100
AcDbLine
 10
88.2104661117
 20
40.208010878
 30
0.0
 11
93.7104661117
 21
40.958010878
 31
0.0
  0
LINE
  5
7E
330
1F
100
AcDbEntity
  8
0
  6
Continuous
 62
     7
370
    25
100
AcDbLine
 10
93.7104661117
 20
52.458010878
 30
0.0
 11
88.2104661117
 21
53.208010878
 31
0.0
  0
LINE
  5
7F
330
1F
100
AcDbEntity
  8
0
  6
Continuous
 62
     7
370
    25
100
AcDbLine
 10
93.7104661117
 20
40.208010878
 30
0.0
 11
99.2104661117
 21
40.958010878
 31
0.0
  0
LINE
  5
80
330
1F
100
AcDbEntity
  8
0
  6
Continuous
 62
     7
370
    25
100
AcDbLine
 10
99.2104661117
 20
52.458010878
 30
0.0
 11
93.7104661117
 21
53.208010878
 31
0.0
  0
LINE
  5
81
330
1F
100
AcDbEntity
  8
0
  6
Continuous
 62
     7
370
    25
100
AcDbLine
 10
82.7104661117
 20
40.208010878
 30
0.0
 11
88.2104661117
 21
40.958010878
 31
0.0
  0
LINE
  5
82
330
1F
100
AcDbEntity
  8
0
  6
Continuous
 62
     7
370
    25
100
AcDbLine
 10
88.2104661117
 20
52.458010878
 30
0.0
 11
82.7104661117
 21
53.208010878
 31
0.0
  0
ARC
  5
83
330
1F
100
AcDbEntity
  8
0
  6
Continuous
 62
     7
370
    25
100
AcDbCircle
 10
105.2104661117
 20
41.4036359676
 30
0.0
 40
0.5000000000000062
100
AcDbArc
 50
276.5819446552
 51
0.0
  0
ARC
  5
84
330
1F
100
AcDbEntity
  8
0
  6
Continuous
 62
     7
370
    25
100
AcDbCircle
 10
105.2104661117
 20
52.0123857885
 30
0.0
 40
0.5
100
AcDbArc
 50
0.0
 51
83.4180553448
  0
LINE
  5
85
330
1F
100
AcDbEntity
  8
0
  6
Continuous
 62
     7
370
    25
100
AcDbLine
 10
74.7279857394
 20
34.0063049559
 30
0.0
 11
75.7104661117
 21
35.708010878
 31
0.0
  0
LINE
  5
86
330
1F
100
AcDbEntity
  8
0
  6
Continuous
 62
     7
370
    25
100
AcDbLine
 10
69.7104661117
 20
35.708010878
 30
0.0
 11
70.6929464839
 21
34.0063049559
 31
0.0
  0
LINE
  5
87
330
1F
100
AcDbEntity
  8
0
  6
Continuous
 62
     7
370
    25
100
AcDbLine
 10
70.6929464839
 20
59.4097168002
 30
0.0
 11
69.7104661117
 21
57.708010878
 31
0.0
  0
LINE
  5
88
330
1F
100
AcDbEntity
  8
0
  6
Continuous
 62
     7
370
    25
100
AcDbLine
 10
75.7104661117
 20
57.708010878
 30
0.0
 11
74.7279857394
 21
59.4097168002
 31
0.0
  0
LINE
  5
89
330
1F
100
AcDbEntity
  8
0
  6
Continuous
 62
     7
370
    25
100
AcDbLine
 10
72.7908508694
 20
59.4097168002
 30
0.0
 11
72.7104661117
 21
59.1097168002
 31
0.0
  0
LINE
  5
8A
330
1F
100
AcDbEntity
  8
0
  6
Continuous
 62
     7
370
    25
100
AcDbLine
 10
72.7104661117
 20
59.1097168002
 30
0.0
 11
72.6300813539
 21
59.4097168002
 31
0.0
  0
LINE
  5
8B
330
1F
100
AcDbEntity
  8
0
  6
Continuous
 62
     7
370
    25
100
AcDbLine
 10
72.6300813539
 20
34.0063049559
 30
0.0
 11
72.7104661117
 21
34.3063049559
 31
0.0
  0
LINE
  5
8C
330
1F
100
AcDbEntity
  8
0
  6
Continuous
 62
     7
370
    25
100
AcDbLine
 10
72.7104661117
 20
34.3063049559
 30
0.0
 11
72.7908508694
 21
34.0063049559
 31
0.0
  0
SPLINE
  5
8D
330
1F
100
AcDbEntity
  8
0
  6
Continuous
 62
     7
370
    25
100
AcDbSpline
210
0.0
220
0.0
230
1.0
 70
     8
 71
     3
 72
    19
 73
    15
 74
     0
 42
0.000000001
 43
0.00000001
 40
0.0
 40
0.0
 40
0.0
 40
0.0
 40
0.1227280999764553
 40
0.239716523588393
 40
0.3518621792202463
 40
0.4632019818032239
 40
0.5202611541541643
 40
0.5794324380306665
 40
0.6405963441586369
 40
0.70529822908802
 40
0.7732361059084537
 40
0.844648929340316
 40
0.9200459817773698
 40
1.0
 40
1.0
 40
1.0
 40
1.0
 10
73.29508149626665
 20
47.6443089549674
 30
0.0
 10
73.29448635491886
 20
47.66138880565267
 30
0.0
 10
73.29332390544755
 20
47.69474972650507
 30
0.0
 10
73.28310649856739
 20
47.7428339701123
 30
0.0
 10
73.26691807063581
 20
47.78748863914134
 30
0.0
 10
73.2473705919226
 20
47.82150648921962
 30
0.0
 10
73.22814110955981
 20
47.84666909401128
 30
0.0
 10
73.21159798591276
 20
47.86499479599613
 30
0.0
 10
73.19284147203757
 20
47.88266264991856
 30
0.0
 10
73.17135709786781
 20
47.8989793531677
 30
0.0
 10
73.14788362407512
 20
47.91492263715456
 30
0.0
 10
73.12229176750611
 20
47.93034026734883
 30
0.0
 10
73.09421666487624
 20
47.94473702911173
 30
0.0
 10
73.07447344349926
 20
47.95350057372205
 30
0.0
 10
73.06431226549742
 20
47.95801087804433
 30
0.0
  0
SPLINE
  5
8E
330
1F
100
AcDbEntity
  8
0
  6
Continuous
 62
     7
370
    25
100
AcDbSpline
210
0.0
220
0.0
230
1.0
 70
     8
 71
     3
 72
    23
 73
    19
 74
     0
 42
0.000000001
 43
0.00000001
 40
0.0
 40
0.0
 40
0.0
 40
0.0
 40
0.0552698294993248
 40
0.1099567044850939
 40
0.1632335040550556
 40
0.2180575651623569
 40
0.2732775387226747
 40
0.330881045495497
 40
0.3904799376860887
 40
0.4536559730386418
 40
0.5189026226022312
 40
0.5833461108214767
 40
0.6485466930814432
 40
0.7150552190344911
 40
0.7825206438000537
 40
0.8523352944264511
 40
0.9249348997257085
 40
1.0
 40
1.0
 40
1.0
 40
1.0
 10
73.05980505395895
 20
47.34262626265971
 30
0.0
 10
73.06763839213734
 20
47.34280384668122
 30
0.0
 10
73.08322244692845
 20
47.34315714166966
 30
0.0
 10
73.10599005718383
 20
47.34761342125751
 30
0.0
 10
73.12806292265384
 20
47.35430830627121
 30
0.0
 10
73.14934088979048
 20
47.36351824319319
 30
0.0
 10
73.16970045137491
 20
47.37582311347322
 30
0.0
 10
73.18916658460189
 20
47.39059305693412
 30
0.0
 10
73.20806552170521
 20
47.40783520231944
 30
0.0
 10
73.22549311440882
 20
47.42800017267879
 30
0.0
 10
73.24193179710122
 20
47.44983090373177
 30
0.0
 10
73.25614242677821
 20
47.47353280891571
 30
0.0
 10
73.26818734699566
 20
47.49858311377939
 30
0.0
 10
73.27813901876573
 20
47.52500485386069
 30
0.0
 10
73.28562026513454
 20
47.55290387379445
 30
0.0
 10
73.29099313438823
 20
47.5821435649952
 30
0.0
 10
73.29435202748192
 20
47.61278121657375
 30
0.0
 10
73.29483564840059
 20
47.63368337733116
 30
0.0
 10
73.29508149626665
 20
47.6443089549674
 30
0.0
  0
SPLINE
  5
8F
330
1F
100
AcDbEntity
  8
0
  6
Continuous
 62
     7
370
    25
100
AcDbSpline
210
0.0
220
0.0
230
1.0
 70
     8
 71
     3
 72
    19
 73
    15
 74
     0
 42
0.000000001
 43
0.00000001
 40
0.0
 40
0.0
 40
0.0
 40
0.0
 40
0.1101423815503174
 40
0.2157418685830274
 40
0.3179605426392306
 40
0.4180517606815226
 40
0.5115631470355316
 40
0.5965727584443461
 40
0.6733290469034968
 40
0.7440491927238595
 40
0.8107168223002833
 40
0.8740854521098849
 40
0.9367096168966699
 40
1.0
 40
1.0
 40
1.0
 40
1.0
 10
72.81431226549742
 20
47.7272416472751
 30
0.0
 10
72.81462855446603
 20
47.70868451774292
 30
0.0
 10
72.81524808685798
 20
47.67233565961534
 30
0.0
 10
72.82268933396858
 20
47.61923088013672
 30
0.0
 10
72.83309865978846
 20
47.56838933050509
 30
0.0
 10
72.84867483142993
 20
47.52097152643029
 30
0.0
 10
72.86737068312993
 20
47.47789280833203
 30
0.0
 10
72.88845162125253
 20
47.44031337297902
 30
0.0
 10
72.91233537829336
 20
47.40912383828835
 30
0.0
 10
72.93870850284156
 20
47.3842462799869
 30
0.0
 10
72.96732429223309
 20
47.36598703553499
 30
0.0
 10
72.9968372195939
 20
47.35228166407956
 30
0.0
 10
73.02793395279589
 20
47.34424702002675
 30
0.0
 10
73.0491439459638
 20
47.34316841742354
 30
0.0
 10
73.05980505395895
 20
47.34262626265971
 30
0.0
  0
LINE
  5
90
330
1F
100
AcDbEntity
  8
0
  6
Continuous
 62
     7
370
    25
100
AcDbLine
 10
72.6604661117
 20
47.7272416473
 30
0.0
 11
72.8143122655
 21
47.7272416473
 31
0.0
  0
SPLINE
  5
91
330
1F
100
AcDbEntity
  8
0
  6
Continuous
 62
     7
370
    25
100
AcDbSpline
210
0.0
220
0.0
230
1.0
 70
     8
 71
     3
 72
    23
 73
    19
 74
     0
 42
0.000000001
 43
0.00000001
 40
0.0
 40
0.0
 40
0.0
 40
0.0
 40
0.0669051223273616
 40
0.1334773340846825
 40
0.2010229080576287
 40
0.2712178684297488
 40
0.3428591616573978
 40
0.4138109980627169
 40
0.4855518488903453
 40
0.5598002749200529
 40
0.5998999649035781
 40
0.6436094423977958
 40
0.6919106424505659
 40
0.7447030291556902
 40
0.8015038302285953
 40
0.8628660266331954
 40
0.9293326711591618
 40
1.0
 40
1.0
 40
1.0
 40
1.0
 10
72.34315841934358
 20
47.26570318573663
 30
0.0
 10
72.35713472322612
 20
47.26635901760166
 30
0.0
 10
72.38501778684972
 20
47.26766741800368
 30
0.0
 10
72.42603936780976
 20
47.27765698362875
 30
0.0
 10
72.46556461018176
 20
47.29408724507851
 30
0.0
 10
72.50291347638583
 20
47.31709241547178
 30
0.0
 10
72.53754554440114
 20
47.34508324913958
 30
0.0
 10
72.56832496335768
 20
47.37778879640604
 30
0.0
 10
72.59397783414975
 20
47.41528928389486
 30
0.0
 10
72.6116363083855
 20
47.45002614507958
 30
0.0
 10
72.62340493885117
 20
47.48086914683456
 30
0.0
 10
72.63165688221613
 20
47.50721152081667
 30
0.0
 10
72.6382533395201
 20
47.53672869912382
 30
0.0
 10
72.64463410024376
 20
47.56906633446069
 30
0.0
 10
72.64998332511186
 20
47.60436081065566
 30
0.0
 10
72.65446351060113
 20
47.6426439258057
 30
0.0
 10
72.65804273144518
 20
47.6839310814998
 30
0.0
 10
72.6596419887795
 20
47.71251295230827
 30
0.0
 10
72.66046611165126
 20
47.7272416472751
 30
0.0
  0
SPLINE
  5
92
330
1F
100
AcDbEntity
  8
0
  6
Continuous
 62
     7
370
    25
100
AcDbSpline
210
0.0
220
0.0
230
1.0
 70
     8
 71
     3
 72
    23
 73
    19
 74
     0
 42
0.000000001
 43
0.00000001
 40
0.0
 40
0.0
 40
0.0
 40
0.0
 40
0.0760618905628339
 40
0.1487324608035361
 40
0.2183745247439722
 40
0.2857225935927383
 40
0.3510576941824569
 40
0.414934915729319
 40
0.4784859417740854
 40
0.542169035281216
 40
0.6047501165431387
 40
0.6641185017301124
 40
0.7214996756099116
 40
0.7776159163852548
 40
0.8326661086975489
 40
0.8878580281135741
 40
0.9434676608977686
 40
1.0
 40
1.0
 40
1.0
 40
1.0
 10
72.02585072703587
 20
47.64761424342894
 30
0.0
 10
72.02611425714514
 20
47.63357683799315
 30
0.0
 10
72.02662956752404
 20
47.60612790347005
 30
0.0
 10
72.03138229654705
 20
47.56607847560636
 30
0.0
 10
72.03827390167294
 20
47.52796579849145
 30
0.0
 10
72.04905371203498
 20
47.4921788118798
 30
0.0
 10
72.06198587535935
 20
47.45823054270326
 30
0.0
 10
72.07891645063205
 20
47.4268788144092
 30
0.0
 10
72.09803679826781
 20
47.39720192492009
 30
0.0
 10
72.12027743998378
 20
47.37006926994579
 30
0.0
 10
72.14431716630851
 20
47.34560785477493
 30
0.0
 10
72.16982117357061
 20
47.32447048942213
 30
0.0
 10
72.19599867157356
 20
47.30616311355859
 30
0.0
 10
72.2234603284322
 20
47.29144703857757
 30
0.0
 10
72.2519367673691
 20
47.27980593256078
 30
0.0
 10
72.28153457594742
 20
47.27188593717786
 30
0.0
 10
72.3120045220993
 20
47.26637777858513
 30
0.0
 10
72.33271697942871
 20
47.2659292801042
 30
0.0
 10
72.34315841934358
 20
47.26570318573663
 30
0.0
  0
SPLINE
  5
93
330
1F
100
AcDbEntity
  8
0
  6
Continuous
 62
     7
370
    25
100
AcDbSpline
210
0.0
220
0.0
230
1.0
 70
     8
 71
     3
 72
    15
 73
    11
 74
     0
 42
0.000000001
 43
0.00000001
 40
0.0
 40
0.0
 40
0.0
 40
0.0
 40
0.1182713048357256
 40
0.2361775330837632
 40
0.355662932948509
 40
0.4759041646706825
 40
0.6001273417110832
 40
0.7286081161551193
 40
0.8613134756739422
 40
1.0
 40
1.0
 40
1.0
 40
1.0
 10
72.1069805347282
 20
47.89821520496741
 30
0.0
 10
72.10050553449155
 20
47.88981667217091
 30
0.0
 10
72.08757552086962
 20
47.87304553093632
 30
0.0
 10
72.07107482292487
 20
47.84571628903699
 30
0.0
 10
72.05677724063854
 20
47.81697419500025
 30
0.0
 10
72.04585565676012
 20
47.78619647747701
 30
0.0
 10
72.03660808785048
 20
47.75404729013956
 30
0.0
 10
72.0305564367937
 20
47.72000699075449
 30
0.0
 10
72.0264043633609
 20
47.68437589770659
 30
0.0
 10
72.02603796414988
 20
47.66004685621386
 30
0.0
 10
72.02585072703587
 20
47.64761424342894
 30
0.0
  0
SPLINE
  5
94
330
1F
100
AcDbEntity
  8
0
  6
Continuous
 62
     7
370
    25
100
AcDbSpline
210
0.0
220
0.0
230
1.0
 70
     8
 71
     3
 72
    15
 73
    11
 74
     0
 42
0.000000001
 43
0.00000001
 40
0.0
 40
0.0
 40
0.0
 40
0.0
 40
0.1497703860319679
 40
0.2913164099952444
 40
0.4259663731047425
 40
0.5521595739695284
 40
0.6715274135235927
 40
0.7861216286916589
 40
0.8953250730704446
 40
1.0
 40
1.0
 40
1.0
 40
1.0
 10
72.31431226549742
 20
48.01570318573663
 30
0.0
 10
72.30276268838229
 20
48.01219606083366
 30
0.0
 10
72.28029775768881
 20
48.00537439826599
 30
0.0
 10
72.24796619811387
 20
47.99376255625094
 30
0.0
 10
72.2183270324461
 20
47.98053329679217
 30
0.0
 10
72.19116283731267
 20
47.966341343091
 30
0.0
 10
72.16620609339945
 20
47.95143629479554
 30
0.0
 10
72.14411672095628
 20
47.93475846973708
 30
0.0
 10
72.1239244914378
 20
47.91754312181681
 30
0.0
 10
72.11254822917772
 20
47.90456625609481
 30
0.0
 10
72.1069805347282
 20
47.89821520496741
 30
0.0
  0
LINE
  5
95
330
1F
100
AcDbEntity
  8
0
  6
Continuous
 62
     7
370
    25
100
AcDbLine
 10
72.3143122655
 20
48.1503185704
 30
0.0
 11
72.3143122655
 21
48.0157031857
 31
0.0
  0
SPLINE
  5
96
330
1F
100
AcDbEntity
  8
0
  6
Continuous
 62
     7
370
    25
100
AcDbSpline
210
0.0
220
0.0
230
1.0
 70
     8
 71
     3
 72
    23
 73
    19
 74
     0
 42
0.000000001
 43
0.00000001
 40
0.0
 40
0.0
 40
0.0
 40
0.0
 40
0.0655411703374033
 40
0.1289631677825933
 40
0.1903771361885609
 40
0.2500923616690527
 40
0.308548432459201
 40
0.3663979630552958
 40
0.42454218926668
 40
0.4831699964229055
 40
0.5422433998311199
 40
0.6017393520173299
 40
0.6625060022496068
 40
0.7248555134488469
 40
0.7891278292811811
 40
0.8563463998785099
 40
0.9262952349869055
 40
1.0
 40
1.0
 40
1.0
 40
1.0
 10
71.87200457318973
 20
47.65001808958279
 30
0.0
 10
71.87237666458623
 20
47.66605493256127
 30
0.0
 10
71.87310881637646
 20
47.69761009187702
 30
0.0
 10
71.87811393117501
 20
47.74400016261402
 30
0.0
 10
71.8872553619912
 20
47.78828089091309
 30
0.0
 10
71.89955677857667
 20
47.83051214713738
 30
0.0
 10
71.91515323946831
 20
47.87073144844891
 30
0.0
 10
71.93457553862031
 20
47.90881606495364
 30
0.0
 10
71.95742332521395
 20
47.94500030503369
 30
0.0
 10
71.98396629141676
 20
47.97894271266708
 30
0.0
 10
72.01365829416966
 20
48.01063924168403
 30
0.0
 10
72.04702644129867
 20
48.03924755206837
 30
0.0
 10
72.08345390012197
 20
48.06524460618641
 30
0.0
 10
72.12336378135
 20
48.08793430849134
 30
0.0
 10
72.16624032018333
 20
48.10835014532671
 30
0.0
 10
72.21263253377546
 20
48.12514198388984
 30
0.0
 10
72.26212568605646
 20
48.13992151330539
 30
0.0
 10
72.29661614613183
 20
48.14679299798228
 30
0.0
 10
72.31431226549742
 20
48.15031857035202
 30
0.0
  0
SPLINE
  5
97
330
1F
100
AcDbEntity
  8
0
  6
Continuous
 62
     7
370
    25
100
AcDbSpline
210
0.0
220
0.0
230
1.0
 70
     8
 71
     3
 72
    19
 73
    15
 74
     0
 42
0.000000001
 43
0.00000001
 40
0.0
 40
0.0
 40
0.0
 40
0.0
 40
0.079641704194991
 40
0.158908613257856
 40
0.2395997983184508
 40
0.3224093988203483
 40
0.405827748173513
 40
0.4876442139503136
 40
0.5697199979738973
 40
0.6530646649976933
 40
0.7374573001733064
 40
0.8224924079539123
 40
0.9097550737466982
 40
1.0
 40
1.0
 40
1.0
 40
1.0
 10
72.35607909242049
 20
47.13108780112125
 30
0.0
 10
72.33507576141717
 20
47.13185857183276
 30
0.0
 10
72.29316794142176
 20
47.1333964859965
 30
0.0
 10
72.23123767537908
 20
47.14708711569955
 30
0.0
 10
72.17080450131681
 20
47.16843371999978
 30
0.0
 10
72.11276384239181
 20
47.1982176637002
 30
0.0
 10
72.0585724520322
 20
47.23506822608984
 30
0.0
 10
72.01030586799564
 20
47.27915237162924
 30
0.0
 10
71.96853776174831
 20
47.32939842177183
 30
0.0
 10
71.93375205549175
 20
47.38547752614267
 30
0.0
 10
71.90592499141444
 20
47.44620810529097
 30
0.0
 10
71.88661604577047
 20
47.51117052441067
 30
0.0
 10
71.87403881094274
 20
47.57942015224717
 30
0.0
 10
71.87269020497078
 20
47.62622333430298
 30
0.0
 10
71.87200457318973
 20
47.65001808958279
 30
0.0
  0
SPLINE
  5
98
330
1F
100
AcDbEntity
  8
0
  6
Continuous
 62
     7
370
    25
100
AcDbSpline
210
0.0
220
0.0
230
1.0
 70
     8
 71
     3
 72
    15
 73
    11
 74
     0
 42
0.000000001
 43
0.00000001
 40
0.0
 40
0.0
 40
0.0
 40
0.0
 40
0.1281455049994643
 40
0.2541925386280419
 40
0.3781411397135888
 40
0.5013808330744057
 40
0.6239569784447038
 40
0.7470758858273289
 40
0.8728647202442611
 40
1.0
 40
1.0
 40
1.0
 40
1.0
 10
72.62260553472818
 20
47.22063107035201
 30
0.0
 10
72.61272469430318
 20
47.21341041416446
 30
0.0
 10
72.59312481905653
 20
47.19908734503392
 30
0.0
 10
72.56159382249095
 20
47.18145789637
 30
0.0
 10
72.52981772325543
 20
47.16528168894891
 30
0.0
 10
72.49654712611161
 20
47.1533764685388
 30
0.0
 10
72.46285074149108
 20
47.14310273510074
 30
0.0
 10
72.42800699512516
 20
47.13634296058841
 30
0.0
 10
72.39234693209761
 20
47.13200345574271
 30
0.0
 10
72.3682112012886
 20
47.13139410063211
 30
0.0
 10
72.35607909242049
 20
47.13108780112125
 30
0.0
  0
SPLINE
  5
99
330
1F
100
AcDbEntity
  8
0
  6
Continuous
 62
     7
370
    25
100
AcDbSpline
210
0.0
220
0.0
230
1.0
 70
     8
 71
     3
 72
    11
 73
     7
 74
     0
 42
0.000000001
 43
0.00000001
 40
0.0
 40
0.0
 40
0.0
 40
0.0
 40
0.253879600326656
 40
0.5030089172783633
 40
0.7502910806899731
 40
1.0
 40
1.0
 40
1.0
 40
1.0
 10
72.7506103424205
 20
47.38319116650586
 30
0.0
 10
72.74290541175986
 20
47.36723470026015
 30
0.0
 10
72.7276397156412
 20
47.3356203255742
 30
0.0
 10
72.69770153384809
 20
47.29252724148867
 30
0.0
 10
72.66313452783929
 20
47.25340815204997
 30
0.0
 10
72.63615910516205
 20
47.23159227247692
 30
0.0
 10
72.62260553472818
 20
47.22063107035201
 30
0.0
  0
SPLINE
  5
9A
330
1F
100
AcDbEntity
  8
0
  6
Continuous
 62
     7
370
    25
100
AcDbSpline
210
0.0
220
0.0
230
1.0
 70
     8
 71
     3
 72
    15
 73
    11
 74
     0
 42
0.000000001
 43
0.00000001
 40
0.0
 40
0.0
 40
0.0
 40
0.0
 40
0.1280675485958904
 40
0.2506083188676684
 40
0.3706301659145029
 40
0.4900722467299488
 40
0.6103747641546199
 40
0.7343130699115256
 40
0.8632165042449895
 40
1.0
 40
1.0
 40
1.0
 40
1.0
 10
73.05920409242049
 20
47.20801087804433
 30
0.0
 10
73.04334403754667
 20
47.20850955992164
 30
0.0
 10
73.0123083713482
 20
47.20948540296926
 30
0.0
 10
72.96699915828898
 20
47.21777127678169
 30
0.0
 10
72.9242956153109
 20
47.23171538944293
 30
0.0
 10
72.88401797440083
 20
47.2510310019763
 30
0.0
 10
72.84642161447664
 20
47.27603452350785
 30
0.0
 10
72.811421946965
 20
47.30632282217513
 30
0.0
 10
72.77886373633861
 20
47.34210967722177
 30
0.0
 10
72.76021253363483
 20
47.3692292220889
 30
0.0
 10
72.7506103424205
 20
47.38319116650586
 30
0.0
  0
SPLINE
  5
9B
330
1F
100
AcDbEntity
  8
0
  6
Continuous
 62
     7
370
    25
100
AcDbSpline
210
0.0
220
0.0
230
1.0
 70
     8
 71
     3
 72
    19
 73
    15
 74
     0
 42
0.000000001
 43
0.00000001
 40
0.0
 40
0.0
 40
0.0
 40
0.0
 40
0.0902542493426766
 40
0.1785397915286845
 40
0.2660930338538198
 40
0.3546309779571733
 40
0.4418861533505626
 40
0.5257469151636484
 40
0.6081136336036366
 40
0.6901972728278825
 40
0.770821484330335
 40
0.8483261812554109
 40
0.9240117400247433
 40
1.0
 40
1.0
 40
1.0
 40
1.0
 10
73.44892765011281
 20
47.64611183958279
 30
0.0
 10
73.4483365514364
 20
47.62653352155061
 30
0.0
 10
73.44716724766147
 20
47.58780394543198
 30
0.0
 10
73.43648963202757
 20
47.53090549673891
 30
0.0
 10
73.41959314673292
 20
47.47603685998087
 30
0.0
 10
73.39624726367421
 20
47.42379861091672
 30
0.0
 10
73.36745270089045
 20
47.37527642551832
 30
0.0
 10
73.33318209936412
 20
47.33210377405527
 30
0.0
 10
73.29409668444097
 20
47.29486584085358
 30
0.0
 10
73.2509255854473
 20
47.26362539328495
 30
0.0
 10
73.20478750999577
 20
47.2391646794048
 30
0.0
 10
73.15730172836122
 20
47.22112766219922
 30
0.0
 10
73.10858088348024
 20
47.21014694177122
 30
0.0
 10
73.07568490669088
 20
47.2087238459954
 30
0.0
 10
73.05920409242049
 20
47.20801087804433
 30
0.0
  0
SPLINE
  5
9C
330
1F
100
AcDbEntity
  8
0
  6
Continuous
 62
     7
370
    25
100
AcDbSpline
210
0.0
220
0.0
230
1.0
 70
     8
 71
     3
 72
    23
 73
    19
 74
     0
 42
0.000000001
 43
0.00000001
 40
0.0
 40
0.0
 40
0.0
 40
0.0
 40
0.0726253460834355
 40
0.1419766113262345
 40
0.2089849284189386
 40
0.2739568703644447
 40
0.336889347396841
 40
0.3987449534945902
 40
0.4601158852788617
 40
0.5208249225900291
 40
0.5809944586324857
 40
0.6401519276014648
 40
0.6986224507562546
 40
0.7572710809271643
 40
0.8164266940046602
 40
0.8762540482034705
 40
0.9371652930625374
 40
1.0
 40
1.0
 40
1.0
 40
1.0
 10
73.06431226549742
 20
48.09262626265971
 30
0.0
 10
73.07941190148686
 20
48.08897931236785
 30
0.0
 10
73.10893045479715
 20
48.08184982284338
 30
0.0
 10
73.15110499516028
 20
48.06697943421386
 30
0.0
 10
73.1910150757563
 20
48.05077975341617
 30
0.0
 10
73.22791339305434
 20
48.03132728003127
 30
0.0
 10
73.26254149422547
 20
48.01010924250579
 30
0.0
 10
73.2941139761404
 20
47.98579950470469
 30
0.0
 10
73.32343381848345
 20
47.95951962360502
 30
0.0
 10
73.34945377743654
 20
47.93045178818997
 30
0.0
 10
73.37301566138227
 20
47.8999680760582
 30
0.0
 10
73.39310497167186
 20
47.86763895330789
 30
0.0
 10
73.41038675147092
 20
47.83411485602048
 30
0.0
 10
73.42462399370322
 20
47.79916351332823
 30
0.0
 10
73.43534921813155
 20
47.76268086831737
 30
0.0
 10
73.44313070624189
 20
47.72499674403703
 30
0.0
 10
73.44818404090522
 20
47.68601238684504
 30
0.0
 10
73.44867722508509
 20
47.6595491337315
 30
0.0
 10
73.44892765011281
 20
47.64611183958279
 30
0.0
  0
LINE
  5
9D
330
1F
100
AcDbEntity
  8
0
  6
Continuous
 62
     7
370
    25
100
AcDbLine
 10
73.0643122655
 20
47.958010878
 30
0.0
 11
73.0643122655
 21
48.0926262627
 31
0.0
  0
LINE
  5
9E
330
1F
100
AcDbEntity
  8
0
  6
Continuous
 62
     7
370
    25
100
AcDbLine
 10
73.4489276501
 20
45.6706102776
 30
0.0
 11
73.3674973617
 21
45.5669444122
 31
0.0
  0
LINE
  5
9F
330
1F
100
AcDbEntity
  8
0
  6
Continuous
 62
     7
370
    25
100
AcDbLine
 10
72.7644324578
 20
46.1183266237
 30
0.0
 11
73.4489276501
 21
45.6706102776
 31
0.0
  0
SPLINE
  5
A0
330
1F
100
AcDbEntity
  8
0
  6
Continuous
 62
     7
370
    25
100
AcDbSpline
210
0.0
220
0.0
230
1.0
 70
     8
 71
     3
 72
    19
 73
    15
 74
     0
 42
0.000000001
 43
0.00000001
 40
0.0
 40
0.0
 40
0.0
 40
0.0
 40
0.0978059775289525
 40
0.1996122522918967
 40
0.3052960258330042
 40
0.4158173591641855
 40
0.4742405666184931
 40
0.5372869128296535
 40
0.6033858352934857
 40
0.6743111580696057
 40
0.7495304673574823
 40
0.828608314269512
 40
0.9120427387714449
 40
1.0
 40
1.0
 40
1.0
 40
1.0
 10
72.3287353424205
 20
46.28599489294125
 30
0.0
 10
72.34417739638383
 20
46.28545127224075
 30
0.0
 10
72.37569308948878
 20
46.28434179657105
 30
0.0
 10
72.42356256355117
 20
46.27772057359806
 30
0.0
 10
72.47235137673349
 20
46.26557644169902
 30
0.0
 10
72.5137109423795
 20
46.25243383672947
 30
0.0
 10
72.54796415618469
 20
46.23939240528444
 30
0.0
 10
72.57501301429176
 20
46.22730008996772
 30
0.0
 10
72.60357747696904
 20
46.21377940802824
 30
0.0
 10
72.63311707647463
 20
46.19793128590902
 30
0.0
 10
72.66447582314754
 20
46.18113099750933
 30
0.0
 10
72.69649240686424
 20
46.16150635416098
 30
0.0
 10
72.73033617212387
 20
46.14102773728064
 30
0.0
 10
72.75286882532556
 20
46.12602562461209
 30
0.0
 10
72.76443245780511
 20
46.11832662371048
 30
0.0
  0
SPLINE
  5
A1
330
1F
100
AcDbEntity
  8
0
  6
Continuous
 62
     7
370
    25
100
AcDbSpline
210
0.0
220
0.0
230
1.0
 70
     8
 71
     3
 72
    19
 73
    15
 74
     0
 42
0.000000001
 43
0.00000001
 40
0.0
 40
0.0
 40
0.0
 40
0.0
 40
0.0843261511037431
 40
0.1670353409858404
 40
0.2495407139852791
 40
0.3327066655796642
 40
0.4158726171740491
 40
0.4977774155681173
 40
0.5803136056784763
 40
0.6645325781316562
 40
0.7495711764063213
 40
0.8324741628544072
 40
0.9156738488962566
 40
0.9999999999999999
 40
0.9999999999999999
 40
0.9999999999999999
 40
0.9999999999999999
 10
71.87200457318973
 20
45.83166796986433
 30
0.0
 10
71.87265951685488
 20
45.85185227403606
 30
0.0
 10
71.8739568455839
 20
45.89183384660588
 30
0.0
 10
71.88551370028674
 20
45.95064784435424
 30
0.0
 10
71.9042452242009
 20
46.00716078157257
 30
0.0
 10
71.93005168824844
 20
46.060975419278
 30
0.0
 10
71.96264664167994
 20
46.11083012825985
 30
0.0
 10
72.00189234506809
 20
46.1554185616834
 30
0.0
 10
72.04692142331749
 20
46.19458558702495
 30
0.0
 10
72.09787200915866
 20
46.22700895436487
 30
0.0
 10
72.15226915039648
 20
46.25343408674876
 30
0.0
 10
72.20950675914112
 20
46.27207211474569
 30
0.0
 10
72.26843290580358
 20
46.28412537610107
 30
0.0
 10
72.30854462477944
 20
46.28536893338202
 30
0.0
 10
72.3287353424205
 20
46.28599489294125
 30
0.0
  0
SPLINE
  5
A2
330
1F
100
AcDbEntity
  8
0
  6
Continuous
 62
     7
370
    25
100
AcDbSpline
210
0.0
220
0.0
230
1.0
 70
     8
 71
     3
 72
    19
 73
    15
 74
     0
 42
0.000000001
 43
0.00000001
 40
0.0
 40
0.0
 40
0.0
 40
0.0
 40
0.0859901205637197
 40
0.1691084375726415
 40
0.2505285789581879
 40
0.332255696176845
 40
0.4135763652356401
 40
0.4941261456201216
 40
0.5763059341204168
 40
0.660712671904547
 40
0.7461272722239101
 40
0.830014985960974
 40
0.9144197259288509
 40
1.0
 40
1.0
 40
1.0
 40
1.0
 10
72.33143966934358
 20
45.36291796986432
 30
0.0
 10
72.31046084605745
 20
45.36370076786746
 30
0.0
 10
72.26920382717238
 20
45.36524022084622
 30
0.0
 10
72.20886207803062
 20
45.37644678467949
 30
0.0
 10
72.15183718280977
 20
45.39578680997565
 30
0.0
 10
72.0979050430868
 20
45.42166144465601
 30
0.0
 10
72.04863481762108
 20
45.45523174860868
 30
0.0
 10
72.0041077455908
 20
45.49501440446417
 30
0.0
 10
71.96529586118939
 20
45.54138546953864
 30
0.0
 10
71.93200076233164
 20
45.59324686677481
 30
0.0
 10
71.90554784821393
 20
45.64937700457183
 30
0.0
 10
71.88599066887286
 20
45.70823129009769
 30
0.0
 10
71.87430475719299
 20
45.76930666867938
 30
0.0
 10
71.87277482794094
 20
45.81078525419388
 30
0.0
 10
71.87200457318973
 20
45.83166796986433
 30
0.0
  0
SPLINE
  5
A3
330
1F
100
AcDbEntity
  8
0
  6
Continuous
 62
     7
370
    25
100
AcDbSpline
210
0.0
220
0.0
230
1.0
 70
     8
 71
     3
 72
    23
 73
    19
 74
     0
 42
0.000000001
 43
0.00000001
 40
0.0
 40
0.0
 40
0.0
 40
0.0
 40
0.0652308037420297
 40
0.128404896003223
 40
0.1900670715964782
 40
0.2509433657682801
 40
0.3115458328521434
 40
0.3728628021568294
 40
0.4350236738562386
 40
0.4990717247070431
 40
0.5630910750496624
 40
0.6255101063303751
 40
0.6866800359296492
 40
0.7472825030135124
 40
0.8085634952159588
 40
0.8707421035159856
 40
0.9343409515059125
 40
1.0
 40
1.0
 40
1.0
 40
1.0
 10
72.77585072703587
 20
45.80792998909509
 30
0.0
 10
72.77544096488054
 20
45.79268463352288
 30
0.0
 10
72.77463436027163
 20
45.76267460475605
 30
0.0
 10
72.76842699568942
 20
45.71861454668148
 30
0.0
 10
72.758644804865
 20
45.6762764312644
 30
0.0
 10
72.7443852666015
 20
45.6358357402978
 30
0.0
 10
72.7261699718748
 20
45.59714731950084
 30
0.0
 10
72.70433902746888
 20
45.55998914974004
 30
0.0
 10
72.67776516445885
 20
45.52505971683738
 30
0.0
 10
72.64808018340861
 20
45.49190921146084
 30
0.0
 10
72.61520147576783
 20
45.46181188400673
 30
0.0
 10
72.5803151886081
 20
45.4351650030535
 30
0.0
 10
72.5434576681803
 20
45.41278209231031
 30
0.0
 10
72.50464758278031
 20
45.39462184018978
 30
0.0
 10
72.46394475725435
 20
45.38051974936211
 30
0.0
 10
72.42140126890219
 20
45.37023933005771
 30
0.0
 10
72.37698778113356
 20
45.36416236170634
 30
0.0
 10
72.34678284887661
 20
45.36333715139988
 30
0.0
 10
72.33143966934358
 20
45.36291796986432
 30
0.0
  0
SPLINE
  5
A4
330
1F
100
AcDbEntity
  8
0
  6
Continuous
 62
     7
370
    25
100
AcDbSpline
210
0.0
220
0.0
230
1.0
 70
     8
 71
     3
 72
     9
 73
     5
 74
     0
 42
0.000000001
 43
0.00000001
 40
0.0
 40
0.0
 40
0.0
 40
0.0
 40
0.5126593363417812
 40
1.0
 40
1.0
 40
1.0
 40
1.0
 10
72.76142765011281
 20
45.9632785467874
 30
0.0
 10
72.76563359039291
 20
45.93689128522312
 30
0.0
 10
72.77383775245914
 20
45.88541994803344
 30
0.0
 10
72.77519115765132
 20
45.83332027723727
 30
0.0
 10
72.77585072703587
 20
45.80792998909509
 30
0.0
  0
LINE
  5
A5
330
1F
100
AcDbEntity
  8
0
  6
Continuous
 62
     7
370
    25
100
AcDbLine
 10
73.3674973617
 20
45.5669444122
 30
0.0
 11
72.7614276501
 21
45.9632785468
 31
0.0
  0
LINE
  5
A6
330
1F
100
AcDbEntity
  8
0
  6
Continuous
 62
     7
370
    25
100
AcDbLine
 10
73.4104661117
 20
46.900343333
 30
0.0
 11
73.4104661117
 21
46.622999583
 31
0.0
  0
LINE
  5
A7
330
1F
100
AcDbEntity
  8
0
  6
Continuous
 62
     7
370
    25
100
AcDbLine
 10
73.2566199578
 20
46.9883841984
 30
0.0
 11
73.4104661117
 21
46.900343333
 31
0.0
  0
LINE
  5
A8
330
1F
100
AcDbEntity
  8
0
  6
Continuous
 62
     7
370
    25
100
AcDbLine
 10
71.9104661117
 20
46.7576149676
 30
0.0
 11
73.2566199578
 21
46.7576149676
 31
0.0
  0
LINE
  5
A9
330
1F
100
AcDbEntity
  8
0
  6
Continuous
 62
     7
370
    25
100
AcDbLine
 10
71.9104661117
 20
46.622999583
 30
0.0
 11
71.9104661117
 21
46.7576149676
 31
0.0
  0
LINE
  5
AA
330
1F
100
AcDbEntity
  8
0
  6
Continuous
 62
     7
370
    25
100
AcDbLine
 10
73.4104661117
 20
46.622999583
 30
0.0
 11
71.9104661117
 21
46.622999583
 31
0.0
  0
LINE
  5
AB
330
1F
100
AcDbEntity
  8
0
  6
Continuous
 62
     7
370
    25
100
AcDbLine
 10
72.7908508694
 20
53.0588638391
 30
0.0
 11
74.7279857394
 21
53.0588638391
 31
0.0
  0
SPLINE
  5
AC
330
1F
100
AcDbEntity
  8
0
  6
Continuous
 62
     7
370
    25
100
AcDbSpline
210
0.0
220
0.0
230
1.0
 70
     8
 71
     3
 72
    12
 73
     8
 74
     0
 42
0.000000001
 43
0.00000001
 40
0.0
 40
0.0
 40
0.0
 40
0.0
 40
0.2499999999999999
 40
0.2499999999999999
 40
0.4999999999999999
 40
0.4999999999999999
 40
1.0
 40
1.0
 40
1.0
 40
1.0
 10
75.71046611165126
 20
46.70801087804433
 30
0.0
 10
75.71046611165126
 20
47.24554450094927
 30
0.0
 10
75.68752191709329
 20
47.78591124478081
 30
0.0
 10
75.59666521622015
 20
48.86700302959795
 30
0.0
 10
75.5293966037902
 20
49.40182114833998
 30
0.0
 10
75.27127695794785
 20
50.99150678293674
 30
0.0
 10
75.0245002703476
 20
52.03170737357606
 30
0.0
 10
74.7279857394038
 20
53.05886383913021
 30
0.0
  0
SPLINE
  5
AD
330
1F
100
AcDbEntity
  8
0
  6
Continuous
 62
     7
370
    25
100
AcDbSpline
210
0.0
220
0.0
230
1.0
 70
     8
 71
     3
 72
    10
 73
     6
 74
     0
 42
0.000000001
 43
0.00000001
 40
0.0
 40
0.0
 40
0.0
 40
0.0
 40
0.5
 40
0.5
 40
1.0
 40
1.0
 40
1.0
 40
1.0
 10
74.72798573940383
 20
40.35715791695844
 30
0.0
 10
75.02646829772739
 20
41.3911318293375
 30
0.0
 10
75.27632921110182
 20
42.44853386859765
 30
0.0
 10
75.61805199361238
 20
44.56746092877409
 30
0.0
 10
75.71046611165126
 20
45.63372830056618
 30
0.0
 10
75.71046611165126
 20
46.70801087804433
 30
0.0
  0
LINE
  5
AE
330
1F
100
AcDbEntity
  8
0
  6
Continuous
 62
     7
370
    25
100
AcDbLine
 10
72.7908508694
 20
40.357157917
 30
0.0
 11
74.7279857394
 21
40.357157917
 31
0.0
  0
SPLINE
  5
AF
330
1F
100
AcDbEntity
  8
0
  6
Continuous
 62
     7
370
    25
100
AcDbSpline
210
0.0
220
0.0
230
1.0
 70
     8
 71
     3
 72
     8
 73
     4
 74
     0
 42
0.000000001
 43
0.00000001
 40
0.0
 40
0.0
 40
0.0
 40
0.0
 40
1.0
 40
1.0
 40
1.0
 40
1.0
 10
72.7908508693806
 20
40.35715791695844
 30
0.0
 10
72.7630178158247
 20
40.56490665695924
 30
0.0
 10
72.7361968280544
 20
40.77274530343225
 30
0.0
 10
72.71046611165127
 20
40.98068080374005
 30
0.0
  0
SPLINE
  5
B0
330
1F
100
AcDbEntity
  8
0
  6
Continuous
 62
     7
370
    25
100
AcDbSpline
210
0.0
220
0.0
230
1.0
 70
     8
 71
     3
 72
     8
 73
     4
 74
     0
 42
0.000000001
 43
0.00000001
 40
0.0
 40
0.0
 40
0.0
 40
0.0
 40
1.0
 40
1.0
 40
1.0
 40
1.0
 10
72.71046611165127
 20
40.98068080374005
 30
0.0
 10
72.68472562108165
 20
40.77266631627284
 30
0.0
 10
72.65790410143224
 20
40.56482973158769
 30
0.0
 10
72.63008135392194
 20
40.35715791695844
 30
0.0
  0
LINE
  5
B1
330
1F
100
AcDbEntity
  8
0
  6
Continuous
 62
     7
370
    25
100
AcDbLine
 10
70.6929464839
 20
40.357157917
 30
0.0
 11
72.6300813539
 21
40.357157917
 31
0.0
  0
SPLINE
  5
B2
330
1F
100
AcDbEntity
  8
0
  6
Continuous
 62
     7
370
    25
100
AcDbSpline
210
0.0
220
0.0
230
1.0
 70
     8
 71
     3
 72
    10
 73
     6
 74
     0
 42
0.000000001
 43
0.00000001
 40
0.0
 40
0.0
 40
0.0
 40
0.0
 40
0.5
 40
0.5
 40
1.0
 40
1.0
 40
1.0
 40
1.0
 10
70.6929464838987
 20
40.35715791695844
 30
0.0
 10
70.39446392557514
 20
41.3911318293375
 30
0.0
 10
70.14460301220072
 20
42.44853386859765
 30
0.0
 10
69.80288022969016
 20
44.56746092877409
 30
0.0
 10
69.71046611165127
 20
45.63372830056618
 30
0.0
 10
69.71046611165127
 20
46.70801087804433
 30
0.0
  0
SPLINE
  5
B3
330
1F
100
AcDbEntity
  8
0
  6
Continuous
 62
     7
370
    25
100
AcDbSpline
210
0.0
220
0.0
230
1.0
 70
     8
 71
     3
 72
    12
 73
     8
 74
     0
 42
0.000000001
 43
0.00000001
 40
0.0
 40
0.0
 40
0.0
 40
0.0
 40
0.2499999999999999
 40
0.2499999999999999
 40
0.4999999999999999
 40
0.4999999999999999
 40
1.0
 40
1.0
 40
1.0
 40
1.0
 10
69.71046611165127
 20
46.70801087804433
 30
0.0
 10
69.71046611165127
 20
47.24554450094927
 30
0.0
 10
69.73341030620924
 20
47.78591124478081
 30
0.0
 10
69.82426700708238
 20
48.86700302959795
 30
0.0
 10
69.89153561951234
 20
49.40182114833998
 30
0.0
 10
70.14965526535468
 20
50.99150678293674
 30
0.0
 10
70.39643195295493
 20
52.03170737357606
 30
0.0
 10
70.69294648389871
 20
53.05886383913021
 30
0.0
  0
LINE
  5
B4
330
1F
100
AcDbEntity
  8
0
  6
Continuous
 62
     7
370
    25
100
AcDbLine
 10
70.6929464839
 20
53.0588638391
 30
0.0
 11
72.6300813539
 21
53.0588638391
 31
0.0
  0
SPLINE
  5
B5
330
1F
100
AcDbEntity
  8
0
  6
Continuous
 62
     7
370
    25
100
AcDbSpline
210
0.0
220
0.0
230
1.0
 70
     8
 71
     3
 72
     8
 73
     4
 74
     0
 42
0.000000001
 43
0.00000001
 40
0.0
 40
0.0
 40
0.0
 40
0.0
 40
1.0
 40
1.0
 40
1.0
 40
1.0
 10
72.63008135392194
 20
53.05886383913021
 30
0.0
 10
72.65791440747783
 20
52.85111509912942
 30
0.0
 10
72.68473539524813
 20
52.64327645265641
 30
0.0
 10
72.71046611165127
 20
52.4353409523486
 30
0.0
  0
SPLINE
  5
B6
330
1F
100
AcDbEntity
  8
0
  6
Continuous
 62
     7
370
    25
100
AcDbSpline
210
0.0
220
0.0
230
1.0
 70
     8
 71
     3
 72
     8
 73
     4
 74
     0
 42
0.000000001
 43
0.00000001
 40
0.0
 40
0.0
 40
0.0
 40
0.0
 40
1.0
 40
1.0
 40
1.0
 40
1.0
 10
72.71046611165127
 20
52.4353409523486
 30
0.0
 10
72.73620660222088
 20
52.64335543981581
 30
0.0
 10
72.76302812187029
 20
52.85119202450097
 30
0.0
 10
72.7908508693806
 20
53.0588638391302
 30
0.0
  0
LINE
  5
B7
330
1F
100
AcDbEntity
  8
0
  6
Continuous
 62
     7
370
    25
100
AcDbLine
 10
73.2566199578
 20
46.7576149676
 30
0.0
 11
73.2566199578
 21
46.9883841984
 31
0.0
  0
SPLINE
  5
B8
330
1F
100
AcDbEntity
  8
0
  6
Continuous
 62
     7
370
    25
100
AcDbSpline
210
0.0
220
0.0
230
1.0
 70
     8
 71
     3
 72
    10
 73
     6
 74
     0
 42
0.000000001
 43
0.00000001
 40
0.0
 40
0.0
 40
0.0
 40
0.0
 40
0.5
 40
0.5
 40
1.0
 40
1.0
 40
1.0
 40
1.0
 10
70.6929464838984
 20
53.05886383913019
 30
0.0
 10
70.39303723227809
 20
53.57832190059651
 30
0.0
 10
70.14595657291216
 20
54.10157430279297
 30
0.0
 10
69.80410175887977
 20
55.15901831168834
 30
0.0
 10
69.71046611165126
 20
55.69329169011274
 30
0.0
 10
69.71046611165126
 20
56.23429031967316
 30
0.0
  0
LINE
  5
B9
330
1F
100
AcDbEntity
  8
0
  6
Continuous
 62
     7
370
    25
100
AcDbLine
 10
69.7104661117
 20
46.708010878
 30
0.0
 11
69.7104661117
 21
56.2342903197
 31
0.0
  0
SPLINE
  5
BA
330
1F
100
AcDbEntity
  8
0
  6
Continuous
 62
     7
370
    25
100
AcDbSpline
210
0.0
220
0.0
230
1.0
 70
     8
 71
     3
 72
    12
 73
     8
 74
     0
 42
0.000000001
 43
0.00000001
 40
0.0
 40
0.0
 40
0.0
 40
0.0
 40
0.25
 40
0.25
 40
0.5
 40
0.5
 40
1.0
 40
1.0
 40
1.0
 40
1.0
 10
75.71046611165127
 20
37.1817314364155
 30
0.0
 10
75.71046611165127
 20
37.45121933064255
 30
0.0
 10
75.68724395732411
 20
37.72191621180958
 30
0.0
 10
75.59737680746335
 20
38.25741104274188
 30
0.0
 10
75.53081821837567
 20
38.5233674460938
 30
0.0
 10
75.27410874425398
 20
39.31651304953549
 30
0.0
 10
75.02714607123158
 20
39.83899702262389
 30
0.0
 10
74.72798573940398
 20
40.35715791695846
 30
0.0
  0
SPLINE
  5
BB
330
1F
100
AcDbEntity
  8
0
  6
Continuous
 62
     7
370
    25
100
AcDbSpline
210
0.0
220
0.0
230
1.0
 70
     8
 71
     3
 72
    10
 73
     6
 74
     0
 42
0.000000001
 43
0.00000001
 40
0.0
 40
0.0
 40
0.0
 40
0.0
 40
0.5
 40
0.5
 40
1.0
 40
1.0
 40
1.0
 40
1.0
 10
74.72798573940415
 20
34.00630495587254
 30
0.0
 10
75.02789499102444
 20
34.52576301733885
 30
0.0
 10
75.27497565039037
 20
35.04901541953532
 30
0.0
 10
75.61683046442276
 20
36.1064594284307
 30
0.0
 10
75.71046611165127
 20
36.6407328068551
 30
0.0
 10
75.71046611165127
 20
37.1817314364155
 30
0.0
  0
LINE
  5
BC
330
1F
100
AcDbEntity
  8
0
  6
Continuous
 62
     7
370
    25
100
AcDbLine
 10
72.7908508694
 20
34.0063049559
 30
0.0
 11
74.7279857394
 21
34.0063049559
 31
0.0
  0
SPLINE
  5
BD
330
1F
100
AcDbEntity
  8
0
  6
Continuous
 62
     7
370
    25
100
AcDbSpline
210
0.0
220
0.0
230
1.0
 70
     8
 71
     3
 72
     8
 73
     4
 74
     0
 42
0.000000001
 43
0.00000001
 40
0.0
 40
0.0
 40
0.0
 40
0.0
 40
1.0
 40
1.0
 40
1.0
 40
1.0
 10
72.7908508693806
 20
34.00630495587257
 30
0.0
 10
72.7630191963235
 20
34.11017417378132
 30
0.0
 10
72.73619813645745
 20
34.21409336236505
 30
0.0
 10
72.71046611165127
 20
34.31806639926337
 30
0.0
  0
SPLINE
  5
BE
330
1F
100
AcDbEntity
  8
0
  6
Continuous
 62
     7
370
    25
100
AcDbSpline
210
0.0
220
0.0
230
1.0
 70
     8
 71
     3
 72
     8
 73
     4
 74
     0
 42
0.000000001
 43
0.00000001
 40
0.0
 40
0.0
 40
0.0
 40
0.0
 40
1.0
 40
1.0
 40
1.0
 40
1.0
 10
72.71046611165127
 20
34.31806639926337
 30
0.0
 10
72.68472516181795
 20
34.21405729982501
 30
0.0
 10
72.65790361755704
 20
34.11013905734039
 30
0.0
 10
72.63008135392194
 20
34.00630495587257
 30
0.0
  0
LINE
  5
BF
330
1F
100
AcDbEntity
  8
0
  6
Continuous
 62
     7
370
    25
100
AcDbLine
 10
70.6929464839
 20
34.0063049559
 30
0.0
 11
72.6300813539
 21
34.0063049559
 31
0.0
  0
SPLINE
  5
C0
330
1F
100
AcDbEntity
  8
0
  6
Continuous
 62
     7
370
    25
100
AcDbSpline
210
0.0
220
0.0
230
1.0
 70
     8
 71
     3
 72
    10
 73
     6
 74
     0
 42
0.000000001
 43
0.00000001
 40
0.0
 40
0.0
 40
0.0
 40
0.0
 40
0.5
 40
0.5
 40
1.0
 40
1.0
 40
1.0
 40
1.0
 10
70.6929464838984
 20
34.00630495587254
 30
0.0
 10
70.39303723227809
 20
34.52576301733885
 30
0.0
 10
70.14595657291216
 20
35.04901541953532
 30
0.0
 10
69.80410175887977
 20
36.1064594284307
 30
0.0
 10
69.71046611165126
 20
36.6407328068551
 30
0.0
 10
69.71046611165126
 20
37.1817314364155
 30
0.0
  0
SPLINE
  5
C1
330
1F
100
AcDbEntity
  8
0
  6
Continuous
 62
     7
370
    25
100
AcDbSpline
210
0.0
220
0.0
230
1.0
 70
     8
 71
     3
 72
    12
 73
     8
 74
     0
 42
0.000000001
 43
0.00000001
 40
0.0
 40
0.0
 40
0.0
 40
0.0
 40
0.25
 40
0.25
 40
0.5
 40
0.5
 40
1.0
 40
1.0
 40
1.0
 40
1.0
 10
69.71046611165126
 20
37.1817314364155
 30
0.0
 10
69.71046611165126
 20
37.45121933064255
 30
0.0
 10
69.73368826597842
 20
37.72191621180958
 30
0.0
 10
69.82355541583918
 20
38.25741104274188
 30
0.0
 10
69.89011400492687
 20
38.5233674460938
 30
0.0
 10
70.14682347904855
 20
39.31651304953549
 30
0.0
 10
70.39378615207096
 20
39.83899702262389
 30
0.0
 10
70.69294648389855
 20
40.35715791695846
 30
0.0
  0
SPLINE
  5
C2
330
1F
100
AcDbEntity
  8
0
  6
Continuous
 62
     7
370
    25
100
AcDbSpline
210
0.0
220
0.0
230
1.0
 70
     8
 71
     3
 72
     8
 73
     4
 74
     0
 42
0.000000001
 43
0.00000001
 40
0.0
 40
0.0
 40
0.0
 40
0.0
 40
1.0
 40
1.0
 40
1.0
 40
1.0
 10
72.63008135392194
 20
40.35715791695844
 30
0.0
 10
72.65791302697903
 20
40.25328869904969
 30
0.0
 10
72.68473408684508
 20
40.14936951046595
 30
0.0
 10
72.71046611165127
 20
40.04539647356764
 30
0.0
  0
SPLINE
  5
C3
330
1F
100
AcDbEntity
  8
0
  6
Continuous
 62
     7
370
    25
100
AcDbSpline
210
0.0
220
0.0
230
1.0
 70
     8
 71
     3
 72
     8
 73
     4
 74
     0
 42
0.000000001
 43
0.00000001
 40
0.0
 40
0.0
 40
0.0
 40
0.0
 40
1.0
 40
1.0
 40
1.0
 40
1.0
 10
72.71046611165127
 20
40.04539647356764
 30
0.0
 10
72.73620706148458
 20
40.14940557300599
 30
0.0
 10
72.76302860574549
 20
40.25332381549061
 30
0.0
 10
72.7908508693806
 20
40.35715791695844
 30
0.0
  0
LINE
  5
C4
330
1F
100
AcDbEntity
  8
0
  6
Continuous
 62
     7
370
    25
100
AcDbLine
 10
72.7908508694
 20
59.4097168002
 30
0.0
 11
74.7279857394
 21
59.4097168002
 31
0.0
  0
SPLINE
  5
C5
330
1F
100
AcDbEntity
  8
0
  6
Continuous
 62
     7
370
    25
100
AcDbSpline
210
0.0
220
0.0
230
1.0
 70
     8
 71
     3
 72
    12
 73
     8
 74
     0
 42
0.000000001
 43
0.00000001
 40
0.0
 40
0.0
 40
0.0
 40
0.0
 40
0.2500000000000002
 40
0.2500000000000002
 40
0.5000000000000001
 40
0.5000000000000001
 40
1.0
 40
1.0
 40
1.0
 40
1.0
 10
75.71046611165127
 20
56.23429031967316
 30
0.0
 10
75.71046611165127
 20
56.50377821390019
 30
0.0
 10
75.68724395732411
 20
56.77447509506724
 30
0.0
 10
75.59737680746335
 20
57.30996992599953
 30
0.0
 10
75.53081821837567
 20
57.57592632935145
 30
0.0
 10
75.27410874425398
 20
58.36907193279314
 30
0.0
 10
75.02714607123158
 20
58.89155590588152
 30
0.0
 10
74.72798573940398
 20
59.4097168002161
 30
0.0
  0
SPLINE
  5
C6
330
1F
100
AcDbEntity
  8
0
  6
Continuous
 62
     7
370
    25
100
AcDbSpline
210
0.0
220
0.0
230
1.0
 70
     8
 71
     3
 72
    10
 73
     6
 74
     0
 42
0.000000001
 43
0.00000001
 40
0.0
 40
0.0
 40
0.0
 40
0.0
 40
0.5
 40
0.5
 40
1.0
 40
1.0
 40
1.0
 40
1.0
 10
74.72798573940413
 20
53.05886383913019
 30
0.0
 10
75.02789499102444
 20
53.57832190059651
 30
0.0
 10
75.27497565039037
 20
54.10157430279297
 30
0.0
 10
75.61683046442276
 20
55.15901831168834
 30
0.0
 10
75.71046611165127
 20
55.69329169011274
 30
0.0
 10
75.71046611165127
 20
56.23429031967316
 30
0.0
  0
SPLINE
  5
C7
330
1F
100
AcDbEntity
  8
0
  6
Continuous
 62
     7
370
    25
100
AcDbSpline
210
0.0
220
0.0
230
1.0
 70
     8
 71
     3
 72
     8
 73
     4
 74
     0
 42
0.000000001
 43
0.00000001
 40
0.0
 40
0.0
 40
0.0
 40
0.0
 40
1.0
 40
1.0
 40
1.0
 40
1.0
 10
72.7908508693806
 20
53.05886383913021
 30
0.0
 10
72.7630191963235
 20
53.16273305703896
 30
0.0
 10
72.73619813645746
 20
53.2666522456227
 30
0.0
 10
72.71046611165127
 20
53.37062528252101
 30
0.0
  0
SPLINE
  5
C8
330
1F
100
AcDbEntity
  8
0
  6
Continuous
 62
     7
370
    25
100
AcDbSpline
210
0.0
220
0.0
230
1.0
 70
     8
 71
     3
 72
     8
 73
     4
 74
     0
 42
0.000000001
 43
0.00000001
 40
0.0
 40
0.0
 40
0.0
 40
0.0
 40
1.0
 40
1.0
 40
1.0
 40
1.0
 10
72.71046611165126
 20
53.37062528252101
 30
0.0
 10
72.68472516181795
 20
53.26661618308266
 30
0.0
 10
72.65790361755704
 20
53.16269794059804
 30
0.0
 10
72.63008135392194
 20
53.05886383913021
 30
0.0
  0
SPLINE
  5
C9
330
1F
100
AcDbEntity
  8
0
  6
Continuous
 62
     7
370
    25
100
AcDbSpline
210
0.0
220
0.0
230
1.0
 70
     8
 71
     3
 72
    12
 73
     8
 74
     0
 42
0.000000001
 43
0.00000001
 40
0.0
 40
0.0
 40
0.0
 40
0.0
 40
0.2500000000000002
 40
0.2500000000000002
 40
0.5000000000000001
 40
0.5000000000000001
 40
1.0
 40
1.0
 40
1.0
 40
1.0
 10
69.71046611165126
 20
56.23429031967316
 30
0.0
 10
69.71046611165126
 20
56.50377821390019
 30
0.0
 10
69.73368826597842
 20
56.77447509506724
 30
0.0
 10
69.82355541583918
 20
57.30996992599953
 30
0.0
 10
69.89011400492687
 20
57.57592632935145
 30
0.0
 10
70.14682347904855
 20
58.36907193279314
 30
0.0
 10
70.39378615207096
 20
58.89155590588152
 30
0.0
 10
70.69294648389855
 20
59.4097168002161
 30
0.0
  0
LINE
  5
CA
330
1F
100
AcDbEntity
  8
0
  6
Continuous
 62
     7
370
    25
100
AcDbLine
 10
70.6929464839
 20
59.4097168002
 30
0.0
 11
72.6300813539
 21
59.4097168002
 31
0.0
  0
SPLINE
  5
CB
330
1F
100
AcDbEntity
  8
0
  6
Continuous
 62
     7
370
    25
100
AcDbSpline
210
0.0
220
0.0
230
1.0
 70
     8
 71
     3
 72
     8
 73
     4
 74
     0
 42
0.000000001
 43
0.00000001
 40
0.0
 40
0.0
 40
0.0
 40
0.0
 40
1.0
 40
1.0
 40
1.0
 40
1.0
 10
72.63008135392194
 20
59.4097168002161
 30
0.0
 10
72.65791302697903
 20
59.30584758230734
 30
0.0
 10
72.68473408684508
 20
59.20192839372361
 30
0.0
 10
72.71046611165127
 20
59.09795535682529
 30
0.0
  0
SPLINE
  5
CC
330
1F
100
AcDbEntity
  8
0
  6
Continuous
 62
     7
370
    25
100
AcDbSpline
210
0.0
220
0.0
230
1.0
 70
     8
 71
     3
 72
     8
 73
     4
 74
     0
 42
0.000000001
 43
0.00000001
 40
0.0
 40
0.0
 40
0.0
 40
0.0
 40
1.0
 40
1.0
 40
1.0
 40
1.0
 10
72.71046611165127
 20
59.09795535682529
 30
0.0
 10
72.73620706148458
 20
59.20196445626364
 30
0.0
 10
72.76302860574549
 20
59.30588269874826
 30
0.0
 10
72.7908508693806
 20
59.40971680021609
 30
0.0
  0
LINE
  5
CD
330
1F
100
AcDbEntity
  8
0
  6
Continuous
 62
     7
370
    25
100
AcDbLine
 10
75.7104661117
 20
46.708010878
 30
0.0
 11
75.7104661117
 21
37.1817314364
 31
0.0
  0
LINE
  5
CE
330
1F
100
AcDbEntity
  8
0
  6
Continuous
 62
     7
370
    25
100
AcDbLine
 10
75.7104661117
 20
56.2342903197
 30
0.0
 11
75.7104661117
 21
46.708010878
 31
0.0
  0
LINE
  5
CF
330
1F
100
AcDbEntity
  8
0
  6
Continuous
 62
     7
370
    25
100
AcDbLine
 10
69.7104661117
 20
37.1817314364
 30
0.0
 11
69.7104661117
 21
46.708010878
 31
0.0
  0
LINE
  5
D0
330
1F
100
AcDbEntity
  8
0
  6
Continuous
 62
     7
370
    25
100
AcDbLine
 10
72.7104661117
 20
52.4353409523
 30
0.0
 11
72.7104661117
 21
53.3706252825
 31
0.0
  0
SPLINE
  5
D1
330
1F
100
AcDbEntity
  8
0
  6
Continuous
 62
     7
370
    25
100
AcDbSpline
210
0.0
220
0.0
230
1.0
 70
     8
 71
     3
 72
    23
 73
    19
 74
     0
 42
0.000000001
 43
0.00000001
 40
0.0
 40
0.0
 40
0.0
 40
0.0
 40
0.0611415679303346
 40
0.1200010135310724
 40
0.1782359705414084
 40
0.236495543407017
 40
0.294887248704973
 40
0.3546771928192958
 40
0.4166948132897785
 40
0.4806333779628396
 40
0.5458046334786409
 40
0.6097347883178745
 40
0.6729516883751544
 40
0.7360010960706833
 40
0.7998274385165253
 40
0.8647672769393869
 40
0.9310835057306723
 40
1.0
 40
1.0
 40
1.0
 40
1.0
 10
72.32332668857434
 20
45.49753335447971
 30
0.0
 10
72.3335683990245
 20
45.49776644552275
 30
0.0
 10
72.35366954585328
 20
45.49822392743493
 30
0.0
 10
72.38309015945632
 20
45.50349850249111
 30
0.0
 10
72.41161496818985
 20
45.51062269393292
 30
0.0
 10
72.43860140471463
 20
45.52213604027027
 30
0.0
 10
72.464795752545
 20
45.53584937553392
 30
0.0
 10
72.48944935765607
 20
45.55331926382929
 30
0.0
 10
72.51326066110006
 20
45.57334891836727
 30
0.0
 10
72.5353530748302
 20
45.59654520183213
 30
0.0
 10
72.55556059449474
 20
45.62178068168168
 30
0.0
 10
72.57339711703045
 20
45.64861677543492
 30
0.0
 10
72.58845079167605
 20
45.67669139948895
 30
0.0
 10
72.60101094814475
 20
45.70597743402432
 30
0.0
 10
72.61007501670016
 20
45.73681008192521
 30
0.0
 10
72.61721211861908
 20
45.76869166027664
 30
0.0
 10
72.62101012682936
 20
45.8020299059221
 30
0.0
 10
72.62166886895442
 20
45.82464845250926
 30
0.0
 10
72.62200457318973
 20
45.83617518140279
 30
0.0
  0
SPLINE
  5
D2
330
1F
100
AcDbEntity
  8
0
  6
Continuous
 62
     7
370
    25
100
AcDbSpline
210
0.0
220
0.0
230
1.0
 70
     8
 71
     3
 72
    23
 73
    19
 74
     0
 42
0.000000001
 43
0.00000001
 40
0.0
 40
0.0
 40
0.0
 40
0.0
 40
0.0679503475997533
 40
0.1332598223836994
 40
0.1978002967596469
 40
0.2608458295516821
 40
0.3233192927503666
 40
0.3862817224595717
 40
0.4500615162333125
 40
0.5152075844858149
 40
0.5796407692199315
 40
0.6418172023841521
 40
0.7016924412115346
 40
0.7607690981778942
 40
0.8192540511346831
 40
0.8787376269055535
 40
0.938158297016091
 40
1.0
 40
1.0
 40
1.0
 40
1.0
 10
72.02585072703587
 20
45.82445643140279
 30
0.0
 10
72.026180316077
 20
45.8133283423794
 30
0.0
 10
72.0268266847658
 20
45.79150465465581
 30
0.0
 10
72.030718338764
 20
45.75928771657112
 30
0.0
 10
72.03760182987465
 20
45.7283960505514
 30
0.0
 10
72.04738366709485
 20
45.6988081717081
 30
0.0
 10
72.0593027089309
 20
45.67027756224734
 30
0.0
 10
72.0745110689587
 20
45.64320900802289
 30
0.0
 10
72.0922883204663
 20
45.6172370640918
 30
0.0
 10
72.1126268736845
 20
45.59292705138667
 30
0.0
 10
72.1344846471531
 20
45.57027536562331
 30
0.0
 10
72.15849324862165
 20
45.55132531455249
 30
0.0
 10
72.18280837096671
 20
45.53422303275719
 30
0.0
 10
72.20890679298059
 20
45.5212686521151
 30
0.0
 10
72.23584319245946
 20
45.51040848246046
 30
0.0
 10
72.26402815320341
 20
45.50310773289316
 30
0.0
 10
72.29331637301887
 20
45.49832816723519
 30
0.0
 10
72.3131909829102
 20
45.49780179511416
 30
0.0
 10
72.32332668857434
 20
45.49753335447971
 30
0.0
  0
SPLINE
  5
D3
330
1F
100
AcDbEntity
  8
0
  6
Continuous
 62
     7
370
    25
100
AcDbSpline
210
0.0
220
0.0
230
1.0
 70
     8
 71
     3
 72
    23
 73
    19
 74
     0
 42
0.000000001
 43
0.00000001
 40
0.0
 40
0.0
 40
0.0
 40
0.0
 40
0.0618526459466918
 40
0.12128383061537
 40
0.1807779320756124
 40
0.2392732340142805
 40
0.2986414352139417
 40
0.3581858222417117
 40
0.4207600867589708
 40
0.4852046730216432
 40
0.5503622689482868
 40
0.6136499245309119
 40
0.6766234955168248
 40
0.7391080134690123
 40
0.8021647022429443
 40
0.8667165971324775
 40
0.9320376285055445
 40
1.0
 40
1.0
 40
1.0
 40
1.0
 10
72.32332668857434
 20
46.15137950832587
 30
0.0
 10
72.31319136871743
 20
46.15111037601841
 30
0.0
 10
72.29331751533665
 20
46.15058264762956
 30
0.0
 10
72.26402378992316
 20
46.14581295237636
 30
0.0
 10
72.23585947967217
 20
46.1384751807231
 30
0.0
 10
72.20880398497128
 20
46.12773462730132
 30
0.0
 10
72.18300488930787
 20
46.11426283284365
 30
0.0
 10
72.15827893416765
 20
46.09768430431173
 30
0.0
 10
72.13460905312758
 20
46.0782797562237
 30
0.0
 10
72.11259211657655
 20
46.05572235407836
 30
0.0
 10
72.09239764733715
 20
46.03139638284382
 30
0.0
 10
72.07441645401514
 20
46.00567005703869
 30
0.0
 10
72.05931705984118
 20
45.97862517639145
 30
0.0
 10
72.0473797985891
 20
45.95010742022036
 30
0.0
 10
72.03760289704681
 20
45.920516059394
 30
0.0
 10
72.03071804793298
 20
45.88962535140764
 30
0.0
 10
72.02682676128723
 20
45.85740815416602
 30
0.0
 10
72.02618034191893
 20
45.83558450219542
 30
0.0
 10
72.02585072703587
 20
45.82445643140279
 30
0.0
  0
SPLINE
  5
D4
330
1F
100
AcDbEntity
  8
0
  6
Continuous
 62
     7
370
    25
100
AcDbSpline
210
0.0
220
0.0
230
1.0
 70
     8
 71
     3
 72
    23
 73
    19
 74
     0
 42
0.000000001
 43
0.00000001
 40
0.0
 40
0.0
 40
0.0
 40
0.0
 40
0.0705921865358075
 40
0.1385012886049303
 40
0.2037899961427016
 40
0.2667875726696014
 40
0.3290979656467185
 40
0.391174524603966
 40
0.4531677986176575
 40
0.5157967602265847
 40
0.5779688050530403
 40
0.6389663383752915
 40
0.698381066162843
 40
0.7573204555574266
 40
0.8164122397216688
 40
0.876279358230831
 40
0.9368234656501931
 40
1.0
 40
1.0
 40
1.0
 40
1.0
 10
72.62200457318973
 20
45.83617518140279
 30
0.0
 10
72.62166670873513
 20
45.8476014992406
 30
0.0
 10
72.62100382145778
 20
45.87001984073431
 30
0.0
 10
72.6172598293388
 20
45.90286929694953
 30
0.0
 10
72.61016599071841
 20
45.93387523063523
 30
0.0
 10
72.60098994716215
 20
45.96339178011938
 30
0.0
 10
72.58849612176533
 20
45.99111130546687
 30
0.0
 10
72.573499989221
 20
46.01735000409521
 30
0.0
 10
72.55567056794821
 20
46.04184751204214
 30
0.0
 10
72.53520665161216
 20
46.06417361057432
 30
0.0
 10
72.51312889733228
 20
46.08467448300868
 30
0.0
 10
72.48933997359362
 20
46.10230858108363
 30
0.0
 10
72.46456667361282
 20
46.11753634219196
 30
0.0
 10
72.43857615842899
 20
46.12991324289494
 30
0.0
 10
72.4113850999543
 20
46.1395521211928
 30
0.0
 10
72.38311676909822
 20
46.14652415413548
 30
0.0
 10
72.35358208834316
 20
46.15040435333533
 30
0.0
 10
72.33355386986437
 20
46.1510498783441
 30
0.0
 10
72.32332668857434
 20
46.15137950832587
 30
0.0
  0
LINE
  5
D5
330
1F
100
AcDbEntity
  8
0
  6
Continuous
 62
     7
370
    25
100
AcDbLine
 10
72.7104661117
 20
40.0453964736
 30
0.0
 11
72.7104661117
 21
40.9806808037
 31
0.0
  0
LINE
  5
D6
330
1F
100
AcDbEntity
  8
0
  6
Continuous
 62
     7
370
    25
100
AcDbLine
 10
55.4068573846
 20
57.0147731053
 30
0.0
 11
55.4068573846
 21
36.4012486508
 31
0.0
  0
LINE
  5
D7
330
1F
100
AcDbEntity
  8
0
  6
Continuous
 62
     7
370
    25
100
AcDbLine
 10
52.7104661117
 20
37.958010878
 30
0.0
 11
52.7104661117
 21
55.458010878
 31
0.0
  0
LINE
  5
D8
330
1F
100
AcDbEntity
  8
0
  6
Continuous
 62
     7
370
    25
100
AcDbLine
 10
99.2104661117
 20
53.208010878
 30
0.0
 11
99.2104661117
 21
40.208010878
 31
0.0
  0
LINE
  5
D9
330
1F
100
AcDbEntity
  8
0
  6
Continuous
 62
     7
370
    25
100
AcDbLine
 10
82.7104661117
 20
53.208010878
 30
0.0
 11
82.7104661117
 21
40.208010878
 31
0.0
  0
LINE
  5
DA
330
1F
100
AcDbEntity
  8
0
  6
Continuous
 62
     7
370
    25
100
AcDbLine
 10
88.2104661117
 20
53.208010878
 30
0.0
 11
88.2104661117
 21
40.208010878
 31
0.0
  0
LINE
  5
DB
330
1F
100
AcDbEntity
  8
0
  6
Continuous
 62
     7
370
    25
100
AcDbLine
 10
93.7104661117
 20
53.208010878
 30
0.0
 11
93.7104661117
 21
40.208010878
 31
0.0
  0
LINE
  5
DC
330
1F
100
AcDbEntity
  8
0
  6
Continuous
 62
     7
370
    25
100
AcDbLine
 10
105.7104661117
 20
52.0123857884
 30
0.0
 11
105.7104661117
 21
41.4036359676
 31
0.0
  0
LINE
  5
DD
330
1F
100
AcDbEntity
  8
0
  6
Continuous
 62
     7
370
    25
100
AcDbLine
 10
75.7104661117
 20
37.1817314364
 30
0.0
 11
75.7104661117
 21
35.708010878
 31
0.0
  0
LINE
  5
DE
330
1F
100
AcDbEntity
  8
0
  6
Continuous
 62
     7
370
    25
100
AcDbLine
 10
69.7104661117
 20
35.708010878
 30
0.0
 11
69.7104661117
 21
37.1817314364
 31
0.0
  0
LINE
  5
DF
330
1F
100
AcDbEntity
  8
0
  6
Continuous
 62
     7
370
    25
100
AcDbLine
 10
69.7104661117
 20
56.2342903197
 30
0.0
 11
69.7104661117
 21
57.708010878
 31
0.0
  0
LINE
  5
E0
330
1F
100
AcDbEntity
  8
0
  6
Continuous
 62
     7
370
    25
100
AcDbLine
 10
75.7104661117
 20
57.708010878
 30
0.0
 11
75.7104661117
 21
56.2342903197
 31
0.0
  0
LINE
  5
E1
330
1F
100
AcDbEntity
  8
0
  6
Continuous
 62
     7
370
    25
100
AcDbLine
 10
72.7104661117
 20
59.0979553568
 30
0.0
 11
72.7104661117
 21
59.1097168002
 31
0.0
  0
LINE
  5
E2
330
1F
100
AcDbEntity
  8
0
  6
Continuous
 62
     7
370
    25
100
AcDbLine
 10
72.7104661117
 20
34.3063049559
 30
0.0
 11
72.7104661117
 21
34.3180663993
 31
0.0
  0
LINE
  5
E3
330
1F
100
AcDbEntity
  8
0
  6
Continuous
 62
     8
370
    25
100
AcDbLine
 10
105.2677781656
 20
40.9069314997
 30
0.0
 11
105.2677781656
 21
52.5090902564
 31
0.0
  0
LINE
  5
E4
330
1F
100
AcDbEntity
  8
0
  6
Continuous
 62
     7
370
    18
100
AcDbLine
 10
53.5916921426
 20
55.9667869642
 30
0.0
 11
69.2104661117
 21
56.4548736508
 31
0.0
  0
LINE
  5
E5
330
1F
100
AcDbEntity
  8
0
  6
Continuous
 62
     7
370
    18
100
AcDbLine
 10
53.5916921426
 20
37.4492347919
 30
0.0
 11
69.2104661117
 21
36.9611481053
 31
0.0
  0
LINE
  5
E6
330
1F
100
AcDbEntity
  8
0
  6
Continuous
 62
     7
370
    18
100
AcDbLine
 10
69.2104661117
 20
35.969885878
 30
0.0
 11
69.2104661117
 21
57.446135878
 31
0.0
  0
LINE
  5
E7
330
1F
100
AcDbEntity
  8
0
  6
CENTERX2
 62
     7
370
    18
100
AcDbLine
 10
106.7104661117
 20
46.708010878
 30
0.0
 11
51.3627222098
 21
46.708010878
 31
0.0
  0
CIRCLE
  5
E8
330
1F
100
AcDbEntity
  8
0
  6
Continuous
 62
     7
370
    25
100
AcDbCircle
 10
131.974612452
 20
46.708010878
 30
0.0
 40
5.304374910449901
  0
CIRCLE
  5
E9
330
1F
100
AcDbEntity
  8
0
  6
Continuous
 62
     7
370
    25
100
AcDbCircle
 10
131.974612452
 20
46.708010878
 30
0.0
 40
5.801079378385474
  0
CIRCLE
  5
EA
330
1F
100
AcDbEntity
  8
0
  6
Continuous
 62
     7
370
    25
100
AcDbCircle
 10
131.974612452
 20
46.708010878
 30
0.0
 40
4.700000000000003
  0
CIRCLE
  5
EB
330
1F
100
AcDbEntity
  8
0
  6
Continuous
 62
     7
370
    25
100
AcDbCircle
 10
131.974612452
 20
46.708010878
 30
0.0
 40
4.5
  0
CIRCLE
  5
EC
330
1F
100
AcDbEntity
  8
0
  6
Continuous
 62
     7
370
    25
100
AcDbCircle
 10
131.974612452
 20
46.708010878
 30
0.0
 40
6.5
  0
SPLINE
  5
ED
330
1F
100
AcDbEntity
  8
0
  6
Continuous
 62
     7
370
    25
100
AcDbSpline
210
0.0
220
0.0
230
1.0
 70
    24
 71
     3
 72
    12
 73
     8
 74
     0
 42
0.000000001
 43
0.00000001
 40
0.0
 40
0.0
 40
0.0
 40
0.0
 40
0.2500000000000001
 40
0.2500000000000001
 40
0.5000000000000001
 40
0.5000000000000001
 40
1.0
 40
1.0
 40
1.0
 40
1.0
 10
137.4746124519586
 20
56.23429031967316
 30
0.0
 10
137.9413791767846
 20
55.96480242544611
 30
0.0
 10
138.4102399284164
 20
55.69410554427908
 30
0.0
 10
139.3377441827816
 20
55.15861071334677
 30
0.0
 10
139.7983941859854
 20
54.89265430999485
 30
0.0
 10
141.1721626689463
 20
54.09950870655317
 30
0.0
 10
142.0771314564759
 20
53.57702473346477
 30
0.0
 10
142.9746124519587
 20
53.0588638391302
 30
0.0
  0
SPLINE
  5
EE
330
1F
100
AcDbEntity
  8
0
  6
Continuous
 62
     7
370
    25
100
AcDbSpline
210
0.0
220
0.0
230
1.0
 70
    24
 71
     3
 72
    12
 73
     8
 74
     0
 42
0.000000001
 43
0.00000001
 40
0.0
 40
0.0
 40
0.0
 40
0.0
 40
0.25
 40
0.25
 40
0.5
 40
0.5
 40
1.0
 40
1.0
 40
1.0
 40
1.0
 10
142.9746124519586
 20
46.70801087804433
 30
0.0
 10
142.9746124519586
 20
47.24554450094927
 30
0.0
 10
142.9746124519586
 20
47.78591124478081
 30
0.0
 10
142.9746124519586
 20
48.86700302959795
 30
0.0
 10
142.9746124519586
 20
49.40182114833997
 30
0.0
 10
142.9746124519586
 20
50.99150678293674
 30
0.0
 10
142.9746124519586
 20
52.03170737357606
 30
0.0
 10
142.9746124519586
 20
53.05886383913021
 30
0.0
  0
ARC
  5
EF
330
1F
100
AcDbEntity
  8
0
  6
Continuous
 62
     7
370
    25
100
AcDbCircle
 10
131.974612452
 20
46.708010878
 30
0.0
 40
11.0
100
AcDbArc
 50
0.0
 51
60.0
  0
ARC
  5
F0
330
1F
100
AcDbEntity
  8
0
  6
Continuous
 62
     7
370
    25
100
AcDbCircle
 10
131.974612452
 20
46.708010878
 30
0.0
 40
11.0
100
AcDbArc
 50
240.0
 51
300.0
  0
ARC
  5
F1
330
1F
100
AcDbEntity
  8
0
  6
Continuous
 62
     7
370
    25
100
AcDbCircle
 10
131.974612452
 20
46.708010878
 30
0.0
 40
11.0
100
AcDbArc
 50
180.0
 51
240.0
  0
ARC
  5
F2
330
1F
100
AcDbEntity
  8
0
  6
Continuous
 62
     7
370
    25
100
AcDbCircle
 10
131.974612452
 20
46.708010878
 30
0.0
 40
11.0
100
AcDbArc
 50
120.0
 51
180.0
  0
ARC
  5
F3
330
1F
100
AcDbEntity
  8
0
  6
Continuous
 62
     7
370
    25
100
AcDbCircle
 10
131.974612452
 20
46.708010878
 30
0.0
 40
11.0
100
AcDbArc
 50
60.0
 51
120.0
  0
ARC
  5
F4
330
1F
100
AcDbEntity
  8
0
  6
Continuous
 62
     7
370
    25
100
AcDbCircle
 10
131.974612452
 20
46.708010878
 30
0.0
 40
11.0
100
AcDbArc
 50
300.0
 51
0.0
  0
SPLINE
  5
F5
330
1F
100
AcDbEntity
  8
0
  6
Continuous
 62
     7
370
    25
100
AcDbSpline
210
0.0
220
0.0
230
1.0
 70
    24
 71
     3
 72
    10
 73
     6
 74
     0
 42
0.000000001
 43
0.00000001
 40
0.0
 40
0.0
 40
0.0
 40
0.0
 40
0.5000000000000001
 40
0.5000000000000001
 40
1.0
 40
1.0
 40
1.0
 40
1.0
 10
142.9746124519586
 20
40.35715791695843
 30
0.0
 10
142.9746124519586
 20
41.3911318293375
 30
0.0
 10
142.9746124519586
 20
42.44853386859764
 30
0.0
 10
142.9746124519586
 20
44.56746092877409
 30
0.0
 10
142.9746124519586
 20
45.63372830056618
 30
0.0
 10
142.9746124519586
 20
46.70801087804433
 30
0.0
  0
SPLINE
  5
F6
330
1F
100
AcDbEntity
  8
0
  6
Continuous
 62
     7
370
    25
100
AcDbSpline
210
0.0
220
0.0
230
1.0
 70
    24
 71
     3
 72
    10
 73
     6
 74
     0
 42
0.000000001
 43
0.00000001
 40
0.0
 40
0.0
 40
0.0
 40
0.0
 40
0.5
 40
0.5
 40
1.0
 40
1.0
 40
1.0
 40
1.0
 10
142.9746124519587
 20
40.35715791695846
 30
0.0
 10
142.0748846970978
 20
39.83769985549215
 30
0.0
 10
141.168584951311
 20
39.31444745329568
 30
0.0
 10
139.3370382017449
 20
38.2570034444003
 30
0.0
 10
138.4116495651824
 20
37.7227300659759
 30
0.0
 10
137.4746124519586
 20
37.1817314364155
 30
0.0
  0
SPLINE
  5
F7
330
1F
100
AcDbEntity
  8
0
  6
Continuous
 62
     7
370
    25
100
AcDbSpline
210
0.0
220
0.0
230
1.0
 70
    24
 71
     3
 72
    10
 73
     6
 74
     0
 42
0.000000001
 43
0.00000001
 40
0.0
 40
0.0
 40
0.0
 40
0.0
 40
0.5
 40
0.5
 40
1.0
 40
1.0
 40
1.0
 40
1.0
 10
131.9746124519587
 20
34.00630495587254
 30
0.0
 10
131.0748846970978
 20
34.52576301733885
 30
0.0
 10
130.1685849513111
 20
35.04901541953532
 30
0.0
 10
128.3370382017449
 20
36.1064594284307
 30
0.0
 10
127.4116495651824
 20
36.6407328068551
 30
0.0
 10
126.4746124519586
 20
37.1817314364155
 30
0.0
  0
SPLINE
  5
F8
330
1F
100
AcDbEntity
  8
0
  6
Continuous
 62
     7
370
    25
100
AcDbSpline
210
0.0
220
0.0
230
1.0
 70
    24
 71
     3
 72
    12
 73
     8
 74
     0
 42
0.000000001
 43
0.00000001
 40
0.0
 40
0.0
 40
0.0
 40
0.0
 40
0.2500000000000002
 40
0.2500000000000002
 40
0.5000000000000002
 40
0.5000000000000002
 40
1.0
 40
1.0
 40
1.0
 40
1.0
 10
137.4746124519586
 20
37.1817314364155
 30
0.0
 10
137.0078457271327
 20
36.91224354218845
 30
0.0
 10
136.5389849755009
 20
36.64154666102142
 30
0.0
 10
135.6114807211356
 20
36.10605183008912
 30
0.0
 10
135.1508307179319
 20
35.8400954267372
 30
0.0
 10
133.777062234971
 20
35.04694982329551
 30
0.0
 10
132.8720934474414
 20
34.52446585020713
 30
0.0
 10
131.9746124519586
 20
34.00630495587255
 30
0.0
  0
SPLINE
  5
F9
330
1F
100
AcDbEntity
  8
0
  6
Continuous
 62
     7
370
    25
100
AcDbSpline
210
0.0
220
0.0
230
1.0
 70
    24
 71
     3
 72
    12
 73
     8
 74
     0
 42
0.000000001
 43
0.00000001
 40
0.0
 40
0.0
 40
0.0
 40
0.0
 40
0.2500000000000002
 40
0.2500000000000002
 40
0.5000000000000001
 40
0.5000000000000001
 40
1.0
 40
1.0
 40
1.0
 40
1.0
 10
126.4746124519586
 20
56.23429031967316
 30
0.0
 10
126.9413791767846
 20
56.50377821390019
 30
0.0
 10
127.4102399284164
 20
56.77447509506724
 30
0.0
 10
128.3377441827816
 20
57.30996992599953
 30
0.0
 10
128.7983941859854
 20
57.57592632935145
 30
0.0
 10
130.1721626689463
 20
58.36907193279314
 30
0.0
 10
131.0771314564759
 20
58.89155590588152
 30
0.0
 10
131.9746124519587
 20
59.4097168002161
 30
0.0
  0
SPLINE
  5
FA
330
1F
100
AcDbEntity
  8
0
  6
Continuous
 62
     7
370
    25
100
AcDbSpline
210
0.0
220
0.0
230
1.0
 70
    24
 71
     3
 72
    10
 73
     6
 74
     0
 42
0.000000001
 43
0.00000001
 40
0.0
 40
0.0
 40
0.0
 40
0.0
 40
0.5
 40
0.5
 40
1.0
 40
1.0
 40
1.0
 40
1.0
 10
131.9746124519586
 20
59.40971680021612
 30
0.0
 10
132.8743402068195
 20
58.8902587387498
 30
0.0
 10
133.7806399526062
 20
58.36700633655333
 30
0.0
 10
135.6121867021724
 20
57.30956232765795
 30
0.0
 10
136.5375753387349
 20
56.77528894923356
 30
0.0
 10
137.4746124519586
 20
56.23429031967316
 30
0.0
  0
SPLINE
  5
FB
330
1F
100
AcDbEntity
  8
0
  6
Continuous
 62
     7
370
    25
100
AcDbSpline
210
0.0
220
0.0
230
1.0
 70
    24
 71
     3
 72
    10
 73
     6
 74
     0
 42
0.000000001
 43
0.00000001
 40
0.0
 40
0.0
 40
0.0
 40
0.0
 40
0.5
 40
0.5
 40
1.0
 40
1.0
 40
1.0
 40
1.0
 10
120.9746124519586
 20
40.35715791695844
 30
0.0
 10
120.9746124519586
 20
41.3911318293375
 30
0.0
 10
120.9746124519586
 20
42.44853386859765
 30
0.0
 10
120.9746124519587
 20
44.56746092877409
 30
0.0
 10
120.9746124519586
 20
45.63372830056618
 30
0.0
 10
120.9746124519586
 20
46.70801087804433
 30
0.0
  0
SPLINE
  5
FC
330
1F
100
AcDbEntity
  8
0
  6
Continuous
 62
     7
370
    25
100
AcDbSpline
210
0.0
220
0.0
230
1.0
 70
    24
 71
     3
 72
    12
 73
     8
 74
     0
 42
0.000000001
 43
0.00000001
 40
0.0
 40
0.0
 40
0.0
 40
0.0
 40
0.25
 40
0.25
 40
0.5
 40
0.5
 40
1.0
 40
1.0
 40
1.0
 40
1.0
 10
126.4746124519586
 20
37.1817314364155
 30
0.0
 10
126.0078457271327
 20
37.45121933064255
 30
0.0
 10
125.5389849755009
 20
37.72191621180958
 30
0.0
 10
124.6114807211357
 20
38.25741104274188
 30
0.0
 10
124.1508307179319
 20
38.5233674460938
 30
0.0
 10
122.777062234971
 20
39.31651304953549
 30
0.0
 10
121.8720934474414
 20
39.83899702262389
 30
0.0
 10
120.9746124519586
 20
40.35715791695846
 30
0.0
  0
SPLINE
  5
FD
330
1F
100
AcDbEntity
  8
0
  6
Continuous
 62
     7
370
    25
100
AcDbSpline
210
0.0
220
0.0
230
1.0
 70
    24
 71
     3
 72
    12
 73
     8
 74
     0
 42
0.000000001
 43
0.00000001
 40
0.0
 40
0.0
 40
0.0
 40
0.0
 40
0.2499999999999999
 40
0.2499999999999999
 40
0.4999999999999999
 40
0.4999999999999999
 40
1.0
 40
1.0
 40
1.0
 40
1.0
 10
120.9746124519586
 20
46.70801087804433
 30
0.0
 10
120.9746124519586
 20
47.24554450094927
 30
0.0
 10
120.9746124519586
 20
47.78591124478081
 30
0.0
 10
120.9746124519587
 20
48.86700302959795
 30
0.0
 10
120.9746124519586
 20
49.40182114833998
 30
0.0
 10
120.9746124519586
 20
50.99150678293674
 30
0.0
 10
120.9746124519586
 20
52.03170737357606
 30
0.0
 10
120.9746124519586
 20
53.05886383913021
 30
0.0
  0
SPLINE
  5
FE
330
1F
100
AcDbEntity
  8
0
  6
Continuous
 62
     7
370
    25
100
AcDbSpline
210
0.0
220
0.0
230
1.0
 70
    24
 71
     3
 72
    10
 73
     6
 74
     0
 42
0.000000001
 43
0.00000001
 40
0.0
 40
0.0
 40
0.0
 40
0.0
 40
0.5
 40
0.5
 40
1.0
 40
1.0
 40
1.0
 40
1.0
 10
120.9746124519586
 20
53.05886383913019
 30
0.0
 10
121.8743402068195
 20
53.57832190059651
 30
0.0
 10
122.7806399526063
 20
54.10157430279297
 30
0.0
 10
124.6121867021724
 20
55.15901831168834
 30
0.0
 10
125.5375753387349
 20
55.69329169011274
 30
0.0
 10
126.4746124519586
 20
56.23429031967316
 30
0.0
  0
INSERT
  5
10A
330
1F
100
AcDbEntity
  8
0
  6
Continuous
 62
     7
370
    18
100
AcDbBlockReference
  2
SW_CENTERMARKSYMBOL_0
 10
131.974612452
 20
46.708010878
 30
0.0
  0
INSERT
  5
116
330
1F
100
AcDbEntity
  8
0
  6
Continuous
 62
     7
370
    18
100
AcDbBlockReference
  2
SW_CENTERMARKSYMBOL_1
 10
131.974612452
 20
46.708010878
 30
0.0
  0
LINE
  5
117
330
1F
100
AcDbEntity
  8
0
  6
Continuous
 62
     7
370
    25
100
AcDbLine
 10
69.7104661117
 20
92.2190953721
 30
0.0
 11
55.4068573846
 21
91.7721075993
 31
0.0
  0
LINE
  5
118
330
1F
100
AcDbEntity
  8
0
  6
Continuous
 62
     7
370
    25
100
AcDbLine
 10
55.4068573846
 20
71.1585831448
 30
0.0
 11
69.7104661117
 21
70.7115953721
 31
0.0
  0
LINE
  5
119
330
1F
100
AcDbEntity
  8
0
  6
Continuous
 62
     7
370
    25
100
AcDbLine
 10
55.4068573846
 20
91.7721075993
 30
0.0
 11
52.7104661117
 21
90.2153453721
 31
0.0
  0
LINE
  5
11A
330
1F
100
AcDbEntity
  8
0
  6
Continuous
 62
     7
370
    25
100
AcDbLine
 10
52.7104661117
 20
72.7153453721
 30
0.0
 11
55.4068573846
 21
71.1585831448
 31
0.0
  0
LINE
  5
11B
330
1F
100
AcDbEntity
  8
0
  6
Continuous
 62
     7
370
    25
100
AcDbLine
 10
99.2104661117
 20
74.9653453721
 30
0.0
 11
105.2677781656
 21
75.6642659937
 31
0.0
  0
LINE
  5
11C
330
1F
100
AcDbEntity
  8
0
  6
Continuous
 62
     7
370
    25
100
AcDbLine
 10
105.2677781656
 20
87.2664247504
 30
0.0
 11
99.2104661117
 21
87.9653453721
 31
0.0
  0
LINE
  5
11D
330
1F
100
AcDbEntity
  8
0
  6
Continuous
 62
     7
370
    25
100
AcDbLine
 10
82.7104661117
 20
87.9653453721
 30
0.0
 11
75.7104661117
 21
87.9653453721
 31
0.0
  0
LINE
  5
11E
330
1F
100
AcDbEntity
  8
0
  6
Continuous
 62
     7
370
    25
100
AcDbLine
 10
75.7104661117
 20
74.9653453721
 30
0.0
 11
82.7104661117
 21
74.9653453721
 31
0.0
  0
LINE
  5
11F
330
1F
100
AcDbEntity
  8
0
  6
Continuous
 62
     7
370
    25
100
AcDbLine
 10
82.7104661117
 20
74.9653453721
 30
0.0
 11
88.2104661117
 21
75.7153453721
 31
0.0
  0
LINE
  5
120
330
1F
100
AcDbEntity
  8
0
  6
Continuous
 62
     7
370
    25
100
AcDbLine
 10
88.2104661117
 20
87.2153453721
 30
0.0
 11
82.7104661117
 21
87.9653453721
 31
0.0
  0
LINE
  5
121
330
1F
100
AcDbEntity
  8
0
  6
Continuous
 62
     7
370
    25
100
AcDbLine
 10
93.7104661117
 20
74.9653453721
 30
0.0
 11
99.2104661117
 21
75.7153453721
 31
0.0
  0
LINE
  5
122
330
1F
100
AcDbEntity
  8
0
  6
Continuous
 62
     7
370
    25
100
AcDbLine
 10
99.2104661117
 20
87.2153453721
 30
0.0
 11
93.7104661117
 21
87.9653453721
 31
0.0
  0
LINE
  5
123
330
1F
100
AcDbEntity
  8
0
  6
Continuous
 62
     7
370
    25
100
AcDbLine
 10
88.2104661117
 20
74.9653453721
 30
0.0
 11
93.7104661117
 21
75.7153453721
 31
0.0
  0
LINE
  5
124
330
1F
100
AcDbEntity
  8
0
  6
Continuous
 62
     7
370
    25
100
AcDbLine
 10
93.7104661117
 20
87.2153453721
 30
0.0
 11
88.2104661117
 21
87.9653453721
 31
0.0
  0
ARC
  5
125
330
1F
100
AcDbEntity
  8
0
  6
Continuous
 62
     7
370
    25
100
AcDbCircle
 10
105.2104661117
 20
76.1609704616
 30
0.0
 40
0.5
100
AcDbArc
 50
276.5819446552
 51
0.0
  0
ARC
  5
126
330
1F
100
AcDbEntity
  8
0
  6
Continuous
 62
     7
370
    25
100
AcDbCircle
 10
105.2104661117
 20
86.7697202825
 30
0.0
 40
0.5
100
AcDbArc
 50
0.0
 51
83.4180553448
  0
LINE
  5
127
330
1F
100
AcDbEntity
  8
0
  6
Continuous
 62
     7
370
    25
100
AcDbLine
 10
72.7908508694
 20
92.4653453721
 30
0.0
 11
74.7279857394
 21
92.4653453721
 31
0.0
  0
SPLINE
  5
128
330
1F
100
AcDbEntity
  8
0
  6
Continuous
 62
     7
370
    25
100
AcDbSpline
210
0.0
220
0.0
230
1.0
 70
     8
 71
     3
 72
    12
 73
     8
 74
     0
 42
0.000000001
 43
0.00000001
 40
0.0
 40
0.0
 40
0.0
 40
0.0
 40
0.2500000000000001
 40
0.2500000000000001
 40
0.5000000000000001
 40
0.5000000000000001
 40
1.0
 40
1.0
 40
1.0
 40
1.0
 10
75.71046611165127
 20
86.96534537205633
 30
0.0
 10
75.71046611165127
 20
87.43211209688232
 30
0.0
 10
75.68724395732411
 20
87.90097284851404
 30
0.0
 10
75.59737680746335
 20
88.8284771028793
 30
0.0
 10
75.53081821837567
 20
89.28912710608311
 30
0.0
 10
75.27410874425398
 20
90.66289558904398
 30
0.0
 10
75.02714607123158
 20
91.56786437657354
 30
0.0
 10
74.72798573940398
 20
92.46534537205635
 30
0.0
  0
SPLINE
  5
129
330
1F
100
AcDbEntity
  8
0
  6
Continuous
 62
     7
370
    25
100
AcDbSpline
210
0.0
220
0.0
230
1.0
 70
     8
 71
     3
 72
    10
 73
     6
 74
     0
 42
0.000000001
 43
0.00000001
 40
0.0
 40
0.0
 40
0.0
 40
0.0
 40
0.5
 40
0.5
 40
1.0
 40
1.0
 40
1.0
 40
1.0
 10
74.72798573940413
 20
81.46534537205628
 30
0.0
 10
75.02789499102444
 20
82.36507312691718
 30
0.0
 10
75.27497565039037
 20
83.27137287270394
 30
0.0
 10
75.61683046442276
 20
85.10291962227004
 30
0.0
 10
75.71046611165127
 20
86.02830825883257
 30
0.0
 10
75.71046611165127
 20
86.96534537205633
 30
0.0
  0
LINE
  5
12A
330
1F
100
AcDbEntity
  8
0
  6
Continuous
 62
     7
370
    25
100
AcDbLine
 10
72.7908508694
 20
81.4653453721
 30
0.0
 11
74.7279857394
 21
81.4653453721
 31
0.0
  0
SPLINE
  5
12B
330
1F
100
AcDbEntity
  8
0
  6
Continuous
 62
     7
370
    25
100
AcDbSpline
210
0.0
220
0.0
230
1.0
 70
     8
 71
     3
 72
     8
 73
     4
 74
     0
 42
0.000000001
 43
0.00000001
 40
0.0
 40
0.0
 40
0.0
 40
0.0
 40
1.0
 40
1.0
 40
1.0
 40
1.0
 10
72.7908508693806
 20
81.46534537205632
 30
0.0
 10
72.7630191963235
 20
81.64525213481672
 30
0.0
 10
72.73619813645745
 20
81.82524544932508
 30
0.0
 10
72.71046611165127
 20
82.00533203185019
 30
0.0
  0
SPLINE
  5
12C
330
1F
100
AcDbEntity
  8
0
  6
Continuous
 62
     7
370
    25
100
AcDbSpline
210
0.0
220
0.0
230
1.0
 70
     8
 71
     3
 72
     8
 73
     4
 74
     0
 42
0.000000001
 43
0.00000001
 40
0.0
 40
0.0
 40
0.0
 40
0.0
 40
1.0
 40
1.0
 40
1.0
 40
1.0
 10
72.71046611165127
 20
82.0053320318502
 30
0.0
 10
72.68472516181795
 20
81.82518298717349
 30
0.0
 10
72.65790361755704
 20
81.64519131135687
 30
0.0
 10
72.63008135392194
 20
81.46534537205632
 30
0.0
  0
LINE
  5
12D
330
1F
100
AcDbEntity
  8
0
  6
Continuous
 62
     7
370
    25
100
AcDbLine
 10
70.6929464839
 20
81.4653453721
 30
0.0
 11
72.6300813539
 21
81.4653453721
 31
0.0
  0
SPLINE
  5
12E
330
1F
100
AcDbEntity
  8
0
  6
Continuous
 62
     7
370
    25
100
AcDbSpline
210
0.0
220
0.0
230
1.0
 70
     8
 71
     3
 72
    10
 73
     6
 74
     0
 42
0.000000001
 43
0.00000001
 40
0.0
 40
0.0
 40
0.0
 40
0.0
 40
0.5
 40
0.5
 40
1.0
 40
1.0
 40
1.0
 40
1.0
 10
70.6929464838984
 20
81.46534537205628
 30
0.0
 10
70.39303723227809
 20
82.36507312691718
 30
0.0
 10
70.14595657291216
 20
83.27137287270394
 30
0.0
 10
69.80410175887977
 20
85.10291962227004
 30
0.0
 10
69.71046611165126
 20
86.02830825883257
 30
0.0
 10
69.71046611165126
 20
86.96534537205633
 30
0.0
  0
SPLINE
  5
12F
330
1F
100
AcDbEntity
  8
0
  6
Continuous
 62
     7
370
    25
100
AcDbSpline
210
0.0
220
0.0
230
1.0
 70
     8
 71
     3
 72
    12
 73
     8
 74
     0
 42
0.000000001
 43
0.00000001
 40
0.0
 40
0.0
 40
0.0
 40
0.0
 40
0.2500000000000001
 40
0.2500000000000001
 40
0.5000000000000001
 40
0.5000000000000001
 40
1.0
 40
1.0
 40
1.0
 40
1.0
 10
69.71046611165126
 20
86.96534537205633
 30
0.0
 10
69.71046611165126
 20
87.43211209688232
 30
0.0
 10
69.73368826597842
 20
87.90097284851404
 30
0.0
 10
69.82355541583918
 20
88.8284771028793
 30
0.0
 10
69.89011400492687
 20
89.28912710608311
 30
0.0
 10
70.14682347904855
 20
90.66289558904398
 30
0.0
 10
70.39378615207096
 20
91.56786437657354
 30
0.0
 10
70.69294648389855
 20
92.46534537205635
 30
0.0
  0
LINE
  5
130
330
1F
100
AcDbEntity
  8
0
  6
Continuous
 62
     7
370
    25
100
AcDbLine
 10
70.6929464839
 20
92.4653453721
 30
0.0
 11
72.6300813539
 21
92.4653453721
 31
0.0
  0
SPLINE
  5
131
330
1F
100
AcDbEntity
  8
0
  6
Continuous
 62
     7
370
    25
100
AcDbSpline
210
0.0
220
0.0
230
1.0
 70
     8
 71
     3
 72
     8
 73
     4
 74
     0
 42
0.000000001
 43
0.00000001
 40
0.0
 40
0.0
 40
0.0
 40
0.0
 40
1.0
 40
1.0
 40
1.0
 40
1.0
 10
72.63008135392194
 20
92.46534537205632
 30
0.0
 10
72.65791302697903
 20
92.28543860929592
 30
0.0
 10
72.68473408684508
 20
92.10544529478756
 30
0.0
 10
72.71046611165127
 20
91.92535871226244
 30
0.0
  0
SPLINE
  5
132
330
1F
100
AcDbEntity
  8
0
  6
Continuous
 62
     7
370
    25
100
AcDbSpline
210
0.0
220
0.0
230
1.0
 70
     8
 71
     3
 72
     8
 73
     4
 74
     0
 42
0.000000001
 43
0.00000001
 40
0.0
 40
0.0
 40
0.0
 40
0.0
 40
1.0
 40
1.0
 40
1.0
 40
1.0
 10
72.71046611165127
 20
91.92535871226244
 30
0.0
 10
72.73620706148458
 20
92.10550775693915
 30
0.0
 10
72.76302860574549
 20
92.28549943275578
 30
0.0
 10
72.7908508693806
 20
92.46534537205632
 30
0.0
  0
LINE
  5
133
330
1F
100
AcDbEntity
  8
0
  6
Continuous
 62
     7
370
    25
100
AcDbLine
 10
69.7104661117
 20
75.9653453721
 30
0.0
 11
69.7104661117
 21
86.9653453721
 31
0.0
  0
SPLINE
  5
134
330
1F
100
AcDbEntity
  8
0
  6
Continuous
 62
     7
370
    25
100
AcDbSpline
210
0.0
220
0.0
230
1.0
 70
     8
 71
     3
 72
    12
 73
     8
 74
     0
 42
0.000000001
 43
0.00000001
 40
0.0
 40
0.0
 40
0.0
 40
0.0
 40
0.2500000000000002
 40
0.2500000000000002
 40
0.5000000000000001
 40
0.5000000000000001
 40
1.0
 40
1.0
 40
1.0
 40
1.0
 10
69.71046611165126
 20
75.96534537205632
 30
0.0
 10
69.71046611165126
 20
76.43211209688232
 30
0.0
 10
69.73368826597842
 20
76.90097284851404
 30
0.0
 10
69.82355541583918
 20
77.82847710287929
 30
0.0
 10
69.89011400492687
 20
78.28912710608311
 30
0.0
 10
70.14682347904855
 20
79.662895589044
 30
0.0
 10
70.39378615207096
 20
80.56786437657354
 30
0.0
 10
70.69294648389855
 20
81.46534537205635
 30
0.0
  0
SPLINE
  5
135
330
1F
100
AcDbEntity
  8
0
  6
Continuous
 62
     7
370
    25
100
AcDbSpline
210
0.0
220
0.0
230
1.0
 70
     8
 71
     3
 72
    12
 73
     8
 74
     0
 42
0.000000001
 43
0.00000001
 40
0.0
 40
0.0
 40
0.0
 40
0.0
 40
0.2500000000000002
 40
0.2500000000000002
 40
0.5000000000000001
 40
0.5000000000000001
 40
1.0
 40
1.0
 40
1.0
 40
1.0
 10
75.71046611165127
 20
75.96534537205632
 30
0.0
 10
75.71046611165127
 20
76.43211209688232
 30
0.0
 10
75.68724395732411
 20
76.90097284851404
 30
0.0
 10
75.59737680746335
 20
77.82847710287929
 30
0.0
 10
75.53081821837567
 20
78.28912710608311
 30
0.0
 10
75.27410874425398
 20
79.662895589044
 30
0.0
 10
75.02714607123158
 20
80.56786437657354
 30
0.0
 10
74.72798573940398
 20
81.46534537205635
 30
0.0
  0
LINE
  5
136
330
1F
100
AcDbEntity
  8
0
  6
Continuous
 62
     7
370
    25
100
AcDbLine
 10
75.7104661117
 20
86.9653453721
 30
0.0
 11
75.7104661117
 21
75.9653453721
 31
0.0
  0
LINE
  5
137
330
1F
100
AcDbEntity
  8
0
  6
Continuous
 62
     7
370
    25
100
AcDbLine
 10
72.7104661117
 20
80.9253587123
 30
0.0
 11
72.7104661117
 21
82.0053320319
 31
0.0
  0
SPLINE
  5
138
330
1F
100
AcDbEntity
  8
0
  6
Continuous
 62
     7
370
    25
100
AcDbSpline
210
0.0
220
0.0
230
1.0
 70
     8
 71
     3
 72
     8
 73
     4
 74
     0
 42
0.000000001
 43
0.00000001
 40
0.0
 40
0.0
 40
0.0
 40
0.0
 40
1.0
 40
1.0
 40
1.0
 40
1.0
 10
72.63008135392194
 20
81.46534537205632
 30
0.0
 10
72.65791302697903
 20
81.28543860929592
 30
0.0
 10
72.68473408684508
 20
81.10544529478756
 30
0.0
 10
72.71046611165127
 20
80.92535871226245
 30
0.0
  0
SPLINE
  5
139
330
1F
100
AcDbEntity
  8
0
  6
Continuous
 62
     7
370
    25
100
AcDbSpline
210
0.0
220
0.0
230
1.0
 70
     8
 71
     3
 72
     8
 73
     4
 74
     0
 42
0.000000001
 43
0.00000001
 40
0.0
 40
0.0
 40
0.0
 40
0.0
 40
1.0
 40
1.0
 40
1.0
 40
1.0
 10
72.71046611165127
 20
80.92535871226245
 30
0.0
 10
72.73620706148458
 20
81.10550775693916
 30
0.0
 10
72.76302860574549
 20
81.28549943275578
 30
0.0
 10
72.7908508693806
 20
81.46534537205632
 30
0.0
  0
SPLINE
  5
13A
330
1F
100
AcDbEntity
  8
0
  6
Continuous
 62
     7
370
    25
100
AcDbSpline
210
0.0
220
0.0
230
1.0
 70
     8
 71
     3
 72
    10
 73
     6
 74
     0
 42
0.000000001
 43
0.00000001
 40
0.0
 40
0.0
 40
0.0
 40
0.0
 40
0.5
 40
0.5
 40
1.0
 40
1.0
 40
1.0
 40
1.0
 10
74.72798573940413
 20
70.46534537205629
 30
0.0
 10
75.02789499102444
 20
71.36507312691718
 30
0.0
 10
75.27497565039037
 20
72.27137287270392
 30
0.0
 10
75.61683046442276
 20
74.10291962227005
 30
0.0
 10
75.71046611165127
 20
75.02830825883257
 30
0.0
 10
75.71046611165127
 20
75.96534537205632
 30
0.0
  0
LINE
  5
13B
330
1F
100
AcDbEntity
  8
0
  6
Continuous
 62
     7
370
    25
100
AcDbLine
 10
72.7908508694
 20
70.4653453721
 30
0.0
 11
74.7279857394
 21
70.4653453721
 31
0.0
  0
SPLINE
  5
13C
330
1F
100
AcDbEntity
  8
0
  6
Continuous
 62
     7
370
    25
100
AcDbSpline
210
0.0
220
0.0
230
1.0
 70
     8
 71
     3
 72
     8
 73
     4
 74
     0
 42
0.000000001
 43
0.00000001
 40
0.0
 40
0.0
 40
0.0
 40
0.0
 40
1.0
 40
1.0
 40
1.0
 40
1.0
 10
72.7908508693806
 20
70.46534537205633
 30
0.0
 10
72.7630191963235
 20
70.64525213481672
 30
0.0
 10
72.73619813645746
 20
70.82524544932508
 30
0.0
 10
72.71046611165127
 20
71.00533203185019
 30
0.0
  0
SPLINE
  5
13D
330
1F
100
AcDbEntity
  8
0
  6
Continuous
 62
     7
370
    25
100
AcDbSpline
210
0.0
220
0.0
230
1.0
 70
     8
 71
     3
 72
     8
 73
     4
 74
     0
 42
0.000000001
 43
0.00000001
 40
0.0
 40
0.0
 40
0.0
 40
0.0
 40
1.0
 40
1.0
 40
1.0
 40
1.0
 10
72.71046611165126
 20
71.0053320318502
 30
0.0
 10
72.68472516181795
 20
70.82518298717349
 30
0.0
 10
72.65790361755704
 20
70.64519131135687
 30
0.0
 10
72.63008135392194
 20
70.46534537205633
 30
0.0
  0
LINE
  5
13E
330
1F
100
AcDbEntity
  8
0
  6
Continuous
 62
     7
370
    25
100
AcDbLine
 10
70.6929464839
 20
70.4653453721
 30
0.0
 11
72.6300813539
 21
70.4653453721
 31
0.0
  0
SPLINE
  5
13F
330
1F
100
AcDbEntity
  8
0
  6
Continuous
 62
     7
370
    25
100
AcDbSpline
210
0.0
220
0.0
230
1.0
 70
     8
 71
     3
 72
    10
 73
     6
 74
     0
 42
0.000000001
 43
0.00000001
 40
0.0
 40
0.0
 40
0.0
 40
0.0
 40
0.5
 40
0.5
 40
1.0
 40
1.0
 40
1.0
 40
1.0
 10
70.6929464838984
 20
70.46534537205629
 30
0.0
 10
70.39303723227809
 20
71.36507312691718
 30
0.0
 10
70.14595657291216
 20
72.27137287270392
 30
0.0
 10
69.80410175887977
 20
74.10291962227005
 30
0.0
 10
69.71046611165126
 20
75.02830825883257
 30
0.0
 10
69.71046611165126
 20
75.96534537205632
 30
0.0
  0
LINE
  5
140
330
1F
100
AcDbEntity
  8
0
  6
Continuous
 62
     7
370
    25
100
AcDbLine
 10
55.4068573846
 20
81.4653453721
 30
0.0
 11
55.4068573846
 21
71.1585831448
 31
0.0
  0
LINE
  5
141
330
1F
100
AcDbEntity
  8
0
  6
Continuous
 62
     7
370
    25
100
AcDbLine
 10
55.4068573846
 20
91.7721075993
 30
0.0
 11
55.4068573846
 21
81.4653453721
 31
0.0
  0
LINE
  5
142
330
1F
100
AcDbEntity
  8
0
  6
Continuous
 62
     7
370
    25
100
AcDbLine
 10
52.7104661117
 20
72.7153453721
 30
0.0
 11
52.7104661117
 21
90.2153453721
 31
0.0
  0
SPLINE
  5
143
330
1F
100
AcDbEntity
  8
0
  6
Continuous
 62
     7
370
    25
100
AcDbSpline
210
0.0
220
0.0
230
1.0
 70
    24
 71
     3
 72
    12
 73
     8
 74
     0
 42
0.000000001
 43
0.00000001
 40
0.0
 40
0.0
 40
0.0
 40
0.0
 40
0.25
 40
0.25
 40
0.5
 40
0.5
 40
1.0
 40
1.0
 40
1.0
 40
1.0
 10
75.71046611165126
 20
92.46534537205632
 30
0.0
 10
75.71046611165126
 20
92.46534537205632
 30
0.0
 10
75.68752191709329
 20
92.46534537205632
 30
0.0
 10
75.59666521622015
 20
92.46534537205632
 30
0.0
 10
75.5293966037902
 20
92.46534537205632
 30
0.0
 10
75.27127695794785
 20
92.46534537205632
 30
0.0
 10
75.0245002703476
 20
92.46534537205632
 30
0.0
 10
74.7279857394038
 20
92.46534537205632
 30
0.0
  0
LINE
  5
144
330
1F
100
AcDbEntity
  8
0
  6
Continuous
 62
     7
370
    25
100
AcDbLine
 10
75.7104661117
 20
92.4653453721
 30
0.0
 11
75.7104661117
 21
86.9653453721
 31
0.0
  0
SPLINE
  5
145
330
1F
100
AcDbEntity
  8
0
  6
Continuous
 62
     7
370
    25
100
AcDbSpline
210
0.0
220
0.0
230
1.0
 70
    24
 71
     3
 72
    12
 73
     8
 74
     0
 42
0.000000001
 43
0.00000001
 40
0.0
 40
0.0
 40
0.0
 40
0.0
 40
0.25
 40
0.25
 40
0.5
 40
0.5
 40
1.0
 40
1.0
 40
1.0
 40
1.0
 10
69.71046611165127
 20
92.46534537205632
 30
0.0
 10
69.71046611165127
 20
92.46534537205632
 30
0.0
 10
69.73341030620924
 20
92.46534537205632
 30
0.0
 10
69.82426700708238
 20
92.46534537205632
 30
0.0
 10
69.89153561951234
 20
92.46534537205632
 30
0.0
 10
70.14965526535468
 20
92.46534537205632
 30
0.0
 10
70.39643195295493
 20
92.46534537205632
 30
0.0
 10
70.69294648389871
 20
92.46534537205632
 30
0.0
  0
LINE
  5
146
330
1F
100
AcDbEntity
  8
0
  6
Continuous
 62
     7
370
    25
100
AcDbLine
 10
69.7104661117
 20
92.4653453721
 30
0.0
 11
69.7104661117
 21
86.9653453721
 31
0.0
  0
SPLINE
  5
147
330
1F
100
AcDbEntity
  8
0
  6
Continuous
 62
     7
370
    25
100
AcDbSpline
210
0.0
220
0.0
230
1.0
 70
    24
 71
     3
 72
    12
 73
     8
 74
     0
 42
0.000000001
 43
0.00000001
 40
0.0
 40
0.0
 40
0.0
 40
0.0
 40
0.2499999999999999
 40
0.2499999999999999
 40
0.4999999999999999
 40
0.4999999999999999
 40
1.0
 40
1.0
 40
1.0
 40
1.0
 10
69.71046611165127
 20
70.46534537205633
 30
0.0
 10
69.71046611165127
 20
70.46534537205633
 30
0.0
 10
69.73341030620924
 20
70.46534537205633
 30
0.0
 10
69.82426700708238
 20
70.46534537205633
 30
0.0
 10
69.89153561951234
 20
70.46534537205633
 30
0.0
 10
70.14965526535468
 20
70.46534537205633
 30
0.0
 10
70.39643195295493
 20
70.46534537205633
 30
0.0
 10
70.69294648389871
 20
70.46534537205633
 30
0.0
  0
LINE
  5
148
330
1F
100
AcDbEntity
  8
0
  6
Continuous
 62
     7
370
    25
100
AcDbLine
 10
69.7104661117
 20
70.4653453721
 30
0.0
 11
69.7104661117
 21
75.9653453721
 31
0.0
  0
SPLINE
  5
149
330
1F
100
AcDbEntity
  8
0
  6
Continuous
 62
     7
370
    25
100
AcDbSpline
210
0.0
220
0.0
230
1.0
 70
    24
 71
     3
 72
    12
 73
     8
 74
     0
 42
0.000000001
 43
0.00000001
 40
0.0
 40
0.0
 40
0.0
 40
0.0
 40
0.2499999999999999
 40
0.2499999999999999
 40
0.4999999999999999
 40
0.4999999999999999
 40
1.0
 40
1.0
 40
1.0
 40
1.0
 10
75.71046611165126
 20
70.46534537205633
 30
0.0
 10
75.71046611165126
 20
70.46534537205633
 30
0.0
 10
75.68752191709329
 20
70.46534537205633
 30
0.0
 10
75.59666521622015
 20
70.46534537205633
 30
0.0
 10
75.5293966037902
 20
70.46534537205633
 30
0.0
 10
75.27127695794785
 20
70.46534537205633
 30
0.0
 10
75.0245002703476
 20
70.46534537205633
 30
0.0
 10
74.7279857394038
 20
70.46534537205633
 30
0.0
  0
LINE
  5
14A
330
1F
100
AcDbEntity
  8
0
  6
Continuous
 62
     7
370
    25
100
AcDbLine
 10
75.7104661117
 20
75.9653453721
 30
0.0
 11
75.7104661117
 21
70.4653453721
 31
0.0
  0
SPLINE
  5
14B
330
1F
100
AcDbEntity
  8
0
  6
Continuous
 62
     7
370
    25
100
AcDbSpline
210
0.0
220
0.0
230
1.0
 70
    24
 71
     3
 72
     8
 73
     4
 74
     0
 42
0.000000001
 43
0.00000001
 40
0.0
 40
0.0
 40
0.0
 40
0.0
 40
1.0
 40
1.0
 40
1.0
 40
1.0
 10
72.71046611165127
 20
92.46534537205632
 30
0.0
 10
72.68472562108165
 20
92.46534537205632
 30
0.0
 10
72.65790410143224
 20
92.46534537205632
 30
0.0
 10
72.63008135392194
 20
92.46534537205632
 30
0.0
  0
LINE
  5
14C
330
1F
100
AcDbEntity
  8
0
  6
Continuous
 62
     7
370
    25
100
AcDbLine
 10
72.7104661117
 20
91.9253587123
 30
0.0
 11
72.7104661117
 21
92.4653453721
 31
0.0
  0
SPLINE
  5
14D
330
1F
100
AcDbEntity
  8
0
  6
Continuous
 62
     7
370
    25
100
AcDbSpline
210
0.0
220
0.0
230
1.0
 70
    24
 71
     3
 72
     8
 73
     4
 74
     0
 42
0.000000001
 43
0.00000001
 40
0.0
 40
0.0
 40
0.0
 40
0.0
 40
1.0
 40
1.0
 40
1.0
 40
1.0
 10
72.7908508693806
 20
92.46534537205632
 30
0.0
 10
72.7630178158247
 20
92.46534537205632
 30
0.0
 10
72.7361968280544
 20
92.46534537205632
 30
0.0
 10
72.71046611165127
 20
92.46534537205632
 30
0.0
  0
LINE
  5
14E
330
1F
100
AcDbEntity
  8
0
  6
Continuous
 62
     7
370
    25
100
AcDbLine
 10
72.7104661117
 20
70.4653453721
 30
0.0
 11
72.7104661117
 21
71.0053320319
 31
0.0
  0
SPLINE
  5
14F
330
1F
100
AcDbEntity
  8
0
  6
Continuous
 62
     7
370
    25
100
AcDbSpline
210
0.0
220
0.0
230
1.0
 70
    24
 71
     3
 72
     8
 73
     4
 74
     0
 42
0.000000001
 43
0.00000001
 40
0.0
 40
0.0
 40
0.0
 40
0.0
 40
1.0
 40
1.0
 40
1.0
 40
1.0
 10
72.63008135392194
 20
70.46534537205633
 30
0.0
 10
72.65791440747783
 20
70.46534537205633
 30
0.0
 10
72.68473539524813
 20
70.46534537205633
 30
0.0
 10
72.71046611165127
 20
70.46534537205633
 30
0.0
  0
SPLINE
  5
150
330
1F
100
AcDbEntity
  8
0
  6
Continuous
 62
     7
370
    25
100
AcDbSpline
210
0.0
220
0.0
230
1.0
 70
    24
 71
     3
 72
     8
 73
     4
 74
     0
 42
0.000000001
 43
0.00000001
 40
0.0
 40
0.0
 40
0.0
 40
0.0
 40
1.0
 40
1.0
 40
1.0
 40
1.0
 10
72.71046611165127
 20
70.46534537205633
 30
0.0
 10
72.73620660222088
 20
70.46534537205633
 30
0.0
 10
72.76302812187029
 20
70.46534537205633
 30
0.0
 10
72.7908508693806
 20
70.46534537205633
 30
0.0
  0
LINE
  5
151
330
1F
100
AcDbEntity
  8
0
  6
Continuous
 62
     7
370
    25
100
AcDbLine
 10
99.2104661117
 20
81.4653453721
 30
0.0
 11
99.2104661117
 21
74.9653453721
 31
0.0
  0
LINE
  5
152
330
1F
100
AcDbEntity
  8
0
  6
Continuous
 62
     7
370
    25
100
AcDbLine
 10
99.2104661117
 20
87.9653453721
 30
0.0
 11
99.2104661117
 21
81.4653453721
 31
0.0
  0
LINE
  5
153
330
1F
100
AcDbEntity
  8
0
  6
Continuous
 62
     7
370
    25
100
AcDbLine
 10
82.7104661117
 20
81.4653453721
 30
0.0
 11
82.7104661117
 21
74.9653453721
 31
0.0
  0
LINE
  5
154
330
1F
100
AcDbEntity
  8
0
  6
Continuous
 62
     7
370
    25
100
AcDbLine
 10
82.7104661117
 20
87.9653453721
 30
0.0
 11
82.7104661117
 21
81.4653453721
 31
0.0
  0
LINE
  5
155
330
1F
100
AcDbEntity
  8
0
  6
Continuous
 62
     7
370
    25
100
AcDbLine
 10
93.7104661117
 20
81.4653453721
 30
0.0
 11
93.7104661117
 21
74.9653453721
 31
0.0
  0
LINE
  5
156
330
1F
100
AcDbEntity
  8
0
  6
Continuous
 62
     7
370
    25
100
AcDbLine
 10
93.7104661117
 20
87.9653453721
 30
0.0
 11
93.7104661117
 21
81.4653453721
 31
0.0
  0
LINE
  5
157
330
1F
100
AcDbEntity
  8
0
  6
Continuous
 62
     7
370
    25
100
AcDbLine
 10
88.2104661117
 20
81.4653453721
 30
0.0
 11
88.2104661117
 21
74.9653453721
 31
0.0
  0
LINE
  5
158
330
1F
100
AcDbEntity
  8
0
  6
Continuous
 62
     7
370
    25
100
AcDbLine
 10
88.2104661117
 20
87.9653453721
 30
0.0
 11
88.2104661117
 21
81.4653453721
 31
0.0
  0
LINE
  5
159
330
1F
100
AcDbEntity
  8
0
  6
Continuous
 62
     7
370
    25
100
AcDbLine
 10
105.7104661117
 20
86.7697202825
 30
0.0
 11
105.7104661117
 21
76.1609704616
 31
0.0
  0
LINE
  5
15A
330
1F
100
AcDbEntity
  8
0
  6
Continuous
 62
     8
370
    25
100
AcDbLine
 10
105.2677781656
 20
81.4653453721
 30
0.0
 11
105.2677781656
 21
87.2664247504
 31
0.0
  0
LINE
  5
15B
330
1F
100
AcDbEntity
  8
0
  6
Continuous
 62
     8
370
    25
100
AcDbLine
 10
105.2677781656
 20
75.6642659937
 30
0.0
 11
105.2677781656
 21
81.4653453721
 31
0.0
  0
LINE
  5
15C
330
1F
100
AcDbEntity
  8
0
  6
Continuous
 62
     7
370
    18
100
AcDbLine
 10
53.5916921426
 20
90.7241214582
 30
0.0
 11
69.2104661117
 21
91.2122081448
 31
0.0
  0
LINE
  5
15D
330
1F
100
AcDbEntity
  8
0
  6
Continuous
 62
     7
370
    18
100
AcDbLine
 10
53.5916921426
 20
72.2065692859
 30
0.0
 11
69.2104661117
 21
71.7184825993
 31
0.0
  0
LINE
  5
15E
330
1F
100
AcDbEntity
  8
0
  6
Continuous
 62
     7
370
    18
100
AcDbLine
 10
69.2104661117
 20
70.7272203721
 30
0.0
 11
69.2104661117
 21
92.2034703721
 31
0.0
  0
LINE
  5
15F
330
1F
100
AcDbEntity
  8
0
  6
CENTERX2
 62
     7
370
    18
100
AcDbLine
 10
106.7104661117
 20
81.4653453721
 30
0.0
 11
51.6706362291
 21
81.4653453721
 31
0.0
  0
ENDSEC
  0
SECTION
  2
OBJECTS
  0
DICTIONARY
  5
C
330
0
100
AcDbDictionary
281
     1
  3
ACAD_GROUP
350
D
  3
ACAD_LAYOUT
350
1A
  3
ACAD_MLINESTYLE
350
17
  3
ACAD_PLOTSETTINGS
350
19
  3
ACAD_PLOTSTYLENAME
350
E
  3
ACAD_SCALELIST
350
47
  0
DICTIONARY
  5
D
102
{ACAD_REACTORS
330
C
102
}
330
C
100
AcDbDictionary
281
     1
  0
DICTIONARY
  5
1A
102
{ACAD_REACTORS
330
C
102
}
330
C
100
AcDbDictionary
281
     1
  3
Layout1
350
1E
  3
Layout2
350
26
  3
Model
350
22
  0
DICTIONARY
  5
17
102
{ACAD_REACTORS
330
C
102
}
330
C
100
AcDbDictionary
281
     1
  3
Standard
350
18
  0
DICTIONARY
  5
19
102
{ACAD_REACTORS
330
C
102
}
330
C
100
AcDbDictionary
281
     1
  0
ACDBDICTIONARYWDFLT
  5
E
102
{ACAD_REACTORS
330
C
102
}
330
C
100
AcDbDictionary
281
     1
  3
Normal
350
F
100
AcDbDictionaryWithDefault
340
F
  0
DICTIONARY
  5
47
102
{ACAD_REACTORS
330
C
102
}
330
C
100
AcDbDictionary
281
     1
  3
A0
350
48
  3
A1
350
49
  3
A2
350
4A
  3
A3
350
4B
  3
A4
350
4C
  3
A5
350
4D
  3
A6
350
4E
  3
A7
350
4F
  3
A8
350
50
  3
A9
350
51
  3
B0
350
52
  3
B1
350
53
  3
B2
350
54
  3
B3
350
55
  3
B4
350
56
  3
B5
350
57
  3
B6
350
58
  3
B7
350
59
  3
B8
350
5A
  3
B9
350
5B
  3
C0
350
5C
  3
C1
350
5D
  3
C2
350
5E
  3
C3
350
5F
  3
C4
350
60
  3
C5
350
61
  3
C6
350
62
  3
C7
350
63
  3
C8
350
64
  3
C9
350
65
  3
D0
350
66
  3
D1
350
67
  3
D2
350
68
  0
LAYOUT
  5
1E
102
{ACAD_REACTORS
330
1A
102
}
330
1A
100
AcDbPlotSettings
  1

  2
none_device
  4

  6

 40
0.0
 41
0.0
 42
0.0
 43
0.0
 44
0.0
 45
0.0
 46
0.0
 47
0.0
 48
0.0
 49
0.0
140
0.0
141
0.0
142
1.0
143
1.0
 70
   688
 72
     1
 73
     0
 74
     5
  7

 75
    16
147
1.0
148
0.0
149
0.0
100
AcDbLayout
  1
Layout1
 70
     1
 71
     1
 10
0.0
 20
0.0
 11
420.0
 21
297.0
 12
0.0
 22
0.0
 32
0.0
 14
1.0000000000E+20
 24
1.0000000000E+20
 34
1.0000000000E+20
 15
-1.0000000000E+20
 25
-1.0000000000E+20
 35
-1.0000000000E+20
146
0.0
 13
0.0
 23
0.0
 33
0.0
 16
1.0
 26
0.0
 36
0.0
 17
0.0
 27
1.0
 37
0.0
 76
     0
330
1B
  0
LAYOUT
  5
26
102
{ACAD_REACTORS
330
1A
102
}
330
1A
100
AcDbPlotSettings
  1

  2
none_device
  4

  6

 40
0.0
 41
0.0
 42
0.0
 43
0.0
 44
0.0
 45
0.0
 46
0.0
 47
0.0
 48
0.0
 49
0.0
140
0.0
141
0.0
142
1.0
143
1.0
 70
   688
 72
     1
 73
     0
 74
     5
  7

 75
    16
147
1.0
148
0.0
149
0.0
100
AcDbLayout
  1
Layout2
 70
     1
 71
     2
 10
0.0
 20
0.0
 11
0.0
 21
0.0
 12
0.0
 22
0.0
 32
0.0
 14
0.0
 24
0.0
 34
0.0
 15
0.0
 25
0.0
 35
0.0
146
0.0
 13
0.0
 23
0.0
 33
0.0
 16
1.0
 26
0.0
 36
0.0
 17
0.0
 27
1.0
 37
0.0
 76
     0
330
23
  0
LAYOUT
  5
22
102
{ACAD_REACTORS
330
1A
102
}
330
1A
100
AcDbPlotSettings
  1

  2
none_device
  4
Letter_(8.50_x_11.00_Inches)
  6

 40
6.35
 41
6.35
 42
6.35000508
 43
6.35000508
 44
215.9
 45
279.4
 46
0.0
 47
0.0
 48
0.0
 49
0.0
140
0.0
141
0.0
142
1.0
143
1.0
 70
  1712
 72
     1
 73
     0
 74
     0
  7

 75
     0
147
1.0
148
0.0
149
0.0
100
AcDbLayout
  1
Model
 70
     1
 71
     0
 10
0.0
 20
0.0
 11
215.9
 21
139.7
 12
0.0
 22
0.0
 32
0.0
 14
0.0
 24
0.0
 34
0.0
 15
215.9
 25
139.7
 35
0.0
146
0.0
 13
0.0
 23
0.0
 33
0.0
 16
1.0
 26
0.0
 36
0.0
 17
0.0
 27
1.0
 37
0.0
 76
     0
330
1F
331
29
  0
MLINESTYLE
  5
18
102
{ACAD_REACTORS
330
17
102
}
330
17
100
AcDbMlineStyle
  2
Standard
 70
     0
  3

 62
   256
 51
90.0
 52
90.0
 71
     2
 49
0.5
 62
   256
  6
BYLAYER
 49
-0.5
 62
   256
  6
BYLAYER
  0
ACDBPLACEHOLDER
  5
F
102
{ACAD_REACTORS
330
E
102
}
330
E
  0
SCALE
  5
48
102
{ACAD_REACTORS
330
47
102
}
330
47
100
AcDbScale
 70
     0
300
1:1
140
1.0
141
1.0
290
     1
  0
SCALE
  5
49
102
{ACAD_REACTORS
330
47
102
}
330
47
100
AcDbScale
 70
     0
300
1:2
140
1.0
141
2.0
290
     0
  0
SCALE
  5
4A
102
{ACAD_REACTORS
330
47
102
}
330
47
100
AcDbScale
 70
     0
300
1:4
140
1.0
141
4.0
290
     0
  0
SCALE
  5
4B
102
{ACAD_REACTORS
330
47
102
}
330
47
100
AcDbScale
 70
     0
300
1:5
140
1.0
141
5.0
290
     0
  0
SCALE
  5
4C
102
{ACAD_REACTORS
330
47
102
}
330
47
100
AcDbScale
 70
     0
300
1:8
140
1.0
141
8.0
290
     0
  0
SCALE
  5
4D
102
{ACAD_REACTORS
330
47
102
}
330
47
100
AcDbScale
 70
     0
300
1:10
140
1.0
141
10.0
290
     0
  0
SCALE
  5
4E
102
{ACAD_REACTORS
330
47
102
}
330
47
100
AcDbScale
 70
     0
300
1:16
140
1.0
141
16.0
290
     0
  0
SCALE
  5
4F
102
{ACAD_REACTORS
330
47
102
}
330
47
100
AcDbScale
 70
     0
300
1:20
140
1.0
141
20.0
290
     0
  0
SCALE
  5
50
102
{ACAD_REACTORS
330
47
102
}
330
47
100
AcDbScale
 70
     0
300
1:30
140
1.0
141
30.0
290
     0
  0
SCALE
  5
51
102
{ACAD_REACTORS
330
47
102
}
330
47
100
AcDbScale
 70
     0
300
1:40
140
1.0
141
40.0
290
     0
  0
SCALE
  5
52
102
{ACAD_REACTORS
330
47
102
}
330
47
100
AcDbScale
 70
     0
300
1:50
140
1.0
141
50.0
290
     0
  0
SCALE
  5
53
102
{ACAD_REACTORS
330
47
102
}
330
47
100
AcDbScale
 70
     0
300
1:100
140
1.0
141
100.0
290
     0
  0
SCALE
  5
54
102
{ACAD_REACTORS
330
47
102
}
330
47
100
AcDbScale
 70
     0
300
2:1
140
2.0
141
1.0
290
     0
  0
SCALE
  5
55
102
{ACAD_REACTORS
330
47
102
}
330
47
100
AcDbScale
 70
     0
300
4:1
140
4.0
141
1.0
290
     0
  0
SCALE
  5
56
102
{ACAD_REACTORS
330
47
102
}
330
47
100
AcDbScale
 70
     0
300
8:1
140
8.0
141
1.0
290
     0
  0
SCALE
  5
57
102
{ACAD_REACTORS
330
47
102
}
330
47
100
AcDbScale
 70
     0
300
10:1
140
10.0
141
1.0
290
     0
  0
SCALE
  5
58
102
{ACAD_REACTORS
330
47
102
}
330
47
100
AcDbScale
 70
     0
300
100:1
140
100.0
141
1.0
290
     0
  0
SCALE
  5
59
102
{ACAD_REACTORS
330
47
102
}
330
47
100
AcDbScale
 70
     0
300
1/128" = 1'-0"
140
0.0078125
141
12.0
290
     0
  0
SCALE
  5
5A
102
{ACAD_REACTORS
330
47
102
}
330
47
100
AcDbScale
 70
     0
300
1/64" = 1'-0"
140
0.015625
141
12.0
290
     0
  0
SCALE
  5
5B
102
{ACAD_REACTORS
330
47
102
}
330
47
100
AcDbScale
 70
     0
300
1/32" = 1'-0"
140
0.03125
141
12.0
290
     0
  0
SCALE
  5
5C
102
{ACAD_REACTORS
330
47
102
}
330
47
100
AcDbScale
 70
     0
300
1/16" = 1'-0"
140
0.0625
141
12.0
290
     0
  0
SCALE
  5
5D
102
{ACAD_REACTORS
330
47
102
}
330
47
100
AcDbScale
 70
     0
300
3/32" = 1'-0"
140
0.09375
141
12.0
290
     0
  0
SCALE
  5
5E
102
{ACAD_REACTORS
330
47
102
}
330
47
100
AcDbScale
 70
     0
300
1/8" = 1'-0"
140
0.125
141
12.0
290
     0
  0
SCALE
  5
5F
102
{ACAD_REACTORS
330
47
102
}
330
47
100
AcDbScale
 70
     0
300
3/16" = 1'-0"
140
0.1875
141
12.0
290
     0
  0
SCALE
  5
60
102
{ACAD_REACTORS
330
47
102
}
330
47
100
AcDbScale
 70
     0
300
1/4" = 1'-0"
140
0.25
141
12.0
290
     0
  0
SCALE
  5
61
102
{ACAD_REACTORS
330
47
102
}
330
47
100
AcDbScale
 70
     0
300
3/8" = 1'-0"
140
0.375
141
12.0
290
     0
  0
SCALE
  5
62
102
{ACAD_REACTORS
330
47
102
}
330
47
100
AcDbScale
 70
     0
300
1/2" = 1'-0"
140
0.5
141
12.0
290
     0
  0
SCALE
  5
63
102
{ACAD_REACTORS
330
47
102
}
330
47
100
AcDbScale
 70
     0
300
3/4" = 1'-0"
140
0.75
141
12.0
290
     0
  0
SCALE
  5
64
102
{ACAD_REACTORS
330
47
102
}
330
47
100
AcDbScale
 70
     0
300
1" = 1'-0"
140
1.0
141
12.0
290
     0
  0
SCALE
  5
65
102
{ACAD_REACTORS
330
47
102
}
330
47
100
AcDbScale
 70
     0
300
1-1/2" = 1'-0"
140
1.5
141
12.0
290
     0
  0
SCALE
  5
66
102
{ACAD_REACTORS
330
47
102
}
330
47
100
AcDbScale
 70
     0
300
3" = 1'-0"
140
3.0
141
12.0
290
     0
  0
SCALE
  5
67
102
{ACAD_REACTORS
330
47
102
}
330
47
100
AcDbScale
 70
     0
300
6" = 1'-0"
140
6.0
141
12.0
290
     0
  0
SCALE
  5
68
102
{ACAD_REACTORS
330
47
102
}
330
47
100
AcDbScale
 70
     0
300
1'-0" = 1'-0"
140
12.0
141
12.0
290
     0
  0
ENDSEC
  0
EOF
