  0
SECTION
  2
HEADER
  9
$ACADVER
  1
AC1015
  9
$ACADMAINTVER
 70
     6
  9
$DWGCODEPAGE
  3
DOS932
  9
$INSBASE
 10
0.0
 20
0.0
 30
0.0
  9
$EXTMIN
 10
0.0
 20
0.0
 30
0.0
  9
$EXTMAX
 10
215.9
 20
139.7
 30
0.0
  9
$LIMMIN
 10
0.0
 20
0.0
  9
$LIMMAX
 10
215.9
 20
139.7
  9
$ORTHOMODE
 70
     0
  9
$REGENMODE
 70
     1
  9
$FILLMODE
 70
     1
  9
$QTEXTMODE
 70
     0
  9
$MIRRTEXT
 70
     1
  9
$LTSCALE
 40
0.5
  9
$ATTMODE
 70
     1
  9
$TEXTSIZE
 40
1.75
  9
$TRACEWID
 40
1.0
  9
$TEXTSTYLE
  7
Standard
  9
$CLAYER
  8
0
  9
$CELTYPE
  6
ByLayer
  9
$CECOLOR
 62
   256
  9
$CELTSCALE
 40
1.0
  9
$DISPSILH
 70
     0
  9
$DIMSCALE
 40
1.0
  9
$DIMASZ
 40
1.651
  9
$DIMEXO
 40
0.5
  9
$DIMDLI
 40
3.75
  9
$DIMRND
 40
0.0
  9
$DIMDLE
 40
0.0
  9
$DIMEXE
 40
0.5
  9
$DIMTP
 40
0.0
  9
$DIMTM
 40
0.0
  9
$DIMTXT
 40
1.75
  9
$DIMCEN
 40
2.5
  9
$DIMTSZ
 40
0.0
  9
$DIMTOL
 70
     0
  9
$DIMLIM
 70
     0
  9
$DIMTIH
 70
     1
  9
$DIMTOH
 70
     1
  9
$DIMSE1
 70
     0
  9
$DIMSE2
 70
     0
  9
$DIMTAD
 70
     1
  9
$DIMZIN
 70
     1
  9
$DIMBLK
  1

  9
$DIMASO
 70
     1
  9
$DIMSHO
 70
     1
  9
$DIMPOST
  1

  9
$DIMAPOST
  1

  9
$DIMALT
 70
     0
  9
$DIMALTD
 70
     3
  9
$DIMALTF
 40
0.0393700787
  9
$DIMLFAC
 40
1.0
  9
$DIMTOFL
 70
     1
  9
$DIMTVP
 40
0.0
  9
$DIMTIX
 70
     0
  9
$DIMSOXD
 70
     0
  9
$DIMSAH
 70
     0
  9
$DIMBLK1
  1

  9
$DIMBLK2
  1

  9
$DIMSTYLE
  2
ISO-25
  9
$DIMCLRD
 70
     0
  9
$DIMCLRE
 70
     0
  9
$DIMCLRT
 70
     0
  9
$DIMTFAC
 40
1.0
  9
$DIMGAP
 40
0.762
  9
$DIMJUST
 70
     0
  9
$DIMSD1
 70
     0
  9
$DIMSD2
 70
     0
  9
$DIMTOLJ
 70
     0
  9
$DIMTZIN
 70
     1
  9
$DIMALTZ
 70
     0
  9
$DIMALTTZ
 70
     0
  9
$DIMUPT
 70
     0
  9
$DIMDEC
 70
     2
  9
$DIMTDEC
 70
     2
  9
$DIMALTU
 70
     2
  9
$DIMALTTD
 70
     3
  9
$DIMTXSTY
  7
Standard
  9
$DIMAUNIT
 70
     0
  9
$DIMADEC
 70
     2
  9
$DIMALTRND
 40
0.0
  9
$DIMAZIN
 70
     0
  9
$DIMDSEP
 70
    44
  9
$DIMATFIT
 70
     3
  9
$DIMFRAC
 70
     0
  9
$DIMLDRBLK
  1

  9
$DIMLUNIT
 70
     2
  9
$DIMLWD
 70
    -2
  9
$DIMLWE
 70
    -2
  9
$DIMTMOVE
 70
     0
  9
$LUNITS
 70
     2
  9
$LUPREC
 70
     2
  9
$SKETCHINC
 40
1.0
  9
$FILLETRAD
 40
10.0
  9
$AUNITS
 70
     0
  9
$AUPREC
 70
     2
  9
$MENU
  1
.
  9
$ELEVATION
 40
0.0
  9
$PELEVATION
 40
0.0
  9
$THICKNESS
 40
0.0
  9
$LIMCHECK
 70
     0
  9
$CHAMFERA
 40
0.0
  9
$CHAMFERB
 40
0.0
  9
$CHAMFERC
 40
0.0
  9
$CHAMFERD
 40
0.0
  9
$SKPOLY
 70
     0
  9
$TDCREATE
 40
2460082.683545359
  9
$TDUCREATE
 40
2460082.308545359
  9
$TDUPDATE
 40
2460082.683545868
  9
$TDUUPDATE
 40
2460082.308545868
  9
$TDINDWG
 40
0.0000000116
  9
$TDUSRTIMER
 40
0.0000000116
  9
$USRTIMER
 70
     1
  9
$ANGBASE
 50
0.0
  9
$ANGDIR
 70
     0
  9
$PDMODE
 70
     0
  9
$PDSIZE
 40
-1.0
  9
$PLINEWID
 40
0.0
  9
$SPLFRAME
 70
     0
  9
$SPLINETYPE
 70
     6
  9
$SPLINESEGS
 70
     8
  9
$HANDSEED
  5
160
  9
$SURFTAB1
 70
     6
  9
$SURFTAB2
 70
     6
  9
$SURFTYPE
 70
     6
  9
$SURFU
 70
     6
  9
$SURFV
 70
     6
  9
$UCSBASE
  2

  9
$UCSNAME
  2

  9
$UCSORG
 10
0.0
 20
0.0
 30
0.0
  9
$UCSXDIR
 10
1.0
 20
0.0
 30
0.0
  9
$UCSYDIR
 10
0.0
 20
1.0
 30
0.0
  9
$UCSORTHOREF
  2

  9
$UCSORTHOVIEW
 70
     0
  9
$UCSORGTOP
 10
0.0
 20
0.0
 30
0.0
  9
$UCSORGBOTTOM
 10
0.0
 20
0.0
 30
0.0
  9
$UCSORGLEFT
 10
0.0
 20
0.0
 30
0.0
  9
$UCSORGRIGHT
 10
0.0
 20
0.0
 30
0.0
  9
$UCSORGFRONT
 10
0.0
 20
0.0
 30
0.0
  9
$UCSORGBACK
 10
0.0
 20
0.0
 30
0.0
  9
$PUCSBASE
  2

  9
$PUCSNAME
  2

  9
$PUCSORG
 10
0.0
 20
0.0
 30
0.0
  9
$PUCSXDIR
 10
1.0
 20
0.0
 30
0.0
  9
$PUCSYDIR
 10
0.0
 20
1.0
 30
0.0
  9
$PUCSORTHOREF
  2

  9
$PUCSORTHOVIEW
 70
     0
  9
$PUCSORGTOP
 10
0.0
 20
0.0
 30
0.0
  9
$PUCSORGBOTTOM
 10
0.0
 20
0.0
 30
0.0
  9
$PUCSORGLEFT
 10
0.0
 20
0.0
 30
0.0
  9
$PUCSORGRIGHT
 10
0.0
 20
0.0
 30
0.0
  9
$PUCSORGFRONT
 10
0.0
 20
0.0
 30
0.0
  9
$PUCSORGBACK
 10
0.0
 20
0.0
 30
0.0
  9
$USERI1
 70
     0
  9
$USERI2
 70
     0
  9
$USERI3
 70
     0
  9
$USERI4
 70
     0
  9
$USERI5
 70
     0
  9
$USERR1
 40
0.0
  9
$USERR2
 40
0.0
  9
$USERR3
 40
0.0
  9
$USERR4
 40
0.0
  9
$USERR5
 40
0.0
  9
$WORLDVIEW
 70
     1
  9
$SHADEDGE
 70
     3
  9
$SHADEDIF
 70
    70
  9
$TILEMODE
 70
     1
  9
$MAXACTVP
 70
    64
  9
$PINSBASE
 10
0.0
 20
0.0
 30
0.0
  9
$PLIMCHECK
 70
     0
  9
$PEXTMIN
 10
1.0000000000E+20
 20
1.0000000000E+20
 30
1.0000000000E+20
  9
$PEXTMAX
 10
-1.0000000000E+20
 20
-1.0000000000E+20
 30
-1.0000000000E+20
  9
$PLIMMIN
 10
0.0
 20
0.0
  9
$PLIMMAX
 10
420.0
 20
297.0
  9
$UNITMODE
 70
     0
  9
$VISRETAIN
 70
     1
  9
$PLINEGEN
 70
     0
  9
$PSLTSCALE
 70
     1
  9
$TREEDEPTH
 70
  3020
  9
$CMLSTYLE
  2
Standard
  9
$CMLJUST
 70
     0
  9
$CMLSCALE
 40
20.0
  9
$PROXYGRAPHICS
 70
     1
  9
$MEASUREMENT
 70
     1
  9
$CELWEIGHT
370
    -1
  9
$ENDCAPS
280
     0
  9
$JOINSTYLE
280
     0
  9
$LWDISPLAY
290
     1
  9
$INSUNITS
 70
     4
  9
$HYPERLINKBASE
  1

  9
$STYLESHEET
  1

  9
$XEDIT
290
     1
  9
$CEPSNTYPE
380
     0
  9
$PSTYLEMODE
290
     1
  9
$FINGERPRINTGUID
  2
{255CF5D7-72C3-4546-B811-C32C6F9E1277}
  9
$VERSIONGUID
  2
{FAEB1C32-E019-11D5-929B-00C0DF256EC4}
  9
$EXTNAMES
290
     1
  9
$PSVPSCALE
 40
0.0
  9
$OLESTARTUP
290
     0
  0
ENDSEC
  0
SECTION
  2
CLASSES
  0
CLASS
  1
ACDBDICTIONARYWDFLT
  2
AcDbDictionaryWithDefault
  3
ObjectDBX Classes
 90
        0
280
     0
281
     0
  0
CLASS
  1
VISUALSTYLE
  2
AcDbVisualStyle
  3
ObjectDBX Classes
 90
     4095
280
     0
281
     0
  0
CLASS
  1
MATERIAL
  2
AcDbMaterial
  3
ObjectDBX Classes
 90
     1153
280
     0
281
     0
  0
CLASS
  1
SCALE
  2
AcDbScale
  3
ObjectDBX Classes
 90
     1153
280
     0
281
     0
  0
CLASS
  1
TABLESTYLE
  2
AcDbTableStyle
  3
ObjectDBX Classes
 90
     4095
280
     0
281
     0
  0
CLASS
  1
MLEADERSTYLE
  2
AcDbMLeaderStyle
  3
ACDB_MLEADERSTYLE_CLASS
 90
     4095
280
     0
281
     0
  0
CLASS
  1
SUN
  2
AcDbSun
  3
SCENEOE
 90
     1153
280
     0
281
     0
  0
CLASS
  1
ACDBPLACEHOLDER
  2
AcDbPlaceHolder
  3
ObjectDBX Classes
 90
        0
280
     0
281
     0
  0
CLASS
  1
LAYOUT
  2
AcDbLayout
  3
ObjectDBX Classes
 90
        0
280
     0
281
     0
  0
ENDSEC
  0
SECTION
  2
TABLES
  0
TABLE
  2
VPORT
  5
8
330
0
100
AcDbSymbolTable
 70
     1
  0
VPORT
  5
29
330
8
100
AcDbSymbolTableRecord
100
AcDbViewportTableRecord
  2
*Active
 70
     0
 10
0.0
 20
0.0
 11
1.0
 21
1.0
 12
107.95
 22
69.85
 13
0.0
 23
0.0
 14
10.0
 24
10.0
 15
10.0
 25
10.0
 16
0.0
 26
0.0
 36
1.0
 17
0.0
 27
0.0
 37
0.0
 40
139.7
 41
1.5454545455
 42
50.0
 43
0.0
 44
0.0
 50
0.0
 51
0.0
 71
     0
 72
  2000
 73
     1
 74
     3
 75
     0
 76
     0
 77
     0
 78
     0
281
     0
 65
     1
110
0.0
120
0.0
130
0.0
111
1.0
121
0.0
131
0.0
112
0.0
122
1.0
132
0.0
 79
     0
146
0.0
  0
ENDTAB
  0
TABLE
  2
LTYPE
  5
5
330
0
100
AcDbSymbolTable
 70
     6
  0
LTYPE
  5
14
330
5
100
AcDbSymbolTableRecord
100
AcDbLinetypeTableRecord
  2
ByBlock
 70
     0
  3

 72
    65
 73
     0
 40
0.0
  0
LTYPE
  5
15
330
5
100
AcDbSymbolTableRecord
100
AcDbLinetypeTableRecord
  2
ByLayer
 70
     0
  3

 72
    65
 73
     0
 40
0.0
  0
LTYPE
  5
16
330
5
100
AcDbSymbolTableRecord
100
AcDbLinetypeTableRecord
  2
Continuous
 70
     0
  3
Solid line
 72
    65
 73
     0
 40
0.0
  0
LTYPE
  5
6E
330
5
100
AcDbSymbolTableRecord
100
AcDbLinetypeTableRecord
  2
HIDDEN
 70
     0
  3
Hidden __ __ __ __ __ __ __ __ __ __ __ __ __ __
 72
    65
 73
     2
 40
1.905
 49
1.27
 74
     0
 49
-0.635
 74
     0
  0
LTYPE
  5
6F
330
5
100
AcDbSymbolTableRecord
100
AcDbLinetypeTableRecord
  2
PHANTOM
 70
     0
  3
Phantom ______  __  __  ______  __  __  ______
 72
    65
 73
     6
 40
12.7
 49
6.35
 74
     0
 49
-1.27
 74
     0
 49
1.27
 74
     0
 49
-1.27
 74
     0
 49
1.27
 74
     0
 49
-1.27
 74
     0
  0
LTYPE
  5
70
330
5
100
AcDbSymbolTableRecord
100
AcDbLinetypeTableRecord
  2
CENTER
 70
     0
  3
Center ____ _ ____ _ ____ _ ____ _ ____ _ ____
 72
    65
 73
     4
 40
10.16
 49
6.35
 74
     0
 49
-1.27
 74
     0
 49
1.27
 74
     0
 49
-1.27
 74
     0
  0
LTYPE
  5
71
330
5
100
AcDbSymbolTableRecord
100
AcDbLinetypeTableRecord
  2
CENTERX2
 70
     0
  3
Center (2x) ________  __  ________  __  _____
 72
    65
 73
     4
 40
20.32
 49
12.7
 74
     0
 49
-2.54
 74
     0
 49
2.54
 74
     0
 49
-2.54
 74
     0
  0
LTYPE
  5
72
330
5
100
AcDbSymbolTableRecord
100
AcDbLinetypeTableRecord
  2
DOT2
 70
     0
  3
Dot (.5x) ........................................
 72
    65
 73
     2
 40
0.635
 49
0.0
 74
     0
 49
-0.635
 74
     0
  0
ENDTAB
  0
TABLE
  2
LAYER
  5
2
330
0
100
AcDbSymbolTable
 70
     1
  0
LAYER
  5
10
330
2
100
AcDbSymbolTableRecord
100
AcDbLayerTableRecord
  2
0
 70
     0
 62
     7
  6
Continuous
370
    -3
390
F
  0
ENDTAB
  0
TABLE
  2
STYLE
  5
3
330
0
100
AcDbSymbolTable
 70
     2
  0
STYLE
  5
11
330
3
100
AcDbSymbolTableRecord
100
AcDbTextStyleTableRecord
  2
Standard
 70
     0
 40
0.0
 41
1.0
 50
0.0
 71
     0
 42
1.75
  3
txt
  4
bigfont
  0
STYLE
  5
73
330
3
100
AcDbSymbolTableRecord
100
AcDbTextStyleTableRecord
  2
SLDTEXTSTYLE0
 70
     0
 40
0.0
 41
0.7
 50
0.0
 71
     0
 42
1.75
  3
TXT
  4
bigfont
  0
ENDTAB
  0
TABLE
  2
VIEW
  5
6
330
0
100
AcDbSymbolTable
 70
     0
  0
ENDTAB
  0
TABLE
  2
UCS
  5
7
330
0
100
AcDbSymbolTable
 70
     0
  0
ENDTAB
  0
TABLE
  2
APPID
  5
9
330
0
100
AcDbSymbolTable
 70
     1
  0
APPID
  5
12
330
9
100
AcDbSymbolTableRecord
100
AcDbRegAppTableRecord
  2
ACAD
 70
     0
  0
ENDTAB
  0
TABLE
  2
DIMSTYLE
  5
A
330
0
100
AcDbSymbolTable
 70
     1
100
AcDbDimStyleTable
  0
DIMSTYLE
105
27
330
A
100
AcDbSymbolTableRecord
100
AcDbDimStyleTableRecord
  2
ISO-25
 70
     0
 41
2.5
 42
0.625
 43
3.75
 44
1.25
 73
     0
 74
     0
 77
     1
 78
     8
140
2.5
141
2.5
143
0.0393700787
147
0.625
171
     3
172
     1
178
     0
271
     2
272
     2
274
     3
278
    44
283
     0
284
     8
340
11
  0
ENDTAB
  0
TABLE
  2
BLOCK_RECORD
  5
1
330
0
100
AcDbSymbolTable
 70
     3
  0
BLOCK_RECORD
  5
1F
330
1
100
AcDbSymbolTableRecord
100
AcDbBlockTableRecord
  2
*Model_Space
340
22
  0
BLOCK_RECORD
  5
1B
330
1
100
AcDbSymbolTableRecord
100
AcDbBlockTableRecord
  2
*Paper_Space
340
1E
  0
BLOCK_RECORD
  5
23
330
1
100
AcDbSymbolTableRecord
100
AcDbBlockTableRecord
  2
*Paper_Space0
340
26
  0
BLOCK_RECORD
  5
FF
330
1
100
AcDbSymbolTableRecord
100
AcDbBlockTableRecord
  2
SW_CENTERMARKSYMBOL_0
340
0
102
{BLKREFS
331
10A
102
}
  0
BLOCK_RECORD
  5
10B
330
1
100
AcDbSymbolTableRecord
100
AcDbBlockTableRecord
  2
SW_CENTERMARKSYMBOL_1
340
0
102
{BLKREFS
331
116
102
}
  0
ENDTAB
  0
ENDSEC
  0
SECTION
  2
BLOCKS
  0
BLOCK
  5
20
330
1F
100
AcDbEntity
  8
0
100
AcDbBlockBegin
  2
*Model_Space
 70
     0
 10
0.0
 20
0.0
 30
0.0
  3
*Model_Space
  1

  0
ENDBLK
  5
21
330
1F
100
AcDbEntity
  8
0
100
AcDbBlockEnd
  0
BLOCK
  5
1C
330
1B
100
AcDbEntity
 67
     1
  8
0
100
AcDbBlockBegin
  2
*Paper_Space
 70
     0
 10
0.0
 20
0.0
 30
0.0
  3
*Paper_Space
  1

  0
ENDBLK
  5
1D
330
1B
100
AcDbEntity
 67
     1
  8
0
100
AcDbBlockEnd
  0
BLOCK
  5
24
330
23
100
AcDbEntity
  8
0
100
AcDbBlockBegin
  2
*Paper_Space0
 70
     0
 10
0.0
 20
0.0
 30
0.0
  3
*Paper_Space0
  1

  0
ENDBLK
  5
25
330
23
100
AcDbEntity
  8
0
100
AcDbBlockEnd
  0
BLOCK
  5
100
330
FF
100
AcDbEntity
  8
0
100
AcDbBlockBegin
  2
SW_CENTERMARKSYMBOL_0
 70
     0
 10
0.0
 20
0.0
 30
0.0
  3
SW_CENTERMARKSYMBOL_0
  1

  0
LINE
  5
102
330
FF
100
AcDbEntity
  8
0
  6
Continuous
 62
     0
370
    18
100
AcDbLine
 10
0.0
 20
0.0
 30
0.0
 11
0.0
 21
2.5
 31
0.0
  0
LINE
  5
103
330
FF
100
AcDbEntity
  8
0
  6
Continuous
 62
     0
370
    18
100
AcDbLine
 10
0.0
 20
0.0
 30
0.0
 11
-2.5
 21
0.0
 31
0.0
  0
LINE
  5
104
330
FF
100
AcDbEntity
  8
0
  6
Continuous
 62
     0
370
    18
100
AcDbLine
 10
0.0
 20
0.0
 30
0.0
 11
0.0
 21
-2.5
 31
0.0
  0
LINE
  5
105
330
FF
100
AcDbEntity
  8
0
  6
Continuous
 62
     0
370
    18
100
AcDbLine
 10
0.0
 20
0.0
 30
0.0
 11
2.5
 21
0.0
 31
0.0
  0
LINE
  5
106
330
FF
100
AcDbEntity
  8
0
  6
Continuous
 62
     0
370
    18
100
AcDbLine
 10
0.0
 20
5.0
 30
0.0
 11
0.0
 21
6.5
 31
0.0
  0
LINE
  5
107
330
FF
100
AcDbEntity
  8
0
  6
Continuous
 62
     0
370
    18
100
AcDbLine
 10
-5.0
 20
0.0
 30
0.0
 11
-6.5
 21
0.0
 31
0.0
  0
LINE
  5
108
330
FF
100
AcDbEntity
  8
0
  6
Continuous
 62
     0
370
    18
100
AcDbLine
 10
0.0
 20
-5.0
 30
0.0
 11
0.0
 21
-6.5
 31
0.0
  0
LINE
  5
109
330
FF
100
AcDbEntity
  8
0
  6
Continuous
 62
     0
370
    18
100
AcDbLine
 10
5.0
 20
0.0
 30
0.0
 11
6.5
 21
0.0
 31
0.0
  0
ENDBLK
  5
101
330
FF
100
AcDbEntity
  8
0
100
AcDbBlockEnd
  0
BLOCK
  5
10C
330
10B
100
AcDbEntity
  8
0
100
AcDbBlockBegin
  2
SW_CENTERMARKSYMBOL_1
 70
     0
 10
0.0
 20
0.0
 30
0.0
  3
SW_CENTERMARKSYMBOL_1
  1

  0
LINE
  5
10E
330
10B
100
AcDbEntity
  8
0
  6
Continuous
 62
     0
370
    18
100
AcDbLine
 10
0.0
 20
0.0
 30
0.0
 11
0.0
 21
2.5
 31
0.0
  0
LINE
  5
10F
330
10B
100
AcDbEntity
  8
0
  6
Continuous
 62
     0
370
    18
100
AcDbLine
 10
0.0
 20
0.0
 30
0.0
 11
-2.5
 21
0.0
 31
0.0
  0
LINE
  5
110
330
10B
100
AcDbEntity
  8
0
  6
Continuous
 62
     0
370
    18
100
AcDbLine
 10
0.0
 20
0.0
 30
0.0
 11
0.0
 21
-2.5
 31
0.0
  0
LINE
  5
111
330
10B
100
AcDbEntity
  8
0
  6
Continuous
 62
     0
370
    18
100
AcDbLine
 10
0.0
 20
0.0
 30
0.0
 11
2.5
 21
0.0
 31
0.0
  0
LINE
  5
112
330
10B
100
AcDbEntity
  8
0
  6
Continuous
 62
     0
370
    18
100
AcDbLine
 10
0.0
 20
5.0
 30
0.0
 11
0.0
 21
13.5
 31
0.0
  0
LINE
  5
113
330
10B
100
AcDbEntity
  8
0
  6
Continuous
 62
     0
370
    18
100
AcDbLine
 10
-5.0
 20
0.0
 30
0.0
 11
-13.5
 21
0.0
 31
0.0
  0
LINE
  5
114
330
10B
100
AcDbEntity
  8
0
  6
Continuous
 62
     0
370
    18
100
AcDbLine
 10
0.0
 20
-5.0
 30
0.0
 11
0.0
 21
-13.5
 31
0.0
  0
LINE
  5
115
330
10B
100
AcDbEntity
  8
0
  6
Continuous
 62
     0
370
    18
100
AcDbLine
 10
5.0
 20
0.0
 30
0.0
 11
13.5
 21
0.0
 31
0.0
  0
ENDBLK
  5
10D
330
10B
100
AcDbEntity
  8
0
100
AcDbBlockEnd
  0
ENDSEC
  0
SECTION
  2
ENTITIES
  0
MTEXT
  5
74
330
1F
100
AcDbEntity
  8
0
  6
Continuous
 62
     7
370
     0
100
AcDbMText
 10
100.9983867405
 20
67.4548637597
 30
0.0
 40
2.38125
 41
0.0
 71
     1
 72
     1
  1
エースニップル　HN-8412
  7
SLDTEXTSTYLE0
 73
     1
 44
1.0
  0
LINE
  5
75
330
1F
100
AcDbEntity
  8
0
  6
Continuous
 62
     7
370
    25
100
AcDbLine
 10
69.4898352704
 20
58.5286481472
 30
0.0
 11
55.1862265434
 21
58.0816603745
 31
0.0
  0
LINE
  5
76
330
1F
100
AcDbEntity
  8
0
  6
Continuous
 62
     7
370
    25
100
AcDbLine
 10
55.1862265434
 20
37.4681359199
 30
0.0
 11
69.4898352704
 21
37.0211481472
 31
0.0
  0
LINE
  5
77
330
1F
100
AcDbEntity
  8
0
  6
Continuous
 62
     7
370
    25
100
AcDbLine
 10
55.1862265434
 20
58.0816603745
 30
0.0
 11
52.4898352704
 21
56.5248981472
 31
0.0
  0
LINE
  5
78
330
1F
100
AcDbEntity
  8
0
  6
Continuous
 62
     7
370
    25
100
AcDbLine
 10
52.4898352704
 20
39.0248981472
 30
0.0
 11
55.1862265434
 21
37.4681359199
 31
0.0
  0
LINE
  5
79
330
1F
100
AcDbEntity
  8
0
  6
Continuous
 62
     7
370
    25
100
AcDbLine
 10
98.9898352704
 20
41.7748981472
 30
0.0
 11
105.0471473244
 21
42.4738187688
 31
0.0
  0
LINE
  5
7A
330
1F
100
AcDbEntity
  8
0
  6
Continuous
 62
     7
370
    25
100
AcDbLine
 10
105.0471473244
 20
53.0759775256
 30
0.0
 11
98.9898352704
 21
53.7748981472
 31
0.0
  0
LINE
  5
7B
330
1F
100
AcDbEntity
  8
0
  6
Continuous
 62
     7
370
    25
100
AcDbLine
 10
82.4898352704
 20
53.7748981472
 30
0.0
 11
75.4898352704
 21
53.7748981472
 31
0.0
  0
LINE
  5
7C
330
1F
100
AcDbEntity
  8
0
  6
Continuous
 62
     7
370
    25
100
AcDbLine
 10
75.4898352704
 20
41.7748981472
 30
0.0
 11
82.4898352704
 21
41.7748981472
 31
0.0
  0
LINE
  5
7D
330
1F
100
AcDbEntity
  8
0
  6
Continuous
 62
     7
370
    25
100
AcDbLine
 10
93.4898352704
 20
41.7748981472
 30
0.0
 11
98.9898352704
 21
42.5248981472
 31
0.0
  0
LINE
  5
7E
330
1F
100
AcDbEntity
  8
0
  6
Continuous
 62
     7
370
    25
100
AcDbLine
 10
98.9898352704
 20
53.0248981472
 30
0.0
 11
93.4898352704
 21
53.7748981472
 31
0.0
  0
LINE
  5
7F
330
1F
100
AcDbEntity
  8
0
  6
Continuous
 62
     7
370
    25
100
AcDbLine
 10
82.4898352704
 20
41.7748981472
 30
0.0
 11
87.9898352704
 21
42.5248981472
 31
0.0
  0
LINE
  5
80
330
1F
100
AcDbEntity
  8
0
  6
Continuous
 62
     7
370
    25
100
AcDbLine
 10
87.9898352704
 20
53.0248981472
 30
0.0
 11
82.4898352704
 21
53.7748981472
 31
0.0
  0
LINE
  5
81
330
1F
100
AcDbEntity
  8
0
  6
Continuous
 62
     7
370
    25
100
AcDbLine
 10
87.9898352704
 20
41.7748981472
 30
0.0
 11
93.4898352704
 21
42.5248981472
 31
0.0
  0
LINE
  5
82
330
1F
100
AcDbEntity
  8
0
  6
Continuous
 62
     7
370
    25
100
AcDbLine
 10
93.4898352704
 20
53.0248981472
 30
0.0
 11
87.9898352704
 21
53.7748981472
 31
0.0
  0
LINE
  5
83
330
1F
100
AcDbEntity
  8
0
  6
Continuous
 62
     7
370
    25
100
AcDbLine
 10
69.4898352704
 20
36.7748981472
 30
0.0
 11
70.4723156427
 21
35.073192225
 31
0.0
  0
LINE
  5
84
330
1F
100
AcDbEntity
  8
0
  6
Continuous
 62
     7
370
    25
100
AcDbLine
 10
74.5073548982
 20
35.073192225
 30
0.0
 11
75.4898352704
 21
36.7748981472
 31
0.0
  0
LINE
  5
85
330
1F
100
AcDbEntity
  8
0
  6
Continuous
 62
     7
370
    25
100
AcDbLine
 10
70.4723156427
 20
60.4766040694
 30
0.0
 11
69.4898352704
 21
58.7748981472
 31
0.0
  0
LINE
  5
86
330
1F
100
AcDbEntity
  8
0
  6
Continuous
 62
     7
370
    25
100
AcDbLine
 10
75.4898352704
 20
58.7748981472
 30
0.0
 11
74.5073548982
 21
60.4766040694
 31
0.0
  0
ARC
  5
87
330
1F
100
AcDbEntity
  8
0
  6
Continuous
 62
     7
370
    25
100
AcDbCircle
 10
104.9898352704
 20
42.9705232367
 30
0.0
 40
0.5
100
AcDbArc
 50
276.5819446552
 51
0.0
  0
ARC
  5
88
330
1F
100
AcDbEntity
  8
0
  6
Continuous
 62
     7
370
    25
100
AcDbCircle
 10
104.9898352704
 20
52.5792730576
 30
0.0
 40
0.5
100
AcDbArc
 50
0.0
 51
83.4180553448
  0
LINE
  5
89
330
1F
100
AcDbEntity
  8
0
  6
Continuous
 62
     7
370
    25
100
AcDbLine
 10
72.5702200282
 20
60.4766040694
 30
0.0
 11
72.4898352704
 21
60.1766040694
 31
0.0
  0
LINE
  5
8A
330
1F
100
AcDbEntity
  8
0
  6
Continuous
 62
     7
370
    25
100
AcDbLine
 10
72.4898352704
 20
60.1766040694
 30
0.0
 11
72.4094505127
 21
60.4766040694
 31
0.0
  0
LINE
  5
8B
330
1F
100
AcDbEntity
  8
0
  6
Continuous
 62
     7
370
    25
100
AcDbLine
 10
72.4094505127
 20
35.073192225
 30
0.0
 11
72.4898352704
 21
35.373192225
 31
0.0
  0
LINE
  5
8C
330
1F
100
AcDbEntity
  8
0
  6
Continuous
 62
     7
370
    25
100
AcDbLine
 10
72.4898352704
 20
35.373192225
 30
0.0
 11
72.5702200282
 21
35.073192225
 31
0.0
  0
SPLINE
  5
8D
330
1F
100
AcDbEntity
  8
0
  6
Continuous
 62
     7
370
    25
100
AcDbSpline
210
0.0
220
0.0
230
1.0
 70
     8
 71
     3
 72
     8
 73
     4
 74
     0
 42
0.000000001
 43
0.00000001
 40
0.0
 40
0.0
 40
0.0
 40
0.0
 40
1.0
 40
1.0
 40
1.0
 40
1.0
 10
72.48983527043771
 20
41.11228374271573
 30
0.0
 10
72.51557622027102
 20
41.21629284215408
 30
0.0
 10
72.54239776453191
 20
41.32021108463869
 30
0.0
 10
72.57022002816703
 20
41.42404518610653
 30
0.0
  0
LINE
  5
8E
330
1F
100
AcDbEntity
  8
0
  6
Continuous
 62
     7
370
    25
100
AcDbLine
 10
72.4898352704
 20
41.1122837427
 30
0.0
 11
72.4898352704
 21
42.0475680729
 31
0.0
  0
SPLINE
  5
8F
330
1F
100
AcDbEntity
  8
0
  6
Continuous
 62
     7
370
    25
100
AcDbSpline
210
0.0
220
0.0
230
1.0
 70
     8
 71
     3
 72
     8
 73
     4
 74
     0
 42
0.000000001
 43
0.00000001
 40
0.0
 40
0.0
 40
0.0
 40
0.0
 40
1.0
 40
1.0
 40
1.0
 40
1.0
 10
72.57022002816703
 20
41.42404518610653
 30
0.0
 10
72.54238697461113
 20
41.63179392610731
 30
0.0
 10
72.51556598684084
 20
41.83963257258034
 30
0.0
 10
72.48983527043771
 20
42.04756807288813
 30
0.0
  0
SPLINE
  5
90
330
1F
100
AcDbEntity
  8
0
  6
Continuous
 62
     7
370
    25
100
AcDbSpline
210
0.0
220
0.0
230
1.0
 70
     8
 71
     3
 72
    19
 73
    15
 74
     0
 42
0.000000001
 43
0.00000001
 40
0.0
 40
0.0
 40
0.0
 40
0.0
 40
0.1227280999764553
 40
0.239716523588393
 40
0.3518621792202463
 40
0.4632019818032239
 40
0.5202611541541643
 40
0.5794324380306665
 40
0.6405963441586369
 40
0.70529822908802
 40
0.7732361059084537
 40
0.844648929340316
 40
0.9200459817773698
 40
1.0
 40
1.0
 40
1.0
 40
1.0
 10
73.07445065505308
 20
48.71119622411548
 30
0.0
 10
73.0738555137053
 20
48.72827607480075
 30
0.0
 10
73.07269306423397
 20
48.76163699565316
 30
0.0
 10
73.06247565735383
 20
48.80972123926038
 30
0.0
 10
73.04628722942225
 20
48.85437590828943
 30
0.0
 10
73.02673975070903
 20
48.88839375836771
 30
0.0
 10
73.00751026834625
 20
48.91355636315935
 30
0.0
 10
72.99096714469918
 20
48.93188206514422
 30
0.0
 10
72.972210630824
 20
48.94954991906664
 30
0.0
 10
72.95072625665425
 20
48.96586662231579
 30
0.0
 10
72.92725278286156
 20
48.98180990630264
 30
0.0
 10
72.90166092629254
 20
48.99722753649691
 30
0.0
 10
72.87358582366267
 20
49.01162429825981
 30
0.0
 10
72.85384260228568
 20
49.02038784287013
 30
0.0
 10
72.84368142428386
 20
49.02489814719241
 30
0.0
  0
SPLINE
  5
91
330
1F
100
AcDbEntity
  8
0
  6
Continuous
 62
     7
370
    25
100
AcDbSpline
210
0.0
220
0.0
230
1.0
 70
     8
 71
     3
 72
    23
 73
    19
 74
     0
 42
0.000000001
 43
0.00000001
 40
0.0
 40
0.0
 40
0.0
 40
0.0
 40
0.0552698294993248
 40
0.1099567044850939
 40
0.1632335040550556
 40
0.2180575651623569
 40
0.2732775387226747
 40
0.330881045495497
 40
0.3904799376860887
 40
0.4536559730386418
 40
0.5189026226022312
 40
0.5833461108214767
 40
0.6485466930814432
 40
0.7150552190344911
 40
0.7825206438000537
 40
0.8523352944264511
 40
0.9249348997257085
 40
1.0
 40
1.0
 40
1.0
 40
1.0
 10
72.83917421274538
 20
48.4095135318078
 30
0.0
 10
72.84700755092376
 20
48.4096911158293
 30
0.0
 10
72.86259160571487
 20
48.41004441081775
 30
0.0
 10
72.88535921597027
 20
48.4145006904056
 30
0.0
 10
72.90743208144026
 20
48.42119557541929
 30
0.0
 10
72.92871004857692
 20
48.43040551234127
 30
0.0
 10
72.94906961016135
 20
48.44271038262129
 30
0.0
 10
72.96853574338833
 20
48.45748032608221
 30
0.0
 10
72.98743468049165
 20
48.47472247146752
 30
0.0
 10
73.00486227319524
 20
48.49488744182688
 30
0.0
 10
73.02130095588764
 20
48.51671817287985
 30
0.0
 10
73.03551158556463
 20
48.54042007806379
 30
0.0
 10
73.0475565057821
 20
48.56547038292747
 30
0.0
 10
73.05750817755217
 20
48.59189212300878
 30
0.0
 10
73.06498942392096
 20
48.61979114294253
 30
0.0
 10
73.07036229317467
 20
48.64903083414328
 30
0.0
 10
73.07372118626836
 20
48.67966848572183
 30
0.0
 10
73.07420480718703
 20
48.70057064647924
 30
0.0
 10
73.07445065505308
 20
48.71119622411548
 30
0.0
  0
SPLINE
  5
92
330
1F
100
AcDbEntity
  8
0
  6
Continuous
 62
     7
370
    25
100
AcDbSpline
210
0.0
220
0.0
230
1.0
 70
     8
 71
     3
 72
    19
 73
    15
 74
     0
 42
0.000000001
 43
0.00000001
 40
0.0
 40
0.0
 40
0.0
 40
0.0
 40
0.1101423815503174
 40
0.2157418685830274
 40
0.3179605426392306
 40
0.4180517606815226
 40
0.5115631470355316
 40
0.5965727584443461
 40
0.6733290469034968
 40
0.7440491927238595
 40
0.8107168223002833
 40
0.8740854521098849
 40
0.9367096168966699
 40
1.0
 40
1.0
 40
1.0
 40
1.0
 10
72.59368142428386
 20
48.79412891642318
 30
0.0
 10
72.59399771325245
 20
48.77557178689101
 30
0.0
 10
72.59461724564441
 20
48.73922292876342
 30
0.0
 10
72.60205849275502
 20
48.6861181492848
 30
0.0
 10
72.61246781857488
 20
48.63527659965317
 30
0.0
 10
72.62804399021636
 20
48.58785879557837
 30
0.0
 10
72.64673984191636
 20
48.54478007748011
 30
0.0
 10
72.66782078003895
 20
48.5072006421271
 30
0.0
 10
72.69170453707979
 20
48.47601110743643
 30
0.0
 10
72.718077661628
 20
48.45113354913499
 30
0.0
 10
72.74669345101951
 20
48.43287430468307
 30
0.0
 10
72.77620637838032
 20
48.41916893322764
 30
0.0
 10
72.80730311158231
 20
48.41113428917483
 30
0.0
 10
72.82851310475023
 20
48.41005568657162
 30
0.0
 10
72.83917421274538
 20
48.4095135318078
 30
0.0
  0
LINE
  5
93
330
1F
100
AcDbEntity
  8
0
  6
Continuous
 62
     7
370
    25
100
AcDbLine
 10
72.4398352704
 20
48.7941289164
 30
0.0
 11
72.5936814243
 21
48.7941289164
 31
0.0
  0
SPLINE
  5
94
330
1F
100
AcDbEntity
  8
0
  6
Continuous
 62
     7
370
    25
100
AcDbSpline
210
0.0
220
0.0
230
1.0
 70
     8
 71
     3
 72
    23
 73
    19
 74
     0
 42
0.000000001
 43
0.00000001
 40
0.0
 40
0.0
 40
0.0
 40
0.0
 40
0.0669051223273616
 40
0.1334773340846825
 40
0.2010229080576287
 40
0.2712178684297488
 40
0.3428591616573978
 40
0.4138109980627169
 40
0.4855518488903453
 40
0.5598002749200529
 40
0.5998999649035781
 40
0.6436094423977958
 40
0.6919106424505659
 40
0.7447030291556902
 40
0.8015038302285953
 40
0.8628660266331954
 40
0.9293326711591618
 40
1.0
 40
1.0
 40
1.0
 40
1.0
 10
72.12252757813
 20
48.33259045488472
 30
0.0
 10
72.13650388201255
 20
48.33324628674974
 30
0.0
 10
72.16438694563615
 20
48.33455468715176
 30
0.0
 10
72.2054085265962
 20
48.34454425277683
 30
0.0
 10
72.2449337689682
 20
48.36097451422658
 30
0.0
 10
72.28228263517225
 20
48.38397968461985
 30
0.0
 10
72.31691470318758
 20
48.41197051828767
 30
0.0
 10
72.34769412214412
 20
48.44467606555412
 30
0.0
 10
72.37334699293618
 20
48.48217655304295
 30
0.0
 10
72.39100546717194
 20
48.51691341422766
 30
0.0
 10
72.40277409763759
 20
48.54775641598264
 30
0.0
 10
72.41102604100257
 20
48.57409878996476
 30
0.0
 10
72.41762249830654
 20
48.6036159682719
 30
0.0
 10
72.42400325903019
 20
48.63595360360877
 30
0.0
 10
72.42935248389828
 20
48.67124807980374
 30
0.0
 10
72.43383266938756
 20
48.70953119495378
 30
0.0
 10
72.4374118902316
 20
48.75081835064788
 30
0.0
 10
72.43901114756594
 20
48.77940022145636
 30
0.0
 10
72.4398352704377
 20
48.79412891642318
 30
0.0
  0
SPLINE
  5
95
330
1F
100
AcDbEntity
  8
0
  6
Continuous
 62
     7
370
    25
100
AcDbSpline
210
0.0
220
0.0
230
1.0
 70
     8
 71
     3
 72
    23
 73
    19
 74
     0
 42
0.000000001
 43
0.00000001
 40
0.0
 40
0.0
 40
0.0
 40
0.0
 40
0.0760618905628339
 40
0.1487324608035361
 40
0.2183745247439722
 40
0.2857225935927383
 40
0.3510576941824569
 40
0.414934915729319
 40
0.4784859417740854
 40
0.542169035281216
 40
0.6047501165431387
 40
0.6641185017301124
 40
0.7214996756099116
 40
0.7776159163852548
 40
0.8326661086975489
 40
0.8878580281135741
 40
0.9434676608977686
 40
1.0
 40
1.0
 40
1.0
 40
1.0
 10
71.80521988582231
 20
48.71450151257702
 30
0.0
 10
71.80548341593158
 20
48.70046410714123
 30
0.0
 10
71.80599872631046
 20
48.67301517261814
 30
0.0
 10
71.81075145533349
 20
48.63296574475444
 30
0.0
 10
71.81764306045937
 20
48.59485306763953
 30
0.0
 10
71.8284228708214
 20
48.55906608102788
 30
0.0
 10
71.84135503414578
 20
48.52511781185135
 30
0.0
 10
71.85828560941849
 20
48.49376608355728
 30
0.0
 10
71.87740595705425
 20
48.46408919406817
 30
0.0
 10
71.89964659877022
 20
48.43695653909388
 30
0.0
 10
71.92368632509493
 20
48.412495123923
 30
0.0
 10
71.94919033235703
 20
48.39135775857021
 30
0.0
 10
71.97536783035999
 20
48.37305038270667
 30
0.0
 10
72.00282948721863
 20
48.35833430772566
 30
0.0
 10
72.03130592615553
 20
48.34669320170886
 30
0.0
 10
72.06090373473386
 20
48.33877320632595
 30
0.0
 10
72.09137368088572
 20
48.33326504773321
 30
0.0
 10
72.11208613821513
 20
48.33281654925228
 30
0.0
 10
72.12252757813
 20
48.33259045488472
 30
0.0
  0
SPLINE
  5
96
330
1F
100
AcDbEntity
  8
0
  6
Continuous
 62
     7
370
    25
100
AcDbSpline
210
0.0
220
0.0
230
1.0
 70
     8
 71
     3
 72
    15
 73
    11
 74
     0
 42
0.000000001
 43
0.00000001
 40
0.0
 40
0.0
 40
0.0
 40
0.0
 40
0.1182713048357256
 40
0.2361775330837632
 40
0.355662932948509
 40
0.4759041646706825
 40
0.6001273417110832
 40
0.7286081161551193
 40
0.8613134756739422
 40
1.0
 40
1.0
 40
1.0
 40
1.0
 10
71.88634969351462
 20
48.96510247411549
 30
0.0
 10
71.87987469327797
 20
48.95670394131899
 30
0.0
 10
71.86694467965606
 20
48.9399328000844
 30
0.0
 10
71.8504439817113
 20
48.91260355818508
 30
0.0
 10
71.83614639942496
 20
48.88386146414833
 30
0.0
 10
71.82522481554655
 20
48.85308374662509
 30
0.0
 10
71.8159772466369
 20
48.82093455928764
 30
0.0
 10
71.80992559558014
 20
48.78689425990257
 30
0.0
 10
71.80577352214733
 20
48.75126316685468
 30
0.0
 10
71.8054071229363
 20
48.72693412536194
 30
0.0
 10
71.80521988582231
 20
48.71450151257702
 30
0.0
  0
SPLINE
  5
97
330
1F
100
AcDbEntity
  8
0
  6
Continuous
 62
     7
370
    25
100
AcDbSpline
210
0.0
220
0.0
230
1.0
 70
     8
 71
     3
 72
    15
 73
    11
 74
     0
 42
0.000000001
 43
0.00000001
 40
0.0
 40
0.0
 40
0.0
 40
0.0
 40
0.1497703860319679
 40
0.2913164099952444
 40
0.4259663731047425
 40
0.5521595739695284
 40
0.6715274135235927
 40
0.7861216286916589
 40
0.8953250730704446
 40
1.0
 40
1.0
 40
1.0
 40
1.0
 10
72.09368142428386
 20
49.08259045488472
 30
0.0
 10
72.08213184716871
 20
49.07908332998174
 30
0.0
 10
72.05966691647524
 20
49.07226166741407
 30
0.0
 10
72.0273353569003
 20
49.06064982539902
 30
0.0
 10
71.99769619123254
 20
49.04742056594026
 30
0.0
 10
71.97053199609911
 20
49.03322861223909
 30
0.0
 10
71.94557525218588
 20
49.01832356394362
 30
0.0
 10
71.9234858797427
 20
49.00164573888517
 30
0.0
 10
71.90329365022423
 20
48.9844303909649
 30
0.0
 10
71.89191738796414
 20
48.97145352524289
 30
0.0
 10
71.88634969351462
 20
48.96510247411549
 30
0.0
  0
LINE
  5
98
330
1F
100
AcDbEntity
  8
0
  6
Continuous
 62
     7
370
    25
100
AcDbLine
 10
72.0936814243
 20
49.2172058395
 30
0.0
 11
72.0936814243
 21
49.0825904549
 31
0.0
  0
SPLINE
  5
99
330
1F
100
AcDbEntity
  8
0
  6
Continuous
 62
     7
370
    25
100
AcDbSpline
210
0.0
220
0.0
230
1.0
 70
     8
 71
     3
 72
    23
 73
    19
 74
     0
 42
0.000000001
 43
0.00000001
 40
0.0
 40
0.0
 40
0.0
 40
0.0
 40
0.0655411703374033
 40
0.1289631677825933
 40
0.1903771361885609
 40
0.2500923616690527
 40
0.308548432459201
 40
0.3663979630552958
 40
0.42454218926668
 40
0.4831699964229055
 40
0.5422433998311199
 40
0.6017393520173299
 40
0.6625060022496068
 40
0.7248555134488469
 40
0.7891278292811811
 40
0.8563463998785099
 40
0.9262952349869055
 40
1.0
 40
1.0
 40
1.0
 40
1.0
 10
71.65137373197615
 20
48.71690535873087
 30
0.0
 10
71.65174582337265
 20
48.73294220170935
 30
0.0
 10
71.65247797516288
 20
48.7644973610251
 30
0.0
 10
71.65748308996143
 20
48.8108874317621
 30
0.0
 10
71.66662452077763
 20
48.85516816006118
 30
0.0
 10
71.67892593736309
 20
48.89739941628547
 30
0.0
 10
71.69452239825475
 20
48.93761871759699
 30
0.0
 10
71.71394469740673
 20
48.97570333410172
 30
0.0
 10
71.73679248400038
 20
49.01188757418177
 30
0.0
 10
71.76333545020319
 20
49.04582998181515
 30
0.0
 10
71.79302745295608
 20
49.07752651083212
 30
0.0
 10
71.82639560008509
 20
49.10613482121646
 30
0.0
 10
71.8628230589084
 20
49.13213187533449
 30
0.0
 10
71.90273294013642
 20
49.15482157763942
 30
0.0
 10
71.94560947896976
 20
49.17523741447479
 30
0.0
 10
71.9920016925619
 20
49.19202925303792
 30
0.0
 10
72.04149484484289
 20
49.20680878245346
 30
0.0
 10
72.07598530491825
 20
49.21368026713036
 30
0.0
 10
72.09368142428386
 20
49.2172058395001
 30
0.0
  0
SPLINE
  5
9A
330
1F
100
AcDbEntity
  8
0
  6
Continuous
 62
     7
370
    25
100
AcDbSpline
210
0.0
220
0.0
230
1.0
 70
     8
 71
     3
 72
    19
 73
    15
 74
     0
 42
0.000000001
 43
0.00000001
 40
0.0
 40
0.0
 40
0.0
 40
0.0
 40
0.079641704194991
 40
0.158908613257856
 40
0.2395997983184508
 40
0.3224093988203483
 40
0.405827748173513
 40
0.4876442139503136
 40
0.5697199979738973
 40
0.6530646649976933
 40
0.7374573001733064
 40
0.8224924079539123
 40
0.9097550737466982
 40
1.0
 40
1.0
 40
1.0
 40
1.0
 10
72.13544825120692
 20
48.19797507026933
 30
0.0
 10
72.11444492020361
 20
48.19874584098084
 30
0.0
 10
72.07253710020818
 20
48.20028375514458
 30
0.0
 10
72.0106068341655
 20
48.21397438484763
 30
0.0
 10
71.95017366010325
 20
48.23532098914786
 30
0.0
 10
71.89213300117825
 20
48.26510493284828
 30
0.0
 10
71.83794161081862
 20
48.30195549523793
 30
0.0
 10
71.78967502678208
 20
48.34603964077733
 30
0.0
 10
71.74790692053473
 20
48.39628569091991
 30
0.0
 10
71.71312121427819
 20
48.45236479529076
 30
0.0
 10
71.68529415020086
 20
48.51309537443905
 30
0.0
 10
71.6659852045569
 20
48.57805779355876
 30
0.0
 10
71.65340796972916
 20
48.64630742139525
 30
0.0
 10
71.6520593637572
 20
48.69311060345106
 30
0.0
 10
71.65137373197615
 20
48.71690535873087
 30
0.0
  0
SPLINE
  5
9B
330
1F
100
AcDbEntity
  8
0
  6
Continuous
 62
     7
370
    25
100
AcDbSpline
210
0.0
220
0.0
230
1.0
 70
     8
 71
     3
 72
    15
 73
    11
 74
     0
 42
0.000000001
 43
0.00000001
 40
0.0
 40
0.0
 40
0.0
 40
0.0
 40
0.1281455049994643
 40
0.2541925386280419
 40
0.3781411397135888
 40
0.5013808330744057
 40
0.6239569784447038
 40
0.7470758858273289
 40
0.8728647202442611
 40
1.0
 40
1.0
 40
1.0
 40
1.0
 10
72.40197469351462
 20
48.2875183395001
 30
0.0
 10
72.39209385308962
 20
48.28029768331255
 30
0.0
 10
72.37249397784295
 20
48.26597461418201
 30
0.0
 10
72.34096298127737
 20
48.24834516551808
 30
0.0
 10
72.30918688204187
 20
48.23216895809699
 30
0.0
 10
72.27591628489803
 20
48.22026373768689
 30
0.0
 10
72.24221990027752
 20
48.20999000424882
 30
0.0
 10
72.2073761539116
 20
48.20323022973648
 30
0.0
 10
72.17171609088403
 20
48.19889072489079
 30
0.0
 10
72.14758036007503
 20
48.1982813697802
 30
0.0
 10
72.13544825120692
 20
48.19797507026933
 30
0.0
  0
SPLINE
  5
9C
330
1F
100
AcDbEntity
  8
0
  6
Continuous
 62
     7
370
    25
100
AcDbSpline
210
0.0
220
0.0
230
1.0
 70
     8
 71
     3
 72
    11
 73
     7
 74
     0
 42
0.000000001
 43
0.00000001
 40
0.0
 40
0.0
 40
0.0
 40
0.0
 40
0.253879600326656
 40
0.5030089172783633
 40
0.7502910806899731
 40
1.0
 40
1.0
 40
1.0
 40
1.0
 10
72.52997950120694
 20
48.45007843565394
 30
0.0
 10
72.52227457054629
 20
48.43412196940823
 30
0.0
 10
72.50700887442764
 20
48.40250759472228
 30
0.0
 10
72.47707069263453
 20
48.35941451063675
 30
0.0
 10
72.44250368662571
 20
48.32029542119805
 30
0.0
 10
72.41552826394849
 20
48.298479541625
 30
0.0
 10
72.40197469351462
 20
48.2875183395001
 30
0.0
  0
SPLINE
  5
9D
330
1F
100
AcDbEntity
  8
0
  6
Continuous
 62
     7
370
    25
100
AcDbSpline
210
0.0
220
0.0
230
1.0
 70
     8
 71
     3
 72
    15
 73
    11
 74
     0
 42
0.000000001
 43
0.00000001
 40
0.0
 40
0.0
 40
0.0
 40
0.0
 40
0.1280675485958904
 40
0.2506083188676684
 40
0.3706301659145029
 40
0.4900722467299488
 40
0.6103747641546199
 40
0.7343130699115256
 40
0.8632165042449895
 40
1.0
 40
1.0
 40
1.0
 40
1.0
 10
72.83857325120692
 20
48.27489814719241
 30
0.0
 10
72.8227131963331
 20
48.27539682906972
 30
0.0
 10
72.79167753013463
 20
48.27637267211735
 30
0.0
 10
72.74636831707541
 20
48.28465854592977
 30
0.0
 10
72.70366477409733
 20
48.29860265859101
 30
0.0
 10
72.66338713318726
 20
48.31791827112438
 30
0.0
 10
72.62579077326308
 20
48.34292179265593
 30
0.0
 10
72.59079110575142
 20
48.37321009132322
 30
0.0
 10
72.55823289512503
 20
48.40899694636985
 30
0.0
 10
72.53958169242125
 20
48.43611649123697
 30
0.0
 10
72.52997950120694
 20
48.45007843565394
 30
0.0
  0
SPLINE
  5
9E
330
1F
100
AcDbEntity
  8
0
  6
Continuous
 62
     7
370
    25
100
AcDbSpline
210
0.0
220
0.0
230
1.0
 70
     8
 71
     3
 72
    19
 73
    15
 74
     0
 42
0.000000001
 43
0.00000001
 40
0.0
 40
0.0
 40
0.0
 40
0.0
 40
0.0902542493426766
 40
0.1785397915286845
 40
0.2660930338538198
 40
0.3546309779571733
 40
0.4418861533505626
 40
0.5257469151636484
 40
0.6081136336036366
 40
0.6901972728278825
 40
0.770821484330335
 40
0.8483261812554109
 40
0.9240117400247433
 40
1.0
 40
1.0
 40
1.0
 40
1.0
 10
73.22829680889923
 20
48.71299910873087
 30
0.0
 10
73.22770571022284
 20
48.6934207906987
 30
0.0
 10
73.22653640644789
 20
48.65469121458006
 30
0.0
 10
73.21585879081401
 20
48.59779276588699
 30
0.0
 10
73.19896230551936
 20
48.54292412912894
 30
0.0
 10
73.17561642246064
 20
48.4906858800648
 30
0.0
 10
73.14682185967689
 20
48.44216369466641
 30
0.0
 10
73.11255125815056
 20
48.39899104320335
 30
0.0
 10
73.07346584322741
 20
48.36175311000166
 30
0.0
 10
73.03029474423374
 20
48.33051266243304
 30
0.0
 10
72.98415666878219
 20
48.30605194855288
 30
0.0
 10
72.93667088714764
 20
48.2880149313473
 30
0.0
 10
72.88795004226667
 20
48.2770342109193
 30
0.0
 10
72.8550540654773
 20
48.27561111514348
 30
0.0
 10
72.83857325120692
 20
48.27489814719241
 30
0.0
  0
SPLINE
  5
9F
330
1F
100
AcDbEntity
  8
0
  6
Continuous
 62
     7
370
    25
100
AcDbSpline
210
0.0
220
0.0
230
1.0
 70
     8
 71
     3
 72
    23
 73
    19
 74
     0
 42
0.000000001
 43
0.00000001
 40
0.0
 40
0.0
 40
0.0
 40
0.0
 40
0.0726253460834355
 40
0.1419766113262345
 40
0.2089849284189386
 40
0.2739568703644447
 40
0.336889347396841
 40
0.3987449534945902
 40
0.4601158852788617
 40
0.5208249225900291
 40
0.5809944586324857
 40
0.6401519276014648
 40
0.6986224507562546
 40
0.7572710809271643
 40
0.8164266940046602
 40
0.8762540482034705
 40
0.9371652930625374
 40
1.0
 40
1.0
 40
1.0
 40
1.0
 10
72.84368142428386
 20
49.1595135318078
 30
0.0
 10
72.8587810602733
 20
49.15586658151593
 30
0.0
 10
72.88829961358357
 20
49.14873709199146
 30
0.0
 10
72.9304741539467
 20
49.13386670336194
 30
0.0
 10
72.97038423454273
 20
49.11766702256425
 30
0.0
 10
73.00728255184076
 20
49.09821454917935
 30
0.0
 10
73.04191065301191
 20
49.07699651165387
 30
0.0
 10
73.07348313492683
 20
49.05268677385278
 30
0.0
 10
73.10280297726989
 20
49.0264068927531
 30
0.0
 10
73.12882293622297
 20
48.99733905733805
 30
0.0
 10
73.15238482016869
 20
48.96685534520628
 30
0.0
 10
73.17247413045828
 20
48.93452622245597
 30
0.0
 10
73.18975591025735
 20
48.90100212516857
 30
0.0
 10
73.20399315248966
 20
48.86605078247631
 30
0.0
 10
73.21471837691799
 20
48.82956813746545
 30
0.0
 10
73.22249986502833
 20
48.7918840131851
 30
0.0
 10
73.22755319969166
 20
48.75289965599312
 30
0.0
 10
73.22804638387153
 20
48.72643640287958
 30
0.0
 10
73.22829680889923
 20
48.71299910873087
 30
0.0
  0
LINE
  5
A0
330
1F
100
AcDbEntity
  8
0
  6
Continuous
 62
     7
370
    25
100
AcDbLine
 10
72.8436814243
 20
49.0248981472
 30
0.0
 11
72.8436814243
 21
49.1595135318
 31
0.0
  0
LINE
  5
A1
330
1F
100
AcDbEntity
  8
0
  6
Continuous
 62
     7
370
    25
100
AcDbLine
 10
73.2282968089
 20
46.7374975467
 30
0.0
 11
73.1468665204
 21
46.6338316813
 31
0.0
  0
LINE
  5
A2
330
1F
100
AcDbEntity
  8
0
  6
Continuous
 62
     7
370
    25
100
AcDbLine
 10
72.5438016166
 20
47.1852138929
 30
0.0
 11
73.2282968089
 21
46.7374975467
 31
0.0
  0
SPLINE
  5
A3
330
1F
100
AcDbEntity
  8
0
  6
Continuous
 62
     7
370
    25
100
AcDbSpline
210
0.0
220
0.0
230
1.0
 70
     8
 71
     3
 72
    19
 73
    15
 74
     0
 42
0.000000001
 43
0.00000001
 40
0.0
 40
0.0
 40
0.0
 40
0.0
 40
0.0978059775289525
 40
0.1996122522918967
 40
0.3052960258330042
 40
0.4158173591641855
 40
0.4742405666184931
 40
0.5372869128296535
 40
0.6033858352934857
 40
0.6743111580696057
 40
0.7495304673574823
 40
0.828608314269512
 40
0.9120427387714449
 40
1.0
 40
1.0
 40
1.0
 40
1.0
 10
72.10810450120692
 20
47.35288216208934
 30
0.0
 10
72.12354655517025
 20
47.35233854138883
 30
0.0
 10
72.15506224827521
 20
47.35122906571913
 30
0.0
 10
72.20293172233761
 20
47.34460784274614
 30
0.0
 10
72.25172053551991
 20
47.3324637108471
 30
0.0
 10
72.29308010116593
 20
47.31932110587756
 30
0.0
 10
72.32733331497113
 20
47.30627967443252
 30
0.0
 10
72.35438217307818
 20
47.2941873591158
 30
0.0
 10
72.38294663575546
 20
47.28066667717633
 30
0.0
 10
72.41248623526106
 20
47.2648185550571
 30
0.0
 10
72.44384498193398
 20
47.2480182666574
 30
0.0
 10
72.47586156565066
 20
47.22839362330907
 30
0.0
 10
72.5097053309103
 20
47.20791500642873
 30
0.0
 10
72.532237984112
 20
47.19291289376017
 30
0.0
 10
72.54380161659155
 20
47.18521389285856
 30
0.0
  0
SPLINE
  5
A4
330
1F
100
AcDbEntity
  8
0
  6
Continuous
 62
     7
370
    25
100
AcDbSpline
210
0.0
220
0.0
230
1.0
 70
     8
 71
     3
 72
    19
 73
    15
 74
     0
 42
0.000000001
 43
0.00000001
 40
0.0
 40
0.0
 40
0.0
 40
0.0
 40
0.0843261511037431
 40
0.1670353409858404
 40
0.2495407139852791
 40
0.3327066655796642
 40
0.4158726171740491
 40
0.4977774155681173
 40
0.5803136056784763
 40
0.6645325781316562
 40
0.7495711764063213
 40
0.8324741628544072
 40
0.9156738488962566
 40
0.9999999999999999
 40
0.9999999999999999
 40
0.9999999999999999
 40
0.9999999999999999
 10
71.65137373197615
 20
46.89855523901241
 30
0.0
 10
71.65202867564132
 20
46.91873954318415
 30
0.0
 10
71.65332600437034
 20
46.95872111575397
 30
0.0
 10
71.66488285907317
 20
47.01753511350232
 30
0.0
 10
71.68361438298733
 20
47.07404805072065
 30
0.0
 10
71.70942084703486
 20
47.12786268842608
 30
0.0
 10
71.74201580046636
 20
47.17771739740792
 30
0.0
 10
71.78126150385451
 20
47.22230583083148
 30
0.0
 10
71.82629058210391
 20
47.26147285617303
 30
0.0
 10
71.8772411679451
 20
47.29389622351295
 30
0.0
 10
71.9316383091829
 20
47.32032135589684
 30
0.0
 10
71.98887591792754
 20
47.33895938389377
 30
0.0
 10
72.04780206459
 20
47.35101264524916
 30
0.0
 10
72.08791378356587
 20
47.3522562025301
 30
0.0
 10
72.10810450120692
 20
47.35288216208934
 30
0.0
  0
SPLINE
  5
A5
330
1F
100
AcDbEntity
  8
0
  6
Continuous
 62
     7
370
    25
100
AcDbSpline
210
0.0
220
0.0
230
1.0
 70
     8
 71
     3
 72
    19
 73
    15
 74
     0
 42
0.000000001
 43
0.00000001
 40
0.0
 40
0.0
 40
0.0
 40
0.0
 40
0.0859901205637197
 40
0.1691084375726415
 40
0.2505285789581879
 40
0.332255696176845
 40
0.4135763652356401
 40
0.4941261456201216
 40
0.5763059341204168
 40
0.660712671904547
 40
0.7461272722239101
 40
0.830014985960974
 40
0.9144197259288509
 40
1.0
 40
1.0
 40
1.0
 40
1.0
 10
72.11080882813
 20
46.4298052390124
 30
0.0
 10
72.08983000484389
 20
46.43058803701555
 30
0.0
 10
72.0485729859588
 20
46.4321274899943
 30
0.0
 10
71.98823123681706
 20
46.44333405382757
 30
0.0
 10
71.93120634159621
 20
46.46267407912374
 30
0.0
 10
71.87727420187323
 20
46.48854871380409
 30
0.0
 10
71.82800397640752
 20
46.52211901775676
 30
0.0
 10
71.78347690437722
 20
46.56190167361225
 30
0.0
 10
71.74466501997581
 20
46.60827273868672
 30
0.0
 10
71.71136992111806
 20
46.66013413592289
 30
0.0
 10
71.68491700700037
 20
46.71626427371991
 30
0.0
 10
71.6653598276593
 20
46.77511855924577
 30
0.0
 10
71.65367391597943
 20
46.83619393782747
 30
0.0
 10
71.65214398672737
 20
46.87767252334196
 30
0.0
 10
71.65137373197615
 20
46.89855523901241
 30
0.0
  0
SPLINE
  5
A6
330
1F
100
AcDbEntity
  8
0
  6
Continuous
 62
     7
370
    25
100
AcDbSpline
210
0.0
220
0.0
230
1.0
 70
     8
 71
     3
 72
    23
 73
    19
 74
     0
 42
0.000000001
 43
0.00000001
 40
0.0
 40
0.0
 40
0.0
 40
0.0
 40
0.0652308037420297
 40
0.128404896003223
 40
0.1900670715964782
 40
0.2509433657682801
 40
0.3115458328521434
 40
0.3728628021568294
 40
0.4350236738562386
 40
0.4990717247070431
 40
0.5630910750496624
 40
0.6255101063303751
 40
0.6866800359296492
 40
0.7472825030135124
 40
0.8085634952159588
 40
0.8707421035159856
 40
0.9343409515059125
 40
1.0
 40
1.0
 40
1.0
 40
1.0
 10
72.55521988582231
 20
46.87481725824318
 30
0.0
 10
72.55481012366698
 20
46.85957190267096
 30
0.0
 10
72.55400351905807
 20
46.82956187390413
 30
0.0
 10
72.54779615447585
 20
46.78550181582956
 30
0.0
 10
72.53801396365144
 20
46.74316370041248
 30
0.0
 10
72.52375442538793
 20
46.70272300944588
 30
0.0
 10
72.50553913066122
 20
46.66403458864892
 30
0.0
 10
72.48370818625531
 20
46.62687641888812
 30
0.0
 10
72.45713432324527
 20
46.59194698598546
 30
0.0
 10
72.42744934219505
 20
46.55879648060893
 30
0.0
 10
72.39457063455426
 20
46.52869915315481
 30
0.0
 10
72.35968434739452
 20
46.50205227220158
 30
0.0
 10
72.32282682696672
 20
46.47966936145839
 30
0.0
 10
72.28401674156673
 20
46.46150910933785
 30
0.0
 10
72.24331391604079
 20
46.44740701851019
 30
0.0
 10
72.20077042768862
 20
46.43712659920579
 30
0.0
 10
72.15635693991999
 20
46.43104963085442
 30
0.0
 10
72.12615200766305
 20
46.43022442054796
 30
0.0
 10
72.11080882813
 20
46.4298052390124
 30
0.0
  0
SPLINE
  5
A7
330
1F
100
AcDbEntity
  8
0
  6
Continuous
 62
     7
370
    25
100
AcDbSpline
210
0.0
220
0.0
230
1.0
 70
     8
 71
     3
 72
     9
 73
     5
 74
     0
 42
0.000000001
 43
0.00000001
 40
0.0
 40
0.0
 40
0.0
 40
0.0
 40
0.5126593363417812
 40
1.0
 40
1.0
 40
1.0
 40
1.0
 10
72.54079680889923
 20
47.03016581593548
 30
0.0
 10
72.54500274917935
 20
47.00377855437119
 30
0.0
 10
72.55320691124557
 20
46.95230721718152
 30
0.0
 10
72.55456031643776
 20
46.90020754638535
 30
0.0
 10
72.55521988582231
 20
46.87481725824318
 30
0.0
  0
LINE
  5
A8
330
1F
100
AcDbEntity
  8
0
  6
Continuous
 62
     7
370
    25
100
AcDbLine
 10
73.1468665204
 20
46.6338316813
 30
0.0
 11
72.5407968089
 21
47.0301658159
 31
0.0
  0
LINE
  5
A9
330
1F
100
AcDbEntity
  8
0
  6
Continuous
 62
     7
370
    25
100
AcDbLine
 10
73.1898352704
 20
47.9672306022
 30
0.0
 11
73.1898352704
 21
47.6898868522
 31
0.0
  0
LINE
  5
AA
330
1F
100
AcDbEntity
  8
0
  6
Continuous
 62
     7
370
    25
100
AcDbLine
 10
73.0359891166
 20
48.0552714676
 30
0.0
 11
73.1898352704
 21
47.9672306022
 31
0.0
  0
LINE
  5
AB
330
1F
100
AcDbEntity
  8
0
  6
Continuous
 62
     7
370
    25
100
AcDbLine
 10
73.0359891166
 20
47.8245022368
 30
0.0
 11
73.0359891166
 21
48.0552714676
 31
0.0
  0
LINE
  5
AC
330
1F
100
AcDbEntity
  8
0
  6
Continuous
 62
     7
370
    25
100
AcDbLine
 10
71.6898352704
 20
47.8245022368
 30
0.0
 11
73.0359891166
 21
47.8245022368
 31
0.0
  0
LINE
  5
AD
330
1F
100
AcDbEntity
  8
0
  6
Continuous
 62
     7
370
    25
100
AcDbLine
 10
71.6898352704
 20
47.6898868522
 30
0.0
 11
71.6898352704
 21
47.8245022368
 31
0.0
  0
LINE
  5
AE
330
1F
100
AcDbEntity
  8
0
  6
Continuous
 62
     7
370
    25
100
AcDbLine
 10
73.1898352704
 20
47.6898868522
 30
0.0
 11
71.6898352704
 21
47.6898868522
 31
0.0
  0
LINE
  5
AF
330
1F
100
AcDbEntity
  8
0
  6
Continuous
 62
     7
370
    25
100
AcDbLine
 10
72.5702200282
 20
54.1257511083
 30
0.0
 11
74.5073548982
 21
54.1257511083
 31
0.0
  0
SPLINE
  5
B0
330
1F
100
AcDbEntity
  8
0
  6
Continuous
 62
     7
370
    25
100
AcDbSpline
210
0.0
220
0.0
230
1.0
 70
     8
 71
     3
 72
    12
 73
     8
 74
     0
 42
0.000000001
 43
0.00000001
 40
0.0
 40
0.0
 40
0.0
 40
0.0
 40
0.2499999999999999
 40
0.2499999999999999
 40
0.4999999999999999
 40
0.4999999999999999
 40
1.0
 40
1.0
 40
1.0
 40
1.0
 10
75.4898352704377
 20
47.77489814719241
 30
0.0
 10
75.4898352704377
 20
48.31243177009735
 30
0.0
 10
75.46689107587973
 20
48.85279851392889
 30
0.0
 10
75.37603437500658
 20
49.93389029874604
 30
0.0
 10
75.30876576257663
 20
50.46870841748806
 30
0.0
 10
75.05064611673427
 20
52.05839405208482
 30
0.0
 10
74.80386942913402
 20
53.09859464272414
 30
0.0
 10
74.50735489819024
 20
54.12575110827829
 30
0.0
  0
SPLINE
  5
B1
330
1F
100
AcDbEntity
  8
0
  6
Continuous
 62
     7
370
    25
100
AcDbSpline
210
0.0
220
0.0
230
1.0
 70
     8
 71
     3
 72
    10
 73
     6
 74
     0
 42
0.000000001
 43
0.00000001
 40
0.0
 40
0.0
 40
0.0
 40
0.0
 40
0.5
 40
0.5
 40
1.0
 40
1.0
 40
1.0
 40
1.0
 10
74.50735489819027
 20
41.42404518610652
 30
0.0
 10
74.80583745651383
 20
42.45801909848559
 30
0.0
 10
75.05569836988825
 20
43.51542113774573
 30
0.0
 10
75.3974211523988
 20
45.63434819792217
 30
0.0
 10
75.4898352704377
 20
46.70061556971427
 30
0.0
 10
75.4898352704377
 20
47.77489814719241
 30
0.0
  0
LINE
  5
B2
330
1F
100
AcDbEntity
  8
0
  6
Continuous
 62
     7
370
    25
100
AcDbLine
 10
72.5702200282
 20
41.4240451861
 30
0.0
 11
74.5073548982
 21
41.4240451861
 31
0.0
  0
SPLINE
  5
B3
330
1F
100
AcDbEntity
  8
0
  6
Continuous
 62
     7
370
    25
100
AcDbSpline
210
0.0
220
0.0
230
1.0
 70
     8
 71
     3
 72
     8
 73
     4
 74
     0
 42
0.000000001
 43
0.00000001
 40
0.0
 40
0.0
 40
0.0
 40
0.0
 40
1.0
 40
1.0
 40
1.0
 40
1.0
 10
72.48983527043771
 20
42.04756807288813
 30
0.0
 10
72.46409477986808
 20
41.83955358542092
 30
0.0
 10
72.43727326021866
 20
41.63171700073576
 30
0.0
 10
72.40945051270836
 20
41.42404518610653
 30
0.0
  0
LINE
  5
B4
330
1F
100
AcDbEntity
  8
0
  6
Continuous
 62
     7
370
    25
100
AcDbLine
 10
70.4723156427
 20
41.4240451861
 30
0.0
 11
72.4094505127
 21
41.4240451861
 31
0.0
  0
SPLINE
  5
B5
330
1F
100
AcDbEntity
  8
0
  6
Continuous
 62
     7
370
    25
100
AcDbSpline
210
0.0
220
0.0
230
1.0
 70
     8
 71
     3
 72
    10
 73
     6
 74
     0
 42
0.000000001
 43
0.00000001
 40
0.0
 40
0.0
 40
0.0
 40
0.0
 40
0.5
 40
0.5
 40
1.0
 40
1.0
 40
1.0
 40
1.0
 10
70.47231564268512
 20
41.42404518610652
 30
0.0
 10
70.17383308436156
 20
42.45801909848559
 30
0.0
 10
69.92397217098714
 20
43.51542113774573
 30
0.0
 10
69.58224938847658
 20
45.63434819792217
 30
0.0
 10
69.4898352704377
 20
46.70061556971427
 30
0.0
 10
69.4898352704377
 20
47.77489814719241
 30
0.0
  0
SPLINE
  5
B6
330
1F
100
AcDbEntity
  8
0
  6
Continuous
 62
     7
370
    25
100
AcDbSpline
210
0.0
220
0.0
230
1.0
 70
     8
 71
     3
 72
    12
 73
     8
 74
     0
 42
0.000000001
 43
0.00000001
 40
0.0
 40
0.0
 40
0.0
 40
0.0
 40
0.2499999999999999
 40
0.2499999999999999
 40
0.4999999999999999
 40
0.4999999999999999
 40
1.0
 40
1.0
 40
1.0
 40
1.0
 10
69.4898352704377
 20
47.77489814719241
 30
0.0
 10
69.4898352704377
 20
48.31243177009735
 30
0.0
 10
69.51277946499566
 20
48.85279851392889
 30
0.0
 10
69.60363616586882
 20
49.93389029874604
 30
0.0
 10
69.67090477829876
 20
50.46870841748806
 30
0.0
 10
69.92902442414112
 20
52.05839405208482
 30
0.0
 10
70.17580111174136
 20
53.09859464272414
 30
0.0
 10
70.47231564268513
 20
54.12575110827829
 30
0.0
  0
LINE
  5
B7
330
1F
100
AcDbEntity
  8
0
  6
Continuous
 62
     7
370
    25
100
AcDbLine
 10
70.4723156427
 20
54.1257511083
 30
0.0
 11
72.4094505127
 21
54.1257511083
 31
0.0
  0
SPLINE
  5
B8
330
1F
100
AcDbEntity
  8
0
  6
Continuous
 62
     7
370
    25
100
AcDbSpline
210
0.0
220
0.0
230
1.0
 70
     8
 71
     3
 72
     8
 73
     4
 74
     0
 42
0.000000001
 43
0.00000001
 40
0.0
 40
0.0
 40
0.0
 40
0.0
 40
1.0
 40
1.0
 40
1.0
 40
1.0
 10
72.40945051270836
 20
54.12575110827829
 30
0.0
 10
72.43728356626426
 20
53.91800236827751
 30
0.0
 10
72.46410455403455
 20
53.71016372180449
 30
0.0
 10
72.48983527043771
 20
53.50222822149668
 30
0.0
  0
SPLINE
  5
B9
330
1F
100
AcDbEntity
  8
0
  6
Continuous
 62
     7
370
    25
100
AcDbSpline
210
0.0
220
0.0
230
1.0
 70
     8
 71
     3
 72
     8
 73
     4
 74
     0
 42
0.000000001
 43
0.00000001
 40
0.0
 40
0.0
 40
0.0
 40
0.0
 40
1.0
 40
1.0
 40
1.0
 40
1.0
 10
72.4898352704377
 20
53.50222822149668
 30
0.0
 10
72.51557576100731
 20
53.71024270896389
 30
0.0
 10
72.54239728065673
 20
53.91807929364905
 30
0.0
 10
72.57022002816703
 20
54.12575110827829
 30
0.0
  0
SPLINE
  5
BA
330
1F
100
AcDbEntity
  8
0
  6
Continuous
 62
     7
370
    25
100
AcDbSpline
210
0.0
220
0.0
230
1.0
 70
     8
 71
     3
 72
    12
 73
     8
 74
     0
 42
0.000000001
 43
0.00000001
 40
0.0
 40
0.0
 40
0.0
 40
0.0
 40
0.25
 40
0.25
 40
0.5
 40
0.5
 40
1.0
 40
1.0
 40
1.0
 40
1.0
 10
75.48983527043771
 20
38.24861870556359
 30
0.0
 10
75.48983527043771
 20
38.51810659979063
 30
0.0
 10
75.46661311611054
 20
38.78880348095766
 30
0.0
 10
75.37674596624979
 20
39.32429831188996
 30
0.0
 10
75.3101873771621
 20
39.59025471524188
 30
0.0
 10
75.05347790304042
 20
40.38340031868357
 30
0.0
 10
74.80651523001801
 20
40.90588429177196
 30
0.0
 10
74.50735489819041
 20
41.42404518610654
 30
0.0
  0
SPLINE
  5
BB
330
1F
100
AcDbEntity
  8
0
  6
Continuous
 62
     7
370
    25
100
AcDbSpline
210
0.0
220
0.0
230
1.0
 70
     8
 71
     3
 72
    10
 73
     6
 74
     0
 42
0.000000001
 43
0.00000001
 40
0.0
 40
0.0
 40
0.0
 40
0.0
 40
0.5
 40
0.5
 40
1.0
 40
1.0
 40
1.0
 40
1.0
 10
74.50735489819057
 20
35.07319222502063
 30
0.0
 10
74.80726414981088
 20
35.59265028648694
 30
0.0
 10
75.0543448091768
 20
36.1159026886834
 30
0.0
 10
75.39619962320918
 20
37.17334669757878
 30
0.0
 10
75.48983527043771
 20
37.70762007600318
 30
0.0
 10
75.48983527043771
 20
38.24861870556359
 30
0.0
  0
LINE
  5
BC
330
1F
100
AcDbEntity
  8
0
  6
Continuous
 62
     7
370
    25
100
AcDbLine
 10
72.5702200282
 20
35.073192225
 30
0.0
 11
74.5073548982
 21
35.073192225
 31
0.0
  0
SPLINE
  5
BD
330
1F
100
AcDbEntity
  8
0
  6
Continuous
 62
     7
370
    25
100
AcDbSpline
210
0.0
220
0.0
230
1.0
 70
     8
 71
     3
 72
     8
 73
     4
 74
     0
 42
0.000000001
 43
0.00000001
 40
0.0
 40
0.0
 40
0.0
 40
0.0
 40
1.0
 40
1.0
 40
1.0
 40
1.0
 10
72.57022002816703
 20
35.07319222502064
 30
0.0
 10
72.54238835510992
 20
35.1770614429294
 30
0.0
 10
72.51556729524387
 20
35.28098063151313
 30
0.0
 10
72.48983527043771
 20
35.38495366841145
 30
0.0
  0
SPLINE
  5
BE
330
1F
100
AcDbEntity
  8
0
  6
Continuous
 62
     7
370
    25
100
AcDbSpline
210
0.0
220
0.0
230
1.0
 70
     8
 71
     3
 72
     8
 73
     4
 74
     0
 42
0.000000001
 43
0.00000001
 40
0.0
 40
0.0
 40
0.0
 40
0.0
 40
1.0
 40
1.0
 40
1.0
 40
1.0
 10
72.48983527043771
 20
35.38495366841145
 30
0.0
 10
72.46409432060439
 20
35.28094456897309
 30
0.0
 10
72.43727277634348
 20
35.17702632648847
 30
0.0
 10
72.40945051270836
 20
35.07319222502064
 30
0.0
  0
LINE
  5
BF
330
1F
100
AcDbEntity
  8
0
  6
Continuous
 62
     7
370
    25
100
AcDbLine
 10
70.4723156427
 20
35.073192225
 30
0.0
 11
72.4094505127
 21
35.073192225
 31
0.0
  0
SPLINE
  5
C0
330
1F
100
AcDbEntity
  8
0
  6
Continuous
 62
     7
370
    25
100
AcDbSpline
210
0.0
220
0.0
230
1.0
 70
     8
 71
     3
 72
    10
 73
     6
 74
     0
 42
0.000000001
 43
0.00000001
 40
0.0
 40
0.0
 40
0.0
 40
0.0
 40
0.5
 40
0.5
 40
1.0
 40
1.0
 40
1.0
 40
1.0
 10
70.47231564268483
 20
35.07319222502063
 30
0.0
 10
70.17240639106453
 20
35.59265028648694
 30
0.0
 10
69.92532573169859
 20
36.1159026886834
 30
0.0
 10
69.5834709176662
 20
37.17334669757878
 30
0.0
 10
69.48983527043768
 20
37.70762007600318
 30
0.0
 10
69.48983527043768
 20
38.24861870556359
 30
0.0
  0
SPLINE
  5
C1
330
1F
100
AcDbEntity
  8
0
  6
Continuous
 62
     7
370
    25
100
AcDbSpline
210
0.0
220
0.0
230
1.0
 70
     8
 71
     3
 72
    12
 73
     8
 74
     0
 42
0.000000001
 43
0.00000001
 40
0.0
 40
0.0
 40
0.0
 40
0.0
 40
0.25
 40
0.25
 40
0.5
 40
0.5
 40
1.0
 40
1.0
 40
1.0
 40
1.0
 10
69.48983527043768
 20
38.24861870556359
 30
0.0
 10
69.48983527043768
 20
38.51810659979063
 30
0.0
 10
69.51305742476485
 20
38.78880348095766
 30
0.0
 10
69.6029245746256
 20
39.32429831188996
 30
0.0
 10
69.6694831637133
 20
39.59025471524188
 30
0.0
 10
69.92619263783497
 20
40.38340031868357
 30
0.0
 10
70.17315531085738
 20
40.90588429177196
 30
0.0
 10
70.47231564268498
 20
41.42404518610654
 30
0.0
  0
SPLINE
  5
C2
330
1F
100
AcDbEntity
  8
0
  6
Continuous
 62
     7
370
    25
100
AcDbSpline
210
0.0
220
0.0
230
1.0
 70
     8
 71
     3
 72
     8
 73
     4
 74
     0
 42
0.000000001
 43
0.00000001
 40
0.0
 40
0.0
 40
0.0
 40
0.0
 40
1.0
 40
1.0
 40
1.0
 40
1.0
 10
72.40945051270836
 20
41.42404518610653
 30
0.0
 10
72.43728218576547
 20
41.32017596819777
 30
0.0
 10
72.46410324563152
 20
41.21625677961404
 30
0.0
 10
72.48983527043771
 20
41.11228374271573
 30
0.0
  0
LINE
  5
C3
330
1F
100
AcDbEntity
  8
0
  6
Continuous
 62
     7
370
    25
100
AcDbLine
 10
72.5702200282
 20
60.4766040694
 30
0.0
 11
74.5073548982
 21
60.4766040694
 31
0.0
  0
SPLINE
  5
C4
330
1F
100
AcDbEntity
  8
0
  6
Continuous
 62
     7
370
    25
100
AcDbSpline
210
0.0
220
0.0
230
1.0
 70
     8
 71
     3
 72
    12
 73
     8
 74
     0
 42
0.000000001
 43
0.00000001
 40
0.0
 40
0.0
 40
0.0
 40
0.0
 40
0.2500000000000002
 40
0.2500000000000002
 40
0.5000000000000001
 40
0.5000000000000001
 40
1.0
 40
1.0
 40
1.0
 40
1.0
 10
75.48983527043771
 20
57.30117758882124
 30
0.0
 10
75.48983527043771
 20
57.57066548304827
 30
0.0
 10
75.46661311611054
 20
57.84136236421532
 30
0.0
 10
75.37674596624979
 20
58.37685719514761
 30
0.0
 10
75.3101873771621
 20
58.64281359849953
 30
0.0
 10
75.05347790304042
 20
59.43595920194122
 30
0.0
 10
74.80651523001801
 20
59.95844317502961
 30
0.0
 10
74.50735489819041
 20
60.47660406936419
 30
0.0
  0
SPLINE
  5
C5
330
1F
100
AcDbEntity
  8
0
  6
Continuous
 62
     7
370
    25
100
AcDbSpline
210
0.0
220
0.0
230
1.0
 70
     8
 71
     3
 72
    10
 73
     6
 74
     0
 42
0.000000001
 43
0.00000001
 40
0.0
 40
0.0
 40
0.0
 40
0.0
 40
0.5
 40
0.5
 40
1.0
 40
1.0
 40
1.0
 40
1.0
 10
74.50735489819056
 20
54.12575110827827
 30
0.0
 10
74.80726414981088
 20
54.6452091697446
 30
0.0
 10
75.0543448091768
 20
55.16846157194105
 30
0.0
 10
75.39619962320918
 20
56.22590558083643
 30
0.0
 10
75.48983527043771
 20
56.76017895926083
 30
0.0
 10
75.48983527043771
 20
57.30117758882124
 30
0.0
  0
SPLINE
  5
C6
330
1F
100
AcDbEntity
  8
0
  6
Continuous
 62
     7
370
    25
100
AcDbSpline
210
0.0
220
0.0
230
1.0
 70
     8
 71
     3
 72
     8
 73
     4
 74
     0
 42
0.000000001
 43
0.00000001
 40
0.0
 40
0.0
 40
0.0
 40
0.0
 40
1.0
 40
1.0
 40
1.0
 40
1.0
 10
72.57022002816703
 20
54.12575110827829
 30
0.0
 10
72.54238835510992
 20
54.22962032618704
 30
0.0
 10
72.51556729524388
 20
54.33353951477078
 30
0.0
 10
72.48983527043771
 20
54.43751255166909
 30
0.0
  0
SPLINE
  5
C7
330
1F
100
AcDbEntity
  8
0
  6
Continuous
 62
     7
370
    25
100
AcDbSpline
210
0.0
220
0.0
230
1.0
 70
     8
 71
     3
 72
     8
 73
     4
 74
     0
 42
0.000000001
 43
0.00000001
 40
0.0
 40
0.0
 40
0.0
 40
0.0
 40
1.0
 40
1.0
 40
1.0
 40
1.0
 10
72.4898352704377
 20
54.43751255166909
 30
0.0
 10
72.46409432060439
 20
54.33350345223074
 30
0.0
 10
72.43727277634348
 20
54.22958520974612
 30
0.0
 10
72.40945051270836
 20
54.12575110827829
 30
0.0
  0
SPLINE
  5
C8
330
1F
100
AcDbEntity
  8
0
  6
Continuous
 62
     7
370
    25
100
AcDbSpline
210
0.0
220
0.0
230
1.0
 70
     8
 71
     3
 72
    10
 73
     6
 74
     0
 42
0.000000001
 43
0.00000001
 40
0.0
 40
0.0
 40
0.0
 40
0.0
 40
0.5
 40
0.5
 40
1.0
 40
1.0
 40
1.0
 40
1.0
 10
70.47231564268483
 20
54.12575110827827
 30
0.0
 10
70.17240639106453
 20
54.6452091697446
 30
0.0
 10
69.92532573169859
 20
55.16846157194105
 30
0.0
 10
69.5834709176662
 20
56.22590558083643
 30
0.0
 10
69.48983527043768
 20
56.76017895926083
 30
0.0
 10
69.48983527043768
 20
57.30117758882124
 30
0.0
  0
SPLINE
  5
C9
330
1F
100
AcDbEntity
  8
0
  6
Continuous
 62
     7
370
    25
100
AcDbSpline
210
0.0
220
0.0
230
1.0
 70
     8
 71
     3
 72
    12
 73
     8
 74
     0
 42
0.000000001
 43
0.00000001
 40
0.0
 40
0.0
 40
0.0
 40
0.0
 40
0.2500000000000002
 40
0.2500000000000002
 40
0.5000000000000001
 40
0.5000000000000001
 40
1.0
 40
1.0
 40
1.0
 40
1.0
 10
69.48983527043768
 20
57.30117758882124
 30
0.0
 10
69.48983527043768
 20
57.57066548304827
 30
0.0
 10
69.51305742476485
 20
57.84136236421532
 30
0.0
 10
69.6029245746256
 20
58.37685719514761
 30
0.0
 10
69.6694831637133
 20
58.64281359849953
 30
0.0
 10
69.92619263783497
 20
59.43595920194122
 30
0.0
 10
70.17315531085738
 20
59.95844317502961
 30
0.0
 10
70.47231564268498
 20
60.47660406936419
 30
0.0
  0
LINE
  5
CA
330
1F
100
AcDbEntity
  8
0
  6
Continuous
 62
     7
370
    25
100
AcDbLine
 10
70.4723156427
 20
60.4766040694
 30
0.0
 11
72.4094505127
 21
60.4766040694
 31
0.0
  0
SPLINE
  5
CB
330
1F
100
AcDbEntity
  8
0
  6
Continuous
 62
     7
370
    25
100
AcDbSpline
210
0.0
220
0.0
230
1.0
 70
     8
 71
     3
 72
     8
 73
     4
 74
     0
 42
0.000000001
 43
0.00000001
 40
0.0
 40
0.0
 40
0.0
 40
0.0
 40
1.0
 40
1.0
 40
1.0
 40
1.0
 10
72.40945051270836
 20
60.47660406936418
 30
0.0
 10
72.43728218576547
 20
60.37273485145543
 30
0.0
 10
72.46410324563152
 20
60.26881566287168
 30
0.0
 10
72.48983527043771
 20
60.16484262597336
 30
0.0
  0
SPLINE
  5
CC
330
1F
100
AcDbEntity
  8
0
  6
Continuous
 62
     7
370
    25
100
AcDbSpline
210
0.0
220
0.0
230
1.0
 70
     8
 71
     3
 72
     8
 73
     4
 74
     0
 42
0.000000001
 43
0.00000001
 40
0.0
 40
0.0
 40
0.0
 40
0.0
 40
1.0
 40
1.0
 40
1.0
 40
1.0
 10
72.48983527043771
 20
60.16484262597336
 30
0.0
 10
72.51557622027102
 20
60.26885172541172
 30
0.0
 10
72.54239776453191
 20
60.37276996789635
 30
0.0
 10
72.57022002816703
 20
60.47660406936417
 30
0.0
  0
LINE
  5
CD
330
1F
100
AcDbEntity
  8
0
  6
Continuous
 62
     7
370
    25
100
AcDbLine
 10
75.4898352704
 20
47.7748981472
 30
0.0
 11
75.4898352704
 21
38.2486187056
 31
0.0
  0
LINE
  5
CE
330
1F
100
AcDbEntity
  8
0
  6
Continuous
 62
     7
370
    25
100
AcDbLine
 10
75.4898352704
 20
57.3011775888
 30
0.0
 11
75.4898352704
 21
47.7748981472
 31
0.0
  0
SPLINE
  5
CF
330
1F
100
AcDbEntity
  8
0
  6
Continuous
 62
     7
370
    25
100
AcDbSpline
210
0.0
220
0.0
230
1.0
 70
     8
 71
     3
 72
    23
 73
    19
 74
     0
 42
0.000000001
 43
0.00000001
 40
0.0
 40
0.0
 40
0.0
 40
0.0
 40
0.0611415679303346
 40
0.1200010135310724
 40
0.1782359705414084
 40
0.236495543407017
 40
0.294887248704973
 40
0.3546771928192958
 40
0.4166948132897785
 40
0.4806333779628396
 40
0.5458046334786409
 40
0.6097347883178745
 40
0.6729516883751544
 40
0.7360010960706833
 40
0.7998274385165253
 40
0.8647672769393869
 40
0.9310835057306723
 40
1.0
 40
1.0
 40
1.0
 40
1.0
 10
72.10269584736078
 20
46.56442062362779
 30
0.0
 10
72.11293755781092
 20
46.56465371467083
 30
0.0
 10
72.1330387046397
 20
46.565111196583
 30
0.0
 10
72.16245931824275
 20
46.5703857716392
 30
0.0
 10
72.19098412697628
 20
46.57750996308101
 30
0.0
 10
72.21797056350105
 20
46.58902330941835
 30
0.0
 10
72.24416491133142
 20
46.602736644682
 30
0.0
 10
72.2688185164425
 20
46.62020653297738
 30
0.0
 10
72.29262981988649
 20
46.64023618751535
 30
0.0
 10
72.31472223361662
 20
46.66343247098021
 30
0.0
 10
72.33492975328116
 20
46.68866795082977
 30
0.0
 10
72.35276627581688
 20
46.71550404458299
 30
0.0
 10
72.36781995046249
 20
46.74357866863703
 30
0.0
 10
72.38038010693118
 20
46.7728647031724
 30
0.0
 10
72.38944417548659
 20
46.8036973510733
 30
0.0
 10
72.3965812774055
 20
46.83557892942472
 30
0.0
 10
72.4003792856158
 20
46.86891717507017
 30
0.0
 10
72.40103802774084
 20
46.89153572165733
 30
0.0
 10
72.40137373197615
 20
46.90306245055087
 30
0.0
  0
SPLINE
  5
D0
330
1F
100
AcDbEntity
  8
0
  6
Continuous
 62
     7
370
    25
100
AcDbSpline
210
0.0
220
0.0
230
1.0
 70
     8
 71
     3
 72
    23
 73
    19
 74
     0
 42
0.000000001
 43
0.00000001
 40
0.0
 40
0.0
 40
0.0
 40
0.0
 40
0.0679503475997533
 40
0.1332598223836994
 40
0.1978002967596469
 40
0.2608458295516821
 40
0.3233192927503666
 40
0.3862817224595717
 40
0.4500615162333125
 40
0.5152075844858149
 40
0.5796407692199315
 40
0.6418172023841521
 40
0.7016924412115346
 40
0.7607690981778942
 40
0.8192540511346831
 40
0.8787376269055535
 40
0.938158297016091
 40
1.0
 40
1.0
 40
1.0
 40
1.0
 10
71.80521988582231
 20
46.89134370055087
 30
0.0
 10
71.80554947486344
 20
46.88021561152748
 30
0.0
 10
71.80619584355222
 20
46.85839192380389
 30
0.0
 10
71.81008749755044
 20
46.8261749857192
 30
0.0
 10
71.81697098866108
 20
46.79528331969947
 30
0.0
 10
71.82675282588127
 20
46.76569544085618
 30
0.0
 10
71.83867186771734
 20
46.73716483139542
 30
0.0
 10
71.85388022774512
 20
46.71009627717098
 30
0.0
 10
71.87165747925273
 20
46.68412433323988
 30
0.0
 10
71.89199603247093
 20
46.65981432053474
 30
0.0
 10
71.91385380593954
 20
46.63716263477139
 30
0.0
 10
71.93786240740809
 20
46.61821258370058
 30
0.0
 10
71.96217752975315
 20
46.60111030190527
 30
0.0
 10
71.98827595176702
 20
46.58815592126318
 30
0.0
 10
72.01521235124589
 20
46.57729575160854
 30
0.0
 10
72.04339731198985
 20
46.56999500204125
 30
0.0
 10
72.07268553180529
 20
46.56521543638328
 30
0.0
 10
72.09256014169662
 20
46.56468906426224
 30
0.0
 10
72.10269584736078
 20
46.56442062362779
 30
0.0
  0
SPLINE
  5
D1
330
1F
100
AcDbEntity
  8
0
  6
Continuous
 62
     7
370
    25
100
AcDbSpline
210
0.0
220
0.0
230
1.0
 70
     8
 71
     3
 72
    23
 73
    19
 74
     0
 42
0.000000001
 43
0.00000001
 40
0.0
 40
0.0
 40
0.0
 40
0.0
 40
0.0618526459466918
 40
0.12128383061537
 40
0.1807779320756124
 40
0.2392732340142805
 40
0.2986414352139417
 40
0.3581858222417117
 40
0.4207600867589708
 40
0.4852046730216432
 40
0.5503622689482868
 40
0.6136499245309119
 40
0.6766234955168248
 40
0.7391080134690123
 40
0.8021647022429443
 40
0.8667165971324775
 40
0.9320376285055445
 40
1.0
 40
1.0
 40
1.0
 40
1.0
 10
72.10269584736078
 20
47.21826677747395
 30
0.0
 10
72.09256052750386
 20
47.21799764516648
 30
0.0
 10
72.07268667412309
 20
47.21746991677765
 30
0.0
 10
72.04339294870958
 20
47.21270022152444
 30
0.0
 10
72.01522863845861
 20
47.20536244987118
 30
0.0
 10
71.98817314375772
 20
47.19462189644939
 30
0.0
 10
71.9623740480943
 20
47.18115010199173
 30
0.0
 10
71.93764809295408
 20
47.16457157345982
 30
0.0
 10
71.913978211914
 20
47.14516702537178
 30
0.0
 10
71.89196127536299
 20
47.12260962322645
 30
0.0
 10
71.87176680612357
 20
47.09828365199191
 30
0.0
 10
71.85378561280156
 20
47.07255732618677
 30
0.0
 10
71.8386862186276
 20
47.04551244553953
 30
0.0
 10
71.82674895737554
 20
47.01699468936844
 30
0.0
 10
71.81697205583323
 20
46.98740332854208
 30
0.0
 10
71.81008720671942
 20
46.95651262055572
 30
0.0
 10
71.80619592007366
 20
46.92429542331411
 30
0.0
 10
71.80554950070537
 20
46.9024717713435
 30
0.0
 10
71.80521988582231
 20
46.89134370055087
 30
0.0
  0
SPLINE
  5
D2
330
1F
100
AcDbEntity
  8
0
  6
Continuous
 62
     7
370
    25
100
AcDbSpline
210
0.0
220
0.0
230
1.0
 70
     8
 71
     3
 72
    23
 73
    19
 74
     0
 42
0.000000001
 43
0.00000001
 40
0.0
 40
0.0
 40
0.0
 40
0.0
 40
0.0705921865358075
 40
0.1385012886049303
 40
0.2037899961427016
 40
0.2667875726696014
 40
0.3290979656467185
 40
0.391174524603966
 40
0.4531677986176575
 40
0.5157967602265847
 40
0.5779688050530403
 40
0.6389663383752915
 40
0.698381066162843
 40
0.7573204555574266
 40
0.8164122397216688
 40
0.876279358230831
 40
0.9368234656501931
 40
1.0
 40
1.0
 40
1.0
 40
1.0
 10
72.40137373197615
 20
46.90306245055087
 30
0.0
 10
72.40103586752156
 20
46.91448876838869
 30
0.0
 10
72.40037298024421
 20
46.93690710988239
 30
0.0
 10
72.39662898812524
 20
46.96975656609762
 30
0.0
 10
72.38953514950484
 20
47.00076249978331
 30
0.0
 10
72.38035910594857
 20
47.03027904926746
 30
0.0
 10
72.36786528055177
 20
47.05799857461496
 30
0.0
 10
72.35286914800744
 20
47.0842372732433
 30
0.0
 10
72.33503972673465
 20
47.10873478119022
 30
0.0
 10
72.3145758103986
 20
47.1310608797224
 30
0.0
 10
72.2924980561187
 20
47.15156175215675
 30
0.0
 10
72.26870913238005
 20
47.16919585023172
 30
0.0
 10
72.24393583239926
 20
47.18442361134004
 30
0.0
 10
72.21794531721541
 20
47.19680051204302
 30
0.0
 10
72.19075425874074
 20
47.20643939034088
 30
0.0
 10
72.16248592788466
 20
47.21341142328357
 30
0.0
 10
72.1329512471296
 20
47.21729162248342
 30
0.0
 10
72.1129230286508
 20
47.21793714749218
 30
0.0
 10
72.10269584736078
 20
47.21826677747395
 30
0.0
  0
LINE
  5
D3
330
1F
100
AcDbEntity
  8
0
  6
Continuous
 62
     7
370
    25
100
AcDbLine
 10
69.4898352704
 20
47.7748981472
 30
0.0
 11
69.4898352704
 21
57.3011775888
 31
0.0
  0
LINE
  5
D4
330
1F
100
AcDbEntity
  8
0
  6
Continuous
 62
     7
370
    25
100
AcDbLine
 10
72.4898352704
 20
53.5022282215
 30
0.0
 11
72.4898352704
 21
54.4375125517
 31
0.0
  0
LINE
  5
D5
330
1F
100
AcDbEntity
  8
0
  6
Continuous
 62
     7
370
    25
100
AcDbLine
 10
69.4898352704
 20
38.2486187056
 30
0.0
 11
69.4898352704
 21
47.7748981472
 31
0.0
  0
LINE
  5
D6
330
1F
100
AcDbEntity
  8
0
  6
Continuous
 62
     7
370
    25
100
AcDbLine
 10
55.1862265434
 20
58.0816603745
 30
0.0
 11
55.1862265434
 21
37.4681359199
 31
0.0
  0
LINE
  5
D7
330
1F
100
AcDbEntity
  8
0
  6
Continuous
 62
     7
370
    25
100
AcDbLine
 10
52.4898352704
 20
39.0248981472
 30
0.0
 11
52.4898352704
 21
56.5248981472
 31
0.0
  0
LINE
  5
D8
330
1F
100
AcDbEntity
  8
0
  6
Continuous
 62
     7
370
    25
100
AcDbLine
 10
98.9898352704
 20
53.7748981472
 30
0.0
 11
98.9898352704
 21
41.7748981472
 31
0.0
  0
LINE
  5
D9
330
1F
100
AcDbEntity
  8
0
  6
Continuous
 62
     7
370
    25
100
AcDbLine
 10
82.4898352704
 20
53.7748981472
 30
0.0
 11
82.4898352704
 21
41.7748981472
 31
0.0
  0
LINE
  5
DA
330
1F
100
AcDbEntity
  8
0
  6
Continuous
 62
     7
370
    25
100
AcDbLine
 10
93.4898352704
 20
53.7748981472
 30
0.0
 11
93.4898352704
 21
41.7748981472
 31
0.0
  0
LINE
  5
DB
330
1F
100
AcDbEntity
  8
0
  6
Continuous
 62
     7
370
    25
100
AcDbLine
 10
87.9898352704
 20
53.7748981472
 30
0.0
 11
87.9898352704
 21
41.7748981472
 31
0.0
  0
LINE
  5
DC
330
1F
100
AcDbEntity
  8
0
  6
Continuous
 62
     7
370
    25
100
AcDbLine
 10
69.4898352704
 20
36.7748981472
 30
0.0
 11
69.4898352704
 21
38.2486187056
 31
0.0
  0
LINE
  5
DD
330
1F
100
AcDbEntity
  8
0
  6
Continuous
 62
     7
370
    25
100
AcDbLine
 10
75.4898352704
 20
38.2486187056
 30
0.0
 11
75.4898352704
 21
36.7748981472
 31
0.0
  0
LINE
  5
DE
330
1F
100
AcDbEntity
  8
0
  6
Continuous
 62
     7
370
    25
100
AcDbLine
 10
69.4898352704
 20
57.3011775888
 30
0.0
 11
69.4898352704
 21
58.7748981472
 31
0.0
  0
LINE
  5
DF
330
1F
100
AcDbEntity
  8
0
  6
Continuous
 62
     7
370
    25
100
AcDbLine
 10
75.4898352704
 20
58.7748981472
 30
0.0
 11
75.4898352704
 21
57.3011775888
 31
0.0
  0
LINE
  5
E0
330
1F
100
AcDbEntity
  8
0
  6
Continuous
 62
     7
370
    25
100
AcDbLine
 10
105.4898352704
 20
52.5792730548
 30
0.0
 11
105.4898352704
 21
42.9705232367
 31
0.0
  0
LINE
  5
E1
330
1F
100
AcDbEntity
  8
0
  6
Continuous
 62
     7
370
    25
100
AcDbLine
 10
72.4898352704
 20
60.164842626
 30
0.0
 11
72.4898352704
 21
60.1766040694
 31
0.0
  0
LINE
  5
E2
330
1F
100
AcDbEntity
  8
0
  6
Continuous
 62
     7
370
    25
100
AcDbLine
 10
72.4898352704
 20
35.373192225
 30
0.0
 11
72.4898352704
 21
35.3849536684
 31
0.0
  0
LINE
  5
E3
330
1F
100
AcDbEntity
  8
0
  6
Continuous
 62
     8
370
    25
100
AcDbLine
 10
105.0471473244
 20
42.4738187688
 30
0.0
 11
105.0471473244
 21
53.0759775256
 31
0.0
  0
LINE
  5
E4
330
1F
100
AcDbEntity
  8
0
  6
Continuous
 62
     7
370
    18
100
AcDbLine
 10
53.3710613014
 20
57.0336742334
 30
0.0
 11
68.9898352704
 21
57.5217609199
 31
0.0
  0
LINE
  5
E5
330
1F
100
AcDbEntity
  8
0
  6
Continuous
 62
     7
370
    18
100
AcDbLine
 10
53.3710613014
 20
38.516122061
 30
0.0
 11
68.9898352704
 21
38.0280353745
 31
0.0
  0
LINE
  5
E6
330
1F
100
AcDbEntity
  8
0
  6
Continuous
 62
     7
370
    18
100
AcDbLine
 10
68.9898352704
 20
37.0367731472
 30
0.0
 11
68.9898352704
 21
58.5130231472
 31
0.0
  0
LINE
  5
E7
330
1F
100
AcDbEntity
  8
0
  6
CENTERX2
 62
     7
370
    18
100
AcDbLine
 10
106.4898352704
 20
47.7748981472
 30
0.0
 11
50.979177756
 21
47.7748981472
 31
0.0
  0
CIRCLE
  5
E8
330
1F
100
AcDbEntity
  8
0
  6
Continuous
 62
     7
370
    25
100
AcDbCircle
 10
131.1177770541
 20
47.7748981472
 30
0.0
 40
4.804374910449908
  0
CIRCLE
  5
E9
330
1F
100
AcDbEntity
  8
0
  6
Continuous
 62
     7
370
    25
100
AcDbCircle
 10
131.1177770541
 20
47.7748981472
 30
0.0
 40
5.301079378385474
  0
CIRCLE
  5
EA
330
1F
100
AcDbEntity
  8
0
  6
Continuous
 62
     7
370
    25
100
AcDbCircle
 10
131.1177770541
 20
47.7748981472
 30
0.0
 40
4.199999999999996
  0
CIRCLE
  5
EB
330
1F
100
AcDbEntity
  8
0
  6
Continuous
 62
     7
370
    25
100
AcDbCircle
 10
131.1177770541
 20
47.7748981472
 30
0.0
 40
4.0
  0
CIRCLE
  5
EC
330
1F
100
AcDbEntity
  8
0
  6
Continuous
 62
     7
370
    25
100
AcDbCircle
 10
131.1177770541
 20
47.7748981472
 30
0.0
 40
5.999999999999993
  0
SPLINE
  5
ED
330
1F
100
AcDbEntity
  8
0
  6
Continuous
 62
     7
370
    25
100
AcDbSpline
210
0.0
220
0.0
230
1.0
 70
    24
 71
     3
 72
    10
 73
     6
 74
     0
 42
0.000000001
 43
0.00000001
 40
0.0
 40
0.0
 40
0.0
 40
0.0
 40
0.5000000000000001
 40
0.5000000000000001
 40
1.0
 40
1.0
 40
1.0
 40
1.0
 10
142.1177770540875
 20
41.42404518610651
 30
0.0
 10
142.1177770540875
 20
42.45801909848558
 30
0.0
 10
142.1177770540875
 20
43.51542113774573
 30
0.0
 10
142.1177770540875
 20
45.63434819792217
 30
0.0
 10
142.1177770540875
 20
46.70061556971427
 30
0.0
 10
142.1177770540875
 20
47.77489814719241
 30
0.0
  0
SPLINE
  5
EE
330
1F
100
AcDbEntity
  8
0
  6
Continuous
 62
     7
370
    25
100
AcDbSpline
210
0.0
220
0.0
230
1.0
 70
    24
 71
     3
 72
    10
 73
     6
 74
     0
 42
0.000000001
 43
0.00000001
 40
0.0
 40
0.0
 40
0.0
 40
0.0
 40
0.5
 40
0.5
 40
1.0
 40
1.0
 40
1.0
 40
1.0
 10
142.1177770540876
 20
41.42404518610654
 30
0.0
 10
141.2180492992267
 20
40.90458712464023
 30
0.0
 10
140.3117495534399
 20
40.38133472244376
 30
0.0
 10
138.4802028038738
 20
39.32389071354838
 30
0.0
 10
137.5548141673113
 20
38.78961733512399
 30
0.0
 10
136.6177770540875
 20
38.24861870556358
 30
0.0
  0
ARC
  5
EF
330
1F
100
AcDbEntity
  8
0
  6
Continuous
 62
     7
370
    25
100
AcDbCircle
 10
131.1177770541
 20
47.7748981472
 30
0.0
 40
11.0
100
AcDbArc
 50
300.0
 51
0.0
  0
ARC
  5
F0
330
1F
100
AcDbEntity
  8
0
  6
Continuous
 62
     7
370
    25
100
AcDbCircle
 10
131.1177770541
 20
47.7748981472
 30
0.0
 40
11.0
100
AcDbArc
 50
240.0
 51
300.0
  0
ARC
  5
F1
330
1F
100
AcDbEntity
  8
0
  6
Continuous
 62
     7
370
    25
100
AcDbCircle
 10
131.1177770541
 20
47.7748981472
 30
0.0
 40
11.0
100
AcDbArc
 50
180.0
 51
240.0
  0
ARC
  5
F2
330
1F
100
AcDbEntity
  8
0
  6
Continuous
 62
     7
370
    25
100
AcDbCircle
 10
131.1177770541
 20
47.7748981472
 30
0.0
 40
11.0
100
AcDbArc
 50
120.0
 51
180.0
  0
ARC
  5
F3
330
1F
100
AcDbEntity
  8
0
  6
Continuous
 62
     7
370
    25
100
AcDbCircle
 10
131.1177770541
 20
47.7748981472
 30
0.0
 40
11.0
100
AcDbArc
 50
60.0
 51
120.0
  0
ARC
  5
F4
330
1F
100
AcDbEntity
  8
0
  6
Continuous
 62
     7
370
    25
100
AcDbCircle
 10
131.1177770541
 20
47.7748981472
 30
0.0
 40
11.0
100
AcDbArc
 50
0.0
 51
60.0
  0
SPLINE
  5
F5
330
1F
100
AcDbEntity
  8
0
  6
Continuous
 62
     7
370
    25
100
AcDbSpline
210
0.0
220
0.0
230
1.0
 70
    24
 71
     3
 72
    12
 73
     8
 74
     0
 42
0.000000001
 43
0.00000001
 40
0.0
 40
0.0
 40
0.0
 40
0.0
 40
0.25
 40
0.25
 40
0.5
 40
0.5
 40
1.0
 40
1.0
 40
1.0
 40
1.0
 10
142.1177770540875
 20
47.77489814719241
 30
0.0
 10
142.1177770540875
 20
48.31243177009735
 30
0.0
 10
142.1177770540875
 20
48.85279851392889
 30
0.0
 10
142.1177770540875
 20
49.93389029874604
 30
0.0
 10
142.1177770540875
 20
50.46870841748805
 30
0.0
 10
142.1177770540875
 20
52.05839405208481
 30
0.0
 10
142.1177770540875
 20
53.09859464272414
 30
0.0
 10
142.1177770540875
 20
54.12575110827829
 30
0.0
  0
SPLINE
  5
F6
330
1F
100
AcDbEntity
  8
0
  6
Continuous
 62
     7
370
    25
100
AcDbSpline
210
0.0
220
0.0
230
1.0
 70
    24
 71
     3
 72
    12
 73
     8
 74
     0
 42
0.000000001
 43
0.00000001
 40
0.0
 40
0.0
 40
0.0
 40
0.0
 40
0.2500000000000001
 40
0.2500000000000001
 40
0.5000000000000001
 40
0.5000000000000001
 40
1.0
 40
1.0
 40
1.0
 40
1.0
 10
136.6177770540875
 20
57.30117758882124
 30
0.0
 10
137.0845437789135
 20
57.03168969459419
 30
0.0
 10
137.5534045305453
 20
56.76099281342716
 30
0.0
 10
138.4809087849105
 20
56.22549798249485
 30
0.0
 10
138.9415587881143
 20
55.95954157914293
 30
0.0
 10
140.3153272710752
 20
55.16639597570125
 30
0.0
 10
141.2202960586047
 20
54.64391200261286
 30
0.0
 10
142.1177770540876
 20
54.12575110827828
 30
0.0
  0
SPLINE
  5
F7
330
1F
100
AcDbEntity
  8
0
  6
Continuous
 62
     7
370
    25
100
AcDbSpline
210
0.0
220
0.0
230
1.0
 70
    24
 71
     3
 72
    10
 73
     6
 74
     0
 42
0.000000001
 43
0.00000001
 40
0.0
 40
0.0
 40
0.0
 40
0.0
 40
0.5
 40
0.5
 40
1.0
 40
1.0
 40
1.0
 40
1.0
 10
131.1177770540876
 20
35.07319222502063
 30
0.0
 10
130.2180492992267
 20
35.59265028648694
 30
0.0
 10
129.3117495534399
 20
36.1159026886834
 30
0.0
 10
127.4802028038738
 20
37.17334669757878
 30
0.0
 10
126.5548141673113
 20
37.70762007600318
 30
0.0
 10
125.6177770540875
 20
38.24861870556359
 30
0.0
  0
SPLINE
  5
F8
330
1F
100
AcDbEntity
  8
0
  6
Continuous
 62
     7
370
    25
100
AcDbSpline
210
0.0
220
0.0
230
1.0
 70
    24
 71
     3
 72
    12
 73
     8
 74
     0
 42
0.000000001
 43
0.00000001
 40
0.0
 40
0.0
 40
0.0
 40
0.0
 40
0.2500000000000002
 40
0.2500000000000002
 40
0.5000000000000002
 40
0.5000000000000002
 40
1.0
 40
1.0
 40
1.0
 40
1.0
 10
136.6177770540875
 20
38.24861870556358
 30
0.0
 10
136.1510103292615
 20
37.97913081133653
 30
0.0
 10
135.6821495776298
 20
37.70843393016951
 30
0.0
 10
134.7546453232645
 20
37.1729390992372
 30
0.0
 10
134.2939953200607
 20
36.90698269588528
 30
0.0
 10
132.9202268370999
 20
36.11383709244359
 30
0.0
 10
132.0152580495703
 20
35.59135311935521
 30
0.0
 10
131.1177770540875
 20
35.07319222502063
 30
0.0
  0
SPLINE
  5
F9
330
1F
100
AcDbEntity
  8
0
  6
Continuous
 62
     7
370
    25
100
AcDbSpline
210
0.0
220
0.0
230
1.0
 70
    24
 71
     3
 72
    12
 73
     8
 74
     0
 42
0.000000001
 43
0.00000001
 40
0.0
 40
0.0
 40
0.0
 40
0.0
 40
0.2500000000000002
 40
0.2500000000000002
 40
0.5000000000000001
 40
0.5000000000000001
 40
1.0
 40
1.0
 40
1.0
 40
1.0
 10
125.6177770540875
 20
57.30117758882124
 30
0.0
 10
126.0845437789135
 20
57.57066548304827
 30
0.0
 10
126.5534045305453
 20
57.84136236421532
 30
0.0
 10
127.4809087849105
 20
58.37685719514761
 30
0.0
 10
127.9415587881143
 20
58.64281359849953
 30
0.0
 10
129.3153272710752
 20
59.43595920194122
 30
0.0
 10
130.2202960586047
 20
59.95844317502961
 30
0.0
 10
131.1177770540876
 20
60.47660406936419
 30
0.0
  0
SPLINE
  5
FA
330
1F
100
AcDbEntity
  8
0
  6
Continuous
 62
     7
370
    25
100
AcDbSpline
210
0.0
220
0.0
230
1.0
 70
    24
 71
     3
 72
    10
 73
     6
 74
     0
 42
0.000000001
 43
0.00000001
 40
0.0
 40
0.0
 40
0.0
 40
0.0
 40
0.5
 40
0.5
 40
1.0
 40
1.0
 40
1.0
 40
1.0
 10
131.1177770540875
 20
60.4766040693642
 30
0.0
 10
132.0175048089484
 20
59.95714600789788
 30
0.0
 10
132.9238045547351
 20
59.43389360570141
 30
0.0
 10
134.7553513043013
 20
58.37644959680603
 30
0.0
 10
135.6807399408638
 20
57.84217621838164
 30
0.0
 10
136.6177770540875
 20
57.30117758882124
 30
0.0
  0
SPLINE
  5
FB
330
1F
100
AcDbEntity
  8
0
  6
Continuous
 62
     7
370
    25
100
AcDbSpline
210
0.0
220
0.0
230
1.0
 70
    24
 71
     3
 72
    10
 73
     6
 74
     0
 42
0.000000001
 43
0.00000001
 40
0.0
 40
0.0
 40
0.0
 40
0.0
 40
0.5
 40
0.5
 40
1.0
 40
1.0
 40
1.0
 40
1.0
 10
120.1177770540875
 20
41.42404518610652
 30
0.0
 10
120.1177770540875
 20
42.45801909848559
 30
0.0
 10
120.1177770540875
 20
43.51542113774573
 30
0.0
 10
120.1177770540875
 20
45.63434819792217
 30
0.0
 10
120.1177770540875
 20
46.70061556971427
 30
0.0
 10
120.1177770540875
 20
47.77489814719241
 30
0.0
  0
SPLINE
  5
FC
330
1F
100
AcDbEntity
  8
0
  6
Continuous
 62
     7
370
    25
100
AcDbSpline
210
0.0
220
0.0
230
1.0
 70
    24
 71
     3
 72
    12
 73
     8
 74
     0
 42
0.000000001
 43
0.00000001
 40
0.0
 40
0.0
 40
0.0
 40
0.0
 40
0.25
 40
0.25
 40
0.5
 40
0.5
 40
1.0
 40
1.0
 40
1.0
 40
1.0
 10
125.6177770540875
 20
38.24861870556359
 30
0.0
 10
125.1510103292615
 20
38.51810659979063
 30
0.0
 10
124.6821495776298
 20
38.78880348095766
 30
0.0
 10
123.7546453232646
 20
39.32429831188996
 30
0.0
 10
123.2939953200607
 20
39.59025471524188
 30
0.0
 10
121.9202268370999
 20
40.38340031868357
 30
0.0
 10
121.0152580495703
 20
40.90588429177196
 30
0.0
 10
120.1177770540875
 20
41.42404518610654
 30
0.0
  0
SPLINE
  5
FD
330
1F
100
AcDbEntity
  8
0
  6
Continuous
 62
     7
370
    25
100
AcDbSpline
210
0.0
220
0.0
230
1.0
 70
    24
 71
     3
 72
    12
 73
     8
 74
     0
 42
0.000000001
 43
0.00000001
 40
0.0
 40
0.0
 40
0.0
 40
0.0
 40
0.2499999999999999
 40
0.2499999999999999
 40
0.4999999999999999
 40
0.4999999999999999
 40
1.0
 40
1.0
 40
1.0
 40
1.0
 10
120.1177770540875
 20
47.77489814719241
 30
0.0
 10
120.1177770540875
 20
48.31243177009735
 30
0.0
 10
120.1177770540875
 20
48.85279851392889
 30
0.0
 10
120.1177770540875
 20
49.93389029874604
 30
0.0
 10
120.1177770540875
 20
50.46870841748806
 30
0.0
 10
120.1177770540875
 20
52.05839405208482
 30
0.0
 10
120.1177770540875
 20
53.09859464272414
 30
0.0
 10
120.1177770540875
 20
54.12575110827829
 30
0.0
  0
SPLINE
  5
FE
330
1F
100
AcDbEntity
  8
0
  6
Continuous
 62
     7
370
    25
100
AcDbSpline
210
0.0
220
0.0
230
1.0
 70
    24
 71
     3
 72
    10
 73
     6
 74
     0
 42
0.000000001
 43
0.00000001
 40
0.0
 40
0.0
 40
0.0
 40
0.0
 40
0.5
 40
0.5
 40
1.0
 40
1.0
 40
1.0
 40
1.0
 10
120.1177770540875
 20
54.12575110827827
 30
0.0
 10
121.0175048089484
 20
54.6452091697446
 30
0.0
 10
121.9238045547351
 20
55.16846157194105
 30
0.0
 10
123.7553513043012
 20
56.22590558083643
 30
0.0
 10
124.6807399408638
 20
56.76017895926083
 30
0.0
 10
125.6177770540875
 20
57.30117758882124
 30
0.0
  0
INSERT
  5
10A
330
1F
100
AcDbEntity
  8
0
  6
Continuous
 62
     7
370
    18
100
AcDbBlockReference
  2
SW_CENTERMARKSYMBOL_0
 10
131.1177770541
 20
47.7748981472
 30
0.0
  0
INSERT
  5
116
330
1F
100
AcDbEntity
  8
0
  6
Continuous
 62
     7
370
    18
100
AcDbBlockReference
  2
SW_CENTERMARKSYMBOL_1
 10
131.1177770541
 20
47.7748981472
 30
0.0
  0
LINE
  5
117
330
1F
100
AcDbEntity
  8
0
  6
Continuous
 62
     7
370
    25
100
AcDbLine
 10
69.4898352704
 20
93.4608580976
 30
0.0
 11
55.1862265434
 21
93.0138703249
 31
0.0
  0
LINE
  5
118
330
1F
100
AcDbEntity
  8
0
  6
Continuous
 62
     7
370
    25
100
AcDbLine
 10
55.1862265434
 20
72.4003458704
 30
0.0
 11
69.4898352704
 21
71.9533580976
 31
0.0
  0
LINE
  5
119
330
1F
100
AcDbEntity
  8
0
  6
Continuous
 62
     7
370
    25
100
AcDbLine
 10
55.1862265434
 20
93.0138703249
 30
0.0
 11
52.4898352704
 21
91.4571080976
 31
0.0
  0
LINE
  5
11A
330
1F
100
AcDbEntity
  8
0
  6
Continuous
 62
     7
370
    25
100
AcDbLine
 10
52.4898352704
 20
73.9571080976
 30
0.0
 11
55.1862265434
 21
72.4003458704
 31
0.0
  0
LINE
  5
11B
330
1F
100
AcDbEntity
  8
0
  6
Continuous
 62
     7
370
    25
100
AcDbLine
 10
82.4898352704
 20
76.7071080976
 30
0.0
 11
87.9898352704
 21
77.4571080976
 31
0.0
  0
LINE
  5
11C
330
1F
100
AcDbEntity
  8
0
  6
Continuous
 62
     7
370
    25
100
AcDbLine
 10
87.9898352704
 20
87.9571080976
 30
0.0
 11
82.4898352704
 21
88.7071080976
 31
0.0
  0
LINE
  5
11D
330
1F
100
AcDbEntity
  8
0
  6
Continuous
 62
     7
370
    25
100
AcDbLine
 10
98.9898352704
 20
76.7071080976
 30
0.0
 11
105.0471473244
 21
77.4060287193
 31
0.0
  0
LINE
  5
11E
330
1F
100
AcDbEntity
  8
0
  6
Continuous
 62
     7
370
    25
100
AcDbLine
 10
105.0471473244
 20
88.008187476
 30
0.0
 11
98.9898352704
 21
88.7071080976
 31
0.0
  0
LINE
  5
11F
330
1F
100
AcDbEntity
  8
0
  6
Continuous
 62
     7
370
    25
100
AcDbLine
 10
82.4898352704
 20
88.7071080976
 30
0.0
 11
75.4898352704
 21
88.7071080976
 31
0.0
  0
LINE
  5
120
330
1F
100
AcDbEntity
  8
0
  6
Continuous
 62
     7
370
    25
100
AcDbLine
 10
75.4898352704
 20
76.7071080976
 30
0.0
 11
82.4898352704
 21
76.7071080976
 31
0.0
  0
LINE
  5
121
330
1F
100
AcDbEntity
  8
0
  6
Continuous
 62
     7
370
    25
100
AcDbLine
 10
93.4898352704
 20
76.7071080976
 30
0.0
 11
98.9898352704
 21
77.4571080976
 31
0.0
  0
LINE
  5
122
330
1F
100
AcDbEntity
  8
0
  6
Continuous
 62
     7
370
    25
100
AcDbLine
 10
98.9898352704
 20
87.9571080976
 30
0.0
 11
93.4898352704
 21
88.7071080976
 31
0.0
  0
LINE
  5
123
330
1F
100
AcDbEntity
  8
0
  6
Continuous
 62
     7
370
    25
100
AcDbLine
 10
87.9898352704
 20
76.7071080976
 30
0.0
 11
93.4898352704
 21
77.4571080976
 31
0.0
  0
LINE
  5
124
330
1F
100
AcDbEntity
  8
0
  6
Continuous
 62
     7
370
    25
100
AcDbLine
 10
93.4898352704
 20
87.9571080976
 30
0.0
 11
87.9898352704
 21
88.7071080976
 31
0.0
  0
ARC
  5
125
330
1F
100
AcDbEntity
  8
0
  6
Continuous
 62
     7
370
    25
100
AcDbCircle
 10
104.9898352704
 20
77.9027331872
 30
0.0
 40
0.5
100
AcDbArc
 50
276.5819446552
 51
0.0
  0
ARC
  5
126
330
1F
100
AcDbEntity
  8
0
  6
Continuous
 62
     7
370
    25
100
AcDbCircle
 10
104.9898352704
 20
87.5114830081
 30
0.0
 40
0.5000000000000062
100
AcDbArc
 50
0.0
 51
83.4180553448
  0
LINE
  5
127
330
1F
100
AcDbEntity
  8
0
  6
Continuous
 62
     7
370
    25
100
AcDbLine
 10
72.5702200282
 20
93.7071080976
 30
0.0
 11
74.5073548982
 21
93.7071080976
 31
0.0
  0
SPLINE
  5
128
330
1F
100
AcDbEntity
  8
0
  6
Continuous
 62
     7
370
    25
100
AcDbSpline
210
0.0
220
0.0
230
1.0
 70
     8
 71
     3
 72
    12
 73
     8
 74
     0
 42
0.000000001
 43
0.00000001
 40
0.0
 40
0.0
 40
0.0
 40
0.0
 40
0.2500000000000001
 40
0.2500000000000001
 40
0.5000000000000001
 40
0.5000000000000001
 40
1.0
 40
1.0
 40
1.0
 40
1.0
 10
75.48983527043771
 20
88.2071080976466
 30
0.0
 10
75.48983527043771
 20
88.67387482247257
 30
0.0
 10
75.46661311611054
 20
89.14273557410431
 30
0.0
 10
75.37674596624979
 20
90.07023982846957
 30
0.0
 10
75.3101873771621
 20
90.53088983167338
 30
0.0
 10
75.05347790304042
 20
91.90465831463425
 30
0.0
 10
74.80651523001801
 20
92.8096271021638
 30
0.0
 10
74.50735489819041
 20
93.70710809764661
 30
0.0
  0
SPLINE
  5
129
330
1F
100
AcDbEntity
  8
0
  6
Continuous
 62
     7
370
    25
100
AcDbSpline
210
0.0
220
0.0
230
1.0
 70
     8
 71
     3
 72
    10
 73
     6
 74
     0
 42
0.000000001
 43
0.00000001
 40
0.0
 40
0.0
 40
0.0
 40
0.0
 40
0.5
 40
0.5
 40
1.0
 40
1.0
 40
1.0
 40
1.0
 10
74.50735489819056
 20
82.70710809764654
 30
0.0
 10
74.80726414981088
 20
83.60683585250744
 30
0.0
 10
75.0543448091768
 20
84.5131355982942
 30
0.0
 10
75.39619962320918
 20
86.3446823478603
 30
0.0
 10
75.48983527043771
 20
87.27007098442283
 30
0.0
 10
75.48983527043771
 20
88.2071080976466
 30
0.0
  0
LINE
  5
12A
330
1F
100
AcDbEntity
  8
0
  6
Continuous
 62
     7
370
    25
100
AcDbLine
 10
72.5702200282
 20
82.7071080976
 30
0.0
 11
74.5073548982
 21
82.7071080976
 31
0.0
  0
SPLINE
  5
12B
330
1F
100
AcDbEntity
  8
0
  6
Continuous
 62
     7
370
    25
100
AcDbSpline
210
0.0
220
0.0
230
1.0
 70
     8
 71
     3
 72
     8
 73
     4
 74
     0
 42
0.000000001
 43
0.00000001
 40
0.0
 40
0.0
 40
0.0
 40
0.0
 40
1.0
 40
1.0
 40
1.0
 40
1.0
 10
72.57022002816703
 20
82.70710809764658
 30
0.0
 10
72.54238835510992
 20
82.88701486040698
 30
0.0
 10
72.51556729524387
 20
83.06700817491534
 30
0.0
 10
72.48983527043771
 20
83.24709475744046
 30
0.0
  0
SPLINE
  5
12C
330
1F
100
AcDbEntity
  8
0
  6
Continuous
 62
     7
370
    25
100
AcDbSpline
210
0.0
220
0.0
230
1.0
 70
     8
 71
     3
 72
     8
 73
     4
 74
     0
 42
0.000000001
 43
0.00000001
 40
0.0
 40
0.0
 40
0.0
 40
0.0
 40
1.0
 40
1.0
 40
1.0
 40
1.0
 10
72.48983527043771
 20
83.24709475744046
 30
0.0
 10
72.46409432060439
 20
83.06694571276375
 30
0.0
 10
72.43727277634348
 20
82.88695403694713
 30
0.0
 10
72.40945051270836
 20
82.70710809764658
 30
0.0
  0
LINE
  5
12D
330
1F
100
AcDbEntity
  8
0
  6
Continuous
 62
     7
370
    25
100
AcDbLine
 10
70.4723156427
 20
82.7071080976
 30
0.0
 11
72.4094505127
 21
82.7071080976
 31
0.0
  0
SPLINE
  5
12E
330
1F
100
AcDbEntity
  8
0
  6
Continuous
 62
     7
370
    25
100
AcDbSpline
210
0.0
220
0.0
230
1.0
 70
     8
 71
     3
 72
    10
 73
     6
 74
     0
 42
0.000000001
 43
0.00000001
 40
0.0
 40
0.0
 40
0.0
 40
0.0
 40
0.5
 40
0.5
 40
1.0
 40
1.0
 40
1.0
 40
1.0
 10
70.47231564268483
 20
82.70710809764654
 30
0.0
 10
70.17240639106453
 20
83.60683585250744
 30
0.0
 10
69.92532573169859
 20
84.5131355982942
 30
0.0
 10
69.5834709176662
 20
86.3446823478603
 30
0.0
 10
69.48983527043768
 20
87.27007098442283
 30
0.0
 10
69.48983527043768
 20
88.2071080976466
 30
0.0
  0
SPLINE
  5
12F
330
1F
100
AcDbEntity
  8
0
  6
Continuous
 62
     7
370
    25
100
AcDbSpline
210
0.0
220
0.0
230
1.0
 70
     8
 71
     3
 72
    12
 73
     8
 74
     0
 42
0.000000001
 43
0.00000001
 40
0.0
 40
0.0
 40
0.0
 40
0.0
 40
0.2500000000000001
 40
0.2500000000000001
 40
0.5000000000000001
 40
0.5000000000000001
 40
1.0
 40
1.0
 40
1.0
 40
1.0
 10
69.48983527043768
 20
88.2071080976466
 30
0.0
 10
69.48983527043768
 20
88.67387482247257
 30
0.0
 10
69.51305742476485
 20
89.14273557410431
 30
0.0
 10
69.6029245746256
 20
90.07023982846957
 30
0.0
 10
69.6694831637133
 20
90.53088983167338
 30
0.0
 10
69.92619263783497
 20
91.90465831463425
 30
0.0
 10
70.17315531085738
 20
92.8096271021638
 30
0.0
 10
70.47231564268498
 20
93.70710809764661
 30
0.0
  0
LINE
  5
130
330
1F
100
AcDbEntity
  8
0
  6
Continuous
 62
     7
370
    25
100
AcDbLine
 10
70.4723156427
 20
93.7071080976
 30
0.0
 11
72.4094505127
 21
93.7071080976
 31
0.0
  0
SPLINE
  5
131
330
1F
100
AcDbEntity
  8
0
  6
Continuous
 62
     7
370
    25
100
AcDbSpline
210
0.0
220
0.0
230
1.0
 70
     8
 71
     3
 72
     8
 73
     4
 74
     0
 42
0.000000001
 43
0.00000001
 40
0.0
 40
0.0
 40
0.0
 40
0.0
 40
1.0
 40
1.0
 40
1.0
 40
1.0
 10
72.40945051270836
 20
93.70710809764658
 30
0.0
 10
72.43728218576547
 20
93.52720133488617
 30
0.0
 10
72.46410324563152
 20
93.34720802037782
 30
0.0
 10
72.48983527043771
 20
93.1671214378527
 30
0.0
  0
SPLINE
  5
132
330
1F
100
AcDbEntity
  8
0
  6
Continuous
 62
     7
370
    25
100
AcDbSpline
210
0.0
220
0.0
230
1.0
 70
     8
 71
     3
 72
     8
 73
     4
 74
     0
 42
0.000000001
 43
0.00000001
 40
0.0
 40
0.0
 40
0.0
 40
0.0
 40
1.0
 40
1.0
 40
1.0
 40
1.0
 10
72.48983527043771
 20
93.1671214378527
 30
0.0
 10
72.51557622027102
 20
93.34727048252941
 30
0.0
 10
72.54239776453191
 20
93.52726215834605
 30
0.0
 10
72.57022002816703
 20
93.70710809764658
 30
0.0
  0
SPLINE
  5
133
330
1F
100
AcDbEntity
  8
0
  6
Continuous
 62
     7
370
    25
100
AcDbSpline
210
0.0
220
0.0
230
1.0
 70
     8
 71
     3
 72
    12
 73
     8
 74
     0
 42
0.000000001
 43
0.00000001
 40
0.0
 40
0.0
 40
0.0
 40
0.0
 40
0.2500000000000002
 40
0.2500000000000002
 40
0.5000000000000001
 40
0.5000000000000001
 40
1.0
 40
1.0
 40
1.0
 40
1.0
 10
75.48983527043771
 20
77.20710809764658
 30
0.0
 10
75.48983527043771
 20
77.67387482247258
 30
0.0
 10
75.46661311611054
 20
78.14273557410431
 30
0.0
 10
75.37674596624979
 20
79.07023982846955
 30
0.0
 10
75.3101873771621
 20
79.53088983167338
 30
0.0
 10
75.05347790304042
 20
80.90465831463425
 30
0.0
 10
74.80651523001801
 20
81.8096271021638
 30
0.0
 10
74.50735489819041
 20
82.70710809764661
 30
0.0
  0
LINE
  5
134
330
1F
100
AcDbEntity
  8
0
  6
Continuous
 62
     7
370
    25
100
AcDbLine
 10
75.4898352704
 20
88.2071080976
 30
0.0
 11
75.4898352704
 21
77.2071080976
 31
0.0
  0
LINE
  5
135
330
1F
100
AcDbEntity
  8
0
  6
Continuous
 62
     7
370
    25
100
AcDbLine
 10
69.4898352704
 20
77.2071080976
 30
0.0
 11
69.4898352704
 21
88.2071080976
 31
0.0
  0
SPLINE
  5
136
330
1F
100
AcDbEntity
  8
0
  6
Continuous
 62
     7
370
    25
100
AcDbSpline
210
0.0
220
0.0
230
1.0
 70
     8
 71
     3
 72
    12
 73
     8
 74
     0
 42
0.000000001
 43
0.00000001
 40
0.0
 40
0.0
 40
0.0
 40
0.0
 40
0.2500000000000002
 40
0.2500000000000002
 40
0.5000000000000001
 40
0.5000000000000001
 40
1.0
 40
1.0
 40
1.0
 40
1.0
 10
69.48983527043768
 20
77.20710809764658
 30
0.0
 10
69.48983527043768
 20
77.67387482247258
 30
0.0
 10
69.51305742476485
 20
78.14273557410431
 30
0.0
 10
69.6029245746256
 20
79.07023982846955
 30
0.0
 10
69.6694831637133
 20
79.53088983167338
 30
0.0
 10
69.92619263783497
 20
80.90465831463425
 30
0.0
 10
70.17315531085738
 20
81.8096271021638
 30
0.0
 10
70.47231564268498
 20
82.70710809764661
 30
0.0
  0
LINE
  5
137
330
1F
100
AcDbEntity
  8
0
  6
Continuous
 62
     7
370
    25
100
AcDbLine
 10
72.4898352704
 20
82.1671214379
 30
0.0
 11
72.4898352704
 21
83.2470947574
 31
0.0
  0
SPLINE
  5
138
330
1F
100
AcDbEntity
  8
0
  6
Continuous
 62
     7
370
    25
100
AcDbSpline
210
0.0
220
0.0
230
1.0
 70
     8
 71
     3
 72
     8
 73
     4
 74
     0
 42
0.000000001
 43
0.00000001
 40
0.0
 40
0.0
 40
0.0
 40
0.0
 40
1.0
 40
1.0
 40
1.0
 40
1.0
 10
72.40945051270836
 20
82.70710809764658
 30
0.0
 10
72.43728218576547
 20
82.52720133488619
 30
0.0
 10
72.46410324563152
 20
82.34720802037782
 30
0.0
 10
72.48983527043771
 20
82.16712143785271
 30
0.0
  0
SPLINE
  5
139
330
1F
100
AcDbEntity
  8
0
  6
Continuous
 62
     7
370
    25
100
AcDbSpline
210
0.0
220
0.0
230
1.0
 70
     8
 71
     3
 72
    10
 73
     6
 74
     0
 42
0.000000001
 43
0.00000001
 40
0.0
 40
0.0
 40
0.0
 40
0.0
 40
0.5
 40
0.5
 40
1.0
 40
1.0
 40
1.0
 40
1.0
 10
74.50735489819056
 20
71.70710809764655
 30
0.0
 10
74.80726414981088
 20
72.60683585250744
 30
0.0
 10
75.0543448091768
 20
73.51313559829418
 30
0.0
 10
75.39619962320918
 20
75.3446823478603
 30
0.0
 10
75.48983527043771
 20
76.27007098442283
 30
0.0
 10
75.48983527043771
 20
77.20710809764658
 30
0.0
  0
LINE
  5
13A
330
1F
100
AcDbEntity
  8
0
  6
Continuous
 62
     7
370
    25
100
AcDbLine
 10
72.5702200282
 20
71.7071080976
 30
0.0
 11
74.5073548982
 21
71.7071080976
 31
0.0
  0
SPLINE
  5
13B
330
1F
100
AcDbEntity
  8
0
  6
Continuous
 62
     7
370
    25
100
AcDbSpline
210
0.0
220
0.0
230
1.0
 70
     8
 71
     3
 72
     8
 73
     4
 74
     0
 42
0.000000001
 43
0.00000001
 40
0.0
 40
0.0
 40
0.0
 40
0.0
 40
1.0
 40
1.0
 40
1.0
 40
1.0
 10
72.57022002816703
 20
71.7071080976466
 30
0.0
 10
72.54238835510992
 20
71.88701486040698
 30
0.0
 10
72.51556729524388
 20
72.06700817491534
 30
0.0
 10
72.48983527043771
 20
72.24709475744045
 30
0.0
  0
SPLINE
  5
13C
330
1F
100
AcDbEntity
  8
0
  6
Continuous
 62
     7
370
    25
100
AcDbSpline
210
0.0
220
0.0
230
1.0
 70
     8
 71
     3
 72
     8
 73
     4
 74
     0
 42
0.000000001
 43
0.00000001
 40
0.0
 40
0.0
 40
0.0
 40
0.0
 40
1.0
 40
1.0
 40
1.0
 40
1.0
 10
72.4898352704377
 20
72.24709475744046
 30
0.0
 10
72.46409432060439
 20
72.06694571276375
 30
0.0
 10
72.43727277634348
 20
71.88695403694713
 30
0.0
 10
72.40945051270836
 20
71.7071080976466
 30
0.0
  0
LINE
  5
13D
330
1F
100
AcDbEntity
  8
0
  6
Continuous
 62
     7
370
    25
100
AcDbLine
 10
70.4723156427
 20
71.7071080976
 30
0.0
 11
72.4094505127
 21
71.7071080976
 31
0.0
  0
SPLINE
  5
13E
330
1F
100
AcDbEntity
  8
0
  6
Continuous
 62
     7
370
    25
100
AcDbSpline
210
0.0
220
0.0
230
1.0
 70
     8
 71
     3
 72
    10
 73
     6
 74
     0
 42
0.000000001
 43
0.00000001
 40
0.0
 40
0.0
 40
0.0
 40
0.0
 40
0.5
 40
0.5
 40
1.0
 40
1.0
 40
1.0
 40
1.0
 10
70.47231564268483
 20
71.70710809764655
 30
0.0
 10
70.17240639106453
 20
72.60683585250744
 30
0.0
 10
69.92532573169859
 20
73.51313559829418
 30
0.0
 10
69.5834709176662
 20
75.3446823478603
 30
0.0
 10
69.48983527043768
 20
76.27007098442283
 30
0.0
 10
69.48983527043768
 20
77.20710809764658
 30
0.0
  0
SPLINE
  5
13F
330
1F
100
AcDbEntity
  8
0
  6
Continuous
 62
     7
370
    25
100
AcDbSpline
210
0.0
220
0.0
230
1.0
 70
     8
 71
     3
 72
     8
 73
     4
 74
     0
 42
0.000000001
 43
0.00000001
 40
0.0
 40
0.0
 40
0.0
 40
0.0
 40
1.0
 40
1.0
 40
1.0
 40
1.0
 10
72.48983527043771
 20
82.16712143785271
 30
0.0
 10
72.51557622027102
 20
82.34727048252942
 30
0.0
 10
72.54239776453191
 20
82.52726215834605
 30
0.0
 10
72.57022002816703
 20
82.70710809764658
 30
0.0
  0
LINE
  5
140
330
1F
100
AcDbEntity
  8
0
  6
Continuous
 62
     7
370
    25
100
AcDbLine
 10
55.1862265434
 20
82.7071080976
 30
0.0
 11
55.1862265434
 21
72.4003458704
 31
0.0
  0
LINE
  5
141
330
1F
100
AcDbEntity
  8
0
  6
Continuous
 62
     7
370
    25
100
AcDbLine
 10
55.1862265434
 20
93.0138703249
 30
0.0
 11
55.1862265434
 21
82.7071080976
 31
0.0
  0
LINE
  5
142
330
1F
100
AcDbEntity
  8
0
  6
Continuous
 62
     7
370
    25
100
AcDbLine
 10
52.4898352704
 20
73.9571080976
 30
0.0
 11
52.4898352704
 21
91.4571080976
 31
0.0
  0
SPLINE
  5
143
330
1F
100
AcDbEntity
  8
0
  6
Continuous
 62
     7
370
    25
100
AcDbSpline
210
0.0
220
0.0
230
1.0
 70
    24
 71
     3
 72
    12
 73
     8
 74
     0
 42
0.000000001
 43
0.00000001
 40
0.0
 40
0.0
 40
0.0
 40
0.0
 40
0.25
 40
0.25
 40
0.5
 40
0.5
 40
1.0
 40
1.0
 40
1.0
 40
1.0
 10
75.4898352704377
 20
93.70710809764658
 30
0.0
 10
75.4898352704377
 20
93.70710809764658
 30
0.0
 10
75.46689107587973
 20
93.70710809764658
 30
0.0
 10
75.37603437500658
 20
93.70710809764658
 30
0.0
 10
75.30876576257663
 20
93.70710809764658
 30
0.0
 10
75.05064611673427
 20
93.70710809764658
 30
0.0
 10
74.80386942913402
 20
93.70710809764658
 30
0.0
 10
74.50735489819024
 20
93.70710809764658
 30
0.0
  0
LINE
  5
144
330
1F
100
AcDbEntity
  8
0
  6
Continuous
 62
     7
370
    25
100
AcDbLine
 10
75.4898352704
 20
93.7071080976
 30
0.0
 11
75.4898352704
 21
88.2071080976
 31
0.0
  0
SPLINE
  5
145
330
1F
100
AcDbEntity
  8
0
  6
Continuous
 62
     7
370
    25
100
AcDbSpline
210
0.0
220
0.0
230
1.0
 70
    24
 71
     3
 72
    12
 73
     8
 74
     0
 42
0.000000001
 43
0.00000001
 40
0.0
 40
0.0
 40
0.0
 40
0.0
 40
0.25
 40
0.25
 40
0.5
 40
0.5
 40
1.0
 40
1.0
 40
1.0
 40
1.0
 10
69.4898352704377
 20
93.70710809764658
 30
0.0
 10
69.4898352704377
 20
93.70710809764658
 30
0.0
 10
69.51277946499566
 20
93.70710809764658
 30
0.0
 10
69.60363616586882
 20
93.70710809764658
 30
0.0
 10
69.67090477829876
 20
93.70710809764658
 30
0.0
 10
69.92902442414112
 20
93.70710809764658
 30
0.0
 10
70.17580111174136
 20
93.70710809764658
 30
0.0
 10
70.47231564268513
 20
93.70710809764658
 30
0.0
  0
LINE
  5
146
330
1F
100
AcDbEntity
  8
0
  6
Continuous
 62
     7
370
    25
100
AcDbLine
 10
69.4898352704
 20
93.7071080976
 30
0.0
 11
69.4898352704
 21
88.2071080976
 31
0.0
  0
SPLINE
  5
147
330
1F
100
AcDbEntity
  8
0
  6
Continuous
 62
     7
370
    25
100
AcDbSpline
210
0.0
220
0.0
230
1.0
 70
    24
 71
     3
 72
    12
 73
     8
 74
     0
 42
0.000000001
 43
0.00000001
 40
0.0
 40
0.0
 40
0.0
 40
0.0
 40
0.2499999999999999
 40
0.2499999999999999
 40
0.4999999999999999
 40
0.4999999999999999
 40
1.0
 40
1.0
 40
1.0
 40
1.0
 10
75.4898352704377
 20
71.7071080976466
 30
0.0
 10
75.4898352704377
 20
71.7071080976466
 30
0.0
 10
75.46689107587973
 20
71.7071080976466
 30
0.0
 10
75.37603437500658
 20
71.7071080976466
 30
0.0
 10
75.30876576257663
 20
71.7071080976466
 30
0.0
 10
75.05064611673427
 20
71.7071080976466
 30
0.0
 10
74.80386942913402
 20
71.7071080976466
 30
0.0
 10
74.50735489819024
 20
71.7071080976466
 30
0.0
  0
LINE
  5
148
330
1F
100
AcDbEntity
  8
0
  6
Continuous
 62
     7
370
    25
100
AcDbLine
 10
75.4898352704
 20
77.2071080976
 30
0.0
 11
75.4898352704
 21
71.7071080976
 31
0.0
  0
SPLINE
  5
149
330
1F
100
AcDbEntity
  8
0
  6
Continuous
 62
     7
370
    25
100
AcDbSpline
210
0.0
220
0.0
230
1.0
 70
    24
 71
     3
 72
    12
 73
     8
 74
     0
 42
0.000000001
 43
0.00000001
 40
0.0
 40
0.0
 40
0.0
 40
0.0
 40
0.2499999999999999
 40
0.2499999999999999
 40
0.4999999999999999
 40
0.4999999999999999
 40
1.0
 40
1.0
 40
1.0
 40
1.0
 10
69.4898352704377
 20
71.7071080976466
 30
0.0
 10
69.4898352704377
 20
71.7071080976466
 30
0.0
 10
69.51277946499566
 20
71.7071080976466
 30
0.0
 10
69.60363616586882
 20
71.7071080976466
 30
0.0
 10
69.67090477829876
 20
71.7071080976466
 30
0.0
 10
69.92902442414112
 20
71.7071080976466
 30
0.0
 10
70.17580111174136
 20
71.7071080976466
 30
0.0
 10
70.47231564268513
 20
71.7071080976466
 30
0.0
  0
LINE
  5
14A
330
1F
100
AcDbEntity
  8
0
  6
Continuous
 62
     7
370
    25
100
AcDbLine
 10
69.4898352704
 20
71.7071080976
 30
0.0
 11
69.4898352704
 21
77.2071080976
 31
0.0
  0
LINE
  5
14B
330
1F
100
AcDbEntity
  8
0
  6
Continuous
 62
     7
370
    25
100
AcDbLine
 10
72.4898352704
 20
93.1671214379
 30
0.0
 11
72.4898352704
 21
93.7071080976
 31
0.0
  0
SPLINE
  5
14C
330
1F
100
AcDbEntity
  8
0
  6
Continuous
 62
     7
370
    25
100
AcDbSpline
210
0.0
220
0.0
230
1.0
 70
    24
 71
     3
 72
     8
 73
     4
 74
     0
 42
0.000000001
 43
0.00000001
 40
0.0
 40
0.0
 40
0.0
 40
0.0
 40
1.0
 40
1.0
 40
1.0
 40
1.0
 10
72.57022002816703
 20
93.70710809764658
 30
0.0
 10
72.54238697461113
 20
93.70710809764658
 30
0.0
 10
72.51556598684084
 20
93.70710809764658
 30
0.0
 10
72.48983527043771
 20
93.70710809764658
 30
0.0
  0
SPLINE
  5
14D
330
1F
100
AcDbEntity
  8
0
  6
Continuous
 62
     7
370
    25
100
AcDbSpline
210
0.0
220
0.0
230
1.0
 70
    24
 71
     3
 72
     8
 73
     4
 74
     0
 42
0.000000001
 43
0.00000001
 40
0.0
 40
0.0
 40
0.0
 40
0.0
 40
1.0
 40
1.0
 40
1.0
 40
1.0
 10
72.48983527043771
 20
93.70710809764658
 30
0.0
 10
72.46409477986808
 20
93.70710809764658
 30
0.0
 10
72.43727326021866
 20
93.70710809764658
 30
0.0
 10
72.40945051270836
 20
93.70710809764658
 30
0.0
  0
LINE
  5
14E
330
1F
100
AcDbEntity
  8
0
  6
Continuous
 62
     7
370
    25
100
AcDbLine
 10
72.4898352704
 20
71.7071080976
 30
0.0
 11
72.4898352704
 21
72.2470947574
 31
0.0
  0
SPLINE
  5
14F
330
1F
100
AcDbEntity
  8
0
  6
Continuous
 62
     7
370
    25
100
AcDbSpline
210
0.0
220
0.0
230
1.0
 70
    24
 71
     3
 72
     8
 73
     4
 74
     0
 42
0.000000001
 43
0.00000001
 40
0.0
 40
0.0
 40
0.0
 40
0.0
 40
1.0
 40
1.0
 40
1.0
 40
1.0
 10
72.4898352704377
 20
71.7071080976466
 30
0.0
 10
72.51557576100731
 20
71.7071080976466
 30
0.0
 10
72.54239728065673
 20
71.7071080976466
 30
0.0
 10
72.57022002816703
 20
71.7071080976466
 30
0.0
  0
SPLINE
  5
150
330
1F
100
AcDbEntity
  8
0
  6
Continuous
 62
     7
370
    25
100
AcDbSpline
210
0.0
220
0.0
230
1.0
 70
    24
 71
     3
 72
     8
 73
     4
 74
     0
 42
0.000000001
 43
0.00000001
 40
0.0
 40
0.0
 40
0.0
 40
0.0
 40
1.0
 40
1.0
 40
1.0
 40
1.0
 10
72.40945051270836
 20
71.7071080976466
 30
0.0
 10
72.43728356626426
 20
71.7071080976466
 30
0.0
 10
72.46410455403455
 20
71.7071080976466
 30
0.0
 10
72.48983527043771
 20
71.7071080976466
 30
0.0
  0
LINE
  5
151
330
1F
100
AcDbEntity
  8
0
  6
Continuous
 62
     7
370
    25
100
AcDbLine
 10
82.4898352704
 20
82.7071080976
 30
0.0
 11
82.4898352704
 21
76.7071080976
 31
0.0
  0
LINE
  5
152
330
1F
100
AcDbEntity
  8
0
  6
Continuous
 62
     7
370
    25
100
AcDbLine
 10
82.4898352704
 20
88.7071080976
 30
0.0
 11
82.4898352704
 21
82.7071080976
 31
0.0
  0
LINE
  5
153
330
1F
100
AcDbEntity
  8
0
  6
Continuous
 62
     7
370
    25
100
AcDbLine
 10
98.9898352704
 20
82.7071080976
 30
0.0
 11
98.9898352704
 21
76.7071080976
 31
0.0
  0
LINE
  5
154
330
1F
100
AcDbEntity
  8
0
  6
Continuous
 62
     7
370
    25
100
AcDbLine
 10
98.9898352704
 20
88.7071080976
 30
0.0
 11
98.9898352704
 21
82.7071080976
 31
0.0
  0
LINE
  5
155
330
1F
100
AcDbEntity
  8
0
  6
Continuous
 62
     7
370
    25
100
AcDbLine
 10
93.4898352704
 20
82.7071080976
 30
0.0
 11
93.4898352704
 21
76.7071080976
 31
0.0
  0
LINE
  5
156
330
1F
100
AcDbEntity
  8
0
  6
Continuous
 62
     7
370
    25
100
AcDbLine
 10
93.4898352704
 20
88.7071080976
 30
0.0
 11
93.4898352704
 21
82.7071080976
 31
0.0
  0
LINE
  5
157
330
1F
100
AcDbEntity
  8
0
  6
Continuous
 62
     7
370
    25
100
AcDbLine
 10
87.9898352704
 20
82.7071080976
 30
0.0
 11
87.9898352704
 21
76.7071080976
 31
0.0
  0
LINE
  5
158
330
1F
100
AcDbEntity
  8
0
  6
Continuous
 62
     7
370
    25
100
AcDbLine
 10
87.9898352704
 20
88.7071080976
 30
0.0
 11
87.9898352704
 21
82.7071080976
 31
0.0
  0
LINE
  5
159
330
1F
100
AcDbEntity
  8
0
  6
Continuous
 62
     7
370
    25
100
AcDbLine
 10
105.4898352704
 20
87.5114830081
 30
0.0
 11
105.4898352704
 21
77.9027331872
 31
0.0
  0
LINE
  5
15A
330
1F
100
AcDbEntity
  8
0
  6
Continuous
 62
     8
370
    25
100
AcDbLine
 10
105.0471473244
 20
82.7071080976
 30
0.0
 11
105.0471473244
 21
88.008187476
 31
0.0
  0
LINE
  5
15B
330
1F
100
AcDbEntity
  8
0
  6
Continuous
 62
     8
370
    25
100
AcDbLine
 10
105.0471473244
 20
77.4060287193
 30
0.0
 11
105.0471473244
 21
82.7071080976
 31
0.0
  0
LINE
  5
15C
330
1F
100
AcDbEntity
  8
0
  6
Continuous
 62
     7
370
    18
100
AcDbLine
 10
53.3710613014
 20
91.9658841838
 30
0.0
 11
68.9898352704
 21
92.4539708704
 31
0.0
  0
LINE
  5
15D
330
1F
100
AcDbEntity
  8
0
  6
Continuous
 62
     7
370
    18
100
AcDbLine
 10
53.3710613014
 20
73.4483320115
 30
0.0
 11
68.9898352704
 21
72.9602453249
 31
0.0
  0
LINE
  5
15E
330
1F
100
AcDbEntity
  8
0
  6
Continuous
 62
     7
370
    18
100
AcDbLine
 10
68.9898352704
 20
71.9689830976
 30
0.0
 11
68.9898352704
 21
93.4452330976
 31
0.0
  0
LINE
  5
15F
330
1F
100
AcDbEntity
  8
0
  6
CENTERX2
 62
     7
370
    18
100
AcDbLine
 10
106.4898352704
 20
82.7071080976
 30
0.0
 11
50.8710284992
 21
82.7071080976
 31
0.0
  0
ENDSEC
  0
SECTION
  2
OBJECTS
  0
DICTIONARY
  5
C
330
0
100
AcDbDictionary
281
     1
  3
ACAD_GROUP
350
D
  3
ACAD_LAYOUT
350
1A
  3
ACAD_MLINESTYLE
350
17
  3
ACAD_PLOTSETTINGS
350
19
  3
ACAD_PLOTSTYLENAME
350
E
  3
ACAD_SCALELIST
350
47
  0
DICTIONARY
  5
D
102
{ACAD_REACTORS
330
C
102
}
330
C
100
AcDbDictionary
281
     1
  0
DICTIONARY
  5
1A
102
{ACAD_REACTORS
330
C
102
}
330
C
100
AcDbDictionary
281
     1
  3
Layout1
350
1E
  3
Layout2
350
26
  3
Model
350
22
  0
DICTIONARY
  5
17
102
{ACAD_REACTORS
330
C
102
}
330
C
100
AcDbDictionary
281
     1
  3
Standard
350
18
  0
DICTIONARY
  5
19
102
{ACAD_REACTORS
330
C
102
}
330
C
100
AcDbDictionary
281
     1
  0
ACDBDICTIONARYWDFLT
  5
E
102
{ACAD_REACTORS
330
C
102
}
330
C
100
AcDbDictionary
281
     1
  3
Normal
350
F
100
AcDbDictionaryWithDefault
340
F
  0
DICTIONARY
  5
47
102
{ACAD_REACTORS
330
C
102
}
330
C
100
AcDbDictionary
281
     1
  3
A0
350
48
  3
A1
350
49
  3
A2
350
4A
  3
A3
350
4B
  3
A4
350
4C
  3
A5
350
4D
  3
A6
350
4E
  3
A7
350
4F
  3
A8
350
50
  3
A9
350
51
  3
B0
350
52
  3
B1
350
53
  3
B2
350
54
  3
B3
350
55
  3
B4
350
56
  3
B5
350
57
  3
B6
350
58
  3
B7
350
59
  3
B8
350
5A
  3
B9
350
5B
  3
C0
350
5C
  3
C1
350
5D
  3
C2
350
5E
  3
C3
350
5F
  3
C4
350
60
  3
C5
350
61
  3
C6
350
62
  3
C7
350
63
  3
C8
350
64
  3
C9
350
65
  3
D0
350
66
  3
D1
350
67
  3
D2
350
68
  0
LAYOUT
  5
1E
102
{ACAD_REACTORS
330
1A
102
}
330
1A
100
AcDbPlotSettings
  1

  2
none_device
  4

  6

 40
0.0
 41
0.0
 42
0.0
 43
0.0
 44
0.0
 45
0.0
 46
0.0
 47
0.0
 48
0.0
 49
0.0
140
0.0
141
0.0
142
1.0
143
1.0
 70
   688
 72
     1
 73
     0
 74
     5
  7

 75
    16
147
1.0
148
0.0
149
0.0
100
AcDbLayout
  1
Layout1
 70
     1
 71
     1
 10
0.0
 20
0.0
 11
420.0
 21
297.0
 12
0.0
 22
0.0
 32
0.0
 14
1.0000000000E+20
 24
1.0000000000E+20
 34
1.0000000000E+20
 15
-1.0000000000E+20
 25
-1.0000000000E+20
 35
-1.0000000000E+20
146
0.0
 13
0.0
 23
0.0
 33
0.0
 16
1.0
 26
0.0
 36
0.0
 17
0.0
 27
1.0
 37
0.0
 76
     0
330
1B
  0
LAYOUT
  5
26
102
{ACAD_REACTORS
330
1A
102
}
330
1A
100
AcDbPlotSettings
  1

  2
none_device
  4

  6

 40
0.0
 41
0.0
 42
0.0
 43
0.0
 44
0.0
 45
0.0
 46
0.0
 47
0.0
 48
0.0
 49
0.0
140
0.0
141
0.0
142
1.0
143
1.0
 70
   688
 72
     1
 73
     0
 74
     5
  7

 75
    16
147
1.0
148
0.0
149
0.0
100
AcDbLayout
  1
Layout2
 70
     1
 71
     2
 10
0.0
 20
0.0
 11
0.0
 21
0.0
 12
0.0
 22
0.0
 32
0.0
 14
0.0
 24
0.0
 34
0.0
 15
0.0
 25
0.0
 35
0.0
146
0.0
 13
0.0
 23
0.0
 33
0.0
 16
1.0
 26
0.0
 36
0.0
 17
0.0
 27
1.0
 37
0.0
 76
     0
330
23
  0
LAYOUT
  5
22
102
{ACAD_REACTORS
330
1A
102
}
330
1A
100
AcDbPlotSettings
  1

  2
none_device
  4
Letter_(8.50_x_11.00_Inches)
  6

 40
6.35
 41
6.35
 42
6.35000508
 43
6.35000508
 44
215.9
 45
279.4
 46
0.0
 47
0.0
 48
0.0
 49
0.0
140
0.0
141
0.0
142
1.0
143
1.0
 70
  1712
 72
     1
 73
     0
 74
     0
  7

 75
     0
147
1.0
148
0.0
149
0.0
100
AcDbLayout
  1
Model
 70
     1
 71
     0
 10
0.0
 20
0.0
 11
215.9
 21
139.7
 12
0.0
 22
0.0
 32
0.0
 14
0.0
 24
0.0
 34
0.0
 15
215.9
 25
139.7
 35
0.0
146
0.0
 13
0.0
 23
0.0
 33
0.0
 16
1.0
 26
0.0
 36
0.0
 17
0.0
 27
1.0
 37
0.0
 76
     0
330
1F
331
29
  0
MLINESTYLE
  5
18
102
{ACAD_REACTORS
330
17
102
}
330
17
100
AcDbMlineStyle
  2
Standard
 70
     0
  3

 62
   256
 51
90.0
 52
90.0
 71
     2
 49
0.5
 62
   256
  6
BYLAYER
 49
-0.5
 62
   256
  6
BYLAYER
  0
ACDBPLACEHOLDER
  5
F
102
{ACAD_REACTORS
330
E
102
}
330
E
  0
SCALE
  5
48
102
{ACAD_REACTORS
330
47
102
}
330
47
100
AcDbScale
 70
     0
300
1:1
140
1.0
141
1.0
290
     1
  0
SCALE
  5
49
102
{ACAD_REACTORS
330
47
102
}
330
47
100
AcDbScale
 70
     0
300
1:2
140
1.0
141
2.0
290
     0
  0
SCALE
  5
4A
102
{ACAD_REACTORS
330
47
102
}
330
47
100
AcDbScale
 70
     0
300
1:4
140
1.0
141
4.0
290
     0
  0
SCALE
  5
4B
102
{ACAD_REACTORS
330
47
102
}
330
47
100
AcDbScale
 70
     0
300
1:5
140
1.0
141
5.0
290
     0
  0
SCALE
  5
4C
102
{ACAD_REACTORS
330
47
102
}
330
47
100
AcDbScale
 70
     0
300
1:8
140
1.0
141
8.0
290
     0
  0
SCALE
  5
4D
102
{ACAD_REACTORS
330
47
102
}
330
47
100
AcDbScale
 70
     0
300
1:10
140
1.0
141
10.0
290
     0
  0
SCALE
  5
4E
102
{ACAD_REACTORS
330
47
102
}
330
47
100
AcDbScale
 70
     0
300
1:16
140
1.0
141
16.0
290
     0
  0
SCALE
  5
4F
102
{ACAD_REACTORS
330
47
102
}
330
47
100
AcDbScale
 70
     0
300
1:20
140
1.0
141
20.0
290
     0
  0
SCALE
  5
50
102
{ACAD_REACTORS
330
47
102
}
330
47
100
AcDbScale
 70
     0
300
1:30
140
1.0
141
30.0
290
     0
  0
SCALE
  5
51
102
{ACAD_REACTORS
330
47
102
}
330
47
100
AcDbScale
 70
     0
300
1:40
140
1.0
141
40.0
290
     0
  0
SCALE
  5
52
102
{ACAD_REACTORS
330
47
102
}
330
47
100
AcDbScale
 70
     0
300
1:50
140
1.0
141
50.0
290
     0
  0
SCALE
  5
53
102
{ACAD_REACTORS
330
47
102
}
330
47
100
AcDbScale
 70
     0
300
1:100
140
1.0
141
100.0
290
     0
  0
SCALE
  5
54
102
{ACAD_REACTORS
330
47
102
}
330
47
100
AcDbScale
 70
     0
300
2:1
140
2.0
141
1.0
290
     0
  0
SCALE
  5
55
102
{ACAD_REACTORS
330
47
102
}
330
47
100
AcDbScale
 70
     0
300
4:1
140
4.0
141
1.0
290
     0
  0
SCALE
  5
56
102
{ACAD_REACTORS
330
47
102
}
330
47
100
AcDbScale
 70
     0
300
8:1
140
8.0
141
1.0
290
     0
  0
SCALE
  5
57
102
{ACAD_REACTORS
330
47
102
}
330
47
100
AcDbScale
 70
     0
300
10:1
140
10.0
141
1.0
290
     0
  0
SCALE
  5
58
102
{ACAD_REACTORS
330
47
102
}
330
47
100
AcDbScale
 70
     0
300
100:1
140
100.0
141
1.0
290
     0
  0
SCALE
  5
59
102
{ACAD_REACTORS
330
47
102
}
330
47
100
AcDbScale
 70
     0
300
1/128" = 1'-0"
140
0.0078125
141
12.0
290
     0
  0
SCALE
  5
5A
102
{ACAD_REACTORS
330
47
102
}
330
47
100
AcDbScale
 70
     0
300
1/64" = 1'-0"
140
0.015625
141
12.0
290
     0
  0
SCALE
  5
5B
102
{ACAD_REACTORS
330
47
102
}
330
47
100
AcDbScale
 70
     0
300
1/32" = 1'-0"
140
0.03125
141
12.0
290
     0
  0
SCALE
  5
5C
102
{ACAD_REACTORS
330
47
102
}
330
47
100
AcDbScale
 70
     0
300
1/16" = 1'-0"
140
0.0625
141
12.0
290
     0
  0
SCALE
  5
5D
102
{ACAD_REACTORS
330
47
102
}
330
47
100
AcDbScale
 70
     0
300
3/32" = 1'-0"
140
0.09375
141
12.0
290
     0
  0
SCALE
  5
5E
102
{ACAD_REACTORS
330
47
102
}
330
47
100
AcDbScale
 70
     0
300
1/8" = 1'-0"
140
0.125
141
12.0
290
     0
  0
SCALE
  5
5F
102
{ACAD_REACTORS
330
47
102
}
330
47
100
AcDbScale
 70
     0
300
3/16" = 1'-0"
140
0.1875
141
12.0
290
     0
  0
SCALE
  5
60
102
{ACAD_REACTORS
330
47
102
}
330
47
100
AcDbScale
 70
     0
300
1/4" = 1'-0"
140
0.25
141
12.0
290
     0
  0
SCALE
  5
61
102
{ACAD_REACTORS
330
47
102
}
330
47
100
AcDbScale
 70
     0
300
3/8" = 1'-0"
140
0.375
141
12.0
290
     0
  0
SCALE
  5
62
102
{ACAD_REACTORS
330
47
102
}
330
47
100
AcDbScale
 70
     0
300
1/2" = 1'-0"
140
0.5
141
12.0
290
     0
  0
SCALE
  5
63
102
{ACAD_REACTORS
330
47
102
}
330
47
100
AcDbScale
 70
     0
300
3/4" = 1'-0"
140
0.75
141
12.0
290
     0
  0
SCALE
  5
64
102
{ACAD_REACTORS
330
47
102
}
330
47
100
AcDbScale
 70
     0
300
1" = 1'-0"
140
1.0
141
12.0
290
     0
  0
SCALE
  5
65
102
{ACAD_REACTORS
330
47
102
}
330
47
100
AcDbScale
 70
     0
300
1-1/2" = 1'-0"
140
1.5
141
12.0
290
     0
  0
SCALE
  5
66
102
{ACAD_REACTORS
330
47
102
}
330
47
100
AcDbScale
 70
     0
300
3" = 1'-0"
140
3.0
141
12.0
290
     0
  0
SCALE
  5
67
102
{ACAD_REACTORS
330
47
102
}
330
47
100
AcDbScale
 70
     0
300
6" = 1'-0"
140
6.0
141
12.0
290
     0
  0
SCALE
  5
68
102
{ACAD_REACTORS
330
47
102
}
330
47
100
AcDbScale
 70
     0
300
1'-0" = 1'-0"
140
12.0
141
12.0
290
     0
  0
ENDSEC
  0
EOF
