  0
SECTION
  2
HEADER
  9
$ACADVER
  1
AC1015
  9
$ACADMAINTVER
 70
     6
  9
$DWGCODEPAGE
  3
DOS932
  9
$INSBASE
 10
0.0
 20
0.0
 30
0.0
  9
$EXTMIN
 10
0.0
 20
0.0
 30
0.0
  9
$EXTMAX
 10
215.9
 20
139.7
 30
0.0
  9
$LIMMIN
 10
0.0
 20
0.0
  9
$LIMMAX
 10
215.9
 20
139.7
  9
$ORTHOMODE
 70
     0
  9
$REGENMODE
 70
     1
  9
$FILLMODE
 70
     1
  9
$QTEXTMODE
 70
     0
  9
$MIRRTEXT
 70
     1
  9
$LTSCALE
 40
0.5
  9
$ATTMODE
 70
     1
  9
$TEXTSIZE
 40
1.75
  9
$TRACEWID
 40
1.0
  9
$TEXTSTYLE
  7
Standard
  9
$CLAYER
  8
0
  9
$CELTYPE
  6
ByLayer
  9
$CECOLOR
 62
   256
  9
$CELTSCALE
 40
1.0
  9
$DISPSILH
 70
     0
  9
$DIMSCALE
 40
1.0
  9
$DIMASZ
 40
1.651
  9
$DIMEXO
 40
0.5
  9
$DIMDLI
 40
3.75
  9
$DIMRND
 40
0.0
  9
$DIMDLE
 40
0.0
  9
$DIMEXE
 40
0.5
  9
$DIMTP
 40
0.0
  9
$DIMTM
 40
0.0
  9
$DIMTXT
 40
1.75
  9
$DIMCEN
 40
2.5
  9
$DIMTSZ
 40
0.0
  9
$DIMTOL
 70
     0
  9
$DIMLIM
 70
     0
  9
$DIMTIH
 70
     1
  9
$DIMTOH
 70
     1
  9
$DIMSE1
 70
     0
  9
$DIMSE2
 70
     0
  9
$DIMTAD
 70
     1
  9
$DIMZIN
 70
     1
  9
$DIMBLK
  1

  9
$DIMASO
 70
     1
  9
$DIMSHO
 70
     1
  9
$DIMPOST
  1

  9
$DIMAPOST
  1

  9
$DIMALT
 70
     0
  9
$DIMALTD
 70
     3
  9
$DIMALTF
 40
0.0393700787
  9
$DIMLFAC
 40
1.0
  9
$DIMTOFL
 70
     1
  9
$DIMTVP
 40
0.0
  9
$DIMTIX
 70
     0
  9
$DIMSOXD
 70
     0
  9
$DIMSAH
 70
     0
  9
$DIMBLK1
  1

  9
$DIMBLK2
  1

  9
$DIMSTYLE
  2
ISO-25
  9
$DIMCLRD
 70
     0
  9
$DIMCLRE
 70
     0
  9
$DIMCLRT
 70
     0
  9
$DIMTFAC
 40
1.0
  9
$DIMGAP
 40
0.762
  9
$DIMJUST
 70
     0
  9
$DIMSD1
 70
     0
  9
$DIMSD2
 70
     0
  9
$DIMTOLJ
 70
     0
  9
$DIMTZIN
 70
     1
  9
$DIMALTZ
 70
     0
  9
$DIMALTTZ
 70
     0
  9
$DIMUPT
 70
     0
  9
$DIMDEC
 70
     2
  9
$DIMTDEC
 70
     2
  9
$DIMALTU
 70
     2
  9
$DIMALTTD
 70
     3
  9
$DIMTXSTY
  7
Standard
  9
$DIMAUNIT
 70
     0
  9
$DIMADEC
 70
     2
  9
$DIMALTRND
 40
0.0
  9
$DIMAZIN
 70
     0
  9
$DIMDSEP
 70
    44
  9
$DIMATFIT
 70
     3
  9
$DIMFRAC
 70
     0
  9
$DIMLDRBLK
  1

  9
$DIMLUNIT
 70
     2
  9
$DIMLWD
 70
    -2
  9
$DIMLWE
 70
    -2
  9
$DIMTMOVE
 70
     0
  9
$LUNITS
 70
     2
  9
$LUPREC
 70
     2
  9
$SKETCHINC
 40
1.0
  9
$FILLETRAD
 40
10.0
  9
$AUNITS
 70
     0
  9
$AUPREC
 70
     2
  9
$MENU
  1
.
  9
$ELEVATION
 40
0.0
  9
$PELEVATION
 40
0.0
  9
$THICKNESS
 40
0.0
  9
$LIMCHECK
 70
     0
  9
$CHAMFERA
 40
0.0
  9
$CHAMFERB
 40
0.0
  9
$CHAMFERC
 40
0.0
  9
$CHAMFERD
 40
0.0
  9
$SKPOLY
 70
     0
  9
$TDCREATE
 40
2460082.681235116
  9
$TDUCREATE
 40
2460082.306235116
  9
$TDUPDATE
 40
2460082.681235683
  9
$TDUUPDATE
 40
2460082.306235683
  9
$TDINDWG
 40
0.0000000116
  9
$TDUSRTIMER
 40
0.0000000116
  9
$USRTIMER
 70
     1
  9
$ANGBASE
 50
0.0
  9
$ANGDIR
 70
     0
  9
$PDMODE
 70
     0
  9
$PDSIZE
 40
-1.0
  9
$PLINEWID
 40
0.0
  9
$SPLFRAME
 70
     0
  9
$SPLINETYPE
 70
     6
  9
$SPLINESEGS
 70
     8
  9
$HANDSEED
  5
160
  9
$SURFTAB1
 70
     6
  9
$SURFTAB2
 70
     6
  9
$SURFTYPE
 70
     6
  9
$SURFU
 70
     6
  9
$SURFV
 70
     6
  9
$UCSBASE
  2

  9
$UCSNAME
  2

  9
$UCSORG
 10
0.0
 20
0.0
 30
0.0
  9
$UCSXDIR
 10
1.0
 20
0.0
 30
0.0
  9
$UCSYDIR
 10
0.0
 20
1.0
 30
0.0
  9
$UCSORTHOREF
  2

  9
$UCSORTHOVIEW
 70
     0
  9
$UCSORGTOP
 10
0.0
 20
0.0
 30
0.0
  9
$UCSORGBOTTOM
 10
0.0
 20
0.0
 30
0.0
  9
$UCSORGLEFT
 10
0.0
 20
0.0
 30
0.0
  9
$UCSORGRIGHT
 10
0.0
 20
0.0
 30
0.0
  9
$UCSORGFRONT
 10
0.0
 20
0.0
 30
0.0
  9
$UCSORGBACK
 10
0.0
 20
0.0
 30
0.0
  9
$PUCSBASE
  2

  9
$PUCSNAME
  2

  9
$PUCSORG
 10
0.0
 20
0.0
 30
0.0
  9
$PUCSXDIR
 10
1.0
 20
0.0
 30
0.0
  9
$PUCSYDIR
 10
0.0
 20
1.0
 30
0.0
  9
$PUCSORTHOREF
  2

  9
$PUCSORTHOVIEW
 70
     0
  9
$PUCSORGTOP
 10
0.0
 20
0.0
 30
0.0
  9
$PUCSORGBOTTOM
 10
0.0
 20
0.0
 30
0.0
  9
$PUCSORGLEFT
 10
0.0
 20
0.0
 30
0.0
  9
$PUCSORGRIGHT
 10
0.0
 20
0.0
 30
0.0
  9
$PUCSORGFRONT
 10
0.0
 20
0.0
 30
0.0
  9
$PUCSORGBACK
 10
0.0
 20
0.0
 30
0.0
  9
$USERI1
 70
     0
  9
$USERI2
 70
     0
  9
$USERI3
 70
     0
  9
$USERI4
 70
     0
  9
$USERI5
 70
     0
  9
$USERR1
 40
0.0
  9
$USERR2
 40
0.0
  9
$USERR3
 40
0.0
  9
$USERR4
 40
0.0
  9
$USERR5
 40
0.0
  9
$WORLDVIEW
 70
     1
  9
$SHADEDGE
 70
     3
  9
$SHADEDIF
 70
    70
  9
$TILEMODE
 70
     1
  9
$MAXACTVP
 70
    64
  9
$PINSBASE
 10
0.0
 20
0.0
 30
0.0
  9
$PLIMCHECK
 70
     0
  9
$PEXTMIN
 10
1.0000000000E+20
 20
1.0000000000E+20
 30
1.0000000000E+20
  9
$PEXTMAX
 10
-1.0000000000E+20
 20
-1.0000000000E+20
 30
-1.0000000000E+20
  9
$PLIMMIN
 10
0.0
 20
0.0
  9
$PLIMMAX
 10
420.0
 20
297.0
  9
$UNITMODE
 70
     0
  9
$VISRETAIN
 70
     1
  9
$PLINEGEN
 70
     0
  9
$PSLTSCALE
 70
     1
  9
$TREEDEPTH
 70
  3020
  9
$CMLSTYLE
  2
Standard
  9
$CMLJUST
 70
     0
  9
$CMLSCALE
 40
20.0
  9
$PROXYGRAPHICS
 70
     1
  9
$MEASUREMENT
 70
     1
  9
$CELWEIGHT
370
    -1
  9
$ENDCAPS
280
     0
  9
$JOINSTYLE
280
     0
  9
$LWDISPLAY
290
     1
  9
$INSUNITS
 70
     4
  9
$HYPERLINKBASE
  1

  9
$STYLESHEET
  1

  9
$XEDIT
290
     1
  9
$CEPSNTYPE
380
     0
  9
$PSTYLEMODE
290
     1
  9
$FINGERPRINTGUID
  2
{FAAC8919-5902-4F44-9421-07575E732333}
  9
$VERSIONGUID
  2
{FAEB1C32-E019-11D5-929B-00C0DF256EC4}
  9
$EXTNAMES
290
     1
  9
$PSVPSCALE
 40
0.0
  9
$OLESTARTUP
290
     0
  0
ENDSEC
  0
SECTION
  2
CLASSES
  0
CLASS
  1
ACDBDICTIONARYWDFLT
  2
AcDbDictionaryWithDefault
  3
ObjectDBX Classes
 90
        0
280
     0
281
     0
  0
CLASS
  1
VISUALSTYLE
  2
AcDbVisualStyle
  3
ObjectDBX Classes
 90
     4095
280
     0
281
     0
  0
CLASS
  1
MATERIAL
  2
AcDbMaterial
  3
ObjectDBX Classes
 90
     1153
280
     0
281
     0
  0
CLASS
  1
SCALE
  2
AcDbScale
  3
ObjectDBX Classes
 90
     1153
280
     0
281
     0
  0
CLASS
  1
TABLESTYLE
  2
AcDbTableStyle
  3
ObjectDBX Classes
 90
     4095
280
     0
281
     0
  0
CLASS
  1
MLEADERSTYLE
  2
AcDbMLeaderStyle
  3
ACDB_MLEADERSTYLE_CLASS
 90
     4095
280
     0
281
     0
  0
CLASS
  1
SUN
  2
AcDbSun
  3
SCENEOE
 90
     1153
280
     0
281
     0
  0
CLASS
  1
ACDBPLACEHOLDER
  2
AcDbPlaceHolder
  3
ObjectDBX Classes
 90
        0
280
     0
281
     0
  0
CLASS
  1
LAYOUT
  2
AcDbLayout
  3
ObjectDBX Classes
 90
        0
280
     0
281
     0
  0
ENDSEC
  0
SECTION
  2
TABLES
  0
TABLE
  2
VPORT
  5
8
330
0
100
AcDbSymbolTable
 70
     1
  0
VPORT
  5
29
330
8
100
AcDbSymbolTableRecord
100
AcDbViewportTableRecord
  2
*Active
 70
     0
 10
0.0
 20
0.0
 11
1.0
 21
1.0
 12
107.95
 22
69.85
 13
0.0
 23
0.0
 14
10.0
 24
10.0
 15
10.0
 25
10.0
 16
0.0
 26
0.0
 36
1.0
 17
0.0
 27
0.0
 37
0.0
 40
139.7
 41
1.5454545455
 42
50.0
 43
0.0
 44
0.0
 50
0.0
 51
0.0
 71
     0
 72
  2000
 73
     1
 74
     3
 75
     0
 76
     0
 77
     0
 78
     0
281
     0
 65
     1
110
0.0
120
0.0
130
0.0
111
1.0
121
0.0
131
0.0
112
0.0
122
1.0
132
0.0
 79
     0
146
0.0
  0
ENDTAB
  0
TABLE
  2
LTYPE
  5
5
330
0
100
AcDbSymbolTable
 70
     6
  0
LTYPE
  5
14
330
5
100
AcDbSymbolTableRecord
100
AcDbLinetypeTableRecord
  2
ByBlock
 70
     0
  3

 72
    65
 73
     0
 40
0.0
  0
LTYPE
  5
15
330
5
100
AcDbSymbolTableRecord
100
AcDbLinetypeTableRecord
  2
ByLayer
 70
     0
  3

 72
    65
 73
     0
 40
0.0
  0
LTYPE
  5
16
330
5
100
AcDbSymbolTableRecord
100
AcDbLinetypeTableRecord
  2
Continuous
 70
     0
  3
Solid line
 72
    65
 73
     0
 40
0.0
  0
LTYPE
  5
6E
330
5
100
AcDbSymbolTableRecord
100
AcDbLinetypeTableRecord
  2
HIDDEN
 70
     0
  3
Hidden __ __ __ __ __ __ __ __ __ __ __ __ __ __
 72
    65
 73
     2
 40
1.905
 49
1.27
 74
     0
 49
-0.635
 74
     0
  0
LTYPE
  5
6F
330
5
100
AcDbSymbolTableRecord
100
AcDbLinetypeTableRecord
  2
PHANTOM
 70
     0
  3
Phantom ______  __  __  ______  __  __  ______
 72
    65
 73
     6
 40
12.7
 49
6.35
 74
     0
 49
-1.27
 74
     0
 49
1.27
 74
     0
 49
-1.27
 74
     0
 49
1.27
 74
     0
 49
-1.27
 74
     0
  0
LTYPE
  5
70
330
5
100
AcDbSymbolTableRecord
100
AcDbLinetypeTableRecord
  2
CENTER
 70
     0
  3
Center ____ _ ____ _ ____ _ ____ _ ____ _ ____
 72
    65
 73
     4
 40
10.16
 49
6.35
 74
     0
 49
-1.27
 74
     0
 49
1.27
 74
     0
 49
-1.27
 74
     0
  0
LTYPE
  5
71
330
5
100
AcDbSymbolTableRecord
100
AcDbLinetypeTableRecord
  2
CENTERX2
 70
     0
  3
Center (2x) ________  __  ________  __  _____
 72
    65
 73
     4
 40
20.32
 49
12.7
 74
     0
 49
-2.54
 74
     0
 49
2.54
 74
     0
 49
-2.54
 74
     0
  0
LTYPE
  5
72
330
5
100
AcDbSymbolTableRecord
100
AcDbLinetypeTableRecord
  2
DOT2
 70
     0
  3
Dot (.5x) ........................................
 72
    65
 73
     2
 40
0.635
 49
0.0
 74
     0
 49
-0.635
 74
     0
  0
ENDTAB
  0
TABLE
  2
LAYER
  5
2
330
0
100
AcDbSymbolTable
 70
     1
  0
LAYER
  5
10
330
2
100
AcDbSymbolTableRecord
100
AcDbLayerTableRecord
  2
0
 70
     0
 62
     7
  6
Continuous
370
    -3
390
F
  0
ENDTAB
  0
TABLE
  2
STYLE
  5
3
330
0
100
AcDbSymbolTable
 70
     2
  0
STYLE
  5
11
330
3
100
AcDbSymbolTableRecord
100
AcDbTextStyleTableRecord
  2
Standard
 70
     0
 40
0.0
 41
1.0
 50
0.0
 71
     0
 42
1.75
  3
txt
  4
bigfont
  0
STYLE
  5
73
330
3
100
AcDbSymbolTableRecord
100
AcDbTextStyleTableRecord
  2
SLDTEXTSTYLE0
 70
     0
 40
0.0
 41
0.7
 50
0.0
 71
     0
 42
1.75
  3
TXT
  4
bigfont
  0
ENDTAB
  0
TABLE
  2
VIEW
  5
6
330
0
100
AcDbSymbolTable
 70
     0
  0
ENDTAB
  0
TABLE
  2
UCS
  5
7
330
0
100
AcDbSymbolTable
 70
     0
  0
ENDTAB
  0
TABLE
  2
APPID
  5
9
330
0
100
AcDbSymbolTable
 70
     1
  0
APPID
  5
12
330
9
100
AcDbSymbolTableRecord
100
AcDbRegAppTableRecord
  2
ACAD
 70
     0
  0
ENDTAB
  0
TABLE
  2
DIMSTYLE
  5
A
330
0
100
AcDbSymbolTable
 70
     1
100
AcDbDimStyleTable
  0
DIMSTYLE
105
27
330
A
100
AcDbSymbolTableRecord
100
AcDbDimStyleTableRecord
  2
ISO-25
 70
     0
 41
2.5
 42
0.625
 43
3.75
 44
1.25
 73
     0
 74
     0
 77
     1
 78
     8
140
2.5
141
2.5
143
0.0393700787
147
0.625
171
     3
172
     1
178
     0
271
     2
272
     2
274
     3
278
    44
283
     0
284
     8
340
11
  0
ENDTAB
  0
TABLE
  2
BLOCK_RECORD
  5
1
330
0
100
AcDbSymbolTable
 70
     3
  0
BLOCK_RECORD
  5
1F
330
1
100
AcDbSymbolTableRecord
100
AcDbBlockTableRecord
  2
*Model_Space
340
22
  0
BLOCK_RECORD
  5
1B
330
1
100
AcDbSymbolTableRecord
100
AcDbBlockTableRecord
  2
*Paper_Space
340
1E
  0
BLOCK_RECORD
  5
23
330
1
100
AcDbSymbolTableRecord
100
AcDbBlockTableRecord
  2
*Paper_Space0
340
26
  0
BLOCK_RECORD
  5
FF
330
1
100
AcDbSymbolTableRecord
100
AcDbBlockTableRecord
  2
SW_CENTERMARKSYMBOL_0
340
0
102
{BLKREFS
331
10A
102
}
  0
BLOCK_RECORD
  5
10B
330
1
100
AcDbSymbolTableRecord
100
AcDbBlockTableRecord
  2
SW_CENTERMARKSYMBOL_1
340
0
102
{BLKREFS
331
116
102
}
  0
ENDTAB
  0
ENDSEC
  0
SECTION
  2
BLOCKS
  0
BLOCK
  5
20
330
1F
100
AcDbEntity
  8
0
100
AcDbBlockBegin
  2
*Model_Space
 70
     0
 10
0.0
 20
0.0
 30
0.0
  3
*Model_Space
  1

  0
ENDBLK
  5
21
330
1F
100
AcDbEntity
  8
0
100
AcDbBlockEnd
  0
BLOCK
  5
1C
330
1B
100
AcDbEntity
 67
     1
  8
0
100
AcDbBlockBegin
  2
*Paper_Space
 70
     0
 10
0.0
 20
0.0
 30
0.0
  3
*Paper_Space
  1

  0
ENDBLK
  5
1D
330
1B
100
AcDbEntity
 67
     1
  8
0
100
AcDbBlockEnd
  0
BLOCK
  5
24
330
23
100
AcDbEntity
  8
0
100
AcDbBlockBegin
  2
*Paper_Space0
 70
     0
 10
0.0
 20
0.0
 30
0.0
  3
*Paper_Space0
  1

  0
ENDBLK
  5
25
330
23
100
AcDbEntity
  8
0
100
AcDbBlockEnd
  0
BLOCK
  5
100
330
FF
100
AcDbEntity
  8
0
100
AcDbBlockBegin
  2
SW_CENTERMARKSYMBOL_0
 70
     0
 10
0.0
 20
0.0
 30
0.0
  3
SW_CENTERMARKSYMBOL_0
  1

  0
LINE
  5
102
330
FF
100
AcDbEntity
  8
0
  6
Continuous
 62
     0
370
    18
100
AcDbLine
 10
0.0
 20
0.0
 30
0.0
 11
0.0
 21
2.5
 31
0.0
  0
LINE
  5
103
330
FF
100
AcDbEntity
  8
0
  6
Continuous
 62
     0
370
    18
100
AcDbLine
 10
0.0
 20
0.0
 30
0.0
 11
-2.5
 21
0.0
 31
0.0
  0
LINE
  5
104
330
FF
100
AcDbEntity
  8
0
  6
Continuous
 62
     0
370
    18
100
AcDbLine
 10
0.0
 20
0.0
 30
0.0
 11
0.0
 21
-2.5
 31
0.0
  0
LINE
  5
105
330
FF
100
AcDbEntity
  8
0
  6
Continuous
 62
     0
370
    18
100
AcDbLine
 10
0.0
 20
0.0
 30
0.0
 11
2.5
 21
0.0
 31
0.0
  0
LINE
  5
106
330
FF
100
AcDbEntity
  8
0
  6
Continuous
 62
     0
370
    18
100
AcDbLine
 10
0.0
 20
5.0
 30
0.0
 11
0.0
 21
5.75
 31
0.0
  0
LINE
  5
107
330
FF
100
AcDbEntity
  8
0
  6
Continuous
 62
     0
370
    18
100
AcDbLine
 10
-5.0
 20
0.0
 30
0.0
 11
-5.75
 21
0.0
 31
0.0
  0
LINE
  5
108
330
FF
100
AcDbEntity
  8
0
  6
Continuous
 62
     0
370
    18
100
AcDbLine
 10
0.0
 20
-5.0
 30
0.0
 11
0.0
 21
-5.75
 31
0.0
  0
LINE
  5
109
330
FF
100
AcDbEntity
  8
0
  6
Continuous
 62
     0
370
    18
100
AcDbLine
 10
5.0
 20
0.0
 30
0.0
 11
5.75
 21
0.0
 31
0.0
  0
ENDBLK
  5
101
330
FF
100
AcDbEntity
  8
0
100
AcDbBlockEnd
  0
BLOCK
  5
10C
330
10B
100
AcDbEntity
  8
0
100
AcDbBlockBegin
  2
SW_CENTERMARKSYMBOL_1
 70
     0
 10
0.0
 20
0.0
 30
0.0
  3
SW_CENTERMARKSYMBOL_1
  1

  0
LINE
  5
10E
330
10B
100
AcDbEntity
  8
0
  6
Continuous
 62
     0
370
    18
100
AcDbLine
 10
0.0
 20
0.0
 30
0.0
 11
0.0
 21
2.5
 31
0.0
  0
LINE
  5
10F
330
10B
100
AcDbEntity
  8
0
  6
Continuous
 62
     0
370
    18
100
AcDbLine
 10
0.0
 20
0.0
 30
0.0
 11
-2.5
 21
0.0
 31
0.0
  0
LINE
  5
110
330
10B
100
AcDbEntity
  8
0
  6
Continuous
 62
     0
370
    18
100
AcDbLine
 10
0.0
 20
0.0
 30
0.0
 11
0.0
 21
-2.5
 31
0.0
  0
LINE
  5
111
330
10B
100
AcDbEntity
  8
0
  6
Continuous
 62
     0
370
    18
100
AcDbLine
 10
0.0
 20
0.0
 30
0.0
 11
2.5
 21
0.0
 31
0.0
  0
LINE
  5
112
330
10B
100
AcDbEntity
  8
0
  6
Continuous
 62
     0
370
    18
100
AcDbLine
 10
0.0
 20
5.0
 30
0.0
 11
0.0
 21
13.5
 31
0.0
  0
LINE
  5
113
330
10B
100
AcDbEntity
  8
0
  6
Continuous
 62
     0
370
    18
100
AcDbLine
 10
-5.0
 20
0.0
 30
0.0
 11
-13.5
 21
0.0
 31
0.0
  0
LINE
  5
114
330
10B
100
AcDbEntity
  8
0
  6
Continuous
 62
     0
370
    18
100
AcDbLine
 10
0.0
 20
-5.0
 30
0.0
 11
0.0
 21
-13.5
 31
0.0
  0
LINE
  5
115
330
10B
100
AcDbEntity
  8
0
  6
Continuous
 62
     0
370
    18
100
AcDbLine
 10
5.0
 20
0.0
 30
0.0
 11
13.5
 21
0.0
 31
0.0
  0
ENDBLK
  5
10D
330
10B
100
AcDbEntity
  8
0
100
AcDbBlockEnd
  0
ENDSEC
  0
SECTION
  2
ENTITIES
  0
MTEXT
  5
74
330
1F
100
AcDbEntity
  8
0
  6
Continuous
 62
     7
370
     0
100
AcDbMText
 10
100.9983867405
 20
67.4548637597
 30
0.0
 40
2.38125
 41
0.0
 71
     1
 72
     1
  1
エースニップル　HN-8410
  7
SLDTEXTSTYLE0
 73
     1
 44
1.0
  0
LINE
  5
75
330
1F
100
AcDbEntity
  8
0
  6
Continuous
 62
     7
370
    25
100
AcDbLine
 10
74.0858828541
 20
58.2624362626
 30
0.0
 11
59.7822741271
 21
57.8154484899
 31
0.0
  0
LINE
  5
76
330
1F
100
AcDbEntity
  8
0
  6
Continuous
 62
     7
370
    25
100
AcDbLine
 10
59.7822741271
 20
37.2019240353
 30
0.0
 11
74.0858828541
 21
36.7549362626
 31
0.0
  0
LINE
  5
77
330
1F
100
AcDbEntity
  8
0
  6
Continuous
 62
     7
370
    25
100
AcDbLine
 10
59.7822741271
 20
57.8154484899
 30
0.0
 11
57.0858828541
 21
56.2586862626
 31
0.0
  0
LINE
  5
78
330
1F
100
AcDbEntity
  8
0
  6
Continuous
 62
     7
370
    25
100
AcDbLine
 10
57.0858828541
 20
38.7586862626
 30
0.0
 11
59.7822741271
 21
37.2019240353
 31
0.0
  0
LINE
  5
79
330
1F
100
AcDbEntity
  8
0
  6
Continuous
 62
     7
370
    25
100
AcDbLine
 10
74.0858828541
 20
36.5086862626
 30
0.0
 11
75.0683632264
 21
34.8069803404
 31
0.0
  0
LINE
  5
7A
330
1F
100
AcDbEntity
  8
0
  6
Continuous
 62
     7
370
    25
100
AcDbLine
 10
79.1034024819
 20
34.8069803404
 30
0.0
 11
80.0858828541
 21
36.5086862626
 31
0.0
  0
LINE
  5
7B
330
1F
100
AcDbEntity
  8
0
  6
Continuous
 62
     7
370
    25
100
AcDbLine
 10
80.0858828541
 20
58.5086862626
 30
0.0
 11
79.1034024819
 21
60.2103921848
 31
0.0
  0
LINE
  5
7C
330
1F
100
AcDbEntity
  8
0
  6
Continuous
 62
     7
370
    25
100
AcDbLine
 10
75.0683632264
 20
60.2103921848
 30
0.0
 11
74.0858828541
 21
58.5086862626
 31
0.0
  0
LINE
  5
7D
330
1F
100
AcDbEntity
  8
0
  6
Continuous
 62
     7
370
    25
100
AcDbLine
 10
85.0858828541
 20
42.2586862626
 30
0.0
 11
90.0858828541
 21
43.0086862626
 31
0.0
  0
LINE
  5
7E
330
1F
100
AcDbEntity
  8
0
  6
Continuous
 62
     7
370
    25
100
AcDbLine
 10
90.0858828541
 20
52.0086862626
 30
0.0
 11
85.0858828541
 21
52.7586862626
 31
0.0
  0
LINE
  5
7F
330
1F
100
AcDbEntity
  8
0
  6
Continuous
 62
     7
370
    25
100
AcDbLine
 10
85.0858828541
 20
52.7586862626
 30
0.0
 11
80.0858828541
 21
52.7586862626
 31
0.0
  0
LINE
  5
80
330
1F
100
AcDbEntity
  8
0
  6
Continuous
 62
     7
370
    25
100
AcDbLine
 10
80.0858828541
 20
42.2586862626
 30
0.0
 11
85.0858828541
 21
42.2586862626
 31
0.0
  0
LINE
  5
81
330
1F
100
AcDbEntity
  8
0
  6
Continuous
 62
     7
370
    25
100
AcDbLine
 10
100.0858828541
 20
42.2586862626
 30
0.0
 11
105.6479002214
 21
42.9539384335
 31
0.0
  0
LINE
  5
82
330
1F
100
AcDbEntity
  8
0
  6
Continuous
 62
     7
370
    25
100
AcDbLine
 10
105.6479002214
 20
52.0634340917
 30
0.0
 11
100.0858828541
 21
52.7586862626
 31
0.0
  0
LINE
  5
83
330
1F
100
AcDbEntity
  8
0
  6
Continuous
 62
     7
370
    25
100
AcDbLine
 10
95.0858828541
 20
42.2586862626
 30
0.0
 11
100.0858828541
 21
43.0086862626
 31
0.0
  0
LINE
  5
84
330
1F
100
AcDbEntity
  8
0
  6
Continuous
 62
     7
370
    25
100
AcDbLine
 10
100.0858828541
 20
52.0086862626
 30
0.0
 11
95.0858828541
 21
52.7586862626
 31
0.0
  0
LINE
  5
85
330
1F
100
AcDbEntity
  8
0
  6
Continuous
 62
     7
370
    25
100
AcDbLine
 10
90.0858828541
 20
42.2586862626
 30
0.0
 11
95.0858828541
 21
43.0086862626
 31
0.0
  0
LINE
  5
86
330
1F
100
AcDbEntity
  8
0
  6
Continuous
 62
     7
370
    25
100
AcDbLine
 10
95.0858828541
 20
52.0086862626
 30
0.0
 11
90.0858828541
 21
52.7586862626
 31
0.0
  0
ARC
  5
87
330
1F
100
AcDbEntity
  8
0
  6
Continuous
 62
     7
370
    25
100
AcDbCircle
 10
105.5858828541
 20
43.4500773719
 30
0.0
 40
0.5000000000000142
100
AcDbArc
 50
277.1250163489
 51
0.0
  0
ARC
  5
88
330
1F
100
AcDbEntity
  8
0
  6
Continuous
 62
     7
370
    25
100
AcDbCircle
 10
105.5858828541
 20
51.5672951533
 30
0.0
 40
0.5000000000000142
100
AcDbArc
 50
0.0
 51
82.8749836511
  0
LINE
  5
89
330
1F
100
AcDbEntity
  8
0
  6
Continuous
 62
     7
370
    25
100
AcDbLine
 10
77.1662676118
 20
60.2103921848
 30
0.0
 11
77.0858828541
 21
59.9103921848
 31
0.0
  0
LINE
  5
8A
330
1F
100
AcDbEntity
  8
0
  6
Continuous
 62
     7
370
    25
100
AcDbLine
 10
77.0858828541
 20
59.9103921848
 30
0.0
 11
77.0054980964
 21
60.2103921848
 31
0.0
  0
LINE
  5
8B
330
1F
100
AcDbEntity
  8
0
  6
Continuous
 62
     7
370
    25
100
AcDbLine
 10
77.0054980964
 20
34.8069803404
 30
0.0
 11
77.0858828541
 21
35.1069803404
 31
0.0
  0
LINE
  5
8C
330
1F
100
AcDbEntity
  8
0
  6
Continuous
 62
     7
370
    25
100
AcDbLine
 10
77.0858828541
 20
35.1069803404
 30
0.0
 11
77.1662676118
 21
34.8069803404
 31
0.0
  0
SPLINE
  5
8D
330
1F
100
AcDbEntity
  8
0
  6
Continuous
 62
     7
370
    25
100
AcDbSpline
210
0.0
220
0.0
230
1.0
 70
     8
 71
     3
 72
     8
 73
     4
 74
     0
 42
0.000000001
 43
0.00000001
 40
0.0
 40
0.0
 40
0.0
 40
0.0
 40
1.0
 40
1.0
 40
1.0
 40
1.0
 10
77.08588285410795
 20
54.1713006670944
 30
0.0
 10
77.06014190427464
 20
54.06729156765605
 30
0.0
 10
77.03332036001373
 20
53.96337332517142
 30
0.0
 10
77.00549809637862
 20
53.8595392237036
 30
0.0
  0
LINE
  5
8E
330
1F
100
AcDbEntity
  8
0
  6
Continuous
 62
     7
370
    25
100
AcDbLine
 10
77.0858828541
 20
53.2360163369
 30
0.0
 11
77.0858828541
 21
54.1713006671
 31
0.0
  0
SPLINE
  5
8F
330
1F
100
AcDbEntity
  8
0
  6
Continuous
 62
     7
370
    25
100
AcDbSpline
210
0.0
220
0.0
230
1.0
 70
     8
 71
     3
 72
     8
 73
     4
 74
     0
 42
0.000000001
 43
0.00000001
 40
0.0
 40
0.0
 40
0.0
 40
0.0
 40
1.0
 40
1.0
 40
1.0
 40
1.0
 10
77.00549809637862
 20
53.8595392237036
 30
0.0
 10
77.03333114993453
 20
53.65179048370281
 30
0.0
 10
77.06015213770482
 20
53.4439518372298
 30
0.0
 10
77.08588285410795
 20
53.23601633692198
 30
0.0
  0
SPLINE
  5
90
330
1F
100
AcDbEntity
  8
0
  6
Continuous
 62
     7
370
    25
100
AcDbSpline
210
0.0
220
0.0
230
1.0
 70
     8
 71
     3
 72
    19
 73
    15
 74
     0
 42
0.000000001
 43
0.00000001
 40
0.0
 40
0.0
 40
0.0
 40
0.0
 40
0.1227280999764553
 40
0.239716523588393
 40
0.3518621792202463
 40
0.4632019818032239
 40
0.5202611541541643
 40
0.5794324380306665
 40
0.6405963441586369
 40
0.70529822908802
 40
0.7732361059084537
 40
0.844648929340316
 40
0.9200459817773698
 40
1.0
 40
1.0
 40
1.0
 40
1.0
 10
77.67049823872334
 20
48.44498433954079
 30
0.0
 10
77.66990309737555
 20
48.46206419022606
 30
0.0
 10
77.66874064790423
 20
48.49542511107846
 30
0.0
 10
77.65852324102408
 20
48.54350935468569
 30
0.0
 10
77.6423348130925
 20
48.58816402371473
 30
0.0
 10
77.62278733437928
 20
48.62218187379301
 30
0.0
 10
77.60355785201651
 20
48.64734447858466
 30
0.0
 10
77.58701472836944
 20
48.66567018056952
 30
0.0
 10
77.56825821449425
 20
48.68333803449195
 30
0.0
 10
77.5467738403245
 20
48.69965473774109
 30
0.0
 10
77.52330036653181
 20
48.71559802172795
 30
0.0
 10
77.49770850996279
 20
48.73101565192222
 30
0.0
 10
77.46963340733292
 20
48.74541241368512
 30
0.0
 10
77.44989018595594
 20
48.75417595829543
 30
0.0
 10
77.43972900795411
 20
48.75868626261772
 30
0.0
  0
SPLINE
  5
91
330
1F
100
AcDbEntity
  8
0
  6
Continuous
 62
     7
370
    25
100
AcDbSpline
210
0.0
220
0.0
230
1.0
 70
     8
 71
     3
 72
    23
 73
    19
 74
     0
 42
0.000000001
 43
0.00000001
 40
0.0
 40
0.0
 40
0.0
 40
0.0
 40
0.0552698294993248
 40
0.1099567044850939
 40
0.1632335040550556
 40
0.2180575651623569
 40
0.2732775387226747
 40
0.330881045495497
 40
0.3904799376860887
 40
0.4536559730386418
 40
0.5189026226022312
 40
0.5833461108214767
 40
0.6485466930814432
 40
0.7150552190344911
 40
0.7825206438000537
 40
0.8523352944264511
 40
0.9249348997257085
 40
1.0
 40
1.0
 40
1.0
 40
1.0
 10
77.43522179641565
 20
48.1433016472331
 30
0.0
 10
77.44305513459403
 20
48.14347923125461
 30
0.0
 10
77.45863918938512
 20
48.14383252624305
 30
0.0
 10
77.48140679964052
 20
48.1482888058309
 30
0.0
 10
77.50347966511052
 20
48.1549836908446
 30
0.0
 10
77.52475763224717
 20
48.16419362776658
 30
0.0
 10
77.5451171938316
 20
48.17649849804661
 30
0.0
 10
77.56458332705859
 20
48.19126844150751
 30
0.0
 10
77.5834822641619
 20
48.20851058689283
 30
0.0
 10
77.6009098568655
 20
48.22867555725218
 30
0.0
 10
77.6173485395579
 20
48.25050628830515
 30
0.0
 10
77.63155916923489
 20
48.2742081934891
 30
0.0
 10
77.64360408945235
 20
48.29925849835278
 30
0.0
 10
77.65355576122242
 20
48.32568023843408
 30
0.0
 10
77.66103700759122
 20
48.35357925836784
 30
0.0
 10
77.66640987684492
 20
48.38281894956859
 30
0.0
 10
77.66976876993861
 20
48.41345660114714
 30
0.0
 10
77.67025239085729
 20
48.43435876190455
 30
0.0
 10
77.67049823872334
 20
48.44498433954079
 30
0.0
  0
SPLINE
  5
92
330
1F
100
AcDbEntity
  8
0
  6
Continuous
 62
     7
370
    25
100
AcDbSpline
210
0.0
220
0.0
230
1.0
 70
     8
 71
     3
 72
    19
 73
    15
 74
     0
 42
0.000000001
 43
0.00000001
 40
0.0
 40
0.0
 40
0.0
 40
0.0
 40
0.1101423815503174
 40
0.2157418685830274
 40
0.3179605426392306
 40
0.4180517606815226
 40
0.5115631470355316
 40
0.5965727584443461
 40
0.6733290469034968
 40
0.7440491927238595
 40
0.8107168223002833
 40
0.8740854521098849
 40
0.9367096168966699
 40
1.0
 40
1.0
 40
1.0
 40
1.0
 10
77.18972900795411
 20
48.52791703184849
 30
0.0
 10
77.1900452969227
 20
48.50935990231631
 30
0.0
 10
77.19066482931467
 20
48.47301104418872
 30
0.0
 10
77.19810607642528
 20
48.41990626471011
 30
0.0
 10
77.20851540224513
 20
48.36906471507848
 30
0.0
 10
77.22409157388661
 20
48.32164691100368
 30
0.0
 10
77.24278742558661
 20
48.27856819290542
 30
0.0
 10
77.26386836370922
 20
48.24098875755241
 30
0.0
 10
77.28775212075004
 20
48.20979922286174
 30
0.0
 10
77.31412524529826
 20
48.18492166456029
 30
0.0
 10
77.34274103468977
 20
48.16666242010838
 30
0.0
 10
77.37225396205058
 20
48.15295704865294
 30
0.0
 10
77.40335069525257
 20
48.14492240460014
 30
0.0
 10
77.42456068842048
 20
48.14384380199692
 30
0.0
 10
77.43522179641565
 20
48.1433016472331
 30
0.0
  0
LINE
  5
93
330
1F
100
AcDbEntity
  8
0
  6
Continuous
 62
     7
370
    25
100
AcDbLine
 10
77.0358828541
 20
48.5279170318
 30
0.0
 11
77.189729008
 21
48.5279170318
 31
0.0
  0
SPLINE
  5
94
330
1F
100
AcDbEntity
  8
0
  6
Continuous
 62
     7
370
    25
100
AcDbSpline
210
0.0
220
0.0
230
1.0
 70
     8
 71
     3
 72
    23
 73
    19
 74
     0
 42
0.000000001
 43
0.00000001
 40
0.0
 40
0.0
 40
0.0
 40
0.0
 40
0.0669051223273616
 40
0.1334773340846825
 40
0.2010229080576287
 40
0.2712178684297488
 40
0.3428591616573978
 40
0.4138109980627169
 40
0.4855518488903453
 40
0.5598002749200529
 40
0.5998999649035781
 40
0.6436094423977958
 40
0.6919106424505659
 40
0.7447030291556902
 40
0.8015038302285953
 40
0.8628660266331954
 40
0.9293326711591618
 40
1.0
 40
1.0
 40
1.0
 40
1.0
 10
76.71857516180026
 20
48.06637857031002
 30
0.0
 10
76.7325514656828
 20
48.06703440217505
 30
0.0
 10
76.76043452930641
 20
48.06834280257706
 30
0.0
 10
76.80145611026646
 20
48.07833236820214
 30
0.0
 10
76.84098135263845
 20
48.09476262965189
 30
0.0
 10
76.8783302188425
 20
48.11776780004516
 30
0.0
 10
76.91296228685783
 20
48.14575863371297
 30
0.0
 10
76.94374170581438
 20
48.17846418097943
 30
0.0
 10
76.96939457660643
 20
48.21596466846825
 30
0.0
 10
76.98705305084219
 20
48.25070152965296
 30
0.0
 10
76.99882168130786
 20
48.28154453140795
 30
0.0
 10
77.00707362467283
 20
48.30788690539006
 30
0.0
 10
77.0136700819768
 20
48.33740408369721
 30
0.0
 10
77.02005084270044
 20
48.36974171903407
 30
0.0
 10
77.02540006756854
 20
48.40503619522904
 30
0.0
 10
77.02988025305783
 20
48.44331931037909
 30
0.0
 10
77.03345947390186
 20
48.48460646607319
 30
0.0
 10
77.0350587312362
 20
48.51318833688166
 30
0.0
 10
77.03588285410795
 20
48.52791703184849
 30
0.0
  0
SPLINE
  5
95
330
1F
100
AcDbEntity
  8
0
  6
Continuous
 62
     7
370
    25
100
AcDbSpline
210
0.0
220
0.0
230
1.0
 70
     8
 71
     3
 72
    23
 73
    19
 74
     0
 42
0.000000001
 43
0.00000001
 40
0.0
 40
0.0
 40
0.0
 40
0.0
 40
0.0760618905628339
 40
0.1487324608035361
 40
0.2183745247439722
 40
0.2857225935927383
 40
0.3510576941824569
 40
0.414934915729319
 40
0.4784859417740854
 40
0.542169035281216
 40
0.6047501165431387
 40
0.6641185017301124
 40
0.7214996756099116
 40
0.7776159163852548
 40
0.8326661086975489
 40
0.8878580281135741
 40
0.9434676608977686
 40
1.0
 40
1.0
 40
1.0
 40
1.0
 10
76.40126746949257
 20
48.44828962800233
 30
0.0
 10
76.40153099960183
 20
48.43425222256654
 30
0.0
 10
76.40204630998072
 20
48.40680328804344
 30
0.0
 10
76.40679903900374
 20
48.36675386017974
 30
0.0
 10
76.41369064412963
 20
48.32864118306484
 30
0.0
 10
76.42447045449165
 20
48.29285419645318
 30
0.0
 10
76.43740261781603
 20
48.25890592727665
 30
0.0
 10
76.45433319308874
 20
48.22755419898259
 30
0.0
 10
76.4734535407245
 20
48.19787730949348
 30
0.0
 10
76.49569418244047
 20
48.17074465451918
 30
0.0
 10
76.51973390876518
 20
48.14628323934831
 30
0.0
 10
76.5452379160273
 20
48.12514587399551
 30
0.0
 10
76.57141541403024
 20
48.10683849813198
 30
0.0
 10
76.59887707088889
 20
48.09212242315096
 30
0.0
 10
76.62735350982578
 20
48.08048131713416
 30
0.0
 10
76.65695131840411
 20
48.07256132175125
 30
0.0
 10
76.68742126455598
 20
48.06705316315852
 30
0.0
 10
76.7081337218854
 20
48.06660466467758
 30
0.0
 10
76.71857516180026
 20
48.06637857031002
 30
0.0
  0
SPLINE
  5
96
330
1F
100
AcDbEntity
  8
0
  6
Continuous
 62
     7
370
    25
100
AcDbSpline
210
0.0
220
0.0
230
1.0
 70
     8
 71
     3
 72
    15
 73
    11
 74
     0
 42
0.000000001
 43
0.00000001
 40
0.0
 40
0.0
 40
0.0
 40
0.0
 40
0.1182713048357256
 40
0.2361775330837632
 40
0.355662932948509
 40
0.4759041646706825
 40
0.6001273417110832
 40
0.7286081161551193
 40
0.8613134756739422
 40
1.0
 40
1.0
 40
1.0
 40
1.0
 10
76.48239727718487
 20
48.6988905895408
 30
0.0
 10
76.47592227694822
 20
48.6904920567443
 30
0.0
 10
76.46299226332631
 20
48.6737209155097
 30
0.0
 10
76.44649156538155
 20
48.64639167361038
 30
0.0
 10
76.43219398309523
 20
48.61764957957364
 30
0.0
 10
76.4212723992168
 20
48.58687186205039
 30
0.0
 10
76.41202483030716
 20
48.55472267471295
 30
0.0
 10
76.4059731792504
 20
48.52068237532788
 30
0.0
 10
76.40182110581759
 20
48.48505128227998
 30
0.0
 10
76.40145470660656
 20
48.46072224078725
 30
0.0
 10
76.40126746949257
 20
48.44828962800233
 30
0.0
  0
SPLINE
  5
97
330
1F
100
AcDbEntity
  8
0
  6
Continuous
 62
     7
370
    25
100
AcDbSpline
210
0.0
220
0.0
230
1.0
 70
     8
 71
     3
 72
    15
 73
    11
 74
     0
 42
0.000000001
 43
0.00000001
 40
0.0
 40
0.0
 40
0.0
 40
0.0
 40
0.1497703860319679
 40
0.2913164099952444
 40
0.4259663731047425
 40
0.5521595739695284
 40
0.6715274135235927
 40
0.7861216286916589
 40
0.8953250730704446
 40
1.0
 40
1.0
 40
1.0
 40
1.0
 10
76.68972900795411
 20
48.81637857031002
 30
0.0
 10
76.67817943083898
 20
48.81287144540705
 30
0.0
 10
76.65571450014549
 20
48.80604978283937
 30
0.0
 10
76.62338294057055
 20
48.79443794082432
 30
0.0
 10
76.59374377490279
 20
48.78120868136556
 30
0.0
 10
76.56657957976937
 20
48.76701672766439
 30
0.0
 10
76.54162283585613
 20
48.75211167936893
 30
0.0
 10
76.51953346341296
 20
48.73543385431047
 30
0.0
 10
76.49934123389448
 20
48.7182185063902
 30
0.0
 10
76.4879649716344
 20
48.7052416406682
 30
0.0
 10
76.48239727718487
 20
48.6988905895408
 30
0.0
  0
LINE
  5
98
330
1F
100
AcDbEntity
  8
0
  6
Continuous
 62
     7
370
    25
100
AcDbLine
 10
76.689729008
 20
48.9509939549
 30
0.0
 11
76.689729008
 21
48.8163785703
 31
0.0
  0
SPLINE
  5
99
330
1F
100
AcDbEntity
  8
0
  6
Continuous
 62
     7
370
    25
100
AcDbSpline
210
0.0
220
0.0
230
1.0
 70
     8
 71
     3
 72
    23
 73
    19
 74
     0
 42
0.000000001
 43
0.00000001
 40
0.0
 40
0.0
 40
0.0
 40
0.0
 40
0.0655411703374033
 40
0.1289631677825933
 40
0.1903771361885609
 40
0.2500923616690527
 40
0.308548432459201
 40
0.3663979630552958
 40
0.42454218926668
 40
0.4831699964229055
 40
0.5422433998311199
 40
0.6017393520173299
 40
0.6625060022496068
 40
0.7248555134488469
 40
0.7891278292811811
 40
0.8563463998785099
 40
0.9262952349869055
 40
1.0
 40
1.0
 40
1.0
 40
1.0
 10
76.2474213156464
 20
48.45069347415618
 30
0.0
 10
76.2477934070429
 20
48.46673031713466
 30
0.0
 10
76.24852555883314
 20
48.49828547645041
 30
0.0
 10
76.25353067363169
 20
48.54467554718741
 30
0.0
 10
76.26267210444789
 20
48.58895627548648
 30
0.0
 10
76.27497352103335
 20
48.63118753171077
 30
0.0
 10
76.290569981925
 20
48.6714068330223
 30
0.0
 10
76.30999228107699
 20
48.70949144952703
 30
0.0
 10
76.33284006767063
 20
48.74567568960708
 30
0.0
 10
76.35938303387344
 20
48.77961809724047
 30
0.0
 10
76.38907503662634
 20
48.81131462625742
 30
0.0
 10
76.42244318375535
 20
48.83992293664176
 30
0.0
 10
76.45887064257866
 20
48.8659199907598
 30
0.0
 10
76.49878052380669
 20
48.88860969306473
 30
0.0
 10
76.54165706264001
 20
48.9090255299001
 30
0.0
 10
76.58804927623216
 20
48.92581736846323
 30
0.0
 10
76.63754242851314
 20
48.94059689787878
 30
0.0
 10
76.6720328885885
 20
48.94746838255567
 30
0.0
 10
76.68972900795411
 20
48.95099395492541
 30
0.0
  0
SPLINE
  5
9A
330
1F
100
AcDbEntity
  8
0
  6
Continuous
 62
     7
370
    25
100
AcDbSpline
210
0.0
220
0.0
230
1.0
 70
     8
 71
     3
 72
    19
 73
    15
 74
     0
 42
0.000000001
 43
0.00000001
 40
0.0
 40
0.0
 40
0.0
 40
0.0
 40
0.079641704194991
 40
0.158908613257856
 40
0.2395997983184508
 40
0.3224093988203483
 40
0.405827748173513
 40
0.4876442139503136
 40
0.5697199979738973
 40
0.6530646649976933
 40
0.7374573001733064
 40
0.8224924079539123
 40
0.9097550737466982
 40
1.0
 40
1.0
 40
1.0
 40
1.0
 10
76.73149583487718
 20
47.93176318569463
 30
0.0
 10
76.71049250387387
 20
47.93253395640615
 30
0.0
 10
76.66858468387844
 20
47.93407187056989
 30
0.0
 10
76.60665441783576
 20
47.94776250027294
 30
0.0
 10
76.5462212437735
 20
47.96910910457316
 30
0.0
 10
76.48818058484851
 20
47.99889304827359
 30
0.0
 10
76.43398919448887
 20
48.03574361066323
 30
0.0
 10
76.38572261045233
 20
48.07982775620263
 30
0.0
 10
76.34395450420499
 20
48.13007380634522
 30
0.0
 10
76.30916879794844
 20
48.18615291071606
 30
0.0
 10
76.28134173387112
 20
48.24688348986436
 30
0.0
 10
76.26203278822716
 20
48.31184590898406
 30
0.0
 10
76.24945555339941
 20
48.38009553682055
 30
0.0
 10
76.24810694742746
 20
48.42689871887637
 30
0.0
 10
76.2474213156464
 20
48.45069347415618
 30
0.0
  0
SPLINE
  5
9B
330
1F
100
AcDbEntity
  8
0
  6
Continuous
 62
     7
370
    25
100
AcDbSpline
210
0.0
220
0.0
230
1.0
 70
     8
 71
     3
 72
    15
 73
    11
 74
     0
 42
0.000000001
 43
0.00000001
 40
0.0
 40
0.0
 40
0.0
 40
0.0
 40
0.1281455049994643
 40
0.2541925386280419
 40
0.3781411397135888
 40
0.5013808330744057
 40
0.6239569784447038
 40
0.7470758858273289
 40
0.8728647202442611
 40
1.0
 40
1.0
 40
1.0
 40
1.0
 10
76.99802227718487
 20
48.0213064549254
 30
0.0
 10
76.98814143675988
 20
48.01408579873785
 30
0.0
 10
76.9685415615132
 20
47.99976272960731
 30
0.0
 10
76.93701056494763
 20
47.98213328094339
 30
0.0
 10
76.90523446571213
 20
47.9659570735223
 30
0.0
 10
76.87196386856829
 20
47.95405185311219
 30
0.0
 10
76.83826748394777
 20
47.94377811967413
 30
0.0
 10
76.80342373758185
 20
47.9370183451618
 30
0.0
 10
76.76776367455429
 20
47.9326788403161
 30
0.0
 10
76.74362794374528
 20
47.9320694852055
 30
0.0
 10
76.73149583487718
 20
47.93176318569463
 30
0.0
  0
SPLINE
  5
9C
330
1F
100
AcDbEntity
  8
0
  6
Continuous
 62
     7
370
    25
100
AcDbSpline
210
0.0
220
0.0
230
1.0
 70
     8
 71
     3
 72
    11
 73
     7
 74
     0
 42
0.000000001
 43
0.00000001
 40
0.0
 40
0.0
 40
0.0
 40
0.0
 40
0.253879600326656
 40
0.5030089172783633
 40
0.7502910806899731
 40
1.0
 40
1.0
 40
1.0
 40
1.0
 10
77.1260270848772
 20
48.18386655107925
 30
0.0
 10
77.11832215421654
 20
48.16791008483354
 30
0.0
 10
77.1030564580979
 20
48.13629571014759
 30
0.0
 10
77.07311827630478
 20
48.09320262606206
 30
0.0
 10
77.03855127029598
 20
48.05408353662336
 30
0.0
 10
77.01157584761873
 20
48.0322676570503
 30
0.0
 10
76.99802227718487
 20
48.0213064549254
 30
0.0
  0
SPLINE
  5
9D
330
1F
100
AcDbEntity
  8
0
  6
Continuous
 62
     7
370
    25
100
AcDbSpline
210
0.0
220
0.0
230
1.0
 70
     8
 71
     3
 72
    15
 73
    11
 74
     0
 42
0.000000001
 43
0.00000001
 40
0.0
 40
0.0
 40
0.0
 40
0.0
 40
0.1280675485958904
 40
0.2506083188676684
 40
0.3706301659145029
 40
0.4900722467299488
 40
0.6103747641546199
 40
0.7343130699115256
 40
0.8632165042449895
 40
1.0
 40
1.0
 40
1.0
 40
1.0
 10
77.43462083487718
 20
48.00868626261772
 30
0.0
 10
77.41876078000335
 20
48.00918494449503
 30
0.0
 10
77.38772511380489
 20
48.01016078754265
 30
0.0
 10
77.34241590074566
 20
48.01844666135508
 30
0.0
 10
77.29971235776759
 20
48.03239077401632
 30
0.0
 10
77.25943471685751
 20
48.05170638654969
 30
0.0
 10
77.22183835693333
 20
48.07670990808123
 30
0.0
 10
77.18683868942168
 20
48.10699820674852
 30
0.0
 10
77.15428047879529
 20
48.14278506179516
 30
0.0
 10
77.1356292760915
 20
48.16990460666229
 30
0.0
 10
77.1260270848772
 20
48.18386655107925
 30
0.0
  0
SPLINE
  5
9E
330
1F
100
AcDbEntity
  8
0
  6
Continuous
 62
     7
370
    25
100
AcDbSpline
210
0.0
220
0.0
230
1.0
 70
     8
 71
     3
 72
    19
 73
    15
 74
     0
 42
0.000000001
 43
0.00000001
 40
0.0
 40
0.0
 40
0.0
 40
0.0
 40
0.0902542493426766
 40
0.1785397915286845
 40
0.2660930338538198
 40
0.3546309779571733
 40
0.4418861533505626
 40
0.5257469151636484
 40
0.6081136336036366
 40
0.6901972728278825
 40
0.770821484330335
 40
0.8483261812554109
 40
0.9240117400247433
 40
1.0
 40
1.0
 40
1.0
 40
1.0
 10
77.8243443925695
 20
48.44678722415618
 30
0.0
 10
77.82375329389309
 20
48.427208906124
 30
0.0
 10
77.82258399011816
 20
48.38847933000537
 30
0.0
 10
77.81190637448427
 20
48.3315808813123
 30
0.0
 10
77.79500988918961
 20
48.27671224455425
 30
0.0
 10
77.77166400613089
 20
48.22447399549011
 30
0.0
 10
77.74286944334715
 20
48.17595181009171
 30
0.0
 10
77.70859884182082
 20
48.13277915862866
 30
0.0
 10
77.66951342689767
 20
48.09554122542697
 30
0.0
 10
77.626342327904
 20
48.06430077785834
 30
0.0
 10
77.58020425245245
 20
48.03984006397819
 30
0.0
 10
77.5327184708179
 20
48.0218030467726
 30
0.0
 10
77.48399762593692
 20
48.01082232634461
 30
0.0
 10
77.45110164914756
 20
48.00939923056879
 30
0.0
 10
77.43462083487718
 20
48.00868626261772
 30
0.0
  0
SPLINE
  5
9F
330
1F
100
AcDbEntity
  8
0
  6
Continuous
 62
     7
370
    25
100
AcDbSpline
210
0.0
220
0.0
230
1.0
 70
     8
 71
     3
 72
    23
 73
    19
 74
     0
 42
0.000000001
 43
0.00000001
 40
0.0
 40
0.0
 40
0.0
 40
0.0
 40
0.0726253460834355
 40
0.1419766113262345
 40
0.2089849284189386
 40
0.2739568703644447
 40
0.336889347396841
 40
0.3987449534945902
 40
0.4601158852788617
 40
0.5208249225900291
 40
0.5809944586324857
 40
0.6401519276014648
 40
0.6986224507562546
 40
0.7572710809271643
 40
0.8164266940046602
 40
0.8762540482034705
 40
0.9371652930625374
 40
1.0
 40
1.0
 40
1.0
 40
1.0
 10
77.43972900795411
 20
48.8933016472331
 30
0.0
 10
77.45482864394356
 20
48.88965469694124
 30
0.0
 10
77.48434719725384
 20
48.88252520741677
 30
0.0
 10
77.52652173761697
 20
48.86765481878724
 30
0.0
 10
77.56643181821299
 20
48.85145513798955
 30
0.0
 10
77.60333013551102
 20
48.83200266460466
 30
0.0
 10
77.63795823668217
 20
48.81078462707918
 30
0.0
 10
77.66953071859709
 20
48.78647488927808
 30
0.0
 10
77.69885056094014
 20
48.76019500817841
 30
0.0
 10
77.72487051989323
 20
48.73112717276336
 30
0.0
 10
77.74843240383896
 20
48.70064346063159
 30
0.0
 10
77.76852171412854
 20
48.66831433788128
 30
0.0
 10
77.7858034939276
 20
48.63479024059387
 30
0.0
 10
77.80004073615991
 20
48.59983889790162
 30
0.0
 10
77.81076596058824
 20
48.56335625289076
 30
0.0
 10
77.81854744869858
 20
48.52567212861041
 30
0.0
 10
77.82360078336191
 20
48.48668777141842
 30
0.0
 10
77.82409396754178
 20
48.46022451830488
 30
0.0
 10
77.8243443925695
 20
48.44678722415618
 30
0.0
  0
LINE
  5
A0
330
1F
100
AcDbEntity
  8
0
  6
Continuous
 62
     7
370
    25
100
AcDbLine
 10
77.439729008
 20
48.7586862626
 30
0.0
 11
77.439729008
 21
48.8933016472
 31
0.0
  0
LINE
  5
A1
330
1F
100
AcDbEntity
  8
0
  6
Continuous
 62
     7
370
    25
100
AcDbLine
 10
77.8243443926
 20
46.4712856621
 30
0.0
 11
77.7429141041
 21
46.3676197967
 31
0.0
  0
LINE
  5
A2
330
1F
100
AcDbEntity
  8
0
  6
Continuous
 62
     7
370
    25
100
AcDbLine
 10
77.1398492003
 20
46.9190020083
 30
0.0
 11
77.8243443926
 21
46.4712856621
 31
0.0
  0
SPLINE
  5
A3
330
1F
100
AcDbEntity
  8
0
  6
Continuous
 62
     7
370
    25
100
AcDbSpline
210
0.0
220
0.0
230
1.0
 70
     8
 71
     3
 72
    19
 73
    15
 74
     0
 42
0.000000001
 43
0.00000001
 40
0.0
 40
0.0
 40
0.0
 40
0.0
 40
0.0978059775289525
 40
0.1996122522918967
 40
0.3052960258330042
 40
0.4158173591641855
 40
0.4742405666184931
 40
0.5372869128296535
 40
0.6033858352934857
 40
0.6743111580696057
 40
0.7495304673574823
 40
0.828608314269512
 40
0.9120427387714449
 40
1.0
 40
1.0
 40
1.0
 40
1.0
 10
76.70415208487718
 20
47.08667027751464
 30
0.0
 10
76.7195941388405
 20
47.08612665681414
 30
0.0
 10
76.75110983194547
 20
47.08501718114444
 30
0.0
 10
76.79897930600788
 20
47.07839595817145
 30
0.0
 10
76.84776811919016
 20
47.06625182627241
 30
0.0
 10
76.88912768483618
 20
47.05310922130286
 30
0.0
 10
76.92338089864138
 20
47.04006778985783
 30
0.0
 10
76.95042975674845
 20
47.02797547454111
 30
0.0
 10
76.97899421942573
 20
47.01445479260163
 30
0.0
 10
77.00853381893131
 20
46.99860667048241
 30
0.0
 10
77.03989256560423
 20
46.98180638208272
 30
0.0
 10
77.07190914932093
 20
46.96218173873437
 30
0.0
 10
77.10575291458055
 20
46.94170312185403
 30
0.0
 10
77.12828556778226
 20
46.92670100918548
 30
0.0
 10
77.1398492002618
 20
46.91900200828387
 30
0.0
  0
SPLINE
  5
A4
330
1F
100
AcDbEntity
  8
0
  6
Continuous
 62
     7
370
    25
100
AcDbSpline
210
0.0
220
0.0
230
1.0
 70
     8
 71
     3
 72
    19
 73
    15
 74
     0
 42
0.000000001
 43
0.00000001
 40
0.0
 40
0.0
 40
0.0
 40
0.0
 40
0.0843261511037431
 40
0.1670353409858404
 40
0.2495407139852791
 40
0.3327066655796642
 40
0.4158726171740491
 40
0.4977774155681173
 40
0.5803136056784763
 40
0.6645325781316562
 40
0.7495711764063213
 40
0.8324741628544072
 40
0.9156738488962566
 40
0.9999999999999999
 40
0.9999999999999999
 40
0.9999999999999999
 40
0.9999999999999999
 10
76.2474213156464
 20
46.63234335443772
 30
0.0
 10
76.24807625931157
 20
46.65252765860945
 30
0.0
 10
76.2493735880406
 20
46.69250923117927
 30
0.0
 10
76.26093044274343
 20
46.75132322892762
 30
0.0
 10
76.27966196665759
 20
46.80783616614595
 30
0.0
 10
76.30546843070512
 20
46.86165080385138
 30
0.0
 10
76.33806338413662
 20
46.91150551283323
 30
0.0
 10
76.37730908752476
 20
46.95609394625679
 30
0.0
 10
76.42233816577416
 20
46.99526097159833
 30
0.0
 10
76.47328875161536
 20
47.02768433893826
 30
0.0
 10
76.52768589285317
 20
47.05410947132215
 30
0.0
 10
76.5849235015978
 20
47.07274749931908
 30
0.0
 10
76.64384964826027
 20
47.08480076067446
 30
0.0
 10
76.68396136723612
 20
47.08604431795541
 30
0.0
 10
76.70415208487718
 20
47.08667027751464
 30
0.0
  0
SPLINE
  5
A5
330
1F
100
AcDbEntity
  8
0
  6
Continuous
 62
     7
370
    25
100
AcDbSpline
210
0.0
220
0.0
230
1.0
 70
     8
 71
     3
 72
    19
 73
    15
 74
     0
 42
0.000000001
 43
0.00000001
 40
0.0
 40
0.0
 40
0.0
 40
0.0
 40
0.0859901205637197
 40
0.1691084375726415
 40
0.2505285789581879
 40
0.332255696176845
 40
0.4135763652356401
 40
0.4941261456201216
 40
0.5763059341204168
 40
0.660712671904547
 40
0.7461272722239101
 40
0.830014985960974
 40
0.9144197259288509
 40
1.0
 40
1.0
 40
1.0
 40
1.0
 10
76.70685641180026
 20
46.16359335443771
 30
0.0
 10
76.68587758851415
 20
46.16437615244085
 30
0.0
 10
76.64462056962907
 20
46.16591560541961
 30
0.0
 10
76.58427882048731
 20
46.17712216925288
 30
0.0
 10
76.52725392526646
 20
46.19646219454904
 30
0.0
 10
76.47332178554349
 20
46.2223368292294
 30
0.0
 10
76.42405156007777
 20
46.25590713318207
 30
0.0
 10
76.37952448804748
 20
46.29568978903756
 30
0.0
 10
76.34071260364608
 20
46.34206085411203
 30
0.0
 10
76.3074175047883
 20
46.39392225134819
 30
0.0
 10
76.28096459067062
 20
46.45005238914521
 30
0.0
 10
76.26140741132956
 20
46.50890667467107
 30
0.0
 10
76.24972149964968
 20
46.56998205325277
 30
0.0
 10
76.24819157039762
 20
46.61146063876727
 30
0.0
 10
76.2474213156464
 20
46.63234335443772
 30
0.0
  0
SPLINE
  5
A6
330
1F
100
AcDbEntity
  8
0
  6
Continuous
 62
     7
370
    25
100
AcDbSpline
210
0.0
220
0.0
230
1.0
 70
     8
 71
     3
 72
    23
 73
    19
 74
     0
 42
0.000000001
 43
0.00000001
 40
0.0
 40
0.0
 40
0.0
 40
0.0
 40
0.0652308037420297
 40
0.128404896003223
 40
0.1900670715964782
 40
0.2509433657682801
 40
0.3115458328521434
 40
0.3728628021568294
 40
0.4350236738562386
 40
0.4990717247070431
 40
0.5630910750496624
 40
0.6255101063303751
 40
0.6866800359296492
 40
0.7472825030135124
 40
0.8085634952159588
 40
0.8707421035159856
 40
0.9343409515059125
 40
1.0
 40
1.0
 40
1.0
 40
1.0
 10
77.15126746949257
 20
46.60860537366848
 30
0.0
 10
77.15085770733724
 20
46.59336001809627
 30
0.0
 10
77.15005110272833
 20
46.56334998932943
 30
0.0
 10
77.1438437381461
 20
46.51928993125487
 30
0.0
 10
77.13406154732169
 20
46.47695181583779
 30
0.0
 10
77.11980200905819
 20
46.43651112487119
 30
0.0
 10
77.10158671433149
 20
46.39782270407423
 30
0.0
 10
77.07975576992557
 20
46.36066453431343
 30
0.0
 10
77.05318190691553
 20
46.32573510141076
 30
0.0
 10
77.0234969258653
 20
46.29258459603423
 30
0.0
 10
76.99061821822451
 20
46.26248726858012
 30
0.0
 10
76.95573193106478
 20
46.23584038762689
 30
0.0
 10
76.91887441063697
 20
46.2134574768837
 30
0.0
 10
76.88006432523699
 20
46.19529722476316
 30
0.0
 10
76.83936149971105
 20
46.1811951339355
 30
0.0
 10
76.79681801135888
 20
46.1709147146311
 30
0.0
 10
76.75240452359026
 20
46.16483774627973
 30
0.0
 10
76.72219959133331
 20
46.16401253597326
 30
0.0
 10
76.70685641180026
 20
46.16359335443771
 30
0.0
  0
SPLINE
  5
A7
330
1F
100
AcDbEntity
  8
0
  6
Continuous
 62
     7
370
    25
100
AcDbSpline
210
0.0
220
0.0
230
1.0
 70
     8
 71
     3
 72
     9
 73
     5
 74
     0
 42
0.000000001
 43
0.00000001
 40
0.0
 40
0.0
 40
0.0
 40
0.0
 40
0.5126593363417812
 40
1.0
 40
1.0
 40
1.0
 40
1.0
 10
77.13684439256949
 20
46.76395393136079
 30
0.0
 10
77.1410503328496
 20
46.73756666979651
 30
0.0
 10
77.14925449491584
 20
46.68609533260683
 30
0.0
 10
77.15060790010801
 20
46.63399566181066
 30
0.0
 10
77.15126746949257
 20
46.60860537366848
 30
0.0
  0
LINE
  5
A8
330
1F
100
AcDbEntity
  8
0
  6
Continuous
 62
     7
370
    25
100
AcDbLine
 10
77.7429141041
 20
46.3676197967
 30
0.0
 11
77.1368443926
 21
46.7639539314
 31
0.0
  0
LINE
  5
A9
330
1F
100
AcDbEntity
  8
0
  6
Continuous
 62
     7
370
    25
100
AcDbLine
 10
77.7858828541
 20
47.7010187176
 30
0.0
 11
77.7858828541
 21
47.4236749676
 31
0.0
  0
LINE
  5
AA
330
1F
100
AcDbEntity
  8
0
  6
Continuous
 62
     7
370
    25
100
AcDbLine
 10
77.6320367003
 20
47.789059583
 30
0.0
 11
77.7858828541
 21
47.7010187176
 31
0.0
  0
LINE
  5
AB
330
1F
100
AcDbEntity
  8
0
  6
Continuous
 62
     7
370
    25
100
AcDbLine
 10
77.6320367003
 20
47.5582903522
 30
0.0
 11
77.6320367003
 21
47.789059583
 31
0.0
  0
LINE
  5
AC
330
1F
100
AcDbEntity
  8
0
  6
Continuous
 62
     7
370
    25
100
AcDbLine
 10
76.2858828541
 20
47.5582903522
 30
0.0
 11
77.6320367003
 21
47.5582903522
 31
0.0
  0
LINE
  5
AD
330
1F
100
AcDbEntity
  8
0
  6
Continuous
 62
     7
370
    25
100
AcDbLine
 10
76.2858828541
 20
47.4236749676
 30
0.0
 11
76.2858828541
 21
47.5582903522
 31
0.0
  0
LINE
  5
AE
330
1F
100
AcDbEntity
  8
0
  6
Continuous
 62
     7
370
    25
100
AcDbLine
 10
77.7858828541
 20
47.4236749676
 30
0.0
 11
76.2858828541
 21
47.4236749676
 31
0.0
  0
LINE
  5
AF
330
1F
100
AcDbEntity
  8
0
  6
Continuous
 62
     7
370
    25
100
AcDbLine
 10
77.1662676118
 20
53.8595392237
 30
0.0
 11
79.1034024819
 21
53.8595392237
 31
0.0
  0
SPLINE
  5
B0
330
1F
100
AcDbEntity
  8
0
  6
Continuous
 62
     7
370
    25
100
AcDbSpline
210
0.0
220
0.0
230
1.0
 70
     8
 71
     3
 72
    12
 73
     8
 74
     0
 42
0.000000001
 43
0.00000001
 40
0.0
 40
0.0
 40
0.0
 40
0.0
 40
0.2499999999999999
 40
0.2499999999999999
 40
0.4999999999999999
 40
0.4999999999999999
 40
1.0
 40
1.0
 40
1.0
 40
1.0
 10
80.08588285410795
 20
47.50868626261772
 30
0.0
 10
80.08588285410795
 20
48.04621988552265
 30
0.0
 10
80.06293865954999
 20
48.58658662935419
 30
0.0
 10
79.97208195867684
 20
49.66767841417134
 30
0.0
 10
79.90481334624688
 20
50.20249653291337
 30
0.0
 10
79.64669370040453
 20
51.79218216751013
 30
0.0
 10
79.39991701280428
 20
52.83238275814945
 30
0.0
 10
79.1034024818605
 20
53.8595392237036
 30
0.0
  0
SPLINE
  5
B1
330
1F
100
AcDbEntity
  8
0
  6
Continuous
 62
     7
370
    25
100
AcDbSpline
210
0.0
220
0.0
230
1.0
 70
     8
 71
     3
 72
    10
 73
     6
 74
     0
 42
0.000000001
 43
0.00000001
 40
0.0
 40
0.0
 40
0.0
 40
0.0
 40
0.5
 40
0.5
 40
1.0
 40
1.0
 40
1.0
 40
1.0
 10
79.10340248186053
 20
41.15783330153182
 30
0.0
 10
79.40188504018408
 20
42.19180721391089
 30
0.0
 10
79.6517459535585
 20
43.24920925317104
 30
0.0
 10
79.99346873606906
 20
45.36813631334748
 30
0.0
 10
80.08588285410795
 20
46.43440368513957
 30
0.0
 10
80.08588285410795
 20
47.50868626261772
 30
0.0
  0
LINE
  5
B2
330
1F
100
AcDbEntity
  8
0
  6
Continuous
 62
     7
370
    25
100
AcDbLine
 10
77.1662676118
 20
41.1578333015
 30
0.0
 11
79.1034024819
 21
41.1578333015
 31
0.0
  0
SPLINE
  5
B3
330
1F
100
AcDbEntity
  8
0
  6
Continuous
 62
     7
370
    25
100
AcDbSpline
210
0.0
220
0.0
230
1.0
 70
     8
 71
     3
 72
     8
 73
     4
 74
     0
 42
0.000000001
 43
0.00000001
 40
0.0
 40
0.0
 40
0.0
 40
0.0
 40
1.0
 40
1.0
 40
1.0
 40
1.0
 10
77.16626761183728
 20
41.15783330153184
 30
0.0
 10
77.1384345582814
 20
41.36558204153262
 30
0.0
 10
77.1116135705111
 20
41.57342068800564
 30
0.0
 10
77.08588285410795
 20
41.78135618831344
 30
0.0
  0
SPLINE
  5
B4
330
1F
100
AcDbEntity
  8
0
  6
Continuous
 62
     7
370
    25
100
AcDbSpline
210
0.0
220
0.0
230
1.0
 70
     8
 71
     3
 72
     8
 73
     4
 74
     0
 42
0.000000001
 43
0.00000001
 40
0.0
 40
0.0
 40
0.0
 40
0.0
 40
1.0
 40
1.0
 40
1.0
 40
1.0
 10
77.08588285410795
 20
41.78135618831344
 30
0.0
 10
77.06014236353833
 20
41.57334170084623
 30
0.0
 10
77.03332084388892
 20
41.36550511616107
 30
0.0
 10
77.00549809637862
 20
41.15783330153183
 30
0.0
  0
LINE
  5
B5
330
1F
100
AcDbEntity
  8
0
  6
Continuous
 62
     7
370
    25
100
AcDbLine
 10
75.0683632264
 20
41.1578333015
 30
0.0
 11
77.0054980964
 21
41.1578333015
 31
0.0
  0
SPLINE
  5
B6
330
1F
100
AcDbEntity
  8
0
  6
Continuous
 62
     7
370
    25
100
AcDbSpline
210
0.0
220
0.0
230
1.0
 70
     8
 71
     3
 72
    10
 73
     6
 74
     0
 42
0.000000001
 43
0.00000001
 40
0.0
 40
0.0
 40
0.0
 40
0.0
 40
0.5
 40
0.5
 40
1.0
 40
1.0
 40
1.0
 40
1.0
 10
75.06836322635537
 20
41.15783330153182
 30
0.0
 10
74.76988066803182
 20
42.19180721391089
 30
0.0
 10
74.5200197546574
 20
43.24920925317104
 30
0.0
 10
74.17829697214684
 20
45.36813631334748
 30
0.0
 10
74.08588285410795
 20
46.43440368513957
 30
0.0
 10
74.08588285410795
 20
47.50868626261772
 30
0.0
  0
SPLINE
  5
B7
330
1F
100
AcDbEntity
  8
0
  6
Continuous
 62
     7
370
    25
100
AcDbSpline
210
0.0
220
0.0
230
1.0
 70
     8
 71
     3
 72
    12
 73
     8
 74
     0
 42
0.000000001
 43
0.00000001
 40
0.0
 40
0.0
 40
0.0
 40
0.0
 40
0.2499999999999999
 40
0.2499999999999999
 40
0.4999999999999999
 40
0.4999999999999999
 40
1.0
 40
1.0
 40
1.0
 40
1.0
 10
74.08588285410795
 20
47.50868626261772
 30
0.0
 10
74.08588285410795
 20
48.04621988552265
 30
0.0
 10
74.10882704866592
 20
48.58658662935419
 30
0.0
 10
74.19968374953908
 20
49.66767841417134
 30
0.0
 10
74.26695236196902
 20
50.20249653291337
 30
0.0
 10
74.52507200781137
 20
51.79218216751013
 30
0.0
 10
74.77184869541162
 20
52.83238275814945
 30
0.0
 10
75.0683632263554
 20
53.8595392237036
 30
0.0
  0
LINE
  5
B8
330
1F
100
AcDbEntity
  8
0
  6
Continuous
 62
     7
370
    25
100
AcDbLine
 10
75.0683632264
 20
53.8595392237
 30
0.0
 11
77.0054980964
 21
53.8595392237
 31
0.0
  0
SPLINE
  5
B9
330
1F
100
AcDbEntity
  8
0
  6
Continuous
 62
     7
370
    25
100
AcDbSpline
210
0.0
220
0.0
230
1.0
 70
     8
 71
     3
 72
     8
 73
     4
 74
     0
 42
0.000000001
 43
0.00000001
 40
0.0
 40
0.0
 40
0.0
 40
0.0
 40
1.0
 40
1.0
 40
1.0
 40
1.0
 10
77.08588285410795
 20
53.23601633692198
 30
0.0
 10
77.11162334467757
 20
53.4440308243892
 30
0.0
 10
77.13844486432698
 20
53.65186740907436
 30
0.0
 10
77.16626761183728
 20
53.85953922370359
 30
0.0
  0
LINE
  5
BA
330
1F
100
AcDbEntity
  8
0
  6
Continuous
 62
     7
370
    25
100
AcDbLine
 10
77.0858828541
 20
40.8460718581
 30
0.0
 11
77.0858828541
 21
41.7813561883
 31
0.0
  0
SPLINE
  5
BB
330
1F
100
AcDbEntity
  8
0
  6
Continuous
 62
     7
370
    25
100
AcDbSpline
210
0.0
220
0.0
230
1.0
 70
     8
 71
     3
 72
     8
 73
     4
 74
     0
 42
0.000000001
 43
0.00000001
 40
0.0
 40
0.0
 40
0.0
 40
0.0
 40
1.0
 40
1.0
 40
1.0
 40
1.0
 10
77.00549809637862
 20
41.15783330153183
 30
0.0
 10
77.03332976943572
 20
41.05396408362308
 30
0.0
 10
77.06015082930178
 20
40.95004489503934
 30
0.0
 10
77.08588285410795
 20
40.84607185814103
 30
0.0
  0
SPLINE
  5
BC
330
1F
100
AcDbEntity
  8
0
  6
Continuous
 62
     7
370
    25
100
AcDbSpline
210
0.0
220
0.0
230
1.0
 70
     8
 71
     3
 72
    12
 73
     8
 74
     0
 42
0.000000001
 43
0.00000001
 40
0.0
 40
0.0
 40
0.0
 40
0.0
 40
0.25
 40
0.25
 40
0.5
 40
0.5
 40
1.0
 40
1.0
 40
1.0
 40
1.0
 10
80.08588285410796
 20
37.98240682098889
 30
0.0
 10
80.08588285410796
 20
38.25189471521594
 30
0.0
 10
80.06266069978079
 20
38.52259159638297
 30
0.0
 10
79.97279354992004
 20
39.05808642731527
 30
0.0
 10
79.90623496083235
 20
39.32404283066719
 30
0.0
 10
79.64952548671067
 20
40.11718843410888
 30
0.0
 10
79.40256281368826
 20
40.63967240719727
 30
0.0
 10
79.10340248186067
 20
41.15783330153184
 30
0.0
  0
SPLINE
  5
BD
330
1F
100
AcDbEntity
  8
0
  6
Continuous
 62
     7
370
    25
100
AcDbSpline
210
0.0
220
0.0
230
1.0
 70
     8
 71
     3
 72
    10
 73
     6
 74
     0
 42
0.000000001
 43
0.00000001
 40
0.0
 40
0.0
 40
0.0
 40
0.0
 40
0.5
 40
0.5
 40
1.0
 40
1.0
 40
1.0
 40
1.0
 10
79.10340248186081
 20
34.80698034044593
 30
0.0
 10
79.40331173348113
 20
35.32643840191224
 30
0.0
 10
79.65039239284707
 20
35.8496908041087
 30
0.0
 10
79.99224720687944
 20
36.90713481300409
 30
0.0
 10
80.08588285410796
 20
37.44140819142849
 30
0.0
 10
80.08588285410796
 20
37.98240682098889
 30
0.0
  0
LINE
  5
BE
330
1F
100
AcDbEntity
  8
0
  6
Continuous
 62
     7
370
    25
100
AcDbLine
 10
77.1662676118
 20
34.8069803404
 30
0.0
 11
79.1034024819
 21
34.8069803404
 31
0.0
  0
SPLINE
  5
BF
330
1F
100
AcDbEntity
  8
0
  6
Continuous
 62
     7
370
    25
100
AcDbSpline
210
0.0
220
0.0
230
1.0
 70
     8
 71
     3
 72
     8
 73
     4
 74
     0
 42
0.000000001
 43
0.00000001
 40
0.0
 40
0.0
 40
0.0
 40
0.0
 40
1.0
 40
1.0
 40
1.0
 40
1.0
 10
77.16626761183728
 20
34.80698034044595
 30
0.0
 10
77.13843593878019
 20
34.91084955835471
 30
0.0
 10
77.11161487891412
 20
35.01476874693844
 30
0.0
 10
77.08588285410795
 20
35.11874178383675
 30
0.0
  0
SPLINE
  5
C0
330
1F
100
AcDbEntity
  8
0
  6
Continuous
 62
     7
370
    25
100
AcDbSpline
210
0.0
220
0.0
230
1.0
 70
     8
 71
     3
 72
     8
 73
     4
 74
     0
 42
0.000000001
 43
0.00000001
 40
0.0
 40
0.0
 40
0.0
 40
0.0
 40
1.0
 40
1.0
 40
1.0
 40
1.0
 10
77.08588285410795
 20
35.11874178383675
 30
0.0
 10
77.06014190427464
 20
35.0147326843984
 30
0.0
 10
77.03332036001373
 20
34.91081444191378
 30
0.0
 10
77.00549809637862
 20
34.80698034044595
 30
0.0
  0
LINE
  5
C1
330
1F
100
AcDbEntity
  8
0
  6
Continuous
 62
     7
370
    25
100
AcDbLine
 10
75.0683632264
 20
34.8069803404
 30
0.0
 11
77.0054980964
 21
34.8069803404
 31
0.0
  0
SPLINE
  5
C2
330
1F
100
AcDbEntity
  8
0
  6
Continuous
 62
     7
370
    25
100
AcDbSpline
210
0.0
220
0.0
230
1.0
 70
     8
 71
     3
 72
    10
 73
     6
 74
     0
 42
0.000000001
 43
0.00000001
 40
0.0
 40
0.0
 40
0.0
 40
0.0
 40
0.5
 40
0.5
 40
1.0
 40
1.0
 40
1.0
 40
1.0
 10
75.06836322635507
 20
34.80698034044593
 30
0.0
 10
74.76845397473478
 20
35.32643840191224
 30
0.0
 10
74.52137331536885
 20
35.8496908041087
 30
0.0
 10
74.17951850133646
 20
36.90713481300409
 30
0.0
 10
74.08588285410794
 20
37.44140819142849
 30
0.0
 10
74.08588285410794
 20
37.98240682098889
 30
0.0
  0
SPLINE
  5
C3
330
1F
100
AcDbEntity
  8
0
  6
Continuous
 62
     7
370
    25
100
AcDbSpline
210
0.0
220
0.0
230
1.0
 70
     8
 71
     3
 72
    12
 73
     8
 74
     0
 42
0.000000001
 43
0.00000001
 40
0.0
 40
0.0
 40
0.0
 40
0.0
 40
0.25
 40
0.25
 40
0.5
 40
0.5
 40
1.0
 40
1.0
 40
1.0
 40
1.0
 10
74.08588285410794
 20
37.98240682098889
 30
0.0
 10
74.08588285410794
 20
38.25189471521594
 30
0.0
 10
74.10910500843511
 20
38.52259159638297
 30
0.0
 10
74.19897215829586
 20
39.05808642731527
 30
0.0
 10
74.26553074738355
 20
39.32404283066719
 30
0.0
 10
74.52224022150523
 20
40.11718843410888
 30
0.0
 10
74.76920289452764
 20
40.63967240719727
 30
0.0
 10
75.06836322635525
 20
41.15783330153184
 30
0.0
  0
SPLINE
  5
C4
330
1F
100
AcDbEntity
  8
0
  6
Continuous
 62
     7
370
    25
100
AcDbSpline
210
0.0
220
0.0
230
1.0
 70
     8
 71
     3
 72
     8
 73
     4
 74
     0
 42
0.000000001
 43
0.00000001
 40
0.0
 40
0.0
 40
0.0
 40
0.0
 40
1.0
 40
1.0
 40
1.0
 40
1.0
 10
77.08588285410795
 20
40.84607185814103
 30
0.0
 10
77.11162380394127
 20
40.95008095757938
 30
0.0
 10
77.13844534820217
 20
41.053999200064
 30
0.0
 10
77.16626761183728
 20
41.15783330153183
 30
0.0
  0
LINE
  5
C5
330
1F
100
AcDbEntity
  8
0
  6
Continuous
 62
     7
370
    25
100
AcDbLine
 10
77.1662676118
 20
60.2103921848
 30
0.0
 11
79.1034024819
 21
60.2103921848
 31
0.0
  0
SPLINE
  5
C6
330
1F
100
AcDbEntity
  8
0
  6
Continuous
 62
     7
370
    25
100
AcDbSpline
210
0.0
220
0.0
230
1.0
 70
     8
 71
     3
 72
    12
 73
     8
 74
     0
 42
0.000000001
 43
0.00000001
 40
0.0
 40
0.0
 40
0.0
 40
0.0
 40
0.2500000000000002
 40
0.2500000000000002
 40
0.5000000000000001
 40
0.5000000000000001
 40
1.0
 40
1.0
 40
1.0
 40
1.0
 10
80.08588285410796
 20
57.03496570424655
 30
0.0
 10
80.08588285410796
 20
57.30445359847358
 30
0.0
 10
80.06266069978079
 20
57.57515047964063
 30
0.0
 10
79.97279354992004
 20
58.11064531057292
 30
0.0
 10
79.90623496083235
 20
58.37660171392483
 30
0.0
 10
79.64952548671067
 20
59.16974731736653
 30
0.0
 10
79.40256281368826
 20
59.69223129045491
 30
0.0
 10
79.10340248186067
 20
60.21039218478949
 30
0.0
  0
SPLINE
  5
C7
330
1F
100
AcDbEntity
  8
0
  6
Continuous
 62
     7
370
    25
100
AcDbSpline
210
0.0
220
0.0
230
1.0
 70
     8
 71
     3
 72
    10
 73
     6
 74
     0
 42
0.000000001
 43
0.00000001
 40
0.0
 40
0.0
 40
0.0
 40
0.0
 40
0.5
 40
0.5
 40
1.0
 40
1.0
 40
1.0
 40
1.0
 10
79.10340248186081
 20
53.85953922370357
 30
0.0
 10
79.40331173348113
 20
54.3789972851699
 30
0.0
 10
79.65039239284707
 20
54.90224968736636
 30
0.0
 10
79.99224720687944
 20
55.95969369626173
 30
0.0
 10
80.08588285410796
 20
56.49396707468613
 30
0.0
 10
80.08588285410796
 20
57.03496570424655
 30
0.0
  0
SPLINE
  5
C8
330
1F
100
AcDbEntity
  8
0
  6
Continuous
 62
     7
370
    25
100
AcDbSpline
210
0.0
220
0.0
230
1.0
 70
     8
 71
     3
 72
     8
 73
     4
 74
     0
 42
0.000000001
 43
0.00000001
 40
0.0
 40
0.0
 40
0.0
 40
0.0
 40
1.0
 40
1.0
 40
1.0
 40
1.0
 10
77.16626761183728
 20
53.8595392237036
 30
0.0
 10
77.13843593878019
 20
53.96340844161235
 30
0.0
 10
77.11161487891412
 20
54.06732763019609
 30
0.0
 10
77.08588285410796
 20
54.1713006670944
 30
0.0
  0
SPLINE
  5
C9
330
1F
100
AcDbEntity
  8
0
  6
Continuous
 62
     7
370
    25
100
AcDbSpline
210
0.0
220
0.0
230
1.0
 70
     8
 71
     3
 72
    10
 73
     6
 74
     0
 42
0.000000001
 43
0.00000001
 40
0.0
 40
0.0
 40
0.0
 40
0.0
 40
0.5
 40
0.5
 40
1.0
 40
1.0
 40
1.0
 40
1.0
 10
75.06836322635509
 20
53.85953922370357
 30
0.0
 10
74.76845397473478
 20
54.3789972851699
 30
0.0
 10
74.52137331536885
 20
54.90224968736636
 30
0.0
 10
74.17951850133646
 20
55.95969369626173
 30
0.0
 10
74.08588285410794
 20
56.49396707468613
 30
0.0
 10
74.08588285410794
 20
57.03496570424655
 30
0.0
  0
SPLINE
  5
CA
330
1F
100
AcDbEntity
  8
0
  6
Continuous
 62
     7
370
    25
100
AcDbSpline
210
0.0
220
0.0
230
1.0
 70
     8
 71
     3
 72
    12
 73
     8
 74
     0
 42
0.000000001
 43
0.00000001
 40
0.0
 40
0.0
 40
0.0
 40
0.0
 40
0.2500000000000002
 40
0.2500000000000002
 40
0.5000000000000001
 40
0.5000000000000001
 40
1.0
 40
1.0
 40
1.0
 40
1.0
 10
74.08588285410794
 20
57.03496570424655
 30
0.0
 10
74.08588285410794
 20
57.30445359847358
 30
0.0
 10
74.10910500843511
 20
57.57515047964063
 30
0.0
 10
74.19897215829586
 20
58.11064531057292
 30
0.0
 10
74.26553074738355
 20
58.37660171392483
 30
0.0
 10
74.52224022150523
 20
59.16974731736653
 30
0.0
 10
74.76920289452764
 20
59.69223129045491
 30
0.0
 10
75.06836322635525
 20
60.21039218478949
 30
0.0
  0
LINE
  5
CB
330
1F
100
AcDbEntity
  8
0
  6
Continuous
 62
     7
370
    25
100
AcDbLine
 10
75.0683632264
 20
60.2103921848
 30
0.0
 11
77.0054980964
 21
60.2103921848
 31
0.0
  0
SPLINE
  5
CC
330
1F
100
AcDbEntity
  8
0
  6
Continuous
 62
     7
370
    25
100
AcDbSpline
210
0.0
220
0.0
230
1.0
 70
     8
 71
     3
 72
     8
 73
     4
 74
     0
 42
0.000000001
 43
0.00000001
 40
0.0
 40
0.0
 40
0.0
 40
0.0
 40
1.0
 40
1.0
 40
1.0
 40
1.0
 10
77.00549809637862
 20
60.21039218478948
 30
0.0
 10
77.03332976943572
 20
60.10652296688073
 30
0.0
 10
77.06015082930178
 20
60.00260377829699
 30
0.0
 10
77.08588285410795
 20
59.89863074139868
 30
0.0
  0
SPLINE
  5
CD
330
1F
100
AcDbEntity
  8
0
  6
Continuous
 62
     7
370
    25
100
AcDbSpline
210
0.0
220
0.0
230
1.0
 70
     8
 71
     3
 72
     8
 73
     4
 74
     0
 42
0.000000001
 43
0.00000001
 40
0.0
 40
0.0
 40
0.0
 40
0.0
 40
1.0
 40
1.0
 40
1.0
 40
1.0
 10
77.08588285410795
 20
59.89863074139868
 30
0.0
 10
77.11162380394127
 20
60.00263984083703
 30
0.0
 10
77.13844534820217
 20
60.10655808332165
 30
0.0
 10
77.16626761183728
 20
60.21039218478948
 30
0.0
  0
LINE
  5
CE
330
1F
100
AcDbEntity
  8
0
  6
Continuous
 62
     7
370
    25
100
AcDbLine
 10
80.0858828541
 20
47.5086862626
 30
0.0
 11
80.0858828541
 21
37.982406821
 31
0.0
  0
LINE
  5
CF
330
1F
100
AcDbEntity
  8
0
  6
Continuous
 62
     7
370
    25
100
AcDbLine
 10
80.0858828541
 20
57.0349657042
 30
0.0
 11
80.0858828541
 21
47.5086862626
 31
0.0
  0
SPLINE
  5
D0
330
1F
100
AcDbEntity
  8
0
  6
Continuous
 62
     7
370
    25
100
AcDbSpline
210
0.0
220
0.0
230
1.0
 70
     8
 71
     3
 72
    23
 73
    19
 74
     0
 42
0.000000001
 43
0.00000001
 40
0.0
 40
0.0
 40
0.0
 40
0.0
 40
0.0611415679303346
 40
0.1200010135310724
 40
0.1782359705414084
 40
0.236495543407017
 40
0.294887248704973
 40
0.3546771928192958
 40
0.4166948132897785
 40
0.4806333779628396
 40
0.5458046334786409
 40
0.6097347883178745
 40
0.6729516883751544
 40
0.7360010960706833
 40
0.7998274385165253
 40
0.8647672769393869
 40
0.9310835057306723
 40
1.0
 40
1.0
 40
1.0
 40
1.0
 10
76.69874343103103
 20
46.29820873905309
 30
0.0
 10
76.70898514148118
 20
46.29844183009614
 30
0.0
 10
76.72908628830996
 20
46.29889931200831
 30
0.0
 10
76.75850690191301
 20
46.3041738870645
 30
0.0
 10
76.78703171064653
 20
46.31129807850631
 30
0.0
 10
76.81401814717131
 20
46.32281142484366
 30
0.0
 10
76.84021249500168
 20
46.33652476010731
 30
0.0
 10
76.86486610011275
 20
46.35399464840268
 30
0.0
 10
76.88867740355674
 20
46.37402430294066
 30
0.0
 10
76.91076981728688
 20
46.39722058640552
 30
0.0
 10
76.93097733695143
 20
46.42245606625507
 30
0.0
 10
76.94881385948715
 20
46.4492921600083
 30
0.0
 10
76.96386753413275
 20
46.47736678406234
 30
0.0
 10
76.97642769060144
 20
46.50665281859771
 30
0.0
 10
76.98549175915686
 20
46.5374854664986
 30
0.0
 10
76.99262886107576
 20
46.56936704485003
 30
0.0
 10
76.99642686928605
 20
46.60270529049549
 30
0.0
 10
76.9970856114111
 20
46.62532383708264
 30
0.0
 10
76.9974213156464
 20
46.63685056597618
 30
0.0
  0
SPLINE
  5
D1
330
1F
100
AcDbEntity
  8
0
  6
Continuous
 62
     7
370
    25
100
AcDbSpline
210
0.0
220
0.0
230
1.0
 70
     8
 71
     3
 72
    23
 73
    19
 74
     0
 42
0.000000001
 43
0.00000001
 40
0.0
 40
0.0
 40
0.0
 40
0.0
 40
0.0679503475997533
 40
0.1332598223836994
 40
0.1978002967596469
 40
0.2608458295516821
 40
0.3233192927503666
 40
0.3862817224595717
 40
0.4500615162333125
 40
0.5152075844858149
 40
0.5796407692199315
 40
0.6418172023841521
 40
0.7016924412115346
 40
0.7607690981778942
 40
0.8192540511346831
 40
0.8787376269055535
 40
0.938158297016091
 40
1.0
 40
1.0
 40
1.0
 40
1.0
 10
76.40126746949257
 20
46.62513181597618
 30
0.0
 10
76.4015970585337
 20
46.61400372695279
 30
0.0
 10
76.40224342722247
 20
46.5921800392292
 30
0.0
 10
76.4061350812207
 20
46.5599631011445
 30
0.0
 10
76.41301857233134
 20
46.52907143512478
 30
0.0
 10
76.42280040955153
 20
46.49948355628149
 30
0.0
 10
76.4347194513876
 20
46.47095294682072
 30
0.0
 10
76.44992781141538
 20
46.44388439259628
 30
0.0
 10
76.46770506292299
 20
46.41791244866518
 30
0.0
 10
76.48804361614118
 20
46.39360243596006
 30
0.0
 10
76.5099013896098
 20
46.3709507501967
 30
0.0
 10
76.53390999107835
 20
46.35200069912588
 30
0.0
 10
76.5582251134234
 20
46.33489841733058
 30
0.0
 10
76.58432353543728
 20
46.32194403668849
 30
0.0
 10
76.61125993491615
 20
46.31108386703384
 30
0.0
 10
76.6394448956601
 20
46.30378311746655
 30
0.0
 10
76.66873311547555
 20
46.29900355180858
 30
0.0
 10
76.68860772536688
 20
46.29847717968754
 30
0.0
 10
76.69874343103103
 20
46.29820873905309
 30
0.0
  0
SPLINE
  5
D2
330
1F
100
AcDbEntity
  8
0
  6
Continuous
 62
     7
370
    25
100
AcDbSpline
210
0.0
220
0.0
230
1.0
 70
     8
 71
     3
 72
    23
 73
    19
 74
     0
 42
0.000000001
 43
0.00000001
 40
0.0
 40
0.0
 40
0.0
 40
0.0
 40
0.0618526459466918
 40
0.12128383061537
 40
0.1807779320756124
 40
0.2392732340142805
 40
0.2986414352139417
 40
0.3581858222417117
 40
0.4207600867589708
 40
0.4852046730216432
 40
0.5503622689482868
 40
0.6136499245309119
 40
0.6766234955168248
 40
0.7391080134690123
 40
0.8021647022429443
 40
0.8667165971324775
 40
0.9320376285055445
 40
1.0
 40
1.0
 40
1.0
 40
1.0
 10
76.69874343103103
 20
46.95205489289926
 30
0.0
 10
76.68860811117412
 20
46.9517857605918
 30
0.0
 10
76.66873425779335
 20
46.95125803220295
 30
0.0
 10
76.63944053237984
 20
46.94648833694975
 30
0.0
 10
76.61127622212886
 20
46.93915056529649
 30
0.0
 10
76.58422072742798
 20
46.9284100118747
 30
0.0
 10
76.55842163176457
 20
46.91493821741704
 30
0.0
 10
76.53369567662433
 20
46.89835968888512
 30
0.0
 10
76.51002579558426
 20
46.87895514079709
 30
0.0
 10
76.48800885903324
 20
46.85639773865175
 30
0.0
 10
76.46781438979383
 20
46.83207176741721
 30
0.0
 10
76.44983319647181
 20
46.80634544161207
 30
0.0
 10
76.43473380229784
 20
46.77930056096483
 30
0.0
 10
76.42279654104578
 20
46.75078280479374
 30
0.0
 10
76.41301963950349
 20
46.72119144396738
 30
0.0
 10
76.40613479038967
 20
46.69030073598103
 30
0.0
 10
76.40224350374392
 20
46.65808353873941
 30
0.0
 10
76.40159708437562
 20
46.6362598867688
 30
0.0
 10
76.40126746949257
 20
46.62513181597618
 30
0.0
  0
SPLINE
  5
D3
330
1F
100
AcDbEntity
  8
0
  6
Continuous
 62
     7
370
    25
100
AcDbSpline
210
0.0
220
0.0
230
1.0
 70
     8
 71
     3
 72
    23
 73
    19
 74
     0
 42
0.000000001
 43
0.00000001
 40
0.0
 40
0.0
 40
0.0
 40
0.0
 40
0.0705921865358075
 40
0.1385012886049303
 40
0.2037899961427016
 40
0.2667875726696014
 40
0.3290979656467185
 40
0.391174524603966
 40
0.4531677986176575
 40
0.5157967602265847
 40
0.5779688050530403
 40
0.6389663383752915
 40
0.698381066162843
 40
0.7573204555574266
 40
0.8164122397216688
 40
0.876279358230831
 40
0.9368234656501931
 40
1.0
 40
1.0
 40
1.0
 40
1.0
 10
76.9974213156464
 20
46.63685056597618
 30
0.0
 10
76.99708345119181
 20
46.64827688381399
 30
0.0
 10
76.99642056391446
 20
46.6706952253077
 30
0.0
 10
76.9926765717955
 20
46.70354468152292
 30
0.0
 10
76.98558273317511
 20
46.73455061520862
 30
0.0
 10
76.97640668961883
 20
46.76406716469277
 30
0.0
 10
76.96391286422202
 20
46.79178669004026
 30
0.0
 10
76.9489167316777
 20
46.8180253886686
 30
0.0
 10
76.9310873104049
 20
46.84252289661553
 30
0.0
 10
76.91062339406885
 20
46.86484899514771
 30
0.0
 10
76.88854563978896
 20
46.88534986758206
 30
0.0
 10
76.86475671605031
 20
46.90298396565702
 30
0.0
 10
76.83998341606951
 20
46.91821172676535
 30
0.0
 10
76.81399290088567
 20
46.93058862746832
 30
0.0
 10
76.786801842411
 20
46.94022750576619
 30
0.0
 10
76.75853351155492
 20
46.94719953870887
 30
0.0
 10
76.72899883079985
 20
46.95107973790872
 30
0.0
 10
76.70897061232105
 20
46.95172526291748
 30
0.0
 10
76.69874343103103
 20
46.95205489289926
 30
0.0
  0
LINE
  5
D4
330
1F
100
AcDbEntity
  8
0
  6
Continuous
 62
     7
370
    25
100
AcDbLine
 10
74.0858828541
 20
47.5086862626
 30
0.0
 11
74.0858828541
 21
57.0349657042
 31
0.0
  0
LINE
  5
D5
330
1F
100
AcDbEntity
  8
0
  6
Continuous
 62
     7
370
    25
100
AcDbLine
 10
74.0858828541
 20
37.982406821
 30
0.0
 11
74.0858828541
 21
47.5086862626
 31
0.0
  0
LINE
  5
D6
330
1F
100
AcDbEntity
  8
0
  6
Continuous
 62
     7
370
    25
100
AcDbLine
 10
59.7822741271
 20
57.8154484899
 30
0.0
 11
59.7822741271
 21
37.2019240353
 31
0.0
  0
LINE
  5
D7
330
1F
100
AcDbEntity
  8
0
  6
Continuous
 62
     7
370
    25
100
AcDbLine
 10
57.0858828541
 20
38.7586862626
 30
0.0
 11
57.0858828541
 21
56.2586862626
 31
0.0
  0
LINE
  5
D8
330
1F
100
AcDbEntity
  8
0
  6
Continuous
 62
     7
370
    25
100
AcDbLine
 10
74.0858828541
 20
36.5086862626
 30
0.0
 11
74.0858828541
 21
37.982406821
 31
0.0
  0
LINE
  5
D9
330
1F
100
AcDbEntity
  8
0
  6
Continuous
 62
     7
370
    25
100
AcDbLine
 10
80.0858828541
 20
37.982406821
 30
0.0
 11
80.0858828541
 21
36.5086862626
 31
0.0
  0
LINE
  5
DA
330
1F
100
AcDbEntity
  8
0
  6
Continuous
 62
     7
370
    25
100
AcDbLine
 10
80.0858828541
 20
58.5086862626
 30
0.0
 11
80.0858828541
 21
57.0349657042
 31
0.0
  0
LINE
  5
DB
330
1F
100
AcDbEntity
  8
0
  6
Continuous
 62
     7
370
    25
100
AcDbLine
 10
74.0858828541
 20
57.0349657042
 30
0.0
 11
74.0858828541
 21
58.5086862626
 31
0.0
  0
LINE
  5
DC
330
1F
100
AcDbEntity
  8
0
  6
Continuous
 62
     7
370
    25
100
AcDbLine
 10
85.0858828541
 20
52.7586862626
 30
0.0
 11
85.0858828541
 21
42.2586862626
 31
0.0
  0
LINE
  5
DD
330
1F
100
AcDbEntity
  8
0
  6
Continuous
 62
     7
370
    25
100
AcDbLine
 10
100.0858828541
 20
52.7586862626
 30
0.0
 11
100.0858828541
 21
42.2586862626
 31
0.0
  0
LINE
  5
DE
330
1F
100
AcDbEntity
  8
0
  6
Continuous
 62
     7
370
    25
100
AcDbLine
 10
95.0858828541
 20
52.7586862626
 30
0.0
 11
95.0858828541
 21
42.2586862626
 31
0.0
  0
LINE
  5
DF
330
1F
100
AcDbEntity
  8
0
  6
Continuous
 62
     7
370
    25
100
AcDbLine
 10
90.0858828541
 20
52.7586862626
 30
0.0
 11
90.0858828541
 21
42.2586862626
 31
0.0
  0
LINE
  5
E0
330
1F
100
AcDbEntity
  8
0
  6
Continuous
 62
     7
370
    25
100
AcDbLine
 10
106.0858828541
 20
51.5672951467
 30
0.0
 11
106.0858828541
 21
43.4500773719
 31
0.0
  0
LINE
  5
E1
330
1F
100
AcDbEntity
  8
0
  6
Continuous
 62
     7
370
    25
100
AcDbLine
 10
77.0858828541
 20
59.8986307414
 30
0.0
 11
77.0858828541
 21
59.9103921848
 31
0.0
  0
LINE
  5
E2
330
1F
100
AcDbEntity
  8
0
  6
Continuous
 62
     7
370
    25
100
AcDbLine
 10
77.0858828541
 20
35.1069803404
 30
0.0
 11
77.0858828541
 21
35.1187417838
 31
0.0
  0
LINE
  5
E3
330
1F
100
AcDbEntity
  8
0
  6
Continuous
 62
     8
370
    25
100
AcDbLine
 10
105.6479002214
 20
42.9539384335
 30
0.0
 11
105.6479002214
 21
52.0634340917
 31
0.0
  0
LINE
  5
E4
330
1F
100
AcDbEntity
  8
0
  6
Continuous
 62
     7
370
    18
100
AcDbLine
 10
57.9671088851
 20
56.7674623488
 30
0.0
 11
73.5858828541
 21
57.2555490353
 31
0.0
  0
LINE
  5
E5
330
1F
100
AcDbEntity
  8
0
  6
Continuous
 62
     7
370
    18
100
AcDbLine
 10
57.9671088851
 20
38.2499101764
 30
0.0
 11
73.5858828541
 21
37.7618234899
 31
0.0
  0
LINE
  5
E6
330
1F
100
AcDbEntity
  8
0
  6
Continuous
 62
     7
370
    18
100
AcDbLine
 10
73.5858828541
 20
36.7705612626
 30
0.0
 11
73.5858828541
 21
58.2468112626
 31
0.0
  0
LINE
  5
E7
330
1F
100
AcDbEntity
  8
0
  6
CENTERX2
 62
     7
370
    18
100
AcDbLine
 10
107.0858828541
 20
47.5086862626
 30
0.0
 11
55.7272635167
 21
47.5086862626
 31
0.0
  0
CIRCLE
  5
E8
330
1F
100
AcDbEntity
  8
0
  6
Continuous
 62
     7
370
    25
100
AcDbCircle
 10
128.6967278008
 20
47.5086862626
 30
0.0
 40
4.058608890731342
  0
CIRCLE
  5
E9
330
1F
100
AcDbEntity
  8
0
  6
Continuous
 62
     7
370
    25
100
AcDbCircle
 10
128.6967278008
 20
47.5086862626
 30
0.0
 40
4.554747829088171
  0
CIRCLE
  5
EA
330
1F
100
AcDbEntity
  8
0
  6
Continuous
 62
     7
370
    25
100
AcDbCircle
 10
128.6967278008
 20
47.5086862626
 30
0.0
 40
3.45000000000001
  0
CIRCLE
  5
EB
330
1F
100
AcDbEntity
  8
0
  6
Continuous
 62
     7
370
    25
100
AcDbCircle
 10
128.6967278008
 20
47.5086862626
 30
0.0
 40
3.25
  0
CIRCLE
  5
EC
330
1F
100
AcDbEntity
  8
0
  6
Continuous
 62
     7
370
    25
100
AcDbCircle
 10
128.6967278008
 20
47.5086862626
 30
0.0
 40
5.249999999999993
  0
SPLINE
  5
ED
330
1F
100
AcDbEntity
  8
0
  6
Continuous
 62
     7
370
    25
100
AcDbSpline
210
0.0
220
0.0
230
1.0
 70
    24
 71
     3
 72
    10
 73
     6
 74
     0
 42
0.000000001
 43
0.00000001
 40
0.0
 40
0.0
 40
0.0
 40
0.0
 40
0.5000000000000001
 40
0.5000000000000001
 40
1.0
 40
1.0
 40
1.0
 40
1.0
 10
139.696727800811
 20
41.15783330153182
 30
0.0
 10
139.696727800811
 20
42.19180721391088
 30
0.0
 10
139.696727800811
 20
43.24920925317103
 30
0.0
 10
139.696727800811
 20
45.36813631334748
 30
0.0
 10
139.696727800811
 20
46.43440368513957
 30
0.0
 10
139.696727800811
 20
47.50868626261772
 30
0.0
  0
SPLINE
  5
EE
330
1F
100
AcDbEntity
  8
0
  6
Continuous
 62
     7
370
    25
100
AcDbSpline
210
0.0
220
0.0
230
1.0
 70
    24
 71
     3
 72
    10
 73
     6
 74
     0
 42
0.000000001
 43
0.00000001
 40
0.0
 40
0.0
 40
0.0
 40
0.0
 40
0.5
 40
0.5
 40
1.0
 40
1.0
 40
1.0
 40
1.0
 10
139.696727800811
 20
41.15783330153184
 30
0.0
 10
138.7970000459501
 20
40.63837524006554
 30
0.0
 10
137.8907003001634
 20
40.11512283786907
 30
0.0
 10
136.0591535505972
 20
39.05767882897369
 30
0.0
 10
135.1337649140347
 20
38.52340545054929
 30
0.0
 10
134.1967278008109
 20
37.98240682098888
 30
0.0
  0
ARC
  5
EF
330
1F
100
AcDbEntity
  8
0
  6
Continuous
 62
     7
370
    25
100
AcDbCircle
 10
128.6967278008
 20
47.5086862626
 30
0.0
 40
11.0
100
AcDbArc
 50
300.0
 51
0.0
  0
ARC
  5
F0
330
1F
100
AcDbEntity
  8
0
  6
Continuous
 62
     7
370
    25
100
AcDbCircle
 10
128.6967278008
 20
47.5086862626
 30
0.0
 40
11.0
100
AcDbArc
 50
240.0
 51
300.0
  0
ARC
  5
F1
330
1F
100
AcDbEntity
  8
0
  6
Continuous
 62
     7
370
    25
100
AcDbCircle
 10
128.6967278008
 20
47.5086862626
 30
0.0
 40
11.0
100
AcDbArc
 50
180.0
 51
240.0
  0
ARC
  5
F2
330
1F
100
AcDbEntity
  8
0
  6
Continuous
 62
     7
370
    25
100
AcDbCircle
 10
128.6967278008
 20
47.5086862626
 30
0.0
 40
11.0
100
AcDbArc
 50
120.0
 51
180.0
  0
ARC
  5
F3
330
1F
100
AcDbEntity
  8
0
  6
Continuous
 62
     7
370
    25
100
AcDbCircle
 10
128.6967278008
 20
47.5086862626
 30
0.0
 40
11.0
100
AcDbArc
 50
60.0
 51
120.0
  0
ARC
  5
F4
330
1F
100
AcDbEntity
  8
0
  6
Continuous
 62
     7
370
    25
100
AcDbCircle
 10
128.6967278008
 20
47.5086862626
 30
0.0
 40
11.0
100
AcDbArc
 50
0.0
 51
60.0
  0
SPLINE
  5
F5
330
1F
100
AcDbEntity
  8
0
  6
Continuous
 62
     7
370
    25
100
AcDbSpline
210
0.0
220
0.0
230
1.0
 70
    24
 71
     3
 72
    12
 73
     8
 74
     0
 42
0.000000001
 43
0.00000001
 40
0.0
 40
0.0
 40
0.0
 40
0.0
 40
0.25
 40
0.25
 40
0.5
 40
0.5
 40
1.0
 40
1.0
 40
1.0
 40
1.0
 10
139.696727800811
 20
47.50868626261772
 30
0.0
 10
139.696727800811
 20
48.04621988552265
 30
0.0
 10
139.696727800811
 20
48.58658662935419
 30
0.0
 10
139.696727800811
 20
49.66767841417134
 30
0.0
 10
139.696727800811
 20
50.20249653291336
 30
0.0
 10
139.696727800811
 20
51.79218216751012
 30
0.0
 10
139.696727800811
 20
52.83238275814945
 30
0.0
 10
139.696727800811
 20
53.8595392237036
 30
0.0
  0
SPLINE
  5
F6
330
1F
100
AcDbEntity
  8
0
  6
Continuous
 62
     7
370
    25
100
AcDbSpline
210
0.0
220
0.0
230
1.0
 70
    24
 71
     3
 72
    12
 73
     8
 74
     0
 42
0.000000001
 43
0.00000001
 40
0.0
 40
0.0
 40
0.0
 40
0.0
 40
0.2500000000000001
 40
0.2500000000000001
 40
0.5000000000000001
 40
0.5000000000000001
 40
1.0
 40
1.0
 40
1.0
 40
1.0
 10
134.1967278008109
 20
57.03496570424655
 30
0.0
 10
134.663494525637
 20
56.7654778100195
 30
0.0
 10
135.1323552772687
 20
56.49478092885246
 30
0.0
 10
136.0598595316339
 20
55.95928609792016
 30
0.0
 10
136.5205095348378
 20
55.69332969456823
 30
0.0
 10
137.8942780177986
 20
54.90018409112655
 30
0.0
 10
138.7992468053282
 20
54.37770011803816
 30
0.0
 10
139.696727800811
 20
53.85953922370359
 30
0.0
  0
SPLINE
  5
F7
330
1F
100
AcDbEntity
  8
0
  6
Continuous
 62
     7
370
    25
100
AcDbSpline
210
0.0
220
0.0
230
1.0
 70
    24
 71
     3
 72
    10
 73
     6
 74
     0
 42
0.000000001
 43
0.00000001
 40
0.0
 40
0.0
 40
0.0
 40
0.0
 40
0.5
 40
0.5
 40
1.0
 40
1.0
 40
1.0
 40
1.0
 10
128.696727800811
 20
34.80698034044593
 30
0.0
 10
127.7970000459501
 20
35.32643840191224
 30
0.0
 10
126.8907003001634
 20
35.8496908041087
 30
0.0
 10
125.0591535505973
 20
36.90713481300409
 30
0.0
 10
124.1337649140347
 20
37.44140819142849
 30
0.0
 10
123.196727800811
 20
37.98240682098889
 30
0.0
  0
SPLINE
  5
F8
330
1F
100
AcDbEntity
  8
0
  6
Continuous
 62
     7
370
    25
100
AcDbSpline
210
0.0
220
0.0
230
1.0
 70
    24
 71
     3
 72
    12
 73
     8
 74
     0
 42
0.000000001
 43
0.00000001
 40
0.0
 40
0.0
 40
0.0
 40
0.0
 40
0.2500000000000002
 40
0.2500000000000002
 40
0.5000000000000002
 40
0.5000000000000002
 40
1.0
 40
1.0
 40
1.0
 40
1.0
 10
134.1967278008109
 20
37.98240682098888
 30
0.0
 10
133.729961075985
 20
37.71291892676184
 30
0.0
 10
133.2611003243532
 20
37.44222204559481
 30
0.0
 10
132.333596069988
 20
36.90672721466251
 30
0.0
 10
131.8729460667842
 20
36.64077081131059
 30
0.0
 10
130.4991775838233
 20
35.84762520786889
 30
0.0
 10
129.5942087962938
 20
35.32514123478052
 30
0.0
 10
128.6967278008109
 20
34.80698034044594
 30
0.0
  0
SPLINE
  5
F9
330
1F
100
AcDbEntity
  8
0
  6
Continuous
 62
     7
370
    25
100
AcDbSpline
210
0.0
220
0.0
230
1.0
 70
    24
 71
     3
 72
    12
 73
     8
 74
     0
 42
0.000000001
 43
0.00000001
 40
0.0
 40
0.0
 40
0.0
 40
0.0
 40
0.2500000000000002
 40
0.2500000000000002
 40
0.5000000000000001
 40
0.5000000000000001
 40
1.0
 40
1.0
 40
1.0
 40
1.0
 10
123.196727800811
 20
57.03496570424655
 30
0.0
 10
123.663494525637
 20
57.30445359847358
 30
0.0
 10
124.1323552772687
 20
57.57515047964063
 30
0.0
 10
125.059859531634
 20
58.11064531057292
 30
0.0
 10
125.5205095348378
 20
58.37660171392483
 30
0.0
 10
126.8942780177987
 20
59.16974731736653
 30
0.0
 10
127.7992468053282
 20
59.69223129045491
 30
0.0
 10
128.696727800811
 20
60.21039218478949
 30
0.0
  0
SPLINE
  5
FA
330
1F
100
AcDbEntity
  8
0
  6
Continuous
 62
     7
370
    25
100
AcDbSpline
210
0.0
220
0.0
230
1.0
 70
    24
 71
     3
 72
    10
 73
     6
 74
     0
 42
0.000000001
 43
0.00000001
 40
0.0
 40
0.0
 40
0.0
 40
0.0
 40
0.5
 40
0.5
 40
1.0
 40
1.0
 40
1.0
 40
1.0
 10
128.6967278008109
 20
60.21039218478951
 30
0.0
 10
129.5964555556718
 20
59.69093412332319
 30
0.0
 10
130.5027553014586
 20
59.16768172112672
 30
0.0
 10
132.3343020510247
 20
58.11023771223134
 30
0.0
 10
133.2596906875872
 20
57.57596433380695
 30
0.0
 10
134.1967278008109
 20
57.03496570424655
 30
0.0
  0
SPLINE
  5
FB
330
1F
100
AcDbEntity
  8
0
  6
Continuous
 62
     7
370
    25
100
AcDbSpline
210
0.0
220
0.0
230
1.0
 70
    24
 71
     3
 72
    10
 73
     6
 74
     0
 42
0.000000001
 43
0.00000001
 40
0.0
 40
0.0
 40
0.0
 40
0.0
 40
0.5
 40
0.5
 40
1.0
 40
1.0
 40
1.0
 40
1.0
 10
117.696727800811
 20
41.15783330153182
 30
0.0
 10
117.696727800811
 20
42.19180721391089
 30
0.0
 10
117.696727800811
 20
43.24920925317104
 30
0.0
 10
117.696727800811
 20
45.36813631334748
 30
0.0
 10
117.696727800811
 20
46.43440368513957
 30
0.0
 10
117.696727800811
 20
47.50868626261772
 30
0.0
  0
SPLINE
  5
FC
330
1F
100
AcDbEntity
  8
0
  6
Continuous
 62
     7
370
    25
100
AcDbSpline
210
0.0
220
0.0
230
1.0
 70
    24
 71
     3
 72
    12
 73
     8
 74
     0
 42
0.000000001
 43
0.00000001
 40
0.0
 40
0.0
 40
0.0
 40
0.0
 40
0.25
 40
0.25
 40
0.5
 40
0.5
 40
1.0
 40
1.0
 40
1.0
 40
1.0
 10
123.196727800811
 20
37.98240682098889
 30
0.0
 10
122.729961075985
 20
38.25189471521594
 30
0.0
 10
122.2611003243533
 20
38.52259159638297
 30
0.0
 10
121.333596069988
 20
39.05808642731527
 30
0.0
 10
120.8729460667842
 20
39.32404283066719
 30
0.0
 10
119.4991775838233
 20
40.11718843410888
 30
0.0
 10
118.5942087962938
 20
40.63967240719727
 30
0.0
 10
117.6967278008109
 20
41.15783330153184
 30
0.0
  0
SPLINE
  5
FD
330
1F
100
AcDbEntity
  8
0
  6
Continuous
 62
     7
370
    25
100
AcDbSpline
210
0.0
220
0.0
230
1.0
 70
    24
 71
     3
 72
    12
 73
     8
 74
     0
 42
0.000000001
 43
0.00000001
 40
0.0
 40
0.0
 40
0.0
 40
0.0
 40
0.2499999999999999
 40
0.2499999999999999
 40
0.4999999999999999
 40
0.4999999999999999
 40
1.0
 40
1.0
 40
1.0
 40
1.0
 10
117.696727800811
 20
47.50868626261772
 30
0.0
 10
117.696727800811
 20
48.04621988552265
 30
0.0
 10
117.696727800811
 20
48.58658662935419
 30
0.0
 10
117.696727800811
 20
49.66767841417134
 30
0.0
 10
117.696727800811
 20
50.20249653291337
 30
0.0
 10
117.696727800811
 20
51.79218216751013
 30
0.0
 10
117.696727800811
 20
52.83238275814945
 30
0.0
 10
117.696727800811
 20
53.8595392237036
 30
0.0
  0
SPLINE
  5
FE
330
1F
100
AcDbEntity
  8
0
  6
Continuous
 62
     7
370
    25
100
AcDbSpline
210
0.0
220
0.0
230
1.0
 70
    24
 71
     3
 72
    10
 73
     6
 74
     0
 42
0.000000001
 43
0.00000001
 40
0.0
 40
0.0
 40
0.0
 40
0.0
 40
0.5
 40
0.5
 40
1.0
 40
1.0
 40
1.0
 40
1.0
 10
117.6967278008109
 20
53.85953922370357
 30
0.0
 10
118.5964555556718
 20
54.3789972851699
 30
0.0
 10
119.5027553014586
 20
54.90224968736636
 30
0.0
 10
121.3343020510247
 20
55.95969369626173
 30
0.0
 10
122.2596906875872
 20
56.49396707468613
 30
0.0
 10
123.196727800811
 20
57.03496570424655
 30
0.0
  0
INSERT
  5
10A
330
1F
100
AcDbEntity
  8
0
  6
Continuous
 62
     7
370
    18
100
AcDbBlockReference
  2
SW_CENTERMARKSYMBOL_0
 10
128.6967278008
 20
47.5086862626
 30
0.0
  0
INSERT
  5
116
330
1F
100
AcDbEntity
  8
0
  6
Continuous
 62
     7
370
    18
100
AcDbBlockReference
  2
SW_CENTERMARKSYMBOL_1
 10
128.6967278008
 20
47.5086862626
 30
0.0
  0
LINE
  5
117
330
1F
100
AcDbEntity
  8
0
  6
Continuous
 62
     7
370
    25
100
AcDbLine
 10
74.0858828541
 20
90.8212646591
 30
0.0
 11
59.7822741271
 21
90.3742768864
 31
0.0
  0
LINE
  5
118
330
1F
100
AcDbEntity
  8
0
  6
Continuous
 62
     7
370
    25
100
AcDbLine
 10
59.7822741271
 20
69.7607524318
 30
0.0
 11
74.0858828541
 21
69.3137646591
 31
0.0
  0
LINE
  5
119
330
1F
100
AcDbEntity
  8
0
  6
Continuous
 62
     7
370
    25
100
AcDbLine
 10
59.7822741271
 20
90.3742768864
 30
0.0
 11
57.0858828541
 21
88.8175146591
 31
0.0
  0
LINE
  5
11A
330
1F
100
AcDbEntity
  8
0
  6
Continuous
 62
     7
370
    25
100
AcDbLine
 10
57.0858828541
 20
71.3175146591
 30
0.0
 11
59.7822741271
 21
69.7607524318
 31
0.0
  0
LINE
  5
11B
330
1F
100
AcDbEntity
  8
0
  6
Continuous
 62
     7
370
    25
100
AcDbLine
 10
85.0858828541
 20
85.3175146591
 30
0.0
 11
80.0858828541
 21
85.3175146591
 31
0.0
  0
LINE
  5
11C
330
1F
100
AcDbEntity
  8
0
  6
Continuous
 62
     7
370
    25
100
AcDbLine
 10
80.0858828541
 20
74.8175146591
 30
0.0
 11
85.0858828541
 21
74.8175146591
 31
0.0
  0
LINE
  5
11D
330
1F
100
AcDbEntity
  8
0
  6
Continuous
 62
     7
370
    25
100
AcDbLine
 10
85.0858828541
 20
74.8175146591
 30
0.0
 11
90.0858828541
 21
75.5675146591
 31
0.0
  0
LINE
  5
11E
330
1F
100
AcDbEntity
  8
0
  6
Continuous
 62
     7
370
    25
100
AcDbLine
 10
90.0858828541
 20
84.5675146591
 30
0.0
 11
85.0858828541
 21
85.3175146591
 31
0.0
  0
LINE
  5
11F
330
1F
100
AcDbEntity
  8
0
  6
Continuous
 62
     7
370
    25
100
AcDbLine
 10
95.0858828541
 20
74.8175146591
 30
0.0
 11
100.0858828541
 21
75.5675146591
 31
0.0
  0
LINE
  5
120
330
1F
100
AcDbEntity
  8
0
  6
Continuous
 62
     7
370
    25
100
AcDbLine
 10
100.0858828541
 20
84.5675146591
 30
0.0
 11
95.0858828541
 21
85.3175146591
 31
0.0
  0
LINE
  5
121
330
1F
100
AcDbEntity
  8
0
  6
Continuous
 62
     7
370
    25
100
AcDbLine
 10
90.0858828541
 20
74.8175146591
 30
0.0
 11
95.0858828541
 21
75.5675146591
 31
0.0
  0
LINE
  5
122
330
1F
100
AcDbEntity
  8
0
  6
Continuous
 62
     7
370
    25
100
AcDbLine
 10
95.0858828541
 20
84.5675146591
 30
0.0
 11
90.0858828541
 21
85.3175146591
 31
0.0
  0
LINE
  5
123
330
1F
100
AcDbEntity
  8
0
  6
Continuous
 62
     7
370
    25
100
AcDbLine
 10
100.0858828541
 20
74.8175146591
 30
0.0
 11
105.6479002214
 21
75.51276683
 31
0.0
  0
LINE
  5
124
330
1F
100
AcDbEntity
  8
0
  6
Continuous
 62
     7
370
    25
100
AcDbLine
 10
105.6479002214
 20
84.6222624882
 30
0.0
 11
100.0858828541
 21
85.3175146591
 31
0.0
  0
ARC
  5
125
330
1F
100
AcDbEntity
  8
0
  6
Continuous
 62
     7
370
    25
100
AcDbCircle
 10
105.5858828541
 20
76.0089057684
 30
0.0
 40
0.5000000000000142
100
AcDbArc
 50
277.1250163489
 51
0.0
  0
ARC
  5
126
330
1F
100
AcDbEntity
  8
0
  6
Continuous
 62
     7
370
    25
100
AcDbCircle
 10
105.5858828541
 20
84.1261235498
 30
0.0
 40
0.5000000000000142
100
AcDbArc
 50
0.0
 51
82.8749836511
  0
LINE
  5
127
330
1F
100
AcDbEntity
  8
0
  6
Continuous
 62
     7
370
    25
100
AcDbLine
 10
77.1662676118
 20
91.0675146591
 30
0.0
 11
79.1034024819
 21
91.0675146591
 31
0.0
  0
SPLINE
  5
128
330
1F
100
AcDbEntity
  8
0
  6
Continuous
 62
     7
370
    25
100
AcDbSpline
210
0.0
220
0.0
230
1.0
 70
     8
 71
     3
 72
    12
 73
     8
 74
     0
 42
0.000000001
 43
0.00000001
 40
0.0
 40
0.0
 40
0.0
 40
0.0
 40
0.2500000000000001
 40
0.2500000000000001
 40
0.5000000000000001
 40
0.5000000000000001
 40
1.0
 40
1.0
 40
1.0
 40
1.0
 10
80.08588285410795
 20
85.56751465911691
 30
0.0
 10
80.08588285410795
 20
86.0342813839429
 30
0.0
 10
80.06266069978078
 20
86.50314213557462
 30
0.0
 10
79.97279354992003
 20
87.43064638993988
 30
0.0
 10
79.90623496083234
 20
87.89129639314369
 30
0.0
 10
79.64952548671066
 20
89.26506487610457
 30
0.0
 10
79.40256281368825
 20
90.17003366363411
 30
0.0
 10
79.10340248186066
 20
91.06751465911692
 30
0.0
  0
SPLINE
  5
129
330
1F
100
AcDbEntity
  8
0
  6
Continuous
 62
     7
370
    25
100
AcDbSpline
210
0.0
220
0.0
230
1.0
 70
     8
 71
     3
 72
    10
 73
     6
 74
     0
 42
0.000000001
 43
0.00000001
 40
0.0
 40
0.0
 40
0.0
 40
0.0
 40
0.5
 40
0.5
 40
1.0
 40
1.0
 40
1.0
 40
1.0
 10
79.1034024818608
 20
80.06751465911687
 30
0.0
 10
79.40331173348112
 20
80.96724241397776
 30
0.0
 10
79.65039239284705
 20
81.87354215976451
 30
0.0
 10
79.99224720687943
 20
83.70508890933063
 30
0.0
 10
80.08588285410795
 20
84.63047754589314
 30
0.0
 10
80.08588285410795
 20
85.56751465911691
 30
0.0
  0
LINE
  5
12A
330
1F
100
AcDbEntity
  8
0
  6
Continuous
 62
     7
370
    25
100
AcDbLine
 10
77.1662676118
 20
80.0675146591
 30
0.0
 11
79.1034024819
 21
80.0675146591
 31
0.0
  0
SPLINE
  5
12B
330
1F
100
AcDbEntity
  8
0
  6
Continuous
 62
     7
370
    25
100
AcDbSpline
210
0.0
220
0.0
230
1.0
 70
     8
 71
     3
 72
     8
 73
     4
 74
     0
 42
0.000000001
 43
0.00000001
 40
0.0
 40
0.0
 40
0.0
 40
0.0
 40
1.0
 40
1.0
 40
1.0
 40
1.0
 10
77.16626761183727
 20
80.06751465911691
 30
0.0
 10
77.13843593878018
 20
80.24742142187729
 30
0.0
 10
77.11161487891411
 20
80.42741473638566
 30
0.0
 10
77.08588285410795
 20
80.60750131891078
 30
0.0
  0
SPLINE
  5
12C
330
1F
100
AcDbEntity
  8
0
  6
Continuous
 62
     7
370
    25
100
AcDbSpline
210
0.0
220
0.0
230
1.0
 70
     8
 71
     3
 72
     8
 73
     4
 74
     0
 42
0.000000001
 43
0.00000001
 40
0.0
 40
0.0
 40
0.0
 40
0.0
 40
1.0
 40
1.0
 40
1.0
 40
1.0
 10
77.08588285410795
 20
80.60750131891078
 30
0.0
 10
77.06014190427463
 20
80.42735227423407
 30
0.0
 10
77.03332036001372
 20
80.24736059841744
 30
0.0
 10
77.0054980963786
 20
80.06751465911691
 30
0.0
  0
LINE
  5
12D
330
1F
100
AcDbEntity
  8
0
  6
Continuous
 62
     7
370
    25
100
AcDbLine
 10
75.0683632264
 20
80.0675146591
 30
0.0
 11
77.0054980964
 21
80.0675146591
 31
0.0
  0
SPLINE
  5
12E
330
1F
100
AcDbEntity
  8
0
  6
Continuous
 62
     7
370
    25
100
AcDbSpline
210
0.0
220
0.0
230
1.0
 70
     8
 71
     3
 72
    10
 73
     6
 74
     0
 42
0.000000001
 43
0.00000001
 40
0.0
 40
0.0
 40
0.0
 40
0.0
 40
0.5
 40
0.5
 40
1.0
 40
1.0
 40
1.0
 40
1.0
 10
75.06836322635507
 20
80.06751465911687
 30
0.0
 10
74.76845397473477
 20
80.96724241397776
 30
0.0
 10
74.52137331536883
 20
81.87354215976451
 30
0.0
 10
74.17951850133645
 20
83.70508890933063
 30
0.0
 10
74.08588285410792
 20
84.63047754589314
 30
0.0
 10
74.08588285410792
 20
85.56751465911691
 30
0.0
  0
SPLINE
  5
12F
330
1F
100
AcDbEntity
  8
0
  6
Continuous
 62
     7
370
    25
100
AcDbSpline
210
0.0
220
0.0
230
1.0
 70
     8
 71
     3
 72
    12
 73
     8
 74
     0
 42
0.000000001
 43
0.00000001
 40
0.0
 40
0.0
 40
0.0
 40
0.0
 40
0.2500000000000001
 40
0.2500000000000001
 40
0.5000000000000001
 40
0.5000000000000001
 40
1.0
 40
1.0
 40
1.0
 40
1.0
 10
74.08588285410792
 20
85.56751465911691
 30
0.0
 10
74.08588285410792
 20
86.0342813839429
 30
0.0
 10
74.1091050084351
 20
86.50314213557462
 30
0.0
 10
74.19897215829585
 20
87.43064638993988
 30
0.0
 10
74.26553074738354
 20
87.89129639314369
 30
0.0
 10
74.52224022150521
 20
89.26506487610457
 30
0.0
 10
74.76920289452762
 20
90.17003366363411
 30
0.0
 10
75.06836322635523
 20
91.06751465911692
 30
0.0
  0
LINE
  5
130
330
1F
100
AcDbEntity
  8
0
  6
Continuous
 62
     7
370
    25
100
AcDbLine
 10
75.0683632264
 20
91.0675146591
 30
0.0
 11
77.0054980964
 21
91.0675146591
 31
0.0
  0
SPLINE
  5
131
330
1F
100
AcDbEntity
  8
0
  6
Continuous
 62
     7
370
    25
100
AcDbSpline
210
0.0
220
0.0
230
1.0
 70
     8
 71
     3
 72
     8
 73
     4
 74
     0
 42
0.000000001
 43
0.00000001
 40
0.0
 40
0.0
 40
0.0
 40
0.0
 40
1.0
 40
1.0
 40
1.0
 40
1.0
 10
77.0054980963786
 20
91.0675146591169
 30
0.0
 10
77.03332976943571
 20
90.8876078963565
 30
0.0
 10
77.06015082930176
 20
90.70761458184815
 30
0.0
 10
77.08588285410795
 20
90.52752799932303
 30
0.0
  0
SPLINE
  5
132
330
1F
100
AcDbEntity
  8
0
  6
Continuous
 62
     7
370
    25
100
AcDbSpline
210
0.0
220
0.0
230
1.0
 70
     8
 71
     3
 72
     8
 73
     4
 74
     0
 42
0.000000001
 43
0.00000001
 40
0.0
 40
0.0
 40
0.0
 40
0.0
 40
1.0
 40
1.0
 40
1.0
 40
1.0
 10
77.08588285410795
 20
90.52752799932303
 30
0.0
 10
77.11162380394126
 20
90.70767704399974
 30
0.0
 10
77.13844534820217
 20
90.88766871981636
 30
0.0
 10
77.16626761183727
 20
91.0675146591169
 30
0.0
  0
LINE
  5
133
330
1F
100
AcDbEntity
  8
0
  6
Continuous
 62
     7
370
    25
100
AcDbLine
 10
74.0858828541
 20
74.5675146591
 30
0.0
 11
74.0858828541
 21
85.5675146591
 31
0.0
  0
SPLINE
  5
134
330
1F
100
AcDbEntity
  8
0
  6
Continuous
 62
     7
370
    25
100
AcDbSpline
210
0.0
220
0.0
230
1.0
 70
     8
 71
     3
 72
    12
 73
     8
 74
     0
 42
0.000000001
 43
0.00000001
 40
0.0
 40
0.0
 40
0.0
 40
0.0
 40
0.2500000000000002
 40
0.2500000000000002
 40
0.5000000000000001
 40
0.5000000000000001
 40
1.0
 40
1.0
 40
1.0
 40
1.0
 10
74.08588285410792
 20
74.5675146591169
 30
0.0
 10
74.08588285410792
 20
75.0342813839429
 30
0.0
 10
74.1091050084351
 20
75.50314213557463
 30
0.0
 10
74.19897215829585
 20
76.43064638993988
 30
0.0
 10
74.26553074738354
 20
76.89129639314369
 30
0.0
 10
74.52224022150521
 20
78.26506487610457
 30
0.0
 10
74.76920289452762
 20
79.17003366363411
 30
0.0
 10
75.06836322635523
 20
80.06751465911694
 30
0.0
  0
SPLINE
  5
135
330
1F
100
AcDbEntity
  8
0
  6
Continuous
 62
     7
370
    25
100
AcDbSpline
210
0.0
220
0.0
230
1.0
 70
     8
 71
     3
 72
    12
 73
     8
 74
     0
 42
0.000000001
 43
0.00000001
 40
0.0
 40
0.0
 40
0.0
 40
0.0
 40
0.2500000000000002
 40
0.2500000000000002
 40
0.5000000000000001
 40
0.5000000000000001
 40
1.0
 40
1.0
 40
1.0
 40
1.0
 10
80.08588285410795
 20
74.5675146591169
 30
0.0
 10
80.08588285410795
 20
75.0342813839429
 30
0.0
 10
80.06266069978078
 20
75.50314213557463
 30
0.0
 10
79.97279354992003
 20
76.43064638993988
 30
0.0
 10
79.90623496083234
 20
76.89129639314369
 30
0.0
 10
79.64952548671066
 20
78.26506487610457
 30
0.0
 10
79.40256281368825
 20
79.17003366363411
 30
0.0
 10
79.10340248186066
 20
80.06751465911694
 30
0.0
  0
LINE
  5
136
330
1F
100
AcDbEntity
  8
0
  6
Continuous
 62
     7
370
    25
100
AcDbLine
 10
80.0858828541
 20
85.5675146591
 30
0.0
 11
80.0858828541
 21
74.5675146591
 31
0.0
  0
LINE
  5
137
330
1F
100
AcDbEntity
  8
0
  6
Continuous
 62
     7
370
    25
100
AcDbLine
 10
77.0858828541
 20
79.5275279993
 30
0.0
 11
77.0858828541
 21
80.6075013189
 31
0.0
  0
SPLINE
  5
138
330
1F
100
AcDbEntity
  8
0
  6
Continuous
 62
     7
370
    25
100
AcDbSpline
210
0.0
220
0.0
230
1.0
 70
     8
 71
     3
 72
     8
 73
     4
 74
     0
 42
0.000000001
 43
0.00000001
 40
0.0
 40
0.0
 40
0.0
 40
0.0
 40
1.0
 40
1.0
 40
1.0
 40
1.0
 10
77.0054980963786
 20
80.06751465911691
 30
0.0
 10
77.03332976943571
 20
79.8876078963565
 30
0.0
 10
77.06015082930176
 20
79.70761458184813
 30
0.0
 10
77.08588285410795
 20
79.52752799932303
 30
0.0
  0
SPLINE
  5
139
330
1F
100
AcDbEntity
  8
0
  6
Continuous
 62
     7
370
    25
100
AcDbSpline
210
0.0
220
0.0
230
1.0
 70
     8
 71
     3
 72
     8
 73
     4
 74
     0
 42
0.000000001
 43
0.00000001
 40
0.0
 40
0.0
 40
0.0
 40
0.0
 40
1.0
 40
1.0
 40
1.0
 40
1.0
 10
77.08588285410795
 20
79.52752799932303
 30
0.0
 10
77.11162380394126
 20
79.70767704399974
 30
0.0
 10
77.13844534820217
 20
79.88766871981638
 30
0.0
 10
77.16626761183727
 20
80.06751465911691
 30
0.0
  0
SPLINE
  5
13A
330
1F
100
AcDbEntity
  8
0
  6
Continuous
 62
     7
370
    25
100
AcDbSpline
210
0.0
220
0.0
230
1.0
 70
     8
 71
     3
 72
    10
 73
     6
 74
     0
 42
0.000000001
 43
0.00000001
 40
0.0
 40
0.0
 40
0.0
 40
0.0
 40
0.5
 40
0.5
 40
1.0
 40
1.0
 40
1.0
 40
1.0
 10
79.1034024818608
 20
69.06751465911687
 30
0.0
 10
79.40331173348112
 20
69.96724241397777
 30
0.0
 10
79.65039239284705
 20
70.87354215976451
 30
0.0
 10
79.99224720687943
 20
72.70508890933063
 30
0.0
 10
80.08588285410795
 20
73.63047754589314
 30
0.0
 10
80.08588285410795
 20
74.5675146591169
 30
0.0
  0
LINE
  5
13B
330
1F
100
AcDbEntity
  8
0
  6
Continuous
 62
     7
370
    25
100
AcDbLine
 10
77.1662676118
 20
69.0675146591
 30
0.0
 11
79.1034024819
 21
69.0675146591
 31
0.0
  0
SPLINE
  5
13C
330
1F
100
AcDbEntity
  8
0
  6
Continuous
 62
     7
370
    25
100
AcDbSpline
210
0.0
220
0.0
230
1.0
 70
     8
 71
     3
 72
     8
 73
     4
 74
     0
 42
0.000000001
 43
0.00000001
 40
0.0
 40
0.0
 40
0.0
 40
0.0
 40
1.0
 40
1.0
 40
1.0
 40
1.0
 10
77.16626761183727
 20
69.06751465911691
 30
0.0
 10
77.13843593878018
 20
69.2474214218773
 30
0.0
 10
77.11161487891412
 20
69.42741473638567
 30
0.0
 10
77.08588285410795
 20
69.60750131891078
 30
0.0
  0
SPLINE
  5
13D
330
1F
100
AcDbEntity
  8
0
  6
Continuous
 62
     7
370
    25
100
AcDbSpline
210
0.0
220
0.0
230
1.0
 70
     8
 71
     3
 72
     8
 73
     4
 74
     0
 42
0.000000001
 43
0.00000001
 40
0.0
 40
0.0
 40
0.0
 40
0.0
 40
1.0
 40
1.0
 40
1.0
 40
1.0
 10
77.08588285410794
 20
69.60750131891079
 30
0.0
 10
77.06014190427463
 20
69.42735227423408
 30
0.0
 10
77.03332036001372
 20
69.24736059841744
 30
0.0
 10
77.0054980963786
 20
69.06751465911691
 30
0.0
  0
LINE
  5
13E
330
1F
100
AcDbEntity
  8
0
  6
Continuous
 62
     7
370
    25
100
AcDbLine
 10
75.0683632264
 20
69.0675146591
 30
0.0
 11
77.0054980964
 21
69.0675146591
 31
0.0
  0
SPLINE
  5
13F
330
1F
100
AcDbEntity
  8
0
  6
Continuous
 62
     7
370
    25
100
AcDbSpline
210
0.0
220
0.0
230
1.0
 70
     8
 71
     3
 72
    10
 73
     6
 74
     0
 42
0.000000001
 43
0.00000001
 40
0.0
 40
0.0
 40
0.0
 40
0.0
 40
0.5
 40
0.5
 40
1.0
 40
1.0
 40
1.0
 40
1.0
 10
75.06836322635507
 20
69.06751465911687
 30
0.0
 10
74.76845397473477
 20
69.96724241397777
 30
0.0
 10
74.52137331536883
 20
70.87354215976451
 30
0.0
 10
74.17951850133645
 20
72.70508890933063
 30
0.0
 10
74.08588285410792
 20
73.63047754589314
 30
0.0
 10
74.08588285410792
 20
74.5675146591169
 30
0.0
  0
LINE
  5
140
330
1F
100
AcDbEntity
  8
0
  6
Continuous
 62
     7
370
    25
100
AcDbLine
 10
59.7822741271
 20
80.0675146591
 30
0.0
 11
59.7822741271
 21
69.7607524318
 31
0.0
  0
LINE
  5
141
330
1F
100
AcDbEntity
  8
0
  6
Continuous
 62
     7
370
    25
100
AcDbLine
 10
59.7822741271
 20
90.3742768864
 30
0.0
 11
59.7822741271
 21
80.0675146591
 31
0.0
  0
LINE
  5
142
330
1F
100
AcDbEntity
  8
0
  6
Continuous
 62
     7
370
    25
100
AcDbLine
 10
57.0858828541
 20
71.3175146591
 30
0.0
 11
57.0858828541
 21
88.8175146591
 31
0.0
  0
SPLINE
  5
143
330
1F
100
AcDbEntity
  8
0
  6
Continuous
 62
     7
370
    25
100
AcDbSpline
210
0.0
220
0.0
230
1.0
 70
    24
 71
     3
 72
    12
 73
     8
 74
     0
 42
0.000000001
 43
0.00000001
 40
0.0
 40
0.0
 40
0.0
 40
0.0
 40
0.25
 40
0.25
 40
0.5
 40
0.5
 40
1.0
 40
1.0
 40
1.0
 40
1.0
 10
80.08588285410794
 20
91.0675146591169
 30
0.0
 10
80.08588285410794
 20
91.0675146591169
 30
0.0
 10
80.06293865954997
 20
91.0675146591169
 30
0.0
 10
79.97208195867682
 20
91.0675146591169
 30
0.0
 10
79.90481334624687
 20
91.0675146591169
 30
0.0
 10
79.64669370040451
 20
91.0675146591169
 30
0.0
 10
79.39991701280427
 20
91.0675146591169
 30
0.0
 10
79.1034024818605
 20
91.0675146591169
 30
0.0
  0
LINE
  5
144
330
1F
100
AcDbEntity
  8
0
  6
Continuous
 62
     7
370
    25
100
AcDbLine
 10
80.0858828541
 20
91.0675146591
 30
0.0
 11
80.0858828541
 21
85.5675146591
 31
0.0
  0
SPLINE
  5
145
330
1F
100
AcDbEntity
  8
0
  6
Continuous
 62
     7
370
    25
100
AcDbSpline
210
0.0
220
0.0
230
1.0
 70
    24
 71
     3
 72
    12
 73
     8
 74
     0
 42
0.000000001
 43
0.00000001
 40
0.0
 40
0.0
 40
0.0
 40
0.0
 40
0.25
 40
0.25
 40
0.5
 40
0.5
 40
1.0
 40
1.0
 40
1.0
 40
1.0
 10
74.08588285410794
 20
91.0675146591169
 30
0.0
 10
74.08588285410794
 20
91.0675146591169
 30
0.0
 10
74.1088270486659
 20
91.0675146591169
 30
0.0
 10
74.19968374953906
 20
91.0675146591169
 30
0.0
 10
74.266952361969
 20
91.0675146591169
 30
0.0
 10
74.52507200781136
 20
91.0675146591169
 30
0.0
 10
74.7718486954116
 20
91.0675146591169
 30
0.0
 10
75.06836322635537
 20
91.0675146591169
 30
0.0
  0
LINE
  5
146
330
1F
100
AcDbEntity
  8
0
  6
Continuous
 62
     7
370
    25
100
AcDbLine
 10
74.0858828541
 20
91.0675146591
 30
0.0
 11
74.0858828541
 21
85.5675146591
 31
0.0
  0
SPLINE
  5
147
330
1F
100
AcDbEntity
  8
0
  6
Continuous
 62
     7
370
    25
100
AcDbSpline
210
0.0
220
0.0
230
1.0
 70
    24
 71
     3
 72
    12
 73
     8
 74
     0
 42
0.000000001
 43
0.00000001
 40
0.0
 40
0.0
 40
0.0
 40
0.0
 40
0.2499999999999999
 40
0.2499999999999999
 40
0.4999999999999999
 40
0.4999999999999999
 40
1.0
 40
1.0
 40
1.0
 40
1.0
 10
74.08588285410794
 20
69.06751465911691
 30
0.0
 10
74.08588285410794
 20
69.06751465911691
 30
0.0
 10
74.1088270486659
 20
69.06751465911691
 30
0.0
 10
74.19968374953906
 20
69.06751465911691
 30
0.0
 10
74.266952361969
 20
69.06751465911691
 30
0.0
 10
74.52507200781136
 20
69.06751465911691
 30
0.0
 10
74.7718486954116
 20
69.06751465911691
 30
0.0
 10
75.06836322635539
 20
69.06751465911691
 30
0.0
  0
LINE
  5
148
330
1F
100
AcDbEntity
  8
0
  6
Continuous
 62
     7
370
    25
100
AcDbLine
 10
74.0858828541
 20
69.0675146591
 30
0.0
 11
74.0858828541
 21
74.5675146591
 31
0.0
  0
SPLINE
  5
149
330
1F
100
AcDbEntity
  8
0
  6
Continuous
 62
     7
370
    25
100
AcDbSpline
210
0.0
220
0.0
230
1.0
 70
    24
 71
     3
 72
    12
 73
     8
 74
     0
 42
0.000000001
 43
0.00000001
 40
0.0
 40
0.0
 40
0.0
 40
0.0
 40
0.2499999999999999
 40
0.2499999999999999
 40
0.4999999999999999
 40
0.4999999999999999
 40
1.0
 40
1.0
 40
1.0
 40
1.0
 10
80.08588285410794
 20
69.06751465911691
 30
0.0
 10
80.08588285410794
 20
69.06751465911691
 30
0.0
 10
80.06293865954997
 20
69.06751465911691
 30
0.0
 10
79.97208195867682
 20
69.06751465911691
 30
0.0
 10
79.90481334624687
 20
69.06751465911691
 30
0.0
 10
79.64669370040451
 20
69.06751465911691
 30
0.0
 10
79.39991701280427
 20
69.06751465911691
 30
0.0
 10
79.10340248186048
 20
69.06751465911691
 30
0.0
  0
LINE
  5
14A
330
1F
100
AcDbEntity
  8
0
  6
Continuous
 62
     7
370
    25
100
AcDbLine
 10
80.0858828541
 20
74.5675146591
 30
0.0
 11
80.0858828541
 21
69.0675146591
 31
0.0
  0
LINE
  5
14B
330
1F
100
AcDbEntity
  8
0
  6
Continuous
 62
     7
370
    25
100
AcDbLine
 10
77.0858828541
 20
90.5275279993
 30
0.0
 11
77.0858828541
 21
91.0675146591
 31
0.0
  0
SPLINE
  5
14C
330
1F
100
AcDbEntity
  8
0
  6
Continuous
 62
     7
370
    25
100
AcDbSpline
210
0.0
220
0.0
230
1.0
 70
    24
 71
     3
 72
     8
 73
     4
 74
     0
 42
0.000000001
 43
0.00000001
 40
0.0
 40
0.0
 40
0.0
 40
0.0
 40
1.0
 40
1.0
 40
1.0
 40
1.0
 10
77.16626761183727
 20
91.0675146591169
 30
0.0
 10
77.13843455828138
 20
91.0675146591169
 30
0.0
 10
77.11161357051108
 20
91.0675146591169
 30
0.0
 10
77.08588285410795
 20
91.0675146591169
 30
0.0
  0
SPLINE
  5
14D
330
1F
100
AcDbEntity
  8
0
  6
Continuous
 62
     7
370
    25
100
AcDbSpline
210
0.0
220
0.0
230
1.0
 70
    24
 71
     3
 72
     8
 73
     4
 74
     0
 42
0.000000001
 43
0.00000001
 40
0.0
 40
0.0
 40
0.0
 40
0.0
 40
1.0
 40
1.0
 40
1.0
 40
1.0
 10
77.08588285410795
 20
91.0675146591169
 30
0.0
 10
77.06014236353832
 20
91.0675146591169
 30
0.0
 10
77.0333208438889
 20
91.0675146591169
 30
0.0
 10
77.0054980963786
 20
91.0675146591169
 30
0.0
  0
LINE
  5
14E
330
1F
100
AcDbEntity
  8
0
  6
Continuous
 62
     7
370
    25
100
AcDbLine
 10
77.0858828541
 20
69.0675146591
 30
0.0
 11
77.0858828541
 21
69.6075013189
 31
0.0
  0
SPLINE
  5
14F
330
1F
100
AcDbEntity
  8
0
  6
Continuous
 62
     7
370
    25
100
AcDbSpline
210
0.0
220
0.0
230
1.0
 70
    24
 71
     3
 72
     8
 73
     4
 74
     0
 42
0.000000001
 43
0.00000001
 40
0.0
 40
0.0
 40
0.0
 40
0.0
 40
1.0
 40
1.0
 40
1.0
 40
1.0
 10
77.08588285410794
 20
69.06751465911691
 30
0.0
 10
77.11162334467755
 20
69.06751465911691
 30
0.0
 10
77.13844486432697
 20
69.06751465911691
 30
0.0
 10
77.16626761183727
 20
69.06751465911691
 30
0.0
  0
SPLINE
  5
150
330
1F
100
AcDbEntity
  8
0
  6
Continuous
 62
     7
370
    25
100
AcDbSpline
210
0.0
220
0.0
230
1.0
 70
    24
 71
     3
 72
     8
 73
     4
 74
     0
 42
0.000000001
 43
0.00000001
 40
0.0
 40
0.0
 40
0.0
 40
0.0
 40
1.0
 40
1.0
 40
1.0
 40
1.0
 10
77.0054980963786
 20
69.06751465911691
 30
0.0
 10
77.03333114993451
 20
69.06751465911691
 30
0.0
 10
77.0601521377048
 20
69.06751465911691
 30
0.0
 10
77.08588285410795
 20
69.06751465911691
 30
0.0
  0
LINE
  5
151
330
1F
100
AcDbEntity
  8
0
  6
Continuous
 62
     7
370
    25
100
AcDbLine
 10
85.0858828541
 20
80.0675146591
 30
0.0
 11
85.0858828541
 21
74.8175146591
 31
0.0
  0
LINE
  5
152
330
1F
100
AcDbEntity
  8
0
  6
Continuous
 62
     7
370
    25
100
AcDbLine
 10
85.0858828541
 20
85.3175146591
 30
0.0
 11
85.0858828541
 21
80.0675146591
 31
0.0
  0
LINE
  5
153
330
1F
100
AcDbEntity
  8
0
  6
Continuous
 62
     7
370
    25
100
AcDbLine
 10
95.0858828541
 20
80.0675146591
 30
0.0
 11
95.0858828541
 21
74.8175146591
 31
0.0
  0
LINE
  5
154
330
1F
100
AcDbEntity
  8
0
  6
Continuous
 62
     7
370
    25
100
AcDbLine
 10
95.0858828541
 20
85.3175146591
 30
0.0
 11
95.0858828541
 21
80.0675146591
 31
0.0
  0
LINE
  5
155
330
1F
100
AcDbEntity
  8
0
  6
Continuous
 62
     7
370
    25
100
AcDbLine
 10
90.0858828541
 20
80.0675146591
 30
0.0
 11
90.0858828541
 21
74.8175146591
 31
0.0
  0
LINE
  5
156
330
1F
100
AcDbEntity
  8
0
  6
Continuous
 62
     7
370
    25
100
AcDbLine
 10
90.0858828541
 20
85.3175146591
 30
0.0
 11
90.0858828541
 21
80.0675146591
 31
0.0
  0
LINE
  5
157
330
1F
100
AcDbEntity
  8
0
  6
Continuous
 62
     7
370
    25
100
AcDbLine
 10
100.0858828541
 20
80.0675146591
 30
0.0
 11
100.0858828541
 21
74.8175146591
 31
0.0
  0
LINE
  5
158
330
1F
100
AcDbEntity
  8
0
  6
Continuous
 62
     7
370
    25
100
AcDbLine
 10
100.0858828541
 20
85.3175146591
 30
0.0
 11
100.0858828541
 21
80.0675146591
 31
0.0
  0
LINE
  5
159
330
1F
100
AcDbEntity
  8
0
  6
Continuous
 62
     7
370
    25
100
AcDbLine
 10
106.0858828541
 20
84.1261235498
 30
0.0
 11
106.0858828541
 21
76.0089057684
 31
0.0
  0
LINE
  5
15A
330
1F
100
AcDbEntity
  8
0
  6
Continuous
 62
     8
370
    25
100
AcDbLine
 10
105.6479002214
 20
80.0675146591
 30
0.0
 11
105.6479002214
 21
84.6222624882
 31
0.0
  0
LINE
  5
15B
330
1F
100
AcDbEntity
  8
0
  6
Continuous
 62
     8
370
    25
100
AcDbLine
 10
105.6479002214
 20
75.51276683
 30
0.0
 11
105.6479002214
 21
80.0675146591
 31
0.0
  0
LINE
  5
15C
330
1F
100
AcDbEntity
  8
0
  6
Continuous
 62
     7
370
    18
100
AcDbLine
 10
57.9671088851
 20
89.3262907453
 30
0.0
 11
73.5858828541
 21
89.8143774318
 31
0.0
  0
LINE
  5
15D
330
1F
100
AcDbEntity
  8
0
  6
Continuous
 62
     7
370
    18
100
AcDbLine
 10
57.9671088851
 20
70.8087385729
 30
0.0
 11
73.5858828541
 21
70.3206518864
 31
0.0
  0
LINE
  5
15E
330
1F
100
AcDbEntity
  8
0
  6
Continuous
 62
     7
370
    18
100
AcDbLine
 10
73.5858828541
 20
69.3293896591
 30
0.0
 11
73.5858828541
 21
90.8056396591
 31
0.0
  0
LINE
  5
15F
330
1F
100
AcDbEntity
  8
0
  6
CENTERX2
 62
     7
370
    18
100
AcDbLine
 10
107.0858828541
 20
80.0675146591
 30
0.0
 11
55.5178819836
 21
80.0675146591
 31
0.0
  0
ENDSEC
  0
SECTION
  2
OBJECTS
  0
DICTIONARY
  5
C
330
0
100
AcDbDictionary
281
     1
  3
ACAD_GROUP
350
D
  3
ACAD_LAYOUT
350
1A
  3
ACAD_MLINESTYLE
350
17
  3
ACAD_PLOTSETTINGS
350
19
  3
ACAD_PLOTSTYLENAME
350
E
  3
ACAD_SCALELIST
350
47
  0
DICTIONARY
  5
D
102
{ACAD_REACTORS
330
C
102
}
330
C
100
AcDbDictionary
281
     1
  0
DICTIONARY
  5
1A
102
{ACAD_REACTORS
330
C
102
}
330
C
100
AcDbDictionary
281
     1
  3
Layout1
350
1E
  3
Layout2
350
26
  3
Model
350
22
  0
DICTIONARY
  5
17
102
{ACAD_REACTORS
330
C
102
}
330
C
100
AcDbDictionary
281
     1
  3
Standard
350
18
  0
DICTIONARY
  5
19
102
{ACAD_REACTORS
330
C
102
}
330
C
100
AcDbDictionary
281
     1
  0
ACDBDICTIONARYWDFLT
  5
E
102
{ACAD_REACTORS
330
C
102
}
330
C
100
AcDbDictionary
281
     1
  3
Normal
350
F
100
AcDbDictionaryWithDefault
340
F
  0
DICTIONARY
  5
47
102
{ACAD_REACTORS
330
C
102
}
330
C
100
AcDbDictionary
281
     1
  3
A0
350
48
  3
A1
350
49
  3
A2
350
4A
  3
A3
350
4B
  3
A4
350
4C
  3
A5
350
4D
  3
A6
350
4E
  3
A7
350
4F
  3
A8
350
50
  3
A9
350
51
  3
B0
350
52
  3
B1
350
53
  3
B2
350
54
  3
B3
350
55
  3
B4
350
56
  3
B5
350
57
  3
B6
350
58
  3
B7
350
59
  3
B8
350
5A
  3
B9
350
5B
  3
C0
350
5C
  3
C1
350
5D
  3
C2
350
5E
  3
C3
350
5F
  3
C4
350
60
  3
C5
350
61
  3
C6
350
62
  3
C7
350
63
  3
C8
350
64
  3
C9
350
65
  3
D0
350
66
  3
D1
350
67
  3
D2
350
68
  0
LAYOUT
  5
1E
102
{ACAD_REACTORS
330
1A
102
}
330
1A
100
AcDbPlotSettings
  1

  2
none_device
  4

  6

 40
0.0
 41
0.0
 42
0.0
 43
0.0
 44
0.0
 45
0.0
 46
0.0
 47
0.0
 48
0.0
 49
0.0
140
0.0
141
0.0
142
1.0
143
1.0
 70
   688
 72
     1
 73
     0
 74
     5
  7

 75
    16
147
1.0
148
0.0
149
0.0
100
AcDbLayout
  1
Layout1
 70
     1
 71
     1
 10
0.0
 20
0.0
 11
420.0
 21
297.0
 12
0.0
 22
0.0
 32
0.0
 14
1.0000000000E+20
 24
1.0000000000E+20
 34
1.0000000000E+20
 15
-1.0000000000E+20
 25
-1.0000000000E+20
 35
-1.0000000000E+20
146
0.0
 13
0.0
 23
0.0
 33
0.0
 16
1.0
 26
0.0
 36
0.0
 17
0.0
 27
1.0
 37
0.0
 76
     0
330
1B
  0
LAYOUT
  5
26
102
{ACAD_REACTORS
330
1A
102
}
330
1A
100
AcDbPlotSettings
  1

  2
none_device
  4

  6

 40
0.0
 41
0.0
 42
0.0
 43
0.0
 44
0.0
 45
0.0
 46
0.0
 47
0.0
 48
0.0
 49
0.0
140
0.0
141
0.0
142
1.0
143
1.0
 70
   688
 72
     1
 73
     0
 74
     5
  7

 75
    16
147
1.0
148
0.0
149
0.0
100
AcDbLayout
  1
Layout2
 70
     1
 71
     2
 10
0.0
 20
0.0
 11
0.0
 21
0.0
 12
0.0
 22
0.0
 32
0.0
 14
0.0
 24
0.0
 34
0.0
 15
0.0
 25
0.0
 35
0.0
146
0.0
 13
0.0
 23
0.0
 33
0.0
 16
1.0
 26
0.0
 36
0.0
 17
0.0
 27
1.0
 37
0.0
 76
     0
330
23
  0
LAYOUT
  5
22
102
{ACAD_REACTORS
330
1A
102
}
330
1A
100
AcDbPlotSettings
  1

  2
none_device
  4
Letter_(8.50_x_11.00_Inches)
  6

 40
6.35
 41
6.35
 42
6.35000508
 43
6.35000508
 44
215.9
 45
279.4
 46
0.0
 47
0.0
 48
0.0
 49
0.0
140
0.0
141
0.0
142
1.0
143
1.0
 70
  1712
 72
     1
 73
     0
 74
     0
  7

 75
     0
147
1.0
148
0.0
149
0.0
100
AcDbLayout
  1
Model
 70
     1
 71
     0
 10
0.0
 20
0.0
 11
215.9
 21
139.7
 12
0.0
 22
0.0
 32
0.0
 14
0.0
 24
0.0
 34
0.0
 15
215.9
 25
139.7
 35
0.0
146
0.0
 13
0.0
 23
0.0
 33
0.0
 16
1.0
 26
0.0
 36
0.0
 17
0.0
 27
1.0
 37
0.0
 76
     0
330
1F
331
29
  0
MLINESTYLE
  5
18
102
{ACAD_REACTORS
330
17
102
}
330
17
100
AcDbMlineStyle
  2
Standard
 70
     0
  3

 62
   256
 51
90.0
 52
90.0
 71
     2
 49
0.5
 62
   256
  6
BYLAYER
 49
-0.5
 62
   256
  6
BYLAYER
  0
ACDBPLACEHOLDER
  5
F
102
{ACAD_REACTORS
330
E
102
}
330
E
  0
SCALE
  5
48
102
{ACAD_REACTORS
330
47
102
}
330
47
100
AcDbScale
 70
     0
300
1:1
140
1.0
141
1.0
290
     1
  0
SCALE
  5
49
102
{ACAD_REACTORS
330
47
102
}
330
47
100
AcDbScale
 70
     0
300
1:2
140
1.0
141
2.0
290
     0
  0
SCALE
  5
4A
102
{ACAD_REACTORS
330
47
102
}
330
47
100
AcDbScale
 70
     0
300
1:4
140
1.0
141
4.0
290
     0
  0
SCALE
  5
4B
102
{ACAD_REACTORS
330
47
102
}
330
47
100
AcDbScale
 70
     0
300
1:5
140
1.0
141
5.0
290
     0
  0
SCALE
  5
4C
102
{ACAD_REACTORS
330
47
102
}
330
47
100
AcDbScale
 70
     0
300
1:8
140
1.0
141
8.0
290
     0
  0
SCALE
  5
4D
102
{ACAD_REACTORS
330
47
102
}
330
47
100
AcDbScale
 70
     0
300
1:10
140
1.0
141
10.0
290
     0
  0
SCALE
  5
4E
102
{ACAD_REACTORS
330
47
102
}
330
47
100
AcDbScale
 70
     0
300
1:16
140
1.0
141
16.0
290
     0
  0
SCALE
  5
4F
102
{ACAD_REACTORS
330
47
102
}
330
47
100
AcDbScale
 70
     0
300
1:20
140
1.0
141
20.0
290
     0
  0
SCALE
  5
50
102
{ACAD_REACTORS
330
47
102
}
330
47
100
AcDbScale
 70
     0
300
1:30
140
1.0
141
30.0
290
     0
  0
SCALE
  5
51
102
{ACAD_REACTORS
330
47
102
}
330
47
100
AcDbScale
 70
     0
300
1:40
140
1.0
141
40.0
290
     0
  0
SCALE
  5
52
102
{ACAD_REACTORS
330
47
102
}
330
47
100
AcDbScale
 70
     0
300
1:50
140
1.0
141
50.0
290
     0
  0
SCALE
  5
53
102
{ACAD_REACTORS
330
47
102
}
330
47
100
AcDbScale
 70
     0
300
1:100
140
1.0
141
100.0
290
     0
  0
SCALE
  5
54
102
{ACAD_REACTORS
330
47
102
}
330
47
100
AcDbScale
 70
     0
300
2:1
140
2.0
141
1.0
290
     0
  0
SCALE
  5
55
102
{ACAD_REACTORS
330
47
102
}
330
47
100
AcDbScale
 70
     0
300
4:1
140
4.0
141
1.0
290
     0
  0
SCALE
  5
56
102
{ACAD_REACTORS
330
47
102
}
330
47
100
AcDbScale
 70
     0
300
8:1
140
8.0
141
1.0
290
     0
  0
SCALE
  5
57
102
{ACAD_REACTORS
330
47
102
}
330
47
100
AcDbScale
 70
     0
300
10:1
140
10.0
141
1.0
290
     0
  0
SCALE
  5
58
102
{ACAD_REACTORS
330
47
102
}
330
47
100
AcDbScale
 70
     0
300
100:1
140
100.0
141
1.0
290
     0
  0
SCALE
  5
59
102
{ACAD_REACTORS
330
47
102
}
330
47
100
AcDbScale
 70
     0
300
1/128" = 1'-0"
140
0.0078125
141
12.0
290
     0
  0
SCALE
  5
5A
102
{ACAD_REACTORS
330
47
102
}
330
47
100
AcDbScale
 70
     0
300
1/64" = 1'-0"
140
0.015625
141
12.0
290
     0
  0
SCALE
  5
5B
102
{ACAD_REACTORS
330
47
102
}
330
47
100
AcDbScale
 70
     0
300
1/32" = 1'-0"
140
0.03125
141
12.0
290
     0
  0
SCALE
  5
5C
102
{ACAD_REACTORS
330
47
102
}
330
47
100
AcDbScale
 70
     0
300
1/16" = 1'-0"
140
0.0625
141
12.0
290
     0
  0
SCALE
  5
5D
102
{ACAD_REACTORS
330
47
102
}
330
47
100
AcDbScale
 70
     0
300
3/32" = 1'-0"
140
0.09375
141
12.0
290
     0
  0
SCALE
  5
5E
102
{ACAD_REACTORS
330
47
102
}
330
47
100
AcDbScale
 70
     0
300
1/8" = 1'-0"
140
0.125
141
12.0
290
     0
  0
SCALE
  5
5F
102
{ACAD_REACTORS
330
47
102
}
330
47
100
AcDbScale
 70
     0
300
3/16" = 1'-0"
140
0.1875
141
12.0
290
     0
  0
SCALE
  5
60
102
{ACAD_REACTORS
330
47
102
}
330
47
100
AcDbScale
 70
     0
300
1/4" = 1'-0"
140
0.25
141
12.0
290
     0
  0
SCALE
  5
61
102
{ACAD_REACTORS
330
47
102
}
330
47
100
AcDbScale
 70
     0
300
3/8" = 1'-0"
140
0.375
141
12.0
290
     0
  0
SCALE
  5
62
102
{ACAD_REACTORS
330
47
102
}
330
47
100
AcDbScale
 70
     0
300
1/2" = 1'-0"
140
0.5
141
12.0
290
     0
  0
SCALE
  5
63
102
{ACAD_REACTORS
330
47
102
}
330
47
100
AcDbScale
 70
     0
300
3/4" = 1'-0"
140
0.75
141
12.0
290
     0
  0
SCALE
  5
64
102
{ACAD_REACTORS
330
47
102
}
330
47
100
AcDbScale
 70
     0
300
1" = 1'-0"
140
1.0
141
12.0
290
     0
  0
SCALE
  5
65
102
{ACAD_REACTORS
330
47
102
}
330
47
100
AcDbScale
 70
     0
300
1-1/2" = 1'-0"
140
1.5
141
12.0
290
     0
  0
SCALE
  5
66
102
{ACAD_REACTORS
330
47
102
}
330
47
100
AcDbScale
 70
     0
300
3" = 1'-0"
140
3.0
141
12.0
290
     0
  0
SCALE
  5
67
102
{ACAD_REACTORS
330
47
102
}
330
47
100
AcDbScale
 70
     0
300
6" = 1'-0"
140
6.0
141
12.0
290
     0
  0
SCALE
  5
68
102
{ACAD_REACTORS
330
47
102
}
330
47
100
AcDbScale
 70
     0
300
1'-0" = 1'-0"
140
12.0
141
12.0
290
     0
  0
ENDSEC
  0
EOF
