  0
SECTION
  2
HEADER
  9
$ACADVER
  1
AC1015
  9
$ACADMAINTVER
 70
     6
  9
$DWGCODEPAGE
  3
DOS932
  9
$INSBASE
 10
0.0
 20
0.0
 30
0.0
  9
$EXTMIN
 10
0.0
 20
0.0
 30
0.0
  9
$EXTMAX
 10
215.9
 20
139.7
 30
0.0
  9
$LIMMIN
 10
0.0
 20
0.0
  9
$LIMMAX
 10
215.9
 20
139.7
  9
$ORTHOMODE
 70
     0
  9
$REGENMODE
 70
     1
  9
$FILLMODE
 70
     1
  9
$QTEXTMODE
 70
     0
  9
$MIRRTEXT
 70
     1
  9
$LTSCALE
 40
0.5
  9
$ATTMODE
 70
     1
  9
$TEXTSIZE
 40
1.75
  9
$TRACEWID
 40
1.0
  9
$TEXTSTYLE
  7
Standard
  9
$CLAYER
  8
0
  9
$CELTYPE
  6
ByLayer
  9
$CECOLOR
 62
   256
  9
$CELTSCALE
 40
1.0
  9
$DISPSILH
 70
     0
  9
$DIMSCALE
 40
1.0
  9
$DIMASZ
 40
1.651
  9
$DIMEXO
 40
0.5
  9
$DIMDLI
 40
3.75
  9
$DIMRND
 40
0.0
  9
$DIMDLE
 40
0.0
  9
$DIMEXE
 40
0.5
  9
$DIMTP
 40
0.0
  9
$DIMTM
 40
0.0
  9
$DIMTXT
 40
1.75
  9
$DIMCEN
 40
2.5
  9
$DIMTSZ
 40
0.0
  9
$DIMTOL
 70
     0
  9
$DIMLIM
 70
     0
  9
$DIMTIH
 70
     1
  9
$DIMTOH
 70
     1
  9
$DIMSE1
 70
     0
  9
$DIMSE2
 70
     0
  9
$DIMTAD
 70
     1
  9
$DIMZIN
 70
     1
  9
$DIMBLK
  1

  9
$DIMASO
 70
     1
  9
$DIMSHO
 70
     1
  9
$DIMPOST
  1

  9
$DIMAPOST
  1

  9
$DIMALT
 70
     0
  9
$DIMALTD
 70
     3
  9
$DIMALTF
 40
0.0393700787
  9
$DIMLFAC
 40
1.0
  9
$DIMTOFL
 70
     1
  9
$DIMTVP
 40
0.0
  9
$DIMTIX
 70
     0
  9
$DIMSOXD
 70
     0
  9
$DIMSAH
 70
     0
  9
$DIMBLK1
  1

  9
$DIMBLK2
  1

  9
$DIMSTYLE
  2
ISO-25
  9
$DIMCLRD
 70
     0
  9
$DIMCLRE
 70
     0
  9
$DIMCLRT
 70
     0
  9
$DIMTFAC
 40
1.0
  9
$DIMGAP
 40
0.762
  9
$DIMJUST
 70
     0
  9
$DIMSD1
 70
     0
  9
$DIMSD2
 70
     0
  9
$DIMTOLJ
 70
     0
  9
$DIMTZIN
 70
     1
  9
$DIMALTZ
 70
     0
  9
$DIMALTTZ
 70
     0
  9
$DIMUPT
 70
     0
  9
$DIMDEC
 70
     2
  9
$DIMTDEC
 70
     2
  9
$DIMALTU
 70
     2
  9
$DIMALTTD
 70
     3
  9
$DIMTXSTY
  7
Standard
  9
$DIMAUNIT
 70
     0
  9
$DIMADEC
 70
     2
  9
$DIMALTRND
 40
0.0
  9
$DIMAZIN
 70
     0
  9
$DIMDSEP
 70
    44
  9
$DIMATFIT
 70
     3
  9
$DIMFRAC
 70
     0
  9
$DIMLDRBLK
  1

  9
$DIMLUNIT
 70
     2
  9
$DIMLWD
 70
    -2
  9
$DIMLWE
 70
    -2
  9
$DIMTMOVE
 70
     0
  9
$LUNITS
 70
     2
  9
$LUPREC
 70
     2
  9
$SKETCHINC
 40
1.0
  9
$FILLETRAD
 40
10.0
  9
$AUNITS
 70
     0
  9
$AUPREC
 70
     2
  9
$MENU
  1
.
  9
$ELEVATION
 40
0.0
  9
$PELEVATION
 40
0.0
  9
$THICKNESS
 40
0.0
  9
$LIMCHECK
 70
     0
  9
$CHAMFERA
 40
0.0
  9
$CHAMFERB
 40
0.0
  9
$CHAMFERC
 40
0.0
  9
$CHAMFERD
 40
0.0
  9
$SKPOLY
 70
     0
  9
$TDCREATE
 40
2460082.680031655
  9
$TDUCREATE
 40
2460082.305031655
  9
$TDUPDATE
 40
2460082.680032326
  9
$TDUUPDATE
 40
2460082.305032326
  9
$TDINDWG
 40
0.0000000116
  9
$TDUSRTIMER
 40
0.0000000116
  9
$USRTIMER
 70
     1
  9
$ANGBASE
 50
0.0
  9
$ANGDIR
 70
     0
  9
$PDMODE
 70
     0
  9
$PDSIZE
 40
-1.0
  9
$PLINEWID
 40
0.0
  9
$SPLFRAME
 70
     0
  9
$SPLINETYPE
 70
     6
  9
$SPLINESEGS
 70
     8
  9
$HANDSEED
  5
160
  9
$SURFTAB1
 70
     6
  9
$SURFTAB2
 70
     6
  9
$SURFTYPE
 70
     6
  9
$SURFU
 70
     6
  9
$SURFV
 70
     6
  9
$UCSBASE
  2

  9
$UCSNAME
  2

  9
$UCSORG
 10
0.0
 20
0.0
 30
0.0
  9
$UCSXDIR
 10
1.0
 20
0.0
 30
0.0
  9
$UCSYDIR
 10
0.0
 20
1.0
 30
0.0
  9
$UCSORTHOREF
  2

  9
$UCSORTHOVIEW
 70
     0
  9
$UCSORGTOP
 10
0.0
 20
0.0
 30
0.0
  9
$UCSORGBOTTOM
 10
0.0
 20
0.0
 30
0.0
  9
$UCSORGLEFT
 10
0.0
 20
0.0
 30
0.0
  9
$UCSORGRIGHT
 10
0.0
 20
0.0
 30
0.0
  9
$UCSORGFRONT
 10
0.0
 20
0.0
 30
0.0
  9
$UCSORGBACK
 10
0.0
 20
0.0
 30
0.0
  9
$PUCSBASE
  2

  9
$PUCSNAME
  2

  9
$PUCSORG
 10
0.0
 20
0.0
 30
0.0
  9
$PUCSXDIR
 10
1.0
 20
0.0
 30
0.0
  9
$PUCSYDIR
 10
0.0
 20
1.0
 30
0.0
  9
$PUCSORTHOREF
  2

  9
$PUCSORTHOVIEW
 70
     0
  9
$PUCSORGTOP
 10
0.0
 20
0.0
 30
0.0
  9
$PUCSORGBOTTOM
 10
0.0
 20
0.0
 30
0.0
  9
$PUCSORGLEFT
 10
0.0
 20
0.0
 30
0.0
  9
$PUCSORGRIGHT
 10
0.0
 20
0.0
 30
0.0
  9
$PUCSORGFRONT
 10
0.0
 20
0.0
 30
0.0
  9
$PUCSORGBACK
 10
0.0
 20
0.0
 30
0.0
  9
$USERI1
 70
     0
  9
$USERI2
 70
     0
  9
$USERI3
 70
     0
  9
$USERI4
 70
     0
  9
$USERI5
 70
     0
  9
$USERR1
 40
0.0
  9
$USERR2
 40
0.0
  9
$USERR3
 40
0.0
  9
$USERR4
 40
0.0
  9
$USERR5
 40
0.0
  9
$WORLDVIEW
 70
     1
  9
$SHADEDGE
 70
     3
  9
$SHADEDIF
 70
    70
  9
$TILEMODE
 70
     1
  9
$MAXACTVP
 70
    64
  9
$PINSBASE
 10
0.0
 20
0.0
 30
0.0
  9
$PLIMCHECK
 70
     0
  9
$PEXTMIN
 10
1.0000000000E+20
 20
1.0000000000E+20
 30
1.0000000000E+20
  9
$PEXTMAX
 10
-1.0000000000E+20
 20
-1.0000000000E+20
 30
-1.0000000000E+20
  9
$PLIMMIN
 10
0.0
 20
0.0
  9
$PLIMMAX
 10
420.0
 20
297.0
  9
$UNITMODE
 70
     0
  9
$VISRETAIN
 70
     1
  9
$PLINEGEN
 70
     0
  9
$PSLTSCALE
 70
     1
  9
$TREEDEPTH
 70
  3020
  9
$CMLSTYLE
  2
Standard
  9
$CMLJUST
 70
     0
  9
$CMLSCALE
 40
20.0
  9
$PROXYGRAPHICS
 70
     1
  9
$MEASUREMENT
 70
     1
  9
$CELWEIGHT
370
    -1
  9
$ENDCAPS
280
     0
  9
$JOINSTYLE
280
     0
  9
$LWDISPLAY
290
     1
  9
$INSUNITS
 70
     4
  9
$HYPERLINKBASE
  1

  9
$STYLESHEET
  1

  9
$XEDIT
290
     1
  9
$CEPSNTYPE
380
     0
  9
$PSTYLEMODE
290
     1
  9
$FINGERPRINTGUID
  2
{1C39F97B-5009-41CB-86A1-9B474949157E}
  9
$VERSIONGUID
  2
{FAEB1C32-E019-11D5-929B-00C0DF256EC4}
  9
$EXTNAMES
290
     1
  9
$PSVPSCALE
 40
0.0
  9
$OLESTARTUP
290
     0
  0
ENDSEC
  0
SECTION
  2
CLASSES
  0
CLASS
  1
ACDBDICTIONARYWDFLT
  2
AcDbDictionaryWithDefault
  3
ObjectDBX Classes
 90
        0
280
     0
281
     0
  0
CLASS
  1
VISUALSTYLE
  2
AcDbVisualStyle
  3
ObjectDBX Classes
 90
     4095
280
     0
281
     0
  0
CLASS
  1
MATERIAL
  2
AcDbMaterial
  3
ObjectDBX Classes
 90
     1153
280
     0
281
     0
  0
CLASS
  1
SCALE
  2
AcDbScale
  3
ObjectDBX Classes
 90
     1153
280
     0
281
     0
  0
CLASS
  1
TABLESTYLE
  2
AcDbTableStyle
  3
ObjectDBX Classes
 90
     4095
280
     0
281
     0
  0
CLASS
  1
MLEADERSTYLE
  2
AcDbMLeaderStyle
  3
ACDB_MLEADERSTYLE_CLASS
 90
     4095
280
     0
281
     0
  0
CLASS
  1
SUN
  2
AcDbSun
  3
SCENEOE
 90
     1153
280
     0
281
     0
  0
CLASS
  1
ACDBPLACEHOLDER
  2
AcDbPlaceHolder
  3
ObjectDBX Classes
 90
        0
280
     0
281
     0
  0
CLASS
  1
LAYOUT
  2
AcDbLayout
  3
ObjectDBX Classes
 90
        0
280
     0
281
     0
  0
ENDSEC
  0
SECTION
  2
TABLES
  0
TABLE
  2
VPORT
  5
8
330
0
100
AcDbSymbolTable
 70
     1
  0
VPORT
  5
29
330
8
100
AcDbSymbolTableRecord
100
AcDbViewportTableRecord
  2
*Active
 70
     0
 10
0.0
 20
0.0
 11
1.0
 21
1.0
 12
107.95
 22
69.85
 13
0.0
 23
0.0
 14
10.0
 24
10.0
 15
10.0
 25
10.0
 16
0.0
 26
0.0
 36
1.0
 17
0.0
 27
0.0
 37
0.0
 40
139.7
 41
1.5454545455
 42
50.0
 43
0.0
 44
0.0
 50
0.0
 51
0.0
 71
     0
 72
  2000
 73
     1
 74
     3
 75
     0
 76
     0
 77
     0
 78
     0
281
     0
 65
     1
110
0.0
120
0.0
130
0.0
111
1.0
121
0.0
131
0.0
112
0.0
122
1.0
132
0.0
 79
     0
146
0.0
  0
ENDTAB
  0
TABLE
  2
LTYPE
  5
5
330
0
100
AcDbSymbolTable
 70
     6
  0
LTYPE
  5
14
330
5
100
AcDbSymbolTableRecord
100
AcDbLinetypeTableRecord
  2
ByBlock
 70
     0
  3

 72
    65
 73
     0
 40
0.0
  0
LTYPE
  5
15
330
5
100
AcDbSymbolTableRecord
100
AcDbLinetypeTableRecord
  2
ByLayer
 70
     0
  3

 72
    65
 73
     0
 40
0.0
  0
LTYPE
  5
16
330
5
100
AcDbSymbolTableRecord
100
AcDbLinetypeTableRecord
  2
Continuous
 70
     0
  3
Solid line
 72
    65
 73
     0
 40
0.0
  0
LTYPE
  5
6E
330
5
100
AcDbSymbolTableRecord
100
AcDbLinetypeTableRecord
  2
HIDDEN
 70
     0
  3
Hidden __ __ __ __ __ __ __ __ __ __ __ __ __ __
 72
    65
 73
     2
 40
1.905
 49
1.27
 74
     0
 49
-0.635
 74
     0
  0
LTYPE
  5
6F
330
5
100
AcDbSymbolTableRecord
100
AcDbLinetypeTableRecord
  2
PHANTOM
 70
     0
  3
Phantom ______  __  __  ______  __  __  ______
 72
    65
 73
     6
 40
12.7
 49
6.35
 74
     0
 49
-1.27
 74
     0
 49
1.27
 74
     0
 49
-1.27
 74
     0
 49
1.27
 74
     0
 49
-1.27
 74
     0
  0
LTYPE
  5
70
330
5
100
AcDbSymbolTableRecord
100
AcDbLinetypeTableRecord
  2
CENTER
 70
     0
  3
Center ____ _ ____ _ ____ _ ____ _ ____ _ ____
 72
    65
 73
     4
 40
10.16
 49
6.35
 74
     0
 49
-1.27
 74
     0
 49
1.27
 74
     0
 49
-1.27
 74
     0
  0
LTYPE
  5
71
330
5
100
AcDbSymbolTableRecord
100
AcDbLinetypeTableRecord
  2
CENTERX2
 70
     0
  3
Center (2x) ________  __  ________  __  _____
 72
    65
 73
     4
 40
20.32
 49
12.7
 74
     0
 49
-2.54
 74
     0
 49
2.54
 74
     0
 49
-2.54
 74
     0
  0
LTYPE
  5
72
330
5
100
AcDbSymbolTableRecord
100
AcDbLinetypeTableRecord
  2
DOT2
 70
     0
  3
Dot (.5x) ........................................
 72
    65
 73
     2
 40
0.635
 49
0.0
 74
     0
 49
-0.635
 74
     0
  0
ENDTAB
  0
TABLE
  2
LAYER
  5
2
330
0
100
AcDbSymbolTable
 70
     1
  0
LAYER
  5
10
330
2
100
AcDbSymbolTableRecord
100
AcDbLayerTableRecord
  2
0
 70
     0
 62
     7
  6
Continuous
370
    -3
390
F
  0
ENDTAB
  0
TABLE
  2
STYLE
  5
3
330
0
100
AcDbSymbolTable
 70
     2
  0
STYLE
  5
11
330
3
100
AcDbSymbolTableRecord
100
AcDbTextStyleTableRecord
  2
Standard
 70
     0
 40
0.0
 41
1.0
 50
0.0
 71
     0
 42
1.75
  3
txt
  4
bigfont
  0
STYLE
  5
73
330
3
100
AcDbSymbolTableRecord
100
AcDbTextStyleTableRecord
  2
SLDTEXTSTYLE0
 70
     0
 40
0.0
 41
0.7
 50
0.0
 71
     0
 42
1.75
  3
TXT
  4
bigfont
  0
ENDTAB
  0
TABLE
  2
VIEW
  5
6
330
0
100
AcDbSymbolTable
 70
     0
  0
ENDTAB
  0
TABLE
  2
UCS
  5
7
330
0
100
AcDbSymbolTable
 70
     0
  0
ENDTAB
  0
TABLE
  2
APPID
  5
9
330
0
100
AcDbSymbolTable
 70
     1
  0
APPID
  5
12
330
9
100
AcDbSymbolTableRecord
100
AcDbRegAppTableRecord
  2
ACAD
 70
     0
  0
ENDTAB
  0
TABLE
  2
DIMSTYLE
  5
A
330
0
100
AcDbSymbolTable
 70
     1
100
AcDbDimStyleTable
  0
DIMSTYLE
105
27
330
A
100
AcDbSymbolTableRecord
100
AcDbDimStyleTableRecord
  2
ISO-25
 70
     0
 41
2.5
 42
0.625
 43
3.75
 44
1.25
 73
     0
 74
     0
 77
     1
 78
     8
140
2.5
141
2.5
143
0.0393700787
147
0.625
171
     3
172
     1
178
     0
271
     2
272
     2
274
     3
278
    44
283
     0
284
     8
340
11
  0
ENDTAB
  0
TABLE
  2
BLOCK_RECORD
  5
1
330
0
100
AcDbSymbolTable
 70
     3
  0
BLOCK_RECORD
  5
1F
330
1
100
AcDbSymbolTableRecord
100
AcDbBlockTableRecord
  2
*Model_Space
340
22
  0
BLOCK_RECORD
  5
1B
330
1
100
AcDbSymbolTableRecord
100
AcDbBlockTableRecord
  2
*Paper_Space
340
1E
  0
BLOCK_RECORD
  5
23
330
1
100
AcDbSymbolTableRecord
100
AcDbBlockTableRecord
  2
*Paper_Space0
340
26
  0
BLOCK_RECORD
  5
FF
330
1
100
AcDbSymbolTableRecord
100
AcDbBlockTableRecord
  2
SW_CENTERMARKSYMBOL_0
340
0
102
{BLKREFS
331
10A
102
}
  0
BLOCK_RECORD
  5
10B
330
1
100
AcDbSymbolTableRecord
100
AcDbBlockTableRecord
  2
SW_CENTERMARKSYMBOL_1
340
0
102
{BLKREFS
331
116
102
}
  0
ENDTAB
  0
ENDSEC
  0
SECTION
  2
BLOCKS
  0
BLOCK
  5
20
330
1F
100
AcDbEntity
  8
0
100
AcDbBlockBegin
  2
*Model_Space
 70
     0
 10
0.0
 20
0.0
 30
0.0
  3
*Model_Space
  1

  0
ENDBLK
  5
21
330
1F
100
AcDbEntity
  8
0
100
AcDbBlockEnd
  0
BLOCK
  5
1C
330
1B
100
AcDbEntity
 67
     1
  8
0
100
AcDbBlockBegin
  2
*Paper_Space
 70
     0
 10
0.0
 20
0.0
 30
0.0
  3
*Paper_Space
  1

  0
ENDBLK
  5
1D
330
1B
100
AcDbEntity
 67
     1
  8
0
100
AcDbBlockEnd
  0
BLOCK
  5
24
330
23
100
AcDbEntity
  8
0
100
AcDbBlockBegin
  2
*Paper_Space0
 70
     0
 10
0.0
 20
0.0
 30
0.0
  3
*Paper_Space0
  1

  0
ENDBLK
  5
25
330
23
100
AcDbEntity
  8
0
100
AcDbBlockEnd
  0
BLOCK
  5
100
330
FF
100
AcDbEntity
  8
0
100
AcDbBlockBegin
  2
SW_CENTERMARKSYMBOL_0
 70
     0
 10
0.0
 20
0.0
 30
0.0
  3
SW_CENTERMARKSYMBOL_0
  1

  0
LINE
  5
102
330
FF
100
AcDbEntity
  8
0
  6
Continuous
 62
     0
370
    18
100
AcDbLine
 10
0.0
 20
0.0
 30
0.0
 11
0.0
 21
2.5
 31
0.0
  0
LINE
  5
103
330
FF
100
AcDbEntity
  8
0
  6
Continuous
 62
     0
370
    18
100
AcDbLine
 10
0.0
 20
0.0
 30
0.0
 11
-2.5
 21
0.0
 31
0.0
  0
LINE
  5
104
330
FF
100
AcDbEntity
  8
0
  6
Continuous
 62
     0
370
    18
100
AcDbLine
 10
0.0
 20
0.0
 30
0.0
 11
0.0
 21
-2.5
 31
0.0
  0
LINE
  5
105
330
FF
100
AcDbEntity
  8
0
  6
Continuous
 62
     0
370
    18
100
AcDbLine
 10
0.0
 20
0.0
 30
0.0
 11
2.5
 21
0.0
 31
0.0
  0
LINE
  5
106
330
FF
100
AcDbEntity
  8
0
  6
Continuous
 62
     0
370
    18
100
AcDbLine
 10
0.0
 20
5.0
 30
0.0
 11
0.0
 21
5.25
 31
0.0
  0
LINE
  5
107
330
FF
100
AcDbEntity
  8
0
  6
Continuous
 62
     0
370
    18
100
AcDbLine
 10
-5.0
 20
0.0
 30
0.0
 11
-5.25
 21
0.0
 31
0.0
  0
LINE
  5
108
330
FF
100
AcDbEntity
  8
0
  6
Continuous
 62
     0
370
    18
100
AcDbLine
 10
0.0
 20
-5.0
 30
0.0
 11
0.0
 21
-5.25
 31
0.0
  0
LINE
  5
109
330
FF
100
AcDbEntity
  8
0
  6
Continuous
 62
     0
370
    18
100
AcDbLine
 10
5.0
 20
0.0
 30
0.0
 11
5.25
 21
0.0
 31
0.0
  0
ENDBLK
  5
101
330
FF
100
AcDbEntity
  8
0
100
AcDbBlockEnd
  0
BLOCK
  5
10C
330
10B
100
AcDbEntity
  8
0
100
AcDbBlockBegin
  2
SW_CENTERMARKSYMBOL_1
 70
     0
 10
0.0
 20
0.0
 30
0.0
  3
SW_CENTERMARKSYMBOL_1
  1

  0
LINE
  5
10E
330
10B
100
AcDbEntity
  8
0
  6
Continuous
 62
     0
370
    18
100
AcDbLine
 10
0.0
 20
0.0
 30
0.0
 11
0.0
 21
2.5
 31
0.0
  0
LINE
  5
10F
330
10B
100
AcDbEntity
  8
0
  6
Continuous
 62
     0
370
    18
100
AcDbLine
 10
0.0
 20
0.0
 30
0.0
 11
-2.5
 21
0.0
 31
0.0
  0
LINE
  5
110
330
10B
100
AcDbEntity
  8
0
  6
Continuous
 62
     0
370
    18
100
AcDbLine
 10
0.0
 20
0.0
 30
0.0
 11
0.0
 21
-2.5
 31
0.0
  0
LINE
  5
111
330
10B
100
AcDbEntity
  8
0
  6
Continuous
 62
     0
370
    18
100
AcDbLine
 10
0.0
 20
0.0
 30
0.0
 11
2.5
 21
0.0
 31
0.0
  0
LINE
  5
112
330
10B
100
AcDbEntity
  8
0
  6
Continuous
 62
     0
370
    18
100
AcDbLine
 10
0.0
 20
5.0
 30
0.0
 11
0.0
 21
13.5
 31
0.0
  0
LINE
  5
113
330
10B
100
AcDbEntity
  8
0
  6
Continuous
 62
     0
370
    18
100
AcDbLine
 10
-5.0
 20
0.0
 30
0.0
 11
-13.5
 21
0.0
 31
0.0
  0
LINE
  5
114
330
10B
100
AcDbEntity
  8
0
  6
Continuous
 62
     0
370
    18
100
AcDbLine
 10
0.0
 20
-5.0
 30
0.0
 11
0.0
 21
-13.5
 31
0.0
  0
LINE
  5
115
330
10B
100
AcDbEntity
  8
0
  6
Continuous
 62
     0
370
    18
100
AcDbLine
 10
5.0
 20
0.0
 30
0.0
 11
13.5
 21
0.0
 31
0.0
  0
ENDBLK
  5
10D
330
10B
100
AcDbEntity
  8
0
100
AcDbBlockEnd
  0
ENDSEC
  0
SECTION
  2
ENTITIES
  0
MTEXT
  5
74
330
1F
100
AcDbEntity
  8
0
  6
Continuous
 62
     7
370
     0
100
AcDbMText
 10
100.9983867405
 20
67.4548637597
 30
0.0
 40
2.38125
 41
0.0
 71
     1
 72
     1
  1
エースニップル　HN-8409
  7
SLDTEXTSTYLE0
 73
     1
 44
1.0
  0
LINE
  5
75
330
1F
100
AcDbEntity
  8
0
  6
Continuous
 62
     7
370
    25
100
AcDbLine
 10
75.6204661804
 20
59.391202935
 30
0.0
 11
61.3168574534
 21
58.9442151623
 31
0.0
  0
LINE
  5
76
330
1F
100
AcDbEntity
  8
0
  6
Continuous
 62
     7
370
    25
100
AcDbLine
 10
61.3168574534
 20
38.3306907077
 30
0.0
 11
75.6204661804
 21
37.883702935
 31
0.0
  0
LINE
  5
77
330
1F
100
AcDbEntity
  8
0
  6
Continuous
 62
     7
370
    25
100
AcDbLine
 10
61.3168574534
 20
58.9442151623
 30
0.0
 11
58.6204661804
 21
57.387452935
 31
0.0
  0
LINE
  5
78
330
1F
100
AcDbEntity
  8
0
  6
Continuous
 62
     7
370
    25
100
AcDbLine
 10
58.6204661804
 20
39.887452935
 30
0.0
 11
61.3168574534
 21
38.3306907077
 31
0.0
  0
LINE
  5
79
330
1F
100
AcDbEntity
  8
0
  6
Continuous
 62
     7
370
    25
100
AcDbLine
 10
75.6204661804
 20
37.637452935
 30
0.0
 11
76.6029465527
 21
35.9357470128
 31
0.0
  0
LINE
  5
7A
330
1F
100
AcDbEntity
  8
0
  6
Continuous
 62
     7
370
    25
100
AcDbLine
 10
80.6379858082
 20
35.9357470128
 30
0.0
 11
81.6204661804
 21
37.637452935
 31
0.0
  0
LINE
  5
7B
330
1F
100
AcDbEntity
  8
0
  6
Continuous
 62
     7
370
    25
100
AcDbLine
 10
76.6029465527
 20
61.3391588572
 30
0.0
 11
75.6204661804
 21
59.637452935
 31
0.0
  0
LINE
  5
7C
330
1F
100
AcDbEntity
  8
0
  6
Continuous
 62
     7
370
    25
100
AcDbLine
 10
81.6204661804
 20
59.637452935
 30
0.0
 11
80.6379858082
 21
61.3391588572
 31
0.0
  0
LINE
  5
7D
330
1F
100
AcDbEntity
  8
0
  6
Continuous
 62
     7
370
    25
100
AcDbLine
 10
101.6204661804
 20
44.137452935
 30
0.0
 11
107.1824835477
 21
44.8327051059
 31
0.0
  0
LINE
  5
7E
330
1F
100
AcDbEntity
  8
0
  6
Continuous
 62
     7
370
    25
100
AcDbLine
 10
107.1824835477
 20
52.4422007641
 30
0.0
 11
101.6204661804
 21
53.137452935
 31
0.0
  0
LINE
  5
7F
330
1F
100
AcDbEntity
  8
0
  6
Continuous
 62
     7
370
    25
100
AcDbLine
 10
96.6204661804
 20
44.137452935
 30
0.0
 11
101.6204661804
 21
44.887452935
 31
0.0
  0
LINE
  5
80
330
1F
100
AcDbEntity
  8
0
  6
Continuous
 62
     7
370
    25
100
AcDbLine
 10
101.6204661804
 20
52.387452935
 30
0.0
 11
96.6204661804
 21
53.137452935
 31
0.0
  0
LINE
  5
81
330
1F
100
AcDbEntity
  8
0
  6
Continuous
 62
     7
370
    25
100
AcDbLine
 10
86.6204661804
 20
53.137452935
 30
0.0
 11
81.6204661804
 21
53.137452935
 31
0.0
  0
LINE
  5
82
330
1F
100
AcDbEntity
  8
0
  6
Continuous
 62
     7
370
    25
100
AcDbLine
 10
81.6204661804
 20
44.137452935
 30
0.0
 11
86.6204661804
 21
44.137452935
 31
0.0
  0
LINE
  5
83
330
1F
100
AcDbEntity
  8
0
  6
Continuous
 62
     7
370
    25
100
AcDbLine
 10
86.6204661804
 20
44.137452935
 30
0.0
 11
91.6204661804
 21
44.887452935
 31
0.0
  0
LINE
  5
84
330
1F
100
AcDbEntity
  8
0
  6
Continuous
 62
     7
370
    25
100
AcDbLine
 10
91.6204661804
 20
52.387452935
 30
0.0
 11
86.6204661804
 21
53.137452935
 31
0.0
  0
LINE
  5
85
330
1F
100
AcDbEntity
  8
0
  6
Continuous
 62
     7
370
    25
100
AcDbLine
 10
91.6204661804
 20
44.137452935
 30
0.0
 11
96.6204661804
 21
44.887452935
 31
0.0
  0
LINE
  5
86
330
1F
100
AcDbEntity
  8
0
  6
Continuous
 62
     7
370
    25
100
AcDbLine
 10
96.6204661804
 20
52.387452935
 30
0.0
 11
91.6204661804
 21
53.137452935
 31
0.0
  0
ARC
  5
87
330
1F
100
AcDbEntity
  8
0
  6
Continuous
 62
     7
370
    25
100
AcDbCircle
 10
107.1204661804
 20
45.3288440443
 30
0.0
 40
0.5
100
AcDbArc
 50
277.1250163489
 51
0.0
  0
ARC
  5
88
330
1F
100
AcDbEntity
  8
0
  6
Continuous
 62
     7
370
    25
100
AcDbCircle
 10
107.1204661804
 20
51.9460618257
 30
0.0
 40
0.5
100
AcDbArc
 50
0.0
 51
82.8749836511
  0
LINE
  5
89
330
1F
100
AcDbEntity
  8
0
  6
Continuous
 62
     7
370
    25
100
AcDbLine
 10
78.6204661804
 20
61.0391588572
 30
0.0
 11
78.5400814227
 21
61.3391588572
 31
0.0
  0
LINE
  5
8A
330
1F
100
AcDbEntity
  8
0
  6
Continuous
 62
     7
370
    25
100
AcDbLine
 10
78.7008509381
 20
61.3391588572
 30
0.0
 11
78.6204661804
 21
61.0391588572
 31
0.0
  0
LINE
  5
8B
330
1F
100
AcDbEntity
  8
0
  6
Continuous
 62
     7
370
    25
100
AcDbLine
 10
78.5400814227
 20
35.9357470128
 30
0.0
 11
78.6204661804
 21
36.2357470128
 31
0.0
  0
LINE
  5
8C
330
1F
100
AcDbEntity
  8
0
  6
Continuous
 62
     7
370
    25
100
AcDbLine
 10
78.6204661804
 20
36.2357470128
 30
0.0
 11
78.7008509381
 21
35.9357470128
 31
0.0
  0
SPLINE
  5
8D
330
1F
100
AcDbEntity
  8
0
  6
Continuous
 62
     7
370
    25
100
AcDbSpline
210
0.0
220
0.0
230
1.0
 70
     8
 71
     3
 72
    19
 73
    15
 74
     0
 42
0.000000001
 43
0.00000001
 40
0.0
 40
0.0
 40
0.0
 40
0.0
 40
0.1227280999764553
 40
0.239716523588393
 40
0.3518621792202463
 40
0.4632019818032239
 40
0.5202611541541643
 40
0.5794324380306665
 40
0.6405963441586369
 40
0.70529822908802
 40
0.7732361059084537
 40
0.844648929340316
 40
0.9200459817773698
 40
1.0
 40
1.0
 40
1.0
 40
1.0
 10
79.20508156503165
 20
49.5737510119263
 30
0.0
 10
79.20448642368386
 20
49.59083086261157
 30
0.0
 10
79.20332397421254
 20
49.62419178346397
 30
0.0
 10
79.19310656733239
 20
49.6722760270712
 30
0.0
 10
79.17691813940081
 20
49.71693069610025
 30
0.0
 10
79.15737066068759
 20
49.75094854617852
 30
0.0
 10
79.13814117832482
 20
49.77611115097017
 30
0.0
 10
79.12159805467775
 20
49.79443685295503
 30
0.0
 10
79.10284154080256
 20
49.81210470687746
 30
0.0
 10
79.08135716663281
 20
49.8284214101266
 30
0.0
 10
79.05788369284011
 20
49.84436469411347
 30
0.0
 10
79.0322918362711
 20
49.85978232430773
 30
0.0
 10
79.00421673364123
 20
49.87417908607063
 30
0.0
 10
78.98447351226424
 20
49.88294263068094
 30
0.0
 10
78.97431233426241
 20
49.88745293500322
 30
0.0
  0
SPLINE
  5
8E
330
1F
100
AcDbEntity
  8
0
  6
Continuous
 62
     7
370
    25
100
AcDbSpline
210
0.0
220
0.0
230
1.0
 70
     8
 71
     3
 72
    23
 73
    19
 74
     0
 42
0.000000001
 43
0.00000001
 40
0.0
 40
0.0
 40
0.0
 40
0.0
 40
0.0552698294993248
 40
0.1099567044850939
 40
0.1632335040550556
 40
0.2180575651623569
 40
0.2732775387226747
 40
0.330881045495497
 40
0.3904799376860887
 40
0.4536559730386418
 40
0.5189026226022312
 40
0.5833461108214767
 40
0.6485466930814432
 40
0.7150552190344911
 40
0.7825206438000537
 40
0.8523352944264511
 40
0.9249348997257085
 40
1.0
 40
1.0
 40
1.0
 40
1.0
 10
78.96980512272394
 20
49.27206831961861
 30
0.0
 10
78.97763846090233
 20
49.27224590364012
 30
0.0
 10
78.99322251569343
 20
49.27259919862856
 30
0.0
 10
79.01599012594883
 20
49.27705547821641
 30
0.0
 10
79.03806299141883
 20
49.28375036323011
 30
0.0
 10
79.05934095855548
 20
49.29296030015209
 30
0.0
 10
79.07970052013991
 20
49.30526517043211
 30
0.0
 10
79.0991666533669
 20
49.32003511389303
 30
0.0
 10
79.1180655904702
 20
49.33727725927834
 30
0.0
 10
79.1354931831738
 20
49.35744222963769
 30
0.0
 10
79.1519318658662
 20
49.37927296069067
 30
0.0
 10
79.1661424955432
 20
49.40297486587461
 30
0.0
 10
79.17818741576066
 20
49.42802517073829
 30
0.0
 10
79.18813908753073
 20
49.45444691081959
 30
0.0
 10
79.19562033389953
 20
49.48234593075335
 30
0.0
 10
79.20099320315323
 20
49.5115856219541
 30
0.0
 10
79.20435209624692
 20
49.54222327353265
 30
0.0
 10
79.2048357171656
 20
49.56312543429006
 30
0.0
 10
79.20508156503165
 20
49.5737510119263
 30
0.0
  0
SPLINE
  5
8F
330
1F
100
AcDbEntity
  8
0
  6
Continuous
 62
     7
370
    25
100
AcDbSpline
210
0.0
220
0.0
230
1.0
 70
     8
 71
     3
 72
    19
 73
    15
 74
     0
 42
0.000000001
 43
0.00000001
 40
0.0
 40
0.0
 40
0.0
 40
0.0
 40
0.1101423815503174
 40
0.2157418685830274
 40
0.3179605426392306
 40
0.4180517606815226
 40
0.5115631470355316
 40
0.5965727584443461
 40
0.6733290469034968
 40
0.7440491927238595
 40
0.8107168223002833
 40
0.8740854521098849
 40
0.9367096168966699
 40
1.0
 40
1.0
 40
1.0
 40
1.0
 10
78.72431233426241
 20
49.656683704234
 30
0.0
 10
78.72462862323101
 20
49.63812657470183
 30
0.0
 10
78.72524815562296
 20
49.60177771657424
 30
0.0
 10
78.73268940273358
 20
49.54867293709562
 30
0.0
 10
78.74309872855345
 20
49.49783138746399
 30
0.0
 10
78.75867490019492
 20
49.45041358338919
 30
0.0
 10
78.77737075189492
 20
49.40733486529093
 30
0.0
 10
78.79845169001752
 20
49.36975542993792
 30
0.0
 10
78.82233544705835
 20
49.33856589524725
 30
0.0
 10
78.84870857160655
 20
49.31368833694581
 30
0.0
 10
78.87732436099807
 20
49.29542909249389
 30
0.0
 10
78.90683728835889
 20
49.28172372103846
 30
0.0
 10
78.93793402156088
 20
49.27368907698565
 30
0.0
 10
78.95914401472879
 20
49.27261047438244
 30
0.0
 10
78.96980512272394
 20
49.27206831961861
 30
0.0
  0
LINE
  5
90
330
1F
100
AcDbEntity
  8
0
  6
Continuous
 62
     7
370
    25
100
AcDbLine
 10
78.5704661804
 20
49.6566837042
 30
0.0
 11
78.7243123343
 21
49.6566837042
 31
0.0
  0
SPLINE
  5
91
330
1F
100
AcDbEntity
  8
0
  6
Continuous
 62
     7
370
    25
100
AcDbSpline
210
0.0
220
0.0
230
1.0
 70
     8
 71
     3
 72
    23
 73
    19
 74
     0
 42
0.000000001
 43
0.00000001
 40
0.0
 40
0.0
 40
0.0
 40
0.0
 40
0.0669051223273616
 40
0.1334773340846825
 40
0.2010229080576287
 40
0.2712178684297488
 40
0.3428591616573978
 40
0.4138109980627169
 40
0.4855518488903453
 40
0.5598002749200529
 40
0.5998999649035781
 40
0.6436094423977958
 40
0.6919106424505659
 40
0.7447030291556902
 40
0.8015038302285953
 40
0.8628660266331954
 40
0.9293326711591618
 40
1.0
 40
1.0
 40
1.0
 40
1.0
 10
78.25315848810857
 20
49.19514524269553
 30
0.0
 10
78.26713479199111
 20
49.19580107456056
 30
0.0
 10
78.29501785561472
 20
49.19710947496258
 30
0.0
 10
78.33603943657477
 20
49.20709904058765
 30
0.0
 10
78.37556467894676
 20
49.22352930203741
 30
0.0
 10
78.41291354515081
 20
49.24653447243067
 30
0.0
 10
78.44754561316614
 20
49.27452530609849
 30
0.0
 10
78.47832503212268
 20
49.30723085336493
 30
0.0
 10
78.50397790291474
 20
49.34473134085376
 30
0.0
 10
78.5216363771505
 20
49.37946820203848
 30
0.0
 10
78.53340500761615
 20
49.41031120379346
 30
0.0
 10
78.54165695098114
 20
49.43665357777557
 30
0.0
 10
78.54825340828509
 20
49.46617075608272
 30
0.0
 10
78.55463416900875
 20
49.49850839141959
 30
0.0
 10
78.55998339387685
 20
49.53380286761456
 30
0.0
 10
78.56446357936612
 20
49.5720859827646
 30
0.0
 10
78.56804280021016
 20
49.6133731384587
 30
0.0
 10
78.5696420575445
 20
49.64195500926717
 30
0.0
 10
78.57046618041626
 20
49.656683704234
 30
0.0
  0
SPLINE
  5
92
330
1F
100
AcDbEntity
  8
0
  6
Continuous
 62
     7
370
    25
100
AcDbSpline
210
0.0
220
0.0
230
1.0
 70
     8
 71
     3
 72
    23
 73
    19
 74
     0
 42
0.000000001
 43
0.00000001
 40
0.0
 40
0.0
 40
0.0
 40
0.0
 40
0.0760618905628339
 40
0.1487324608035361
 40
0.2183745247439722
 40
0.2857225935927383
 40
0.3510576941824569
 40
0.414934915729319
 40
0.4784859417740854
 40
0.542169035281216
 40
0.6047501165431387
 40
0.6641185017301124
 40
0.7214996756099116
 40
0.7776159163852548
 40
0.8326661086975489
 40
0.8878580281135741
 40
0.9434676608977686
 40
1.0
 40
1.0
 40
1.0
 40
1.0
 10
77.93585079580087
 20
49.57705630038784
 30
0.0
 10
77.93611432591014
 20
49.56301889495205
 30
0.0
 10
77.93662963628903
 20
49.53556996042895
 30
0.0
 10
77.94138236531205
 20
49.49552053256526
 30
0.0
 10
77.94827397043794
 20
49.45740785545035
 30
0.0
 10
77.95905378079996
 20
49.42162086883869
 30
0.0
 10
77.97198594412434
 20
49.38767259966216
 30
0.0
 10
77.98891651939705
 20
49.3563208713681
 30
0.0
 10
78.00803686703281
 20
49.32664398187899
 30
0.0
 10
78.03027750874877
 20
49.29951132690469
 30
0.0
 10
78.0543172350735
 20
49.27504991173382
 30
0.0
 10
78.0798212423356
 20
49.25391254638103
 30
0.0
 10
78.10599874033855
 20
49.23560517051749
 30
0.0
 10
78.1334603971972
 20
49.22088909553647
 30
0.0
 10
78.16193683613409
 20
49.20924798951968
 30
0.0
 10
78.19153464471242
 20
49.20132799413676
 30
0.0
 10
78.22200459086429
 20
49.19581983554403
 30
0.0
 10
78.2427170481937
 20
49.19537133706309
 30
0.0
 10
78.25315848810857
 20
49.19514524269553
 30
0.0
  0
SPLINE
  5
93
330
1F
100
AcDbEntity
  8
0
  6
Continuous
 62
     7
370
    25
100
AcDbSpline
210
0.0
220
0.0
230
1.0
 70
     8
 71
     3
 72
    15
 73
    11
 74
     0
 42
0.000000001
 43
0.00000001
 40
0.0
 40
0.0
 40
0.0
 40
0.0
 40
0.1182713048357256
 40
0.2361775330837632
 40
0.355662932948509
 40
0.4759041646706825
 40
0.6001273417110832
 40
0.7286081161551193
 40
0.8613134756739422
 40
1.0
 40
1.0
 40
1.0
 40
1.0
 10
78.01698060349318
 20
49.8276572619263
 30
0.0
 10
78.01050560325653
 20
49.81925872912981
 30
0.0
 10
77.99757558963462
 20
49.80248758789522
 30
0.0
 10
77.98107489168986
 20
49.77515834599589
 30
0.0
 10
77.96677730940353
 20
49.74641625195915
 30
0.0
 10
77.95585572552511
 20
49.7156385344359
 30
0.0
 10
77.94660815661547
 20
49.68348934709846
 30
0.0
 10
77.9405565055587
 20
49.6494490477134
 30
0.0
 10
77.9364044321259
 20
49.6138179546655
 30
0.0
 10
77.93603803291487
 20
49.58948891317276
 30
0.0
 10
77.93585079580087
 20
49.57705630038784
 30
0.0
  0
SPLINE
  5
94
330
1F
100
AcDbEntity
  8
0
  6
Continuous
 62
     7
370
    25
100
AcDbSpline
210
0.0
220
0.0
230
1.0
 70
     8
 71
     3
 72
    15
 73
    11
 74
     0
 42
0.000000001
 43
0.00000001
 40
0.0
 40
0.0
 40
0.0
 40
0.0
 40
0.1497703860319679
 40
0.2913164099952444
 40
0.4259663731047425
 40
0.5521595739695284
 40
0.6715274135235927
 40
0.7861216286916589
 40
0.8953250730704446
 40
1.0
 40
1.0
 40
1.0
 40
1.0
 10
78.22431233426241
 20
49.94514524269553
 30
0.0
 10
78.21276275714727
 20
49.94163811779256
 30
0.0
 10
78.1902978264538
 20
49.93481645522488
 30
0.0
 10
78.15796626687886
 20
49.92320461320983
 30
0.0
 10
78.1283271012111
 20
49.90997535375107
 30
0.0
 10
78.10116290607768
 20
49.8957834000499
 30
0.0
 10
78.07620616216444
 20
49.88087835175444
 30
0.0
 10
78.05411678972126
 20
49.86420052669598
 30
0.0
 10
78.03392456020279
 20
49.84698517877571
 30
0.0
 10
78.0225482979427
 20
49.83400831305371
 30
0.0
 10
78.01698060349318
 20
49.8276572619263
 30
0.0
  0
LINE
  5
95
330
1F
100
AcDbEntity
  8
0
  6
Continuous
 62
     7
370
    25
100
AcDbLine
 10
78.2243123343
 20
50.0797606273
 30
0.0
 11
78.2243123343
 21
49.9451452427
 31
0.0
  0
SPLINE
  5
96
330
1F
100
AcDbEntity
  8
0
  6
Continuous
 62
     7
370
    25
100
AcDbSpline
210
0.0
220
0.0
230
1.0
 70
     8
 71
     3
 72
    23
 73
    19
 74
     0
 42
0.000000001
 43
0.00000001
 40
0.0
 40
0.0
 40
0.0
 40
0.0
 40
0.0655411703374033
 40
0.1289631677825933
 40
0.1903771361885609
 40
0.2500923616690527
 40
0.308548432459201
 40
0.3663979630552958
 40
0.42454218926668
 40
0.4831699964229055
 40
0.5422433998311199
 40
0.6017393520173299
 40
0.6625060022496068
 40
0.7248555134488469
 40
0.7891278292811811
 40
0.8563463998785099
 40
0.9262952349869055
 40
1.0
 40
1.0
 40
1.0
 40
1.0
 10
77.78200464195471
 20
49.57946014654168
 30
0.0
 10
77.78237673335121
 20
49.59549698952017
 30
0.0
 10
77.78310888514144
 20
49.62705214883592
 30
0.0
 10
77.78811399994
 20
49.67344221957292
 30
0.0
 10
77.7972554307562
 20
49.717722947872
 30
0.0
 10
77.80955684734165
 20
49.75995420409628
 30
0.0
 10
77.82515330823331
 20
49.80017350540781
 30
0.0
 10
77.8445756073853
 20
49.83825812191254
 30
0.0
 10
77.86742339397894
 20
49.87444236199259
 30
0.0
 10
77.89396636018175
 20
49.90838476962598
 30
0.0
 10
77.92365836293465
 20
49.94008129864294
 30
0.0
 10
77.95702651006366
 20
49.96868960902728
 30
0.0
 10
77.99345396888697
 20
49.99468666314532
 30
0.0
 10
78.03336385011498
 20
50.01737636545024
 30
0.0
 10
78.07624038894832
 20
50.03779220228561
 30
0.0
 10
78.12263260254046
 20
50.05458404084874
 30
0.0
 10
78.17212575482145
 20
50.06936357026429
 30
0.0
 10
78.20661621489681
 20
50.07623505494118
 30
0.0
 10
78.22431233426241
 20
50.07976062731092
 30
0.0
  0
SPLINE
  5
97
330
1F
100
AcDbEntity
  8
0
  6
Continuous
 62
     7
370
    25
100
AcDbSpline
210
0.0
220
0.0
230
1.0
 70
     8
 71
     3
 72
    19
 73
    15
 74
     0
 42
0.000000001
 43
0.00000001
 40
0.0
 40
0.0
 40
0.0
 40
0.0
 40
0.079641704194991
 40
0.158908613257856
 40
0.2395997983184508
 40
0.3224093988203483
 40
0.405827748173513
 40
0.4876442139503136
 40
0.5697199979738973
 40
0.6530646649976933
 40
0.7374573001733064
 40
0.8224924079539123
 40
0.9097550737466982
 40
1.0
 40
1.0
 40
1.0
 40
1.0
 10
78.26607916118549
 20
49.06052985808014
 30
0.0
 10
78.24507583018217
 20
49.06130062879166
 30
0.0
 10
78.20316801018674
 20
49.0628385429554
 30
0.0
 10
78.14123774414406
 20
49.07652917265845
 30
0.0
 10
78.08080457008181
 20
49.09787577695867
 30
0.0
 10
78.02276391115682
 20
49.1276597206591
 30
0.0
 10
77.96857252079718
 20
49.16451028304875
 30
0.0
 10
77.92030593676064
 20
49.20859442858814
 30
0.0
 10
77.8785378305133
 20
49.25884047873073
 30
0.0
 10
77.84375212425675
 20
49.31491958310157
 30
0.0
 10
77.81592506017942
 20
49.37565016224988
 30
0.0
 10
77.79661611453547
 20
49.44061258136957
 30
0.0
 10
77.78403887970772
 20
49.50886220920607
 30
0.0
 10
77.78269027373577
 20
49.55566539126188
 30
0.0
 10
77.78200464195471
 20
49.57946014654168
 30
0.0
  0
SPLINE
  5
98
330
1F
100
AcDbEntity
  8
0
  6
Continuous
 62
     7
370
    25
100
AcDbSpline
210
0.0
220
0.0
230
1.0
 70
     8
 71
     3
 72
    15
 73
    11
 74
     0
 42
0.000000001
 43
0.00000001
 40
0.0
 40
0.0
 40
0.0
 40
0.0
 40
0.1281455049994643
 40
0.2541925386280419
 40
0.3781411397135888
 40
0.5013808330744057
 40
0.6239569784447038
 40
0.7470758858273289
 40
0.8728647202442611
 40
1.0
 40
1.0
 40
1.0
 40
1.0
 10
78.53260560349318
 20
49.15007312731091
 30
0.0
 10
78.52272476306818
 20
49.14285247112336
 30
0.0
 10
78.50312488782151
 20
49.12852940199282
 30
0.0
 10
78.47159389125594
 20
49.1108999533289
 30
0.0
 10
78.43981779202043
 20
49.09472374590781
 30
0.0
 10
78.4065471948766
 20
49.0828185254977
 30
0.0
 10
78.37285081025608
 20
49.07254479205965
 30
0.0
 10
78.33800706389016
 20
49.06578501754731
 30
0.0
 10
78.3023470008626
 20
49.06144551270161
 30
0.0
 10
78.27821127005359
 20
49.06083615759101
 30
0.0
 10
78.26607916118549
 20
49.06052985808014
 30
0.0
  0
SPLINE
  5
99
330
1F
100
AcDbEntity
  8
0
  6
Continuous
 62
     7
370
    25
100
AcDbSpline
210
0.0
220
0.0
230
1.0
 70
     8
 71
     3
 72
    11
 73
     7
 74
     0
 42
0.000000001
 43
0.00000001
 40
0.0
 40
0.0
 40
0.0
 40
0.0
 40
0.253879600326656
 40
0.5030089172783633
 40
0.7502910806899731
 40
1.0
 40
1.0
 40
1.0
 40
1.0
 10
78.66061041118549
 20
49.31263322346476
 30
0.0
 10
78.65290548052485
 20
49.29667675721905
 30
0.0
 10
78.6376397844062
 20
49.2650623825331
 30
0.0
 10
78.60770160261309
 20
49.22196929844757
 30
0.0
 10
78.57313459660428
 20
49.18285020900888
 30
0.0
 10
78.54615917392704
 20
49.16103432943582
 30
0.0
 10
78.53260560349318
 20
49.15007312731091
 30
0.0
  0
SPLINE
  5
9A
330
1F
100
AcDbEntity
  8
0
  6
Continuous
 62
     7
370
    25
100
AcDbSpline
210
0.0
220
0.0
230
1.0
 70
     8
 71
     3
 72
    15
 73
    11
 74
     0
 42
0.000000001
 43
0.00000001
 40
0.0
 40
0.0
 40
0.0
 40
0.0
 40
0.1280675485958904
 40
0.2506083188676684
 40
0.3706301659145029
 40
0.4900722467299488
 40
0.6103747641546199
 40
0.7343130699115256
 40
0.8632165042449895
 40
1.0
 40
1.0
 40
1.0
 40
1.0
 10
78.96920416118549
 20
49.13745293500322
 30
0.0
 10
78.95334410631166
 20
49.13795161688054
 30
0.0
 10
78.9223084401132
 20
49.13892745992816
 30
0.0
 10
78.87699922705397
 20
49.14721333374059
 30
0.0
 10
78.8342956840759
 20
49.16115744640183
 30
0.0
 10
78.79401804316582
 20
49.1804730589352
 30
0.0
 10
78.75642168324164
 20
49.20547658046675
 30
0.0
 10
78.72142201572998
 20
49.23576487913403
 30
0.0
 10
78.6888638051036
 20
49.27155173418067
 30
0.0
 10
78.67021260239981
 20
49.2986712790478
 30
0.0
 10
78.66061041118549
 20
49.31263322346476
 30
0.0
  0
SPLINE
  5
9B
330
1F
100
AcDbEntity
  8
0
  6
Continuous
 62
     7
370
    25
100
AcDbSpline
210
0.0
220
0.0
230
1.0
 70
     8
 71
     3
 72
    19
 73
    15
 74
     0
 42
0.000000001
 43
0.00000001
 40
0.0
 40
0.0
 40
0.0
 40
0.0
 40
0.0902542493426766
 40
0.1785397915286845
 40
0.2660930338538198
 40
0.3546309779571733
 40
0.4418861533505626
 40
0.5257469151636484
 40
0.6081136336036366
 40
0.6901972728278825
 40
0.770821484330335
 40
0.8483261812554109
 40
0.9240117400247433
 40
1.0
 40
1.0
 40
1.0
 40
1.0
 10
79.3589277188778
 20
49.57555389654169
 30
0.0
 10
79.35833662020138
 20
49.55597557850951
 30
0.0
 10
79.35716731642646
 20
49.51724600239088
 30
0.0
 10
79.34648970079257
 20
49.46034755369781
 30
0.0
 10
79.32959321549791
 20
49.40547891693976
 30
0.0
 10
79.3062473324392
 20
49.35324066787562
 30
0.0
 10
79.27745276965545
 20
49.30471848247722
 30
0.0
 10
79.24318216812912
 20
49.26154583101417
 30
0.0
 10
79.20409675320597
 20
49.22430789781248
 30
0.0
 10
79.1609256542123
 20
49.19306745024386
 30
0.0
 10
79.11478757876075
 20
49.1686067363637
 30
0.0
 10
79.0673017971262
 20
49.15056971915811
 30
0.0
 10
79.01858095224523
 20
49.13958899873012
 30
0.0
 10
78.98568497545587
 20
49.1381659029543
 30
0.0
 10
78.96920416118549
 20
49.13745293500322
 30
0.0
  0
SPLINE
  5
9C
330
1F
100
AcDbEntity
  8
0
  6
Continuous
 62
     7
370
    25
100
AcDbSpline
210
0.0
220
0.0
230
1.0
 70
     8
 71
     3
 72
    23
 73
    19
 74
     0
 42
0.000000001
 43
0.00000001
 40
0.0
 40
0.0
 40
0.0
 40
0.0
 40
0.0726253460834355
 40
0.1419766113262345
 40
0.2089849284189386
 40
0.2739568703644447
 40
0.336889347396841
 40
0.3987449534945902
 40
0.4601158852788617
 40
0.5208249225900291
 40
0.5809944586324857
 40
0.6401519276014648
 40
0.6986224507562546
 40
0.7572710809271643
 40
0.8164266940046602
 40
0.8762540482034705
 40
0.9371652930625374
 40
1.0
 40
1.0
 40
1.0
 40
1.0
 10
78.97431233426241
 20
50.02206831961861
 30
0.0
 10
78.98941197025187
 20
50.01842136932675
 30
0.0
 10
79.01893052356213
 20
50.01129187980228
 30
0.0
 10
79.06110506392527
 20
49.99642149117275
 30
0.0
 10
79.1010151445213
 20
49.98022181037506
 30
0.0
 10
79.13791346181932
 20
49.96076933699017
 30
0.0
 10
79.17254156299047
 20
49.93955129946469
 30
0.0
 10
79.2041140449054
 20
49.9152415616636
 30
0.0
 10
79.23343388724845
 20
49.88896168056392
 30
0.0
 10
79.25945384620154
 20
49.85989384514887
 30
0.0
 10
79.28301573014726
 20
49.8294101330171
 30
0.0
 10
79.30310504043685
 20
49.79708101026679
 30
0.0
 10
79.32038682023591
 20
49.76355691297939
 30
0.0
 10
79.33462406246822
 20
49.72860557028713
 30
0.0
 10
79.34534928689655
 20
49.69212292527627
 30
0.0
 10
79.35313077500689
 20
49.65443880099593
 30
0.0
 10
79.35818410967022
 20
49.61545444380393
 30
0.0
 10
79.35867729385008
 20
49.58899119069039
 30
0.0
 10
79.3589277188778
 20
49.57555389654169
 30
0.0
  0
LINE
  5
9D
330
1F
100
AcDbEntity
  8
0
  6
Continuous
 62
     7
370
    25
100
AcDbLine
 10
78.9743123343
 20
49.887452935
 30
0.0
 11
78.9743123343
 21
50.0220683196
 31
0.0
  0
LINE
  5
9E
330
1F
100
AcDbEntity
  8
0
  6
Continuous
 62
     7
370
    25
100
AcDbLine
 10
79.3589277189
 20
47.6000523345
 30
0.0
 11
79.2774974304
 21
47.4963864691
 31
0.0
  0
LINE
  5
9F
330
1F
100
AcDbEntity
  8
0
  6
Continuous
 62
     7
370
    25
100
AcDbLine
 10
78.6744325266
 20
48.0477686807
 30
0.0
 11
79.3589277189
 21
47.6000523345
 31
0.0
  0
SPLINE
  5
A0
330
1F
100
AcDbEntity
  8
0
  6
Continuous
 62
     7
370
    25
100
AcDbSpline
210
0.0
220
0.0
230
1.0
 70
     8
 71
     3
 72
    19
 73
    15
 74
     0
 42
0.000000001
 43
0.00000001
 40
0.0
 40
0.0
 40
0.0
 40
0.0
 40
0.0978059775289525
 40
0.1996122522918967
 40
0.3052960258330042
 40
0.4158173591641855
 40
0.4742405666184931
 40
0.5372869128296535
 40
0.6033858352934857
 40
0.6743111580696057
 40
0.7495304673574823
 40
0.828608314269512
 40
0.9120427387714449
 40
1.0
 40
1.0
 40
1.0
 40
1.0
 10
78.23873541118549
 20
48.21543694990015
 30
0.0
 10
78.25417746514881
 20
48.21489332919965
 30
0.0
 10
78.28569315825378
 20
48.21378385352995
 30
0.0
 10
78.33356263231617
 20
48.20716263055696
 30
0.0
 10
78.38235144549847
 20
48.19501849865792
 30
0.0
 10
78.42371101114449
 20
48.18187589368837
 30
0.0
 10
78.45796422494969
 20
48.16883446224334
 30
0.0
 10
78.48501308305674
 20
48.15674214692662
 30
0.0
 10
78.51357754573402
 20
48.14322146498714
 30
0.0
 10
78.54311714523962
 20
48.12737334286792
 30
0.0
 10
78.57447589191254
 20
48.11057305446823
 30
0.0
 10
78.60649247562922
 20
48.09094841111988
 30
0.0
 10
78.64033624088886
 20
48.07046979423955
 30
0.0
 10
78.66286889409056
 20
48.05546768157099
 30
0.0
 10
78.67443252657011
 20
48.04776868066938
 30
0.0
  0
SPLINE
  5
A1
330
1F
100
AcDbEntity
  8
0
  6
Continuous
 62
     7
370
    25
100
AcDbSpline
210
0.0
220
0.0
230
1.0
 70
     8
 71
     3
 72
    19
 73
    15
 74
     0
 42
0.000000001
 43
0.00000001
 40
0.0
 40
0.0
 40
0.0
 40
0.0
 40
0.0843261511037431
 40
0.1670353409858404
 40
0.2495407139852791
 40
0.3327066655796642
 40
0.4158726171740491
 40
0.4977774155681173
 40
0.5803136056784763
 40
0.6645325781316562
 40
0.7495711764063213
 40
0.8324741628544072
 40
0.9156738488962566
 40
0.9999999999999999
 40
0.9999999999999999
 40
0.9999999999999999
 40
0.9999999999999999
 10
77.78200464195471
 20
47.76111002682322
 30
0.0
 10
77.78265958561988
 20
47.78129433099496
 30
0.0
 10
77.7839569143489
 20
47.82127590356478
 30
0.0
 10
77.79551376905174
 20
47.88008990131313
 30
0.0
 10
77.8142452929659
 20
47.93660283853147
 30
0.0
 10
77.84005175701343
 20
47.9904174762369
 30
0.0
 10
77.87264671044493
 20
48.04027218521875
 30
0.0
 10
77.91189241383307
 20
48.0848606186423
 30
0.0
 10
77.95692149208247
 20
48.12402764398384
 30
0.0
 10
78.00787207792366
 20
48.15645101132377
 30
0.0
 10
78.06226921916146
 20
48.18287614370767
 30
0.0
 10
78.11950682790611
 20
48.20151417170459
 30
0.0
 10
78.17843297456857
 20
48.21356743305998
 30
0.0
 10
78.21854469354443
 20
48.21481099034091
 30
0.0
 10
78.23873541118549
 20
48.21543694990015
 30
0.0
  0
SPLINE
  5
A2
330
1F
100
AcDbEntity
  8
0
  6
Continuous
 62
     7
370
    25
100
AcDbSpline
210
0.0
220
0.0
230
1.0
 70
     8
 71
     3
 72
    19
 73
    15
 74
     0
 42
0.000000001
 43
0.00000001
 40
0.0
 40
0.0
 40
0.0
 40
0.0
 40
0.0859901205637197
 40
0.1691084375726415
 40
0.2505285789581879
 40
0.332255696176845
 40
0.4135763652356401
 40
0.4941261456201216
 40
0.5763059341204168
 40
0.660712671904547
 40
0.7461272722239101
 40
0.830014985960974
 40
0.9144197259288509
 40
1.0
 40
1.0
 40
1.0
 40
1.0
 10
78.24143973810857
 20
47.29236002682322
 30
0.0
 10
78.22046091482244
 20
47.29314282482636
 30
0.0
 10
78.17920389593736
 20
47.29468227780512
 30
0.0
 10
78.11886214679562
 20
47.30588884163839
 30
0.0
 10
78.06183725157477
 20
47.32522886693456
 30
0.0
 10
78.0079051118518
 20
47.35110350161491
 30
0.0
 10
77.95863488638608
 20
47.38467380556758
 30
0.0
 10
77.91410781435579
 20
47.42445646142307
 30
0.0
 10
77.87529592995438
 20
47.47082752649754
 30
0.0
 10
77.84200083109663
 20
47.52268892373371
 30
0.0
 10
77.81554791697893
 20
47.57881906153072
 30
0.0
 10
77.79599073763787
 20
47.63767334705658
 30
0.0
 10
77.78430482595797
 20
47.69874872563828
 30
0.0
 10
77.78277489670593
 20
47.74022731115278
 30
0.0
 10
77.78200464195471
 20
47.76111002682322
 30
0.0
  0
SPLINE
  5
A3
330
1F
100
AcDbEntity
  8
0
  6
Continuous
 62
     7
370
    25
100
AcDbSpline
210
0.0
220
0.0
230
1.0
 70
     8
 71
     3
 72
    23
 73
    19
 74
     0
 42
0.000000001
 43
0.00000001
 40
0.0
 40
0.0
 40
0.0
 40
0.0
 40
0.0652308037420297
 40
0.128404896003223
 40
0.1900670715964782
 40
0.2509433657682801
 40
0.3115458328521434
 40
0.3728628021568294
 40
0.4350236738562386
 40
0.4990717247070431
 40
0.5630910750496624
 40
0.6255101063303751
 40
0.6866800359296492
 40
0.7472825030135124
 40
0.8085634952159588
 40
0.8707421035159856
 40
0.9343409515059125
 40
1.0
 40
1.0
 40
1.0
 40
1.0
 10
78.68585079580087
 20
47.73737204605399
 30
0.0
 10
78.68544103364555
 20
47.72212669048178
 30
0.0
 10
78.68463442903663
 20
47.69211666171495
 30
0.0
 10
78.67842706445441
 20
47.64805660364038
 30
0.0
 10
78.66864487363
 20
47.6057184882233
 30
0.0
 10
78.6543853353665
 20
47.5652777972567
 30
0.0
 10
78.63617004063978
 20
47.52658937645974
 30
0.0
 10
78.61433909623388
 20
47.48943120669894
 30
0.0
 10
78.58776523322383
 20
47.45450177379627
 30
0.0
 10
78.55808025217361
 20
47.42135126841975
 30
0.0
 10
78.52520154453282
 20
47.39125394096563
 30
0.0
 10
78.49031525737308
 20
47.3646070600124
 30
0.0
 10
78.45345773694528
 20
47.34222414926921
 30
0.0
 10
78.4146476515453
 20
47.32406389714868
 30
0.0
 10
78.37394482601935
 20
47.30996180632101
 30
0.0
 10
78.33140133766717
 20
47.29968138701661
 30
0.0
 10
78.28698784989855
 20
47.29360441866525
 30
0.0
 10
78.25678291764162
 20
47.29277920835877
 30
0.0
 10
78.24143973810857
 20
47.29236002682322
 30
0.0
  0
SPLINE
  5
A4
330
1F
100
AcDbEntity
  8
0
  6
Continuous
 62
     7
370
    25
100
AcDbSpline
210
0.0
220
0.0
230
1.0
 70
     8
 71
     3
 72
     9
 73
     5
 74
     0
 42
0.000000001
 43
0.00000001
 40
0.0
 40
0.0
 40
0.0
 40
0.0
 40
0.5126593363417812
 40
1.0
 40
1.0
 40
1.0
 40
1.0
 10
78.6714277188778
 20
47.89272060374631
 30
0.0
 10
78.67563365915791
 20
47.86633334218202
 30
0.0
 10
78.68383782122413
 20
47.81486200499234
 30
0.0
 10
78.68519122641632
 20
47.76276233419617
 30
0.0
 10
78.68585079580087
 20
47.73737204605399
 30
0.0
  0
LINE
  5
A5
330
1F
100
AcDbEntity
  8
0
  6
Continuous
 62
     7
370
    25
100
AcDbLine
 10
79.2774974304
 20
47.4963864691
 30
0.0
 11
78.6714277189
 21
47.8927206037
 31
0.0
  0
LINE
  5
A6
330
1F
100
AcDbEntity
  8
0
  6
Continuous
 62
     7
370
    25
100
AcDbLine
 10
79.3204661804
 20
48.82978539
 30
0.0
 11
79.3204661804
 21
48.55244164
 31
0.0
  0
LINE
  5
A7
330
1F
100
AcDbEntity
  8
0
  6
Continuous
 62
     7
370
    25
100
AcDbLine
 10
79.1666200266
 20
48.9178262554
 30
0.0
 11
79.3204661804
 21
48.82978539
 31
0.0
  0
LINE
  5
A8
330
1F
100
AcDbEntity
  8
0
  6
Continuous
 62
     7
370
    25
100
AcDbLine
 10
79.1666200266
 20
48.6870570246
 30
0.0
 11
79.1666200266
 21
48.9178262554
 31
0.0
  0
LINE
  5
A9
330
1F
100
AcDbEntity
  8
0
  6
Continuous
 62
     7
370
    25
100
AcDbLine
 10
77.8204661804
 20
48.6870570246
 30
0.0
 11
79.1666200266
 21
48.6870570246
 31
0.0
  0
LINE
  5
AA
330
1F
100
AcDbEntity
  8
0
  6
Continuous
 62
     7
370
    25
100
AcDbLine
 10
79.3204661804
 20
48.55244164
 30
0.0
 11
77.8204661804
 21
48.55244164
 31
0.0
  0
LINE
  5
AB
330
1F
100
AcDbEntity
  8
0
  6
Continuous
 62
     7
370
    25
100
AcDbLine
 10
78.7008509381
 20
54.9883058961
 30
0.0
 11
80.6379858082
 21
54.9883058961
 31
0.0
  0
SPLINE
  5
AC
330
1F
100
AcDbEntity
  8
0
  6
Continuous
 62
     7
370
    25
100
AcDbSpline
210
0.0
220
0.0
230
1.0
 70
     8
 71
     3
 72
    12
 73
     8
 74
     0
 42
0.000000001
 43
0.00000001
 40
0.0
 40
0.0
 40
0.0
 40
0.0
 40
0.2499999999999999
 40
0.2499999999999999
 40
0.4999999999999999
 40
0.4999999999999999
 40
1.0
 40
1.0
 40
1.0
 40
1.0
 10
81.62046618041626
 20
48.63745293500322
 30
0.0
 10
81.62046618041626
 20
49.17498655790817
 30
0.0
 10
81.5975219858583
 20
49.7153533017397
 30
0.0
 10
81.50666528498513
 20
50.79644508655686
 30
0.0
 10
81.43939667255519
 20
51.33126320529887
 30
0.0
 10
81.18127702671283
 20
52.92094883989564
 30
0.0
 10
80.93450033911259
 20
53.96114943053496
 30
0.0
 10
80.6379858081688
 20
54.98830589608912
 30
0.0
  0
SPLINE
  5
AD
330
1F
100
AcDbEntity
  8
0
  6
Continuous
 62
     7
370
    25
100
AcDbSpline
210
0.0
220
0.0
230
1.0
 70
     8
 71
     3
 72
    10
 73
     6
 74
     0
 42
0.000000001
 43
0.00000001
 40
0.0
 40
0.0
 40
0.0
 40
0.0
 40
0.5
 40
0.5
 40
1.0
 40
1.0
 40
1.0
 40
1.0
 10
80.63798580816884
 20
42.28659997391733
 30
0.0
 10
80.93646836649239
 20
43.32057388629641
 30
0.0
 10
81.18632927986681
 20
44.37797592555655
 30
0.0
 10
81.52805206237737
 20
46.49690298573299
 30
0.0
 10
81.62046618041626
 20
47.56317035752508
 30
0.0
 10
81.62046618041626
 20
48.63745293500322
 30
0.0
  0
LINE
  5
AE
330
1F
100
AcDbEntity
  8
0
  6
Continuous
 62
     7
370
    25
100
AcDbLine
 10
78.7008509381
 20
42.2865999739
 30
0.0
 11
80.6379858082
 21
42.2865999739
 31
0.0
  0
SPLINE
  5
AF
330
1F
100
AcDbEntity
  8
0
  6
Continuous
 62
     7
370
    25
100
AcDbSpline
210
0.0
220
0.0
230
1.0
 70
     8
 71
     3
 72
     8
 73
     4
 74
     0
 42
0.000000001
 43
0.00000001
 40
0.0
 40
0.0
 40
0.0
 40
0.0
 40
1.0
 40
1.0
 40
1.0
 40
1.0
 10
78.70085093814559
 20
42.28659997391735
 30
0.0
 10
78.6730178845897
 20
42.49434871391814
 30
0.0
 10
78.6461968968194
 20
42.70218736039115
 30
0.0
 10
78.62046618041626
 20
42.91012286069895
 30
0.0
  0
SPLINE
  5
B0
330
1F
100
AcDbEntity
  8
0
  6
Continuous
 62
     7
370
    25
100
AcDbSpline
210
0.0
220
0.0
230
1.0
 70
     8
 71
     3
 72
     8
 73
     4
 74
     0
 42
0.000000001
 43
0.00000001
 40
0.0
 40
0.0
 40
0.0
 40
0.0
 40
1.0
 40
1.0
 40
1.0
 40
1.0
 10
78.62046618041626
 20
42.91012286069895
 30
0.0
 10
78.59472568984664
 20
42.70210837323174
 30
0.0
 10
78.56790417019722
 20
42.49427178854658
 30
0.0
 10
78.54008142268692
 20
42.28659997391734
 30
0.0
  0
LINE
  5
B1
330
1F
100
AcDbEntity
  8
0
  6
Continuous
 62
     7
370
    25
100
AcDbLine
 10
76.6029465527
 20
42.2865999739
 30
0.0
 11
78.5400814227
 21
42.2865999739
 31
0.0
  0
SPLINE
  5
B2
330
1F
100
AcDbEntity
  8
0
  6
Continuous
 62
     7
370
    25
100
AcDbSpline
210
0.0
220
0.0
230
1.0
 70
     8
 71
     3
 72
    10
 73
     6
 74
     0
 42
0.000000001
 43
0.00000001
 40
0.0
 40
0.0
 40
0.0
 40
0.0
 40
0.5
 40
0.5
 40
1.0
 40
1.0
 40
1.0
 40
1.0
 10
76.60294655266368
 20
42.28659997391733
 30
0.0
 10
76.30446399434013
 20
43.32057388629641
 30
0.0
 10
76.0546030809657
 20
44.37797592555655
 30
0.0
 10
75.71288029845515
 20
46.49690298573299
 30
0.0
 10
75.62046618041626
 20
47.56317035752508
 30
0.0
 10
75.62046618041626
 20
48.63745293500322
 30
0.0
  0
SPLINE
  5
B3
330
1F
100
AcDbEntity
  8
0
  6
Continuous
 62
     7
370
    25
100
AcDbSpline
210
0.0
220
0.0
230
1.0
 70
     8
 71
     3
 72
    12
 73
     8
 74
     0
 42
0.000000001
 43
0.00000001
 40
0.0
 40
0.0
 40
0.0
 40
0.0
 40
0.2499999999999999
 40
0.2499999999999999
 40
0.4999999999999999
 40
0.4999999999999999
 40
1.0
 40
1.0
 40
1.0
 40
1.0
 10
75.62046618041626
 20
48.63745293500322
 30
0.0
 10
75.62046618041626
 20
49.17498655790817
 30
0.0
 10
75.64341037497422
 20
49.7153533017397
 30
0.0
 10
75.73426707584738
 20
50.79644508655686
 30
0.0
 10
75.80153568827733
 20
51.33126320529887
 30
0.0
 10
76.05965533411968
 20
52.92094883989564
 30
0.0
 10
76.30643202171993
 20
53.96114943053496
 30
0.0
 10
76.60294655266371
 20
54.98830589608912
 30
0.0
  0
LINE
  5
B4
330
1F
100
AcDbEntity
  8
0
  6
Continuous
 62
     7
370
    25
100
AcDbLine
 10
76.6029465527
 20
54.9883058961
 30
0.0
 11
78.5400814227
 21
54.9883058961
 31
0.0
  0
SPLINE
  5
B5
330
1F
100
AcDbEntity
  8
0
  6
Continuous
 62
     7
370
    25
100
AcDbSpline
210
0.0
220
0.0
230
1.0
 70
     8
 71
     3
 72
     8
 73
     4
 74
     0
 42
0.000000001
 43
0.00000001
 40
0.0
 40
0.0
 40
0.0
 40
0.0
 40
1.0
 40
1.0
 40
1.0
 40
1.0
 10
78.54008142268692
 20
54.98830589608912
 30
0.0
 10
78.56791447624282
 20
54.78055715608832
 30
0.0
 10
78.59473546401311
 20
54.57271850961531
 30
0.0
 10
78.62046618041626
 20
54.3647830093075
 30
0.0
  0
SPLINE
  5
B6
330
1F
100
AcDbEntity
  8
0
  6
Continuous
 62
     7
370
    25
100
AcDbSpline
210
0.0
220
0.0
230
1.0
 70
     8
 71
     3
 72
     8
 73
     4
 74
     0
 42
0.000000001
 43
0.00000001
 40
0.0
 40
0.0
 40
0.0
 40
0.0
 40
1.0
 40
1.0
 40
1.0
 40
1.0
 10
78.62046618041626
 20
54.3647830093075
 30
0.0
 10
78.64620667098588
 20
54.57279749677471
 30
0.0
 10
78.67302819063529
 20
54.78063408145987
 30
0.0
 10
78.70085093814559
 20
54.98830589608911
 30
0.0
  0
LINE
  5
B7
330
1F
100
AcDbEntity
  8
0
  6
Continuous
 62
     7
370
    25
100
AcDbLine
 10
77.8204661804
 20
48.55244164
 30
0.0
 11
77.8204661804
 21
48.6870570246
 31
0.0
  0
SPLINE
  5
B8
330
1F
100
AcDbEntity
  8
0
  6
Continuous
 62
     7
370
    25
100
AcDbSpline
210
0.0
220
0.0
230
1.0
 70
     8
 71
     3
 72
    12
 73
     8
 74
     0
 42
0.000000001
 43
0.00000001
 40
0.0
 40
0.0
 40
0.0
 40
0.0
 40
0.25
 40
0.25
 40
0.5
 40
0.5
 40
1.0
 40
1.0
 40
1.0
 40
1.0
 10
81.62046618041627
 20
39.1111734933744
 30
0.0
 10
81.62046618041627
 20
39.38066138760145
 30
0.0
 10
81.5972440260891
 20
39.65135826876848
 30
0.0
 10
81.50737687622835
 20
40.18685309970078
 30
0.0
 10
81.44081828714066
 20
40.45280950305271
 30
0.0
 10
81.18410881301898
 20
41.24595510649439
 30
0.0
 10
80.93714613999657
 20
41.76843907958278
 30
0.0
 10
80.63798580816898
 20
42.28659997391735
 30
0.0
  0
SPLINE
  5
B9
330
1F
100
AcDbEntity
  8
0
  6
Continuous
 62
     7
370
    25
100
AcDbSpline
210
0.0
220
0.0
230
1.0
 70
     8
 71
     3
 72
    10
 73
     6
 74
     0
 42
0.000000001
 43
0.00000001
 40
0.0
 40
0.0
 40
0.0
 40
0.0
 40
0.5
 40
0.5
 40
1.0
 40
1.0
 40
1.0
 40
1.0
 10
80.63798580816913
 20
35.93574701283144
 30
0.0
 10
80.93789505978944
 20
36.45520507429775
 30
0.0
 10
81.18497571915536
 20
36.97845747649422
 30
0.0
 10
81.52683053318775
 20
38.0359014853896
 30
0.0
 10
81.62046618041627
 20
38.570174863814
 30
0.0
 10
81.62046618041627
 20
39.1111734933744
 30
0.0
  0
LINE
  5
BA
330
1F
100
AcDbEntity
  8
0
  6
Continuous
 62
     7
370
    25
100
AcDbLine
 10
78.7008509381
 20
35.9357470128
 30
0.0
 11
80.6379858082
 21
35.9357470128
 31
0.0
  0
SPLINE
  5
BB
330
1F
100
AcDbEntity
  8
0
  6
Continuous
 62
     7
370
    25
100
AcDbSpline
210
0.0
220
0.0
230
1.0
 70
     8
 71
     3
 72
     8
 73
     4
 74
     0
 42
0.000000001
 43
0.00000001
 40
0.0
 40
0.0
 40
0.0
 40
0.0
 40
1.0
 40
1.0
 40
1.0
 40
1.0
 10
78.70085093814559
 20
35.93574701283146
 30
0.0
 10
78.67301926508848
 20
36.03961623074022
 30
0.0
 10
78.64619820522243
 20
36.14353541932395
 30
0.0
 10
78.62046618041626
 20
36.24750845622226
 30
0.0
  0
SPLINE
  5
BC
330
1F
100
AcDbEntity
  8
0
  6
Continuous
 62
     7
370
    25
100
AcDbSpline
210
0.0
220
0.0
230
1.0
 70
     8
 71
     3
 72
     8
 73
     4
 74
     0
 42
0.000000001
 43
0.00000001
 40
0.0
 40
0.0
 40
0.0
 40
0.0
 40
1.0
 40
1.0
 40
1.0
 40
1.0
 10
78.62046618041626
 20
36.24750845622226
 30
0.0
 10
78.59472523058295
 20
36.14349935678391
 30
0.0
 10
78.56790368632204
 20
36.0395811142993
 30
0.0
 10
78.54008142268692
 20
35.93574701283146
 30
0.0
  0
LINE
  5
BD
330
1F
100
AcDbEntity
  8
0
  6
Continuous
 62
     7
370
    25
100
AcDbLine
 10
76.6029465527
 20
35.9357470128
 30
0.0
 11
78.5400814227
 21
35.9357470128
 31
0.0
  0
SPLINE
  5
BE
330
1F
100
AcDbEntity
  8
0
  6
Continuous
 62
     7
370
    25
100
AcDbSpline
210
0.0
220
0.0
230
1.0
 70
     8
 71
     3
 72
    10
 73
     6
 74
     0
 42
0.000000001
 43
0.00000001
 40
0.0
 40
0.0
 40
0.0
 40
0.0
 40
0.5
 40
0.5
 40
1.0
 40
1.0
 40
1.0
 40
1.0
 10
76.6029465526634
 20
35.93574701283144
 30
0.0
 10
76.30303730104308
 20
36.45520507429775
 30
0.0
 10
76.05595664167716
 20
36.97845747649422
 30
0.0
 10
75.71410182764477
 20
38.0359014853896
 30
0.0
 10
75.62046618041624
 20
38.570174863814
 30
0.0
 10
75.62046618041624
 20
39.1111734933744
 30
0.0
  0
SPLINE
  5
BF
330
1F
100
AcDbEntity
  8
0
  6
Continuous
 62
     7
370
    25
100
AcDbSpline
210
0.0
220
0.0
230
1.0
 70
     8
 71
     3
 72
    12
 73
     8
 74
     0
 42
0.000000001
 43
0.00000001
 40
0.0
 40
0.0
 40
0.0
 40
0.0
 40
0.25
 40
0.25
 40
0.5
 40
0.5
 40
1.0
 40
1.0
 40
1.0
 40
1.0
 10
75.62046618041624
 20
39.1111734933744
 30
0.0
 10
75.62046618041624
 20
39.38066138760145
 30
0.0
 10
75.64368833474342
 20
39.65135826876848
 30
0.0
 10
75.73355548460417
 20
40.18685309970078
 30
0.0
 10
75.80011407369186
 20
40.45280950305271
 30
0.0
 10
76.05682354781354
 20
41.24595510649439
 30
0.0
 10
76.30378622083595
 20
41.76843907958278
 30
0.0
 10
76.60294655266354
 20
42.28659997391735
 30
0.0
  0
SPLINE
  5
C0
330
1F
100
AcDbEntity
  8
0
  6
Continuous
 62
     7
370
    25
100
AcDbSpline
210
0.0
220
0.0
230
1.0
 70
     8
 71
     3
 72
     8
 73
     4
 74
     0
 42
0.000000001
 43
0.00000001
 40
0.0
 40
0.0
 40
0.0
 40
0.0
 40
1.0
 40
1.0
 40
1.0
 40
1.0
 10
78.54008142268692
 20
42.28659997391734
 30
0.0
 10
78.56791309574403
 20
42.18273075600859
 30
0.0
 10
78.59473415561008
 20
42.07881156742485
 30
0.0
 10
78.62046618041626
 20
41.97483853052654
 30
0.0
  0
SPLINE
  5
C1
330
1F
100
AcDbEntity
  8
0
  6
Continuous
 62
     7
370
    25
100
AcDbSpline
210
0.0
220
0.0
230
1.0
 70
     8
 71
     3
 72
     8
 73
     4
 74
     0
 42
0.000000001
 43
0.00000001
 40
0.0
 40
0.0
 40
0.0
 40
0.0
 40
1.0
 40
1.0
 40
1.0
 40
1.0
 10
78.62046618041626
 20
41.97483853052654
 30
0.0
 10
78.64620713024956
 20
42.0788476299649
 30
0.0
 10
78.67302867451048
 20
42.18276587244952
 30
0.0
 10
78.70085093814559
 20
42.28659997391734
 30
0.0
  0
LINE
  5
C2
330
1F
100
AcDbEntity
  8
0
  6
Continuous
 62
     7
370
    25
100
AcDbLine
 10
78.7008509381
 20
61.3391588572
 30
0.0
 11
80.6379858082
 21
61.3391588572
 31
0.0
  0
SPLINE
  5
C3
330
1F
100
AcDbEntity
  8
0
  6
Continuous
 62
     7
370
    25
100
AcDbSpline
210
0.0
220
0.0
230
1.0
 70
     8
 71
     3
 72
    12
 73
     8
 74
     0
 42
0.000000001
 43
0.00000001
 40
0.0
 40
0.0
 40
0.0
 40
0.0
 40
0.2500000000000002
 40
0.2500000000000002
 40
0.5000000000000001
 40
0.5000000000000001
 40
1.0
 40
1.0
 40
1.0
 40
1.0
 10
81.62046618041627
 20
58.16373237663205
 30
0.0
 10
81.62046618041627
 20
58.4332202708591
 30
0.0
 10
81.5972440260891
 20
58.70391715202614
 30
0.0
 10
81.50737687622835
 20
59.23941198295843
 30
0.0
 10
81.44081828714066
 20
59.50536838631034
 30
0.0
 10
81.18410881301898
 20
60.29851398975205
 30
0.0
 10
80.93714613999657
 20
60.82099796284043
 30
0.0
 10
80.63798580816898
 20
61.339158857175
 30
0.0
  0
SPLINE
  5
C4
330
1F
100
AcDbEntity
  8
0
  6
Continuous
 62
     7
370
    25
100
AcDbSpline
210
0.0
220
0.0
230
1.0
 70
     8
 71
     3
 72
    10
 73
     6
 74
     0
 42
0.000000001
 43
0.00000001
 40
0.0
 40
0.0
 40
0.0
 40
0.0
 40
0.5
 40
0.5
 40
1.0
 40
1.0
 40
1.0
 40
1.0
 10
80.63798580816912
 20
54.98830589608909
 30
0.0
 10
80.93789505978944
 20
55.50776395755541
 30
0.0
 10
81.18497571915536
 20
56.03101635975187
 30
0.0
 10
81.52683053318775
 20
57.08846036864725
 30
0.0
 10
81.62046618041627
 20
57.62273374707164
 30
0.0
 10
81.62046618041627
 20
58.16373237663205
 30
0.0
  0
SPLINE
  5
C5
330
1F
100
AcDbEntity
  8
0
  6
Continuous
 62
     7
370
    25
100
AcDbSpline
210
0.0
220
0.0
230
1.0
 70
     8
 71
     3
 72
     8
 73
     4
 74
     0
 42
0.000000001
 43
0.00000001
 40
0.0
 40
0.0
 40
0.0
 40
0.0
 40
1.0
 40
1.0
 40
1.0
 40
1.0
 10
78.70085093814559
 20
54.98830589608912
 30
0.0
 10
78.67301926508848
 20
55.09217511399786
 30
0.0
 10
78.64619820522245
 20
55.1960943025816
 30
0.0
 10
78.62046618041626
 20
55.30006733947991
 30
0.0
  0
SPLINE
  5
C6
330
1F
100
AcDbEntity
  8
0
  6
Continuous
 62
     7
370
    25
100
AcDbSpline
210
0.0
220
0.0
230
1.0
 70
     8
 71
     3
 72
     8
 73
     4
 74
     0
 42
0.000000001
 43
0.00000001
 40
0.0
 40
0.0
 40
0.0
 40
0.0
 40
1.0
 40
1.0
 40
1.0
 40
1.0
 10
78.62046618041626
 20
55.30006733947991
 30
0.0
 10
78.59472523058295
 20
55.19605824004156
 30
0.0
 10
78.56790368632204
 20
55.09213999755694
 30
0.0
 10
78.54008142268692
 20
54.98830589608912
 30
0.0
  0
SPLINE
  5
C7
330
1F
100
AcDbEntity
  8
0
  6
Continuous
 62
     7
370
    25
100
AcDbSpline
210
0.0
220
0.0
230
1.0
 70
     8
 71
     3
 72
    10
 73
     6
 74
     0
 42
0.000000001
 43
0.00000001
 40
0.0
 40
0.0
 40
0.0
 40
0.0
 40
0.5
 40
0.5
 40
1.0
 40
1.0
 40
1.0
 40
1.0
 10
76.6029465526634
 20
54.98830589608909
 30
0.0
 10
76.30303730104308
 20
55.50776395755541
 30
0.0
 10
76.05595664167716
 20
56.03101635975187
 30
0.0
 10
75.71410182764477
 20
57.08846036864725
 30
0.0
 10
75.62046618041624
 20
57.62273374707164
 30
0.0
 10
75.62046618041624
 20
58.16373237663205
 30
0.0
  0
SPLINE
  5
C8
330
1F
100
AcDbEntity
  8
0
  6
Continuous
 62
     7
370
    25
100
AcDbSpline
210
0.0
220
0.0
230
1.0
 70
     8
 71
     3
 72
    12
 73
     8
 74
     0
 42
0.000000001
 43
0.00000001
 40
0.0
 40
0.0
 40
0.0
 40
0.0
 40
0.2500000000000002
 40
0.2500000000000002
 40
0.5000000000000001
 40
0.5000000000000001
 40
1.0
 40
1.0
 40
1.0
 40
1.0
 10
75.62046618041624
 20
58.16373237663205
 30
0.0
 10
75.62046618041624
 20
58.4332202708591
 30
0.0
 10
75.64368833474342
 20
58.70391715202614
 30
0.0
 10
75.73355548460417
 20
59.23941198295843
 30
0.0
 10
75.80011407369186
 20
59.50536838631034
 30
0.0
 10
76.05682354781354
 20
60.29851398975205
 30
0.0
 10
76.30378622083595
 20
60.82099796284043
 30
0.0
 10
76.60294655266354
 20
61.339158857175
 30
0.0
  0
LINE
  5
C9
330
1F
100
AcDbEntity
  8
0
  6
Continuous
 62
     7
370
    25
100
AcDbLine
 10
76.6029465527
 20
61.3391588572
 30
0.0
 11
78.5400814227
 21
61.3391588572
 31
0.0
  0
SPLINE
  5
CA
330
1F
100
AcDbEntity
  8
0
  6
Continuous
 62
     7
370
    25
100
AcDbSpline
210
0.0
220
0.0
230
1.0
 70
     8
 71
     3
 72
     8
 73
     4
 74
     0
 42
0.000000001
 43
0.00000001
 40
0.0
 40
0.0
 40
0.0
 40
0.0
 40
1.0
 40
1.0
 40
1.0
 40
1.0
 10
78.54008142268692
 20
61.33915885717499
 30
0.0
 10
78.56791309574403
 20
61.23528963926624
 30
0.0
 10
78.59473415561008
 20
61.1313704506825
 30
0.0
 10
78.62046618041626
 20
61.02739741378419
 30
0.0
  0
SPLINE
  5
CB
330
1F
100
AcDbEntity
  8
0
  6
Continuous
 62
     7
370
    25
100
AcDbSpline
210
0.0
220
0.0
230
1.0
 70
     8
 71
     3
 72
     8
 73
     4
 74
     0
 42
0.000000001
 43
0.00000001
 40
0.0
 40
0.0
 40
0.0
 40
0.0
 40
1.0
 40
1.0
 40
1.0
 40
1.0
 10
78.62046618041626
 20
61.02739741378419
 30
0.0
 10
78.64620713024956
 20
61.13140651322254
 30
0.0
 10
78.67302867451048
 20
61.23532475570716
 30
0.0
 10
78.70085093814559
 20
61.33915885717499
 30
0.0
  0
LINE
  5
CC
330
1F
100
AcDbEntity
  8
0
  6
Continuous
 62
     7
370
    25
100
AcDbLine
 10
81.6204661804
 20
48.637452935
 30
0.0
 11
81.6204661804
 21
39.1111734934
 31
0.0
  0
LINE
  5
CD
330
1F
100
AcDbEntity
  8
0
  6
Continuous
 62
     7
370
    25
100
AcDbLine
 10
81.6204661804
 20
58.1637323766
 30
0.0
 11
81.6204661804
 21
48.637452935
 31
0.0
  0
LINE
  5
CE
330
1F
100
AcDbEntity
  8
0
  6
Continuous
 62
     7
370
    25
100
AcDbLine
 10
75.6204661804
 20
48.637452935
 30
0.0
 11
75.6204661804
 21
58.1637323766
 31
0.0
  0
LINE
  5
CF
330
1F
100
AcDbEntity
  8
0
  6
Continuous
 62
     7
370
    25
100
AcDbLine
 10
75.6204661804
 20
39.1111734934
 30
0.0
 11
75.6204661804
 21
48.637452935
 31
0.0
  0
LINE
  5
D0
330
1F
100
AcDbEntity
  8
0
  6
Continuous
 62
     7
370
    25
100
AcDbLine
 10
78.6204661804
 20
54.3647830093
 30
0.0
 11
78.6204661804
 21
55.3000673395
 31
0.0
  0
LINE
  5
D1
330
1F
100
AcDbEntity
  8
0
  6
Continuous
 62
     7
370
    25
100
AcDbLine
 10
78.6204661804
 20
41.9748385305
 30
0.0
 11
78.6204661804
 21
42.9101228607
 31
0.0
  0
SPLINE
  5
D2
330
1F
100
AcDbEntity
  8
0
  6
Continuous
 62
     7
370
    25
100
AcDbSpline
210
0.0
220
0.0
230
1.0
 70
     8
 71
     3
 72
    23
 73
    19
 74
     0
 42
0.000000001
 43
0.00000001
 40
0.0
 40
0.0
 40
0.0
 40
0.0
 40
0.0611415679303346
 40
0.1200010135310724
 40
0.1782359705414084
 40
0.236495543407017
 40
0.294887248704973
 40
0.3546771928192958
 40
0.4166948132897785
 40
0.4806333779628396
 40
0.5458046334786409
 40
0.6097347883178745
 40
0.6729516883751544
 40
0.7360010960706833
 40
0.7998274385165253
 40
0.8647672769393869
 40
0.9310835057306723
 40
1.0
 40
1.0
 40
1.0
 40
1.0
 10
78.23332675733934
 20
47.42697541143861
 30
0.0
 10
78.24356846778949
 20
47.42720850248165
 30
0.0
 10
78.26366961461827
 20
47.42766598439383
 30
0.0
 10
78.29309022822132
 20
47.43294055945002
 30
0.0
 10
78.32161503695484
 20
47.44006475089183
 30
0.0
 10
78.34860147347962
 20
47.45157809722917
 30
0.0
 10
78.37479582130999
 20
47.46529143249282
 30
0.0
 10
78.39944942642106
 20
47.48276132078819
 30
0.0
 10
78.42326072986505
 20
47.50279097532617
 30
0.0
 10
78.44535314359518
 20
47.52598725879103
 30
0.0
 10
78.46556066325972
 20
47.55122273864058
 30
0.0
 10
78.48339718579544
 20
47.57805883239381
 30
0.0
 10
78.49845086044105
 20
47.60613345644786
 30
0.0
 10
78.51101101690975
 20
47.63541949098322
 30
0.0
 10
78.52007508546515
 20
47.66625213888411
 30
0.0
 10
78.52721218738407
 20
47.69813371723554
 30
0.0
 10
78.53101019559436
 20
47.731471962881
 30
0.0
 10
78.5316689377194
 20
47.75409050946816
 30
0.0
 10
78.53200464195471
 20
47.76561723836168
 30
0.0
  0
SPLINE
  5
D3
330
1F
100
AcDbEntity
  8
0
  6
Continuous
 62
     7
370
    25
100
AcDbSpline
210
0.0
220
0.0
230
1.0
 70
     8
 71
     3
 72
    23
 73
    19
 74
     0
 42
0.000000001
 43
0.00000001
 40
0.0
 40
0.0
 40
0.0
 40
0.0
 40
0.0618526459466918
 40
0.12128383061537
 40
0.1807779320756124
 40
0.2392732340142805
 40
0.2986414352139417
 40
0.3581858222417117
 40
0.4207600867589708
 40
0.4852046730216432
 40
0.5503622689482868
 40
0.6136499245309119
 40
0.6766234955168248
 40
0.7391080134690123
 40
0.8021647022429443
 40
0.8667165971324775
 40
0.9320376285055445
 40
1.0
 40
1.0
 40
1.0
 40
1.0
 10
78.23332675733934
 20
48.08082156528477
 30
0.0
 10
78.22319143748243
 20
48.08055243297731
 30
0.0
 10
78.20331758410165
 20
48.08002470458846
 30
0.0
 10
78.17402385868814
 20
48.07525500933526
 30
0.0
 10
78.14585954843717
 20
48.067917237682
 30
0.0
 10
78.11880405373628
 20
48.05717668426021
 30
0.0
 10
78.09300495807287
 20
48.04370488980255
 30
0.0
 10
78.06827900293264
 20
48.02712636127063
 30
0.0
 10
78.04460912189256
 20
48.0077218131826
 30
0.0
 10
78.02259218534155
 20
47.98516441103726
 30
0.0
 10
78.00239771610214
 20
47.96083843980272
 30
0.0
 10
77.98441652278012
 20
47.93511211399758
 30
0.0
 10
77.96931712860616
 20
47.90806723335034
 30
0.0
 10
77.95737986735409
 20
47.87954947717925
 30
0.0
 10
77.9476029658118
 20
47.84995811635289
 30
0.0
 10
77.94071811669798
 20
47.81906740836654
 30
0.0
 10
77.93682683005223
 20
47.78685021112492
 30
0.0
 10
77.93618041068393
 20
47.76502655915431
 30
0.0
 10
77.93585079580087
 20
47.75389848836168
 30
0.0
  0
SPLINE
  5
D4
330
1F
100
AcDbEntity
  8
0
  6
Continuous
 62
     7
370
    25
100
AcDbSpline
210
0.0
220
0.0
230
1.0
 70
     8
 71
     3
 72
    23
 73
    19
 74
     0
 42
0.000000001
 43
0.00000001
 40
0.0
 40
0.0
 40
0.0
 40
0.0
 40
0.0705921865358075
 40
0.1385012886049303
 40
0.2037899961427016
 40
0.2667875726696014
 40
0.3290979656467185
 40
0.391174524603966
 40
0.4531677986176575
 40
0.5157967602265847
 40
0.5779688050530403
 40
0.6389663383752915
 40
0.698381066162843
 40
0.7573204555574266
 40
0.8164122397216688
 40
0.876279358230831
 40
0.9368234656501931
 40
1.0
 40
1.0
 40
1.0
 40
1.0
 10
78.53200464195471
 20
47.76561723836168
 30
0.0
 10
78.53166677750012
 20
47.7770435561995
 30
0.0
 10
78.53100389022278
 20
47.79946189769321
 30
0.0
 10
78.52725989810381
 20
47.83231135390843
 30
0.0
 10
78.5201660594834
 20
47.86331728759413
 30
0.0
 10
78.51099001592713
 20
47.89283383707828
 30
0.0
 10
78.49849619053033
 20
47.92055336242577
 30
0.0
 10
78.483500057986
 20
47.94679206105412
 30
0.0
 10
78.46567063671321
 20
47.97128956900104
 30
0.0
 10
78.44520672037714
 20
47.99361566753322
 30
0.0
 10
78.42312896609727
 20
48.01411653996757
 30
0.0
 10
78.39934004235862
 20
48.03175063804253
 30
0.0
 10
78.37456674237782
 20
48.04697839915086
 30
0.0
 10
78.34857622719397
 20
48.05935529985383
 30
0.0
 10
78.3213851687193
 20
48.0689941781517
 30
0.0
 10
78.29311683786322
 20
48.07596621109438
 30
0.0
 10
78.26358215710816
 20
48.07984641029423
 30
0.0
 10
78.24355393862936
 20
48.08049193530299
 30
0.0
 10
78.23332675733934
 20
48.08082156528477
 30
0.0
  0
SPLINE
  5
D5
330
1F
100
AcDbEntity
  8
0
  6
Continuous
 62
     7
370
    25
100
AcDbSpline
210
0.0
220
0.0
230
1.0
 70
     8
 71
     3
 72
    23
 73
    19
 74
     0
 42
0.000000001
 43
0.00000001
 40
0.0
 40
0.0
 40
0.0
 40
0.0
 40
0.0679503475997533
 40
0.1332598223836994
 40
0.1978002967596469
 40
0.2608458295516821
 40
0.3233192927503666
 40
0.3862817224595717
 40
0.4500615162333125
 40
0.5152075844858149
 40
0.5796407692199315
 40
0.6418172023841521
 40
0.7016924412115346
 40
0.7607690981778942
 40
0.8192540511346831
 40
0.8787376269055535
 40
0.938158297016091
 40
1.0
 40
1.0
 40
1.0
 40
1.0
 10
77.93585079580087
 20
47.75389848836168
 30
0.0
 10
77.936180384842
 20
47.7427703993383
 30
0.0
 10
77.93682675353078
 20
47.72094671161472
 30
0.0
 10
77.940718407529
 20
47.68872977353001
 30
0.0
 10
77.94760189863965
 20
47.65783810751029
 30
0.0
 10
77.95738373585984
 20
47.628250228667
 30
0.0
 10
77.9693027776959
 20
47.59971961920623
 30
0.0
 10
77.98451113772369
 20
47.57265106498179
 30
0.0
 10
78.0022883892313
 20
47.5466791210507
 30
0.0
 10
78.02262694244949
 20
47.52236910834556
 30
0.0
 10
78.0444847159181
 20
47.49971742258221
 30
0.0
 10
78.06849331738665
 20
47.48076737151139
 30
0.0
 10
78.09280843973171
 20
47.46366508971609
 30
0.0
 10
78.11890686174559
 20
47.450710709074
 30
0.0
 10
78.14584326122446
 20
47.43985053941935
 30
0.0
 10
78.17402822196841
 20
47.43254978985206
 30
0.0
 10
78.20331644178385
 20
47.42777022419409
 30
0.0
 10
78.22319105167519
 20
47.42724385207306
 30
0.0
 10
78.23332675733934
 20
47.42697541143861
 30
0.0
  0
LINE
  5
D6
330
1F
100
AcDbEntity
  8
0
  6
Continuous
 62
     7
370
    25
100
AcDbLine
 10
61.3168574534
 20
58.9442151623
 30
0.0
 11
61.3168574534
 21
38.3306907077
 31
0.0
  0
LINE
  5
D7
330
1F
100
AcDbEntity
  8
0
  6
Continuous
 62
     7
370
    25
100
AcDbLine
 10
58.6204661804
 20
39.887452935
 30
0.0
 11
58.6204661804
 21
57.387452935
 31
0.0
  0
LINE
  5
D8
330
1F
100
AcDbEntity
  8
0
  6
Continuous
 62
     7
370
    25
100
AcDbLine
 10
75.6204661804
 20
37.637452935
 30
0.0
 11
75.6204661804
 21
39.1111734934
 31
0.0
  0
LINE
  5
D9
330
1F
100
AcDbEntity
  8
0
  6
Continuous
 62
     7
370
    25
100
AcDbLine
 10
81.6204661804
 20
39.1111734934
 30
0.0
 11
81.6204661804
 21
37.637452935
 31
0.0
  0
LINE
  5
DA
330
1F
100
AcDbEntity
  8
0
  6
Continuous
 62
     7
370
    25
100
AcDbLine
 10
75.6204661804
 20
58.1637323766
 30
0.0
 11
75.6204661804
 21
59.637452935
 31
0.0
  0
LINE
  5
DB
330
1F
100
AcDbEntity
  8
0
  6
Continuous
 62
     7
370
    25
100
AcDbLine
 10
81.6204661804
 20
59.637452935
 30
0.0
 11
81.6204661804
 21
58.1637323766
 31
0.0
  0
LINE
  5
DC
330
1F
100
AcDbEntity
  8
0
  6
Continuous
 62
     7
370
    25
100
AcDbLine
 10
101.6204661804
 20
53.137452935
 30
0.0
 11
101.6204661804
 21
44.137452935
 31
0.0
  0
LINE
  5
DD
330
1F
100
AcDbEntity
  8
0
  6
Continuous
 62
     7
370
    25
100
AcDbLine
 10
96.6204661804
 20
53.137452935
 30
0.0
 11
96.6204661804
 21
44.137452935
 31
0.0
  0
LINE
  5
DE
330
1F
100
AcDbEntity
  8
0
  6
Continuous
 62
     7
370
    25
100
AcDbLine
 10
86.6204661804
 20
53.137452935
 30
0.0
 11
86.6204661804
 21
44.137452935
 31
0.0
  0
LINE
  5
DF
330
1F
100
AcDbEntity
  8
0
  6
Continuous
 62
     7
370
    25
100
AcDbLine
 10
91.6204661804
 20
53.137452935
 30
0.0
 11
91.6204661804
 21
44.137452935
 31
0.0
  0
LINE
  5
E0
330
1F
100
AcDbEntity
  8
0
  6
Continuous
 62
     7
370
    25
100
AcDbLine
 10
107.6204661804
 20
45.3288440443
 30
0.0
 11
107.6204661804
 21
51.9460618257
 31
0.0
  0
LINE
  5
E1
330
1F
100
AcDbEntity
  8
0
  6
Continuous
 62
     7
370
    25
100
AcDbLine
 10
78.6204661804
 20
61.0273974138
 30
0.0
 11
78.6204661804
 21
61.0391588572
 31
0.0
  0
LINE
  5
E2
330
1F
100
AcDbEntity
  8
0
  6
Continuous
 62
     7
370
    25
100
AcDbLine
 10
78.6204661804
 20
36.2357470128
 30
0.0
 11
78.6204661804
 21
36.2475084562
 31
0.0
  0
LINE
  5
E3
330
1F
100
AcDbEntity
  8
0
  6
Continuous
 62
     8
370
    25
100
AcDbLine
 10
107.1824835477
 20
44.8327051059
 30
0.0
 11
107.1824835477
 21
52.4422007641
 31
0.0
  0
LINE
  5
E4
330
1F
100
AcDbEntity
  8
0
  6
Continuous
 62
     7
370
    18
100
AcDbLine
 10
59.5016922114
 20
57.8962290212
 30
0.0
 11
75.1204661804
 21
58.3843157077
 31
0.0
  0
LINE
  5
E5
330
1F
100
AcDbEntity
  8
0
  6
Continuous
 62
     7
370
    18
100
AcDbLine
 10
59.5016922114
 20
39.3786768488
 30
0.0
 11
75.1204661804
 21
38.8905901623
 31
0.0
  0
LINE
  5
E6
330
1F
100
AcDbEntity
  8
0
  6
Continuous
 62
     7
370
    18
100
AcDbLine
 10
75.1204661804
 20
37.899327935
 30
0.0
 11
75.1204661804
 21
59.375577935
 31
0.0
  0
LINE
  5
E7
330
1F
100
AcDbEntity
  8
0
  6
CENTERX2
 62
     7
370
    18
100
AcDbLine
 10
108.6204661804
 20
48.637452935
 30
0.0
 11
57.1498337435
 21
48.637452935
 31
0.0
  0
CIRCLE
  5
E8
330
1F
100
AcDbEntity
  8
0
  6
Continuous
 62
     7
370
    25
100
AcDbCircle
 10
129.6212428362
 20
48.637452935
 30
0.0
 40
3.308608890731342
  0
CIRCLE
  5
E9
330
1F
100
AcDbEntity
  8
0
  6
Continuous
 62
     7
370
    25
100
AcDbCircle
 10
129.6212428362
 20
48.637452935
 30
0.0
 40
3.804747829088178
  0
CIRCLE
  5
EA
330
1F
100
AcDbEntity
  8
0
  6
Continuous
 62
     7
370
    25
100
AcDbCircle
 10
129.6212428362
 20
48.637452935
 30
0.0
 40
2.949999999999996
  0
CIRCLE
  5
EB
330
1F
100
AcDbEntity
  8
0
  6
Continuous
 62
     7
370
    25
100
AcDbCircle
 10
129.6212428362
 20
48.637452935
 30
0.0
 40
2.750000000000014
  0
CIRCLE
  5
EC
330
1F
100
AcDbEntity
  8
0
  6
Continuous
 62
     7
370
    25
100
AcDbCircle
 10
129.6212428362
 20
48.637452935
 30
0.0
 40
4.5
  0
SPLINE
  5
ED
330
1F
100
AcDbEntity
  8
0
  6
Continuous
 62
     7
370
    25
100
AcDbSpline
210
0.0
220
0.0
230
1.0
 70
    24
 71
     3
 72
    10
 73
     6
 74
     0
 42
0.000000001
 43
0.00000001
 40
0.0
 40
0.0
 40
0.0
 40
0.0
 40
0.5000000000000001
 40
0.5000000000000001
 40
1.0
 40
1.0
 40
1.0
 40
1.0
 10
140.6212428362157
 20
42.28659997391733
 30
0.0
 10
140.6212428362157
 20
43.3205738862964
 30
0.0
 10
140.6212428362157
 20
44.37797592555654
 30
0.0
 10
140.6212428362157
 20
46.49690298573299
 30
0.0
 10
140.6212428362157
 20
47.56317035752508
 30
0.0
 10
140.6212428362157
 20
48.63745293500322
 30
0.0
  0
SPLINE
  5
EE
330
1F
100
AcDbEntity
  8
0
  6
Continuous
 62
     7
370
    25
100
AcDbSpline
210
0.0
220
0.0
230
1.0
 70
    24
 71
     3
 72
    10
 73
     6
 74
     0
 42
0.000000001
 43
0.00000001
 40
0.0
 40
0.0
 40
0.0
 40
0.0
 40
0.5
 40
0.5
 40
1.0
 40
1.0
 40
1.0
 40
1.0
 10
140.6212428362157
 20
42.28659997391735
 30
0.0
 10
139.7215150813548
 20
41.76714191245105
 30
0.0
 10
138.8152153355681
 20
41.24388951025458
 30
0.0
 10
136.983668586002
 20
40.1864455013592
 30
0.0
 10
136.0582799494394
 20
39.6521721229348
 30
0.0
 10
135.1212428362157
 20
39.11117349337439
 30
0.0
  0
ARC
  5
EF
330
1F
100
AcDbEntity
  8
0
  6
Continuous
 62
     7
370
    25
100
AcDbCircle
 10
129.6212428362
 20
48.637452935
 30
0.0
 40
10.99999999999999
100
AcDbArc
 50
300.0
 51
0.0
  0
SPLINE
  5
F0
330
1F
100
AcDbEntity
  8
0
  6
Continuous
 62
     7
370
    25
100
AcDbSpline
210
0.0
220
0.0
230
1.0
 70
    24
 71
     3
 72
    12
 73
     8
 74
     0
 42
0.000000001
 43
0.00000001
 40
0.0
 40
0.0
 40
0.0
 40
0.0
 40
0.25
 40
0.25
 40
0.5
 40
0.5
 40
1.0
 40
1.0
 40
1.0
 40
1.0
 10
140.6212428362157
 20
48.63745293500322
 30
0.0
 10
140.6212428362157
 20
49.17498655790817
 30
0.0
 10
140.6212428362157
 20
49.7153533017397
 30
0.0
 10
140.6212428362157
 20
50.79644508655686
 30
0.0
 10
140.6212428362157
 20
51.33126320529887
 30
0.0
 10
140.6212428362157
 20
52.92094883989564
 30
0.0
 10
140.6212428362157
 20
53.96114943053496
 30
0.0
 10
140.6212428362157
 20
54.98830589608912
 30
0.0
  0
ARC
  5
F1
330
1F
100
AcDbEntity
  8
0
  6
Continuous
 62
     7
370
    25
100
AcDbCircle
 10
129.6212428362
 20
48.637452935
 30
0.0
 40
10.99999999999998
100
AcDbArc
 50
0.0
 51
60.0
  0
SPLINE
  5
F2
330
1F
100
AcDbEntity
  8
0
  6
Continuous
 62
     7
370
    25
100
AcDbSpline
210
0.0
220
0.0
230
1.0
 70
    24
 71
     3
 72
    12
 73
     8
 74
     0
 42
0.000000001
 43
0.00000001
 40
0.0
 40
0.0
 40
0.0
 40
0.0
 40
0.2500000000000001
 40
0.2500000000000001
 40
0.5000000000000001
 40
0.5000000000000001
 40
1.0
 40
1.0
 40
1.0
 40
1.0
 10
135.1212428362157
 20
58.16373237663205
 30
0.0
 10
135.5880095610417
 20
57.89424448240501
 30
0.0
 10
136.0568703126734
 20
57.62354760123797
 30
0.0
 10
136.9843745670386
 20
57.08805277030567
 30
0.0
 10
137.4450245702425
 20
56.82209636695375
 30
0.0
 10
138.8187930532033
 20
56.02895076351206
 30
0.0
 10
139.7237618407329
 20
55.50646679042367
 30
0.0
 10
140.6212428362157
 20
54.9883058960891
 30
0.0
  0
ARC
  5
F3
330
1F
100
AcDbEntity
  8
0
  6
Continuous
 62
     7
370
    25
100
AcDbCircle
 10
129.6212428362
 20
48.637452935
 30
0.0
 40
11.00000000000001
100
AcDbArc
 50
240.0
 51
300.0
  0
ARC
  5
F4
330
1F
100
AcDbEntity
  8
0
  6
Continuous
 62
     7
370
    25
100
AcDbCircle
 10
129.6212428362
 20
48.637452935
 30
0.0
 40
11.00000000000001
100
AcDbArc
 50
180.0
 51
240.0
  0
ARC
  5
F5
330
1F
100
AcDbEntity
  8
0
  6
Continuous
 62
     7
370
    25
100
AcDbCircle
 10
129.6212428362
 20
48.637452935
 30
0.0
 40
11.00000000000001
100
AcDbArc
 50
120.0
 51
180.0
  0
ARC
  5
F6
330
1F
100
AcDbEntity
  8
0
  6
Continuous
 62
     7
370
    25
100
AcDbCircle
 10
129.6212428362
 20
48.637452935
 30
0.0
 40
11.00000000000001
100
AcDbArc
 50
60.0
 51
120.0
  0
SPLINE
  5
F7
330
1F
100
AcDbEntity
  8
0
  6
Continuous
 62
     7
370
    25
100
AcDbSpline
210
0.0
220
0.0
230
1.0
 70
    24
 71
     3
 72
    10
 73
     6
 74
     0
 42
0.000000001
 43
0.00000001
 40
0.0
 40
0.0
 40
0.0
 40
0.0
 40
0.5
 40
0.5
 40
1.0
 40
1.0
 40
1.0
 40
1.0
 10
129.6212428362157
 20
35.93574701283144
 30
0.0
 10
128.7215150813548
 20
36.45520507429775
 30
0.0
 10
127.8152153355681
 20
36.97845747649422
 30
0.0
 10
125.983668586002
 20
38.0359014853896
 30
0.0
 10
125.0582799494394
 20
38.570174863814
 30
0.0
 10
124.1212428362157
 20
39.1111734933744
 30
0.0
  0
SPLINE
  5
F8
330
1F
100
AcDbEntity
  8
0
  6
Continuous
 62
     7
370
    25
100
AcDbSpline
210
0.0
220
0.0
230
1.0
 70
    24
 71
     3
 72
    12
 73
     8
 74
     0
 42
0.000000001
 43
0.00000001
 40
0.0
 40
0.0
 40
0.0
 40
0.0
 40
0.2500000000000002
 40
0.2500000000000002
 40
0.5000000000000002
 40
0.5000000000000002
 40
1.0
 40
1.0
 40
1.0
 40
1.0
 10
135.1212428362157
 20
39.11117349337439
 30
0.0
 10
134.6544761113897
 20
38.84168559914735
 30
0.0
 10
134.1856153597579
 20
38.57098871798032
 30
0.0
 10
133.2581111053927
 20
38.03549388704802
 30
0.0
 10
132.7974611021889
 20
37.76953748369611
 30
0.0
 10
131.423692619228
 20
36.97639188025441
 30
0.0
 10
130.5187238316985
 20
36.45390790716603
 30
0.0
 10
129.6212428362157
 20
35.93574701283145
 30
0.0
  0
SPLINE
  5
F9
330
1F
100
AcDbEntity
  8
0
  6
Continuous
 62
     7
370
    25
100
AcDbSpline
210
0.0
220
0.0
230
1.0
 70
    24
 71
     3
 72
    12
 73
     8
 74
     0
 42
0.000000001
 43
0.00000001
 40
0.0
 40
0.0
 40
0.0
 40
0.0
 40
0.2500000000000002
 40
0.2500000000000002
 40
0.5000000000000001
 40
0.5000000000000001
 40
1.0
 40
1.0
 40
1.0
 40
1.0
 10
124.1212428362157
 20
58.16373237663205
 30
0.0
 10
124.5880095610417
 20
58.4332202708591
 30
0.0
 10
125.0568703126734
 20
58.70391715202614
 30
0.0
 10
125.9843745670386
 20
59.23941198295843
 30
0.0
 10
126.4450245702425
 20
59.50536838631034
 30
0.0
 10
127.8187930532034
 20
60.29851398975205
 30
0.0
 10
128.7237618407329
 20
60.82099796284043
 30
0.0
 10
129.6212428362157
 20
61.339158857175
 30
0.0
  0
SPLINE
  5
FA
330
1F
100
AcDbEntity
  8
0
  6
Continuous
 62
     7
370
    25
100
AcDbSpline
210
0.0
220
0.0
230
1.0
 70
    24
 71
     3
 72
    10
 73
     6
 74
     0
 42
0.000000001
 43
0.00000001
 40
0.0
 40
0.0
 40
0.0
 40
0.0
 40
0.5
 40
0.5
 40
1.0
 40
1.0
 40
1.0
 40
1.0
 10
129.6212428362156
 20
61.33915885717501
 30
0.0
 10
130.5209705910765
 20
60.8197007957087
 30
0.0
 10
131.4272703368633
 20
60.29644839351223
 30
0.0
 10
133.2588170864294
 20
59.23900438461685
 30
0.0
 10
134.1842057229919
 20
58.70473100619246
 30
0.0
 10
135.1212428362157
 20
58.16373237663205
 30
0.0
  0
SPLINE
  5
FB
330
1F
100
AcDbEntity
  8
0
  6
Continuous
 62
     7
370
    25
100
AcDbSpline
210
0.0
220
0.0
230
1.0
 70
    24
 71
     3
 72
    10
 73
     6
 74
     0
 42
0.000000001
 43
0.00000001
 40
0.0
 40
0.0
 40
0.0
 40
0.0
 40
0.5
 40
0.5
 40
1.0
 40
1.0
 40
1.0
 40
1.0
 10
118.6212428362157
 20
42.28659997391733
 30
0.0
 10
118.6212428362157
 20
43.32057388629641
 30
0.0
 10
118.6212428362157
 20
44.37797592555655
 30
0.0
 10
118.6212428362157
 20
46.49690298573299
 30
0.0
 10
118.6212428362157
 20
47.56317035752508
 30
0.0
 10
118.6212428362157
 20
48.63745293500322
 30
0.0
  0
SPLINE
  5
FC
330
1F
100
AcDbEntity
  8
0
  6
Continuous
 62
     7
370
    25
100
AcDbSpline
210
0.0
220
0.0
230
1.0
 70
    24
 71
     3
 72
    12
 73
     8
 74
     0
 42
0.000000001
 43
0.00000001
 40
0.0
 40
0.0
 40
0.0
 40
0.0
 40
0.25
 40
0.25
 40
0.5
 40
0.5
 40
1.0
 40
1.0
 40
1.0
 40
1.0
 10
124.1212428362157
 20
39.1111734933744
 30
0.0
 10
123.6544761113897
 20
39.38066138760145
 30
0.0
 10
123.1856153597579
 20
39.65135826876848
 30
0.0
 10
122.2581111053927
 20
40.18685309970078
 30
0.0
 10
121.7974611021889
 20
40.45280950305271
 30
0.0
 10
120.423692619228
 20
41.24595510649439
 30
0.0
 10
119.5187238316985
 20
41.76843907958278
 30
0.0
 10
118.6212428362156
 20
42.28659997391735
 30
0.0
  0
SPLINE
  5
FD
330
1F
100
AcDbEntity
  8
0
  6
Continuous
 62
     7
370
    25
100
AcDbSpline
210
0.0
220
0.0
230
1.0
 70
    24
 71
     3
 72
    12
 73
     8
 74
     0
 42
0.000000001
 43
0.00000001
 40
0.0
 40
0.0
 40
0.0
 40
0.0
 40
0.2499999999999999
 40
0.2499999999999999
 40
0.4999999999999999
 40
0.4999999999999999
 40
1.0
 40
1.0
 40
1.0
 40
1.0
 10
118.6212428362157
 20
48.63745293500322
 30
0.0
 10
118.6212428362157
 20
49.17498655790817
 30
0.0
 10
118.6212428362157
 20
49.7153533017397
 30
0.0
 10
118.6212428362157
 20
50.79644508655686
 30
0.0
 10
118.6212428362157
 20
51.33126320529887
 30
0.0
 10
118.6212428362157
 20
52.92094883989564
 30
0.0
 10
118.6212428362157
 20
53.96114943053496
 30
0.0
 10
118.6212428362157
 20
54.98830589608912
 30
0.0
  0
SPLINE
  5
FE
330
1F
100
AcDbEntity
  8
0
  6
Continuous
 62
     7
370
    25
100
AcDbSpline
210
0.0
220
0.0
230
1.0
 70
    24
 71
     3
 72
    10
 73
     6
 74
     0
 42
0.000000001
 43
0.00000001
 40
0.0
 40
0.0
 40
0.0
 40
0.0
 40
0.5
 40
0.5
 40
1.0
 40
1.0
 40
1.0
 40
1.0
 10
118.6212428362156
 20
54.98830589608909
 30
0.0
 10
119.5209705910765
 20
55.50776395755541
 30
0.0
 10
120.4272703368633
 20
56.03101635975187
 30
0.0
 10
122.2588170864294
 20
57.08846036864725
 30
0.0
 10
123.1842057229919
 20
57.62273374707164
 30
0.0
 10
124.1212428362157
 20
58.16373237663205
 30
0.0
  0
INSERT
  5
10A
330
1F
100
AcDbEntity
  8
0
  6
Continuous
 62
     7
370
    18
100
AcDbBlockReference
  2
SW_CENTERMARKSYMBOL_0
 10
129.6212428362
 20
48.637452935
 30
0.0
  0
INSERT
  5
116
330
1F
100
AcDbEntity
  8
0
  6
Continuous
 62
     7
370
    18
100
AcDbBlockReference
  2
SW_CENTERMARKSYMBOL_1
 10
129.6212428362
 20
48.637452935
 30
0.0
  0
LINE
  5
117
330
1F
100
AcDbEntity
  8
0
  6
Continuous
 62
     7
370
    25
100
AcDbLine
 10
75.6204661804
 20
92.5473858485
 30
0.0
 11
61.3168574534
 21
92.1003980758
 31
0.0
  0
LINE
  5
118
330
1F
100
AcDbEntity
  8
0
  6
Continuous
 62
     7
370
    25
100
AcDbLine
 10
61.3168574534
 20
71.4868736212
 30
0.0
 11
75.6204661804
 21
71.0398858485
 31
0.0
  0
LINE
  5
119
330
1F
100
AcDbEntity
  8
0
  6
Continuous
 62
     7
370
    25
100
AcDbLine
 10
61.3168574534
 20
92.1003980758
 30
0.0
 11
58.6204661804
 21
90.5436358485
 31
0.0
  0
LINE
  5
11A
330
1F
100
AcDbEntity
  8
0
  6
Continuous
 62
     7
370
    25
100
AcDbLine
 10
58.6204661804
 20
73.0436358485
 30
0.0
 11
61.3168574534
 21
71.4868736212
 31
0.0
  0
LINE
  5
11B
330
1F
100
AcDbEntity
  8
0
  6
Continuous
 62
     7
370
    25
100
AcDbLine
 10
86.6204661804
 20
86.2936358485
 30
0.0
 11
81.6204661804
 21
86.2936358485
 31
0.0
  0
LINE
  5
11C
330
1F
100
AcDbEntity
  8
0
  6
Continuous
 62
     7
370
    25
100
AcDbLine
 10
81.6204661804
 20
77.2936358485
 30
0.0
 11
86.6204661804
 21
77.2936358485
 31
0.0
  0
LINE
  5
11D
330
1F
100
AcDbEntity
  8
0
  6
Continuous
 62
     7
370
    25
100
AcDbLine
 10
101.6204661804
 20
77.2936358485
 30
0.0
 11
107.1824835477
 21
77.9888880194
 31
0.0
  0
LINE
  5
11E
330
1F
100
AcDbEntity
  8
0
  6
Continuous
 62
     7
370
    25
100
AcDbLine
 10
107.1824835477
 20
85.5983836776
 30
0.0
 11
101.6204661804
 21
86.2936358485
 31
0.0
  0
LINE
  5
11F
330
1F
100
AcDbEntity
  8
0
  6
Continuous
 62
     7
370
    25
100
AcDbLine
 10
86.6204661804
 20
77.2936358485
 30
0.0
 11
91.6204661804
 21
78.0436358485
 31
0.0
  0
LINE
  5
120
330
1F
100
AcDbEntity
  8
0
  6
Continuous
 62
     7
370
    25
100
AcDbLine
 10
91.6204661804
 20
85.5436358485
 30
0.0
 11
86.6204661804
 21
86.2936358485
 31
0.0
  0
LINE
  5
121
330
1F
100
AcDbEntity
  8
0
  6
Continuous
 62
     7
370
    25
100
AcDbLine
 10
91.6204661804
 20
77.2936358485
 30
0.0
 11
96.6204661804
 21
78.0436358485
 31
0.0
  0
LINE
  5
122
330
1F
100
AcDbEntity
  8
0
  6
Continuous
 62
     7
370
    25
100
AcDbLine
 10
96.6204661804
 20
85.5436358485
 30
0.0
 11
91.6204661804
 21
86.2936358485
 31
0.0
  0
LINE
  5
123
330
1F
100
AcDbEntity
  8
0
  6
Continuous
 62
     7
370
    25
100
AcDbLine
 10
96.6204661804
 20
77.2936358485
 30
0.0
 11
101.6204661804
 21
78.0436358485
 31
0.0
  0
LINE
  5
124
330
1F
100
AcDbEntity
  8
0
  6
Continuous
 62
     7
370
    25
100
AcDbLine
 10
101.6204661804
 20
85.5436358485
 30
0.0
 11
96.6204661804
 21
86.2936358485
 31
0.0
  0
ARC
  5
125
330
1F
100
AcDbEntity
  8
0
  6
Continuous
 62
     7
370
    25
100
AcDbCircle
 10
107.1204661804
 20
78.4850269578
 30
0.0
 40
0.5000000000000017
100
AcDbArc
 50
277.1250163489
 51
0.0
  0
ARC
  5
126
330
1F
100
AcDbEntity
  8
0
  6
Continuous
 62
     7
370
    25
100
AcDbCircle
 10
107.1204661804
 20
85.1022447393
 30
0.0
 40
0.5
100
AcDbArc
 50
0.0
 51
82.8749836511
  0
LINE
  5
127
330
1F
100
AcDbEntity
  8
0
  6
Continuous
 62
     7
370
    25
100
AcDbLine
 10
78.7008509381
 20
92.7936358485
 30
0.0
 11
80.6379858082
 21
92.7936358485
 31
0.0
  0
SPLINE
  5
128
330
1F
100
AcDbEntity
  8
0
  6
Continuous
 62
     7
370
    25
100
AcDbSpline
210
0.0
220
0.0
230
1.0
 70
     8
 71
     3
 72
    12
 73
     8
 74
     0
 42
0.000000001
 43
0.00000001
 40
0.0
 40
0.0
 40
0.0
 40
0.0
 40
0.2500000000000001
 40
0.2500000000000001
 40
0.5000000000000001
 40
0.5000000000000001
 40
1.0
 40
1.0
 40
1.0
 40
1.0
 10
81.62046618041627
 20
87.29363584852025
 30
0.0
 10
81.62046618041627
 20
87.76040257334623
 30
0.0
 10
81.5972440260891
 20
88.22926332497796
 30
0.0
 10
81.50737687622835
 20
89.15676757934322
 30
0.0
 10
81.44081828714066
 20
89.61741758254703
 30
0.0
 10
81.18410881301898
 20
90.9911860655079
 30
0.0
 10
80.93714613999657
 20
91.89615485303746
 30
0.0
 10
80.63798580816898
 20
92.79363584852027
 30
0.0
  0
SPLINE
  5
129
330
1F
100
AcDbEntity
  8
0
  6
Continuous
 62
     7
370
    25
100
AcDbSpline
210
0.0
220
0.0
230
1.0
 70
     8
 71
     3
 72
    10
 73
     6
 74
     0
 42
0.000000001
 43
0.00000001
 40
0.0
 40
0.0
 40
0.0
 40
0.0
 40
0.5
 40
0.5
 40
1.0
 40
1.0
 40
1.0
 40
1.0
 10
80.63798580816912
 20
81.7936358485202
 30
0.0
 10
80.93789505978944
 20
82.6933636033811
 30
0.0
 10
81.18497571915536
 20
83.59966334916786
 30
0.0
 10
81.52683053318775
 20
85.43121009873396
 30
0.0
 10
81.62046618041627
 20
86.35659873529649
 30
0.0
 10
81.62046618041627
 20
87.29363584852025
 30
0.0
  0
LINE
  5
12A
330
1F
100
AcDbEntity
  8
0
  6
Continuous
 62
     7
370
    25
100
AcDbLine
 10
78.7008509381
 20
81.7936358485
 30
0.0
 11
80.6379858082
 21
81.7936358485
 31
0.0
  0
SPLINE
  5
12B
330
1F
100
AcDbEntity
  8
0
  6
Continuous
 62
     7
370
    25
100
AcDbSpline
210
0.0
220
0.0
230
1.0
 70
     8
 71
     3
 72
     8
 73
     4
 74
     0
 42
0.000000001
 43
0.00000001
 40
0.0
 40
0.0
 40
0.0
 40
0.0
 40
1.0
 40
1.0
 40
1.0
 40
1.0
 10
78.70085093814559
 20
81.79363584852024
 30
0.0
 10
78.67301926508848
 20
81.97354261128064
 30
0.0
 10
78.64619820522243
 20
82.153535925789
 30
0.0
 10
78.62046618041626
 20
82.33362250831412
 30
0.0
  0
SPLINE
  5
12C
330
1F
100
AcDbEntity
  8
0
  6
Continuous
 62
     7
370
    25
100
AcDbSpline
210
0.0
220
0.0
230
1.0
 70
     8
 71
     3
 72
     8
 73
     4
 74
     0
 42
0.000000001
 43
0.00000001
 40
0.0
 40
0.0
 40
0.0
 40
0.0
 40
1.0
 40
1.0
 40
1.0
 40
1.0
 10
78.62046618041626
 20
82.33362250831412
 30
0.0
 10
78.59472523058295
 20
82.15347346363741
 30
0.0
 10
78.56790368632204
 20
81.97348178782079
 30
0.0
 10
78.54008142268692
 20
81.79363584852024
 30
0.0
  0
LINE
  5
12D
330
1F
100
AcDbEntity
  8
0
  6
Continuous
 62
     7
370
    25
100
AcDbLine
 10
76.6029465527
 20
81.7936358485
 30
0.0
 11
78.5400814227
 21
81.7936358485
 31
0.0
  0
SPLINE
  5
12E
330
1F
100
AcDbEntity
  8
0
  6
Continuous
 62
     7
370
    25
100
AcDbSpline
210
0.0
220
0.0
230
1.0
 70
     8
 71
     3
 72
    10
 73
     6
 74
     0
 42
0.000000001
 43
0.00000001
 40
0.0
 40
0.0
 40
0.0
 40
0.0
 40
0.5
 40
0.5
 40
1.0
 40
1.0
 40
1.0
 40
1.0
 10
76.6029465526634
 20
81.7936358485202
 30
0.0
 10
76.30303730104308
 20
82.6933636033811
 30
0.0
 10
76.05595664167716
 20
83.59966334916786
 30
0.0
 10
75.71410182764477
 20
85.43121009873396
 30
0.0
 10
75.62046618041624
 20
86.35659873529649
 30
0.0
 10
75.62046618041624
 20
87.29363584852025
 30
0.0
  0
SPLINE
  5
12F
330
1F
100
AcDbEntity
  8
0
  6
Continuous
 62
     7
370
    25
100
AcDbSpline
210
0.0
220
0.0
230
1.0
 70
     8
 71
     3
 72
    12
 73
     8
 74
     0
 42
0.000000001
 43
0.00000001
 40
0.0
 40
0.0
 40
0.0
 40
0.0
 40
0.2500000000000001
 40
0.2500000000000001
 40
0.5000000000000001
 40
0.5000000000000001
 40
1.0
 40
1.0
 40
1.0
 40
1.0
 10
75.62046618041624
 20
87.29363584852025
 30
0.0
 10
75.62046618041624
 20
87.76040257334623
 30
0.0
 10
75.64368833474342
 20
88.22926332497796
 30
0.0
 10
75.73355548460417
 20
89.15676757934322
 30
0.0
 10
75.80011407369186
 20
89.61741758254703
 30
0.0
 10
76.05682354781354
 20
90.9911860655079
 30
0.0
 10
76.30378622083595
 20
91.89615485303746
 30
0.0
 10
76.60294655266354
 20
92.79363584852027
 30
0.0
  0
LINE
  5
130
330
1F
100
AcDbEntity
  8
0
  6
Continuous
 62
     7
370
    25
100
AcDbLine
 10
76.6029465527
 20
92.7936358485
 30
0.0
 11
78.5400814227
 21
92.7936358485
 31
0.0
  0
SPLINE
  5
131
330
1F
100
AcDbEntity
  8
0
  6
Continuous
 62
     7
370
    25
100
AcDbSpline
210
0.0
220
0.0
230
1.0
 70
     8
 71
     3
 72
     8
 73
     4
 74
     0
 42
0.000000001
 43
0.00000001
 40
0.0
 40
0.0
 40
0.0
 40
0.0
 40
1.0
 40
1.0
 40
1.0
 40
1.0
 10
78.54008142268692
 20
92.79363584852024
 30
0.0
 10
78.56791309574403
 20
92.61372908575984
 30
0.0
 10
78.59473415561008
 20
92.43373577125146
 30
0.0
 10
78.62046618041626
 20
92.25364918872636
 30
0.0
  0
SPLINE
  5
132
330
1F
100
AcDbEntity
  8
0
  6
Continuous
 62
     7
370
    25
100
AcDbSpline
210
0.0
220
0.0
230
1.0
 70
     8
 71
     3
 72
     8
 73
     4
 74
     0
 42
0.000000001
 43
0.00000001
 40
0.0
 40
0.0
 40
0.0
 40
0.0
 40
1.0
 40
1.0
 40
1.0
 40
1.0
 10
78.62046618041626
 20
92.25364918872636
 30
0.0
 10
78.64620713024956
 20
92.43379823340307
 30
0.0
 10
78.67302867451048
 20
92.6137899092197
 30
0.0
 10
78.70085093814559
 20
92.79363584852024
 30
0.0
  0
LINE
  5
133
330
1F
100
AcDbEntity
  8
0
  6
Continuous
 62
     7
370
    25
100
AcDbLine
 10
75.6204661804
 20
76.2936358485
 30
0.0
 11
75.6204661804
 21
87.2936358485
 31
0.0
  0
SPLINE
  5
134
330
1F
100
AcDbEntity
  8
0
  6
Continuous
 62
     7
370
    25
100
AcDbSpline
210
0.0
220
0.0
230
1.0
 70
     8
 71
     3
 72
    12
 73
     8
 74
     0
 42
0.000000001
 43
0.00000001
 40
0.0
 40
0.0
 40
0.0
 40
0.0
 40
0.2500000000000002
 40
0.2500000000000002
 40
0.5000000000000001
 40
0.5000000000000001
 40
1.0
 40
1.0
 40
1.0
 40
1.0
 10
75.62046618041624
 20
76.29363584852024
 30
0.0
 10
75.62046618041624
 20
76.76040257334624
 30
0.0
 10
75.64368833474342
 20
77.22926332497796
 30
0.0
 10
75.73355548460417
 20
78.15676757934321
 30
0.0
 10
75.80011407369186
 20
78.61741758254703
 30
0.0
 10
76.05682354781354
 20
79.9911860655079
 30
0.0
 10
76.30378622083595
 20
80.89615485303746
 30
0.0
 10
76.60294655266354
 20
81.79363584852027
 30
0.0
  0
SPLINE
  5
135
330
1F
100
AcDbEntity
  8
0
  6
Continuous
 62
     7
370
    25
100
AcDbSpline
210
0.0
220
0.0
230
1.0
 70
     8
 71
     3
 72
    12
 73
     8
 74
     0
 42
0.000000001
 43
0.00000001
 40
0.0
 40
0.0
 40
0.0
 40
0.0
 40
0.2500000000000002
 40
0.2500000000000002
 40
0.5000000000000001
 40
0.5000000000000001
 40
1.0
 40
1.0
 40
1.0
 40
1.0
 10
81.62046618041627
 20
76.29363584852024
 30
0.0
 10
81.62046618041627
 20
76.76040257334624
 30
0.0
 10
81.5972440260891
 20
77.22926332497796
 30
0.0
 10
81.50737687622835
 20
78.15676757934321
 30
0.0
 10
81.44081828714066
 20
78.61741758254703
 30
0.0
 10
81.18410881301898
 20
79.9911860655079
 30
0.0
 10
80.93714613999657
 20
80.89615485303746
 30
0.0
 10
80.63798580816898
 20
81.79363584852027
 30
0.0
  0
LINE
  5
136
330
1F
100
AcDbEntity
  8
0
  6
Continuous
 62
     7
370
    25
100
AcDbLine
 10
81.6204661804
 20
87.2936358485
 30
0.0
 11
81.6204661804
 21
76.2936358485
 31
0.0
  0
LINE
  5
137
330
1F
100
AcDbEntity
  8
0
  6
Continuous
 62
     7
370
    25
100
AcDbLine
 10
78.6204661804
 20
81.2536491887
 30
0.0
 11
78.6204661804
 21
82.3336225083
 31
0.0
  0
SPLINE
  5
138
330
1F
100
AcDbEntity
  8
0
  6
Continuous
 62
     7
370
    25
100
AcDbSpline
210
0.0
220
0.0
230
1.0
 70
     8
 71
     3
 72
     8
 73
     4
 74
     0
 42
0.000000001
 43
0.00000001
 40
0.0
 40
0.0
 40
0.0
 40
0.0
 40
1.0
 40
1.0
 40
1.0
 40
1.0
 10
78.54008142268692
 20
81.79363584852024
 30
0.0
 10
78.56791309574403
 20
81.61372908575984
 30
0.0
 10
78.59473415561008
 20
81.43373577125148
 30
0.0
 10
78.62046618041626
 20
81.25364918872637
 30
0.0
  0
SPLINE
  5
139
330
1F
100
AcDbEntity
  8
0
  6
Continuous
 62
     7
370
    25
100
AcDbSpline
210
0.0
220
0.0
230
1.0
 70
     8
 71
     3
 72
     8
 73
     4
 74
     0
 42
0.000000001
 43
0.00000001
 40
0.0
 40
0.0
 40
0.0
 40
0.0
 40
1.0
 40
1.0
 40
1.0
 40
1.0
 10
78.62046618041626
 20
81.25364918872637
 30
0.0
 10
78.64620713024956
 20
81.43379823340308
 30
0.0
 10
78.67302867451048
 20
81.6137899092197
 30
0.0
 10
78.70085093814559
 20
81.79363584852024
 30
0.0
  0
SPLINE
  5
13A
330
1F
100
AcDbEntity
  8
0
  6
Continuous
 62
     7
370
    25
100
AcDbSpline
210
0.0
220
0.0
230
1.0
 70
     8
 71
     3
 72
    10
 73
     6
 74
     0
 42
0.000000001
 43
0.00000001
 40
0.0
 40
0.0
 40
0.0
 40
0.0
 40
0.5
 40
0.5
 40
1.0
 40
1.0
 40
1.0
 40
1.0
 10
80.63798580816912
 20
70.79363584852021
 30
0.0
 10
80.93789505978944
 20
71.6933636033811
 30
0.0
 10
81.18497571915536
 20
72.59966334916784
 30
0.0
 10
81.52683053318775
 20
74.43121009873396
 30
0.0
 10
81.62046618041627
 20
75.35659873529649
 30
0.0
 10
81.62046618041627
 20
76.29363584852024
 30
0.0
  0
LINE
  5
13B
330
1F
100
AcDbEntity
  8
0
  6
Continuous
 62
     7
370
    25
100
AcDbLine
 10
78.7008509381
 20
70.7936358485
 30
0.0
 11
80.6379858082
 21
70.7936358485
 31
0.0
  0
SPLINE
  5
13C
330
1F
100
AcDbEntity
  8
0
  6
Continuous
 62
     7
370
    25
100
AcDbSpline
210
0.0
220
0.0
230
1.0
 70
     8
 71
     3
 72
     8
 73
     4
 74
     0
 42
0.000000001
 43
0.00000001
 40
0.0
 40
0.0
 40
0.0
 40
0.0
 40
1.0
 40
1.0
 40
1.0
 40
1.0
 10
78.70085093814559
 20
70.79363584852025
 30
0.0
 10
78.67301926508848
 20
70.97354261128064
 30
0.0
 10
78.64619820522245
 20
71.153535925789
 30
0.0
 10
78.62046618041626
 20
71.33362250831412
 30
0.0
  0
SPLINE
  5
13D
330
1F
100
AcDbEntity
  8
0
  6
Continuous
 62
     7
370
    25
100
AcDbSpline
210
0.0
220
0.0
230
1.0
 70
     8
 71
     3
 72
     8
 73
     4
 74
     0
 42
0.000000001
 43
0.00000001
 40
0.0
 40
0.0
 40
0.0
 40
0.0
 40
1.0
 40
1.0
 40
1.0
 40
1.0
 10
78.62046618041626
 20
71.33362250831412
 30
0.0
 10
78.59472523058295
 20
71.15347346363741
 30
0.0
 10
78.56790368632204
 20
70.97348178782079
 30
0.0
 10
78.54008142268692
 20
70.79363584852025
 30
0.0
  0
LINE
  5
13E
330
1F
100
AcDbEntity
  8
0
  6
Continuous
 62
     7
370
    25
100
AcDbLine
 10
76.6029465527
 20
70.7936358485
 30
0.0
 11
78.5400814227
 21
70.7936358485
 31
0.0
  0
SPLINE
  5
13F
330
1F
100
AcDbEntity
  8
0
  6
Continuous
 62
     7
370
    25
100
AcDbSpline
210
0.0
220
0.0
230
1.0
 70
     8
 71
     3
 72
    10
 73
     6
 74
     0
 42
0.000000001
 43
0.00000001
 40
0.0
 40
0.0
 40
0.0
 40
0.0
 40
0.5
 40
0.5
 40
1.0
 40
1.0
 40
1.0
 40
1.0
 10
76.6029465526634
 20
70.79363584852021
 30
0.0
 10
76.30303730104308
 20
71.6933636033811
 30
0.0
 10
76.05595664167716
 20
72.59966334916784
 30
0.0
 10
75.71410182764477
 20
74.43121009873396
 30
0.0
 10
75.62046618041624
 20
75.35659873529649
 30
0.0
 10
75.62046618041624
 20
76.29363584852024
 30
0.0
  0
LINE
  5
140
330
1F
100
AcDbEntity
  8
0
  6
Continuous
 62
     7
370
    25
100
AcDbLine
 10
61.3168574534
 20
81.7936358485
 30
0.0
 11
61.3168574534
 21
71.4868736212
 31
0.0
  0
LINE
  5
141
330
1F
100
AcDbEntity
  8
0
  6
Continuous
 62
     7
370
    25
100
AcDbLine
 10
61.3168574534
 20
92.1003980758
 30
0.0
 11
61.3168574534
 21
81.7936358485
 31
0.0
  0
LINE
  5
142
330
1F
100
AcDbEntity
  8
0
  6
Continuous
 62
     7
370
    25
100
AcDbLine
 10
58.6204661804
 20
73.0436358485
 30
0.0
 11
58.6204661804
 21
90.5436358485
 31
0.0
  0
SPLINE
  5
143
330
1F
100
AcDbEntity
  8
0
  6
Continuous
 62
     7
370
    25
100
AcDbSpline
210
0.0
220
0.0
230
1.0
 70
    24
 71
     3
 72
    12
 73
     8
 74
     0
 42
0.000000001
 43
0.00000001
 40
0.0
 40
0.0
 40
0.0
 40
0.0
 40
0.25
 40
0.25
 40
0.5
 40
0.5
 40
1.0
 40
1.0
 40
1.0
 40
1.0
 10
81.62046618041626
 20
92.79363584852024
 30
0.0
 10
81.62046618041626
 20
92.79363584852024
 30
0.0
 10
81.5975219858583
 20
92.79363584852024
 30
0.0
 10
81.50666528498513
 20
92.79363584852024
 30
0.0
 10
81.43939667255519
 20
92.79363584852024
 30
0.0
 10
81.18127702671283
 20
92.79363584852024
 30
0.0
 10
80.93450033911259
 20
92.79363584852024
 30
0.0
 10
80.63798580816882
 20
92.79363584852024
 30
0.0
  0
LINE
  5
144
330
1F
100
AcDbEntity
  8
0
  6
Continuous
 62
     7
370
    25
100
AcDbLine
 10
81.6204661804
 20
92.7936358485
 30
0.0
 11
81.6204661804
 21
87.2936358485
 31
0.0
  0
SPLINE
  5
145
330
1F
100
AcDbEntity
  8
0
  6
Continuous
 62
     7
370
    25
100
AcDbSpline
210
0.0
220
0.0
230
1.0
 70
    24
 71
     3
 72
    12
 73
     8
 74
     0
 42
0.000000001
 43
0.00000001
 40
0.0
 40
0.0
 40
0.0
 40
0.0
 40
0.25
 40
0.25
 40
0.5
 40
0.5
 40
1.0
 40
1.0
 40
1.0
 40
1.0
 10
75.62046618041626
 20
92.79363584852024
 30
0.0
 10
75.62046618041626
 20
92.79363584852024
 30
0.0
 10
75.64341037497422
 20
92.79363584852024
 30
0.0
 10
75.73426707584738
 20
92.79363584852024
 30
0.0
 10
75.80153568827733
 20
92.79363584852024
 30
0.0
 10
76.05965533411968
 20
92.79363584852024
 30
0.0
 10
76.30643202171993
 20
92.79363584852024
 30
0.0
 10
76.6029465526637
 20
92.79363584852024
 30
0.0
  0
LINE
  5
146
330
1F
100
AcDbEntity
  8
0
  6
Continuous
 62
     7
370
    25
100
AcDbLine
 10
75.6204661804
 20
92.7936358485
 30
0.0
 11
75.6204661804
 21
87.2936358485
 31
0.0
  0
SPLINE
  5
147
330
1F
100
AcDbEntity
  8
0
  6
Continuous
 62
     7
370
    25
100
AcDbSpline
210
0.0
220
0.0
230
1.0
 70
    24
 71
     3
 72
    12
 73
     8
 74
     0
 42
0.000000001
 43
0.00000001
 40
0.0
 40
0.0
 40
0.0
 40
0.0
 40
0.2499999999999999
 40
0.2499999999999999
 40
0.4999999999999999
 40
0.4999999999999999
 40
1.0
 40
1.0
 40
1.0
 40
1.0
 10
81.62046618041626
 20
70.79363584852025
 30
0.0
 10
81.62046618041626
 20
70.79363584852025
 30
0.0
 10
81.5975219858583
 20
70.79363584852025
 30
0.0
 10
81.50666528498513
 20
70.79363584852025
 30
0.0
 10
81.43939667255519
 20
70.79363584852025
 30
0.0
 10
81.18127702671283
 20
70.79363584852025
 30
0.0
 10
80.93450033911259
 20
70.79363584852025
 30
0.0
 10
80.6379858081688
 20
70.79363584852025
 30
0.0
  0
LINE
  5
148
330
1F
100
AcDbEntity
  8
0
  6
Continuous
 62
     7
370
    25
100
AcDbLine
 10
81.6204661804
 20
76.2936358485
 30
0.0
 11
81.6204661804
 21
70.7936358485
 31
0.0
  0
SPLINE
  5
149
330
1F
100
AcDbEntity
  8
0
  6
Continuous
 62
     7
370
    25
100
AcDbSpline
210
0.0
220
0.0
230
1.0
 70
    24
 71
     3
 72
    12
 73
     8
 74
     0
 42
0.000000001
 43
0.00000001
 40
0.0
 40
0.0
 40
0.0
 40
0.0
 40
0.2499999999999999
 40
0.2499999999999999
 40
0.4999999999999999
 40
0.4999999999999999
 40
1.0
 40
1.0
 40
1.0
 40
1.0
 10
75.62046618041626
 20
70.79363584852025
 30
0.0
 10
75.62046618041626
 20
70.79363584852025
 30
0.0
 10
75.64341037497422
 20
70.79363584852025
 30
0.0
 10
75.73426707584738
 20
70.79363584852025
 30
0.0
 10
75.80153568827733
 20
70.79363584852025
 30
0.0
 10
76.05965533411968
 20
70.79363584852025
 30
0.0
 10
76.30643202171993
 20
70.79363584852025
 30
0.0
 10
76.60294655266371
 20
70.79363584852025
 30
0.0
  0
LINE
  5
14A
330
1F
100
AcDbEntity
  8
0
  6
Continuous
 62
     7
370
    25
100
AcDbLine
 10
75.6204661804
 20
70.7936358485
 30
0.0
 11
75.6204661804
 21
76.2936358485
 31
0.0
  0
SPLINE
  5
14B
330
1F
100
AcDbEntity
  8
0
  6
Continuous
 62
     7
370
    25
100
AcDbSpline
210
0.0
220
0.0
230
1.0
 70
    24
 71
     3
 72
     8
 73
     4
 74
     0
 42
0.000000001
 43
0.00000001
 40
0.0
 40
0.0
 40
0.0
 40
0.0
 40
1.0
 40
1.0
 40
1.0
 40
1.0
 10
78.62046618041626
 20
92.79363584852024
 30
0.0
 10
78.59472568984664
 20
92.79363584852024
 30
0.0
 10
78.56790417019722
 20
92.79363584852024
 30
0.0
 10
78.54008142268692
 20
92.79363584852024
 30
0.0
  0
LINE
  5
14C
330
1F
100
AcDbEntity
  8
0
  6
Continuous
 62
     7
370
    25
100
AcDbLine
 10
78.6204661804
 20
92.2536491887
 30
0.0
 11
78.6204661804
 21
92.7936358485
 31
0.0
  0
SPLINE
  5
14D
330
1F
100
AcDbEntity
  8
0
  6
Continuous
 62
     7
370
    25
100
AcDbSpline
210
0.0
220
0.0
230
1.0
 70
    24
 71
     3
 72
     8
 73
     4
 74
     0
 42
0.000000001
 43
0.00000001
 40
0.0
 40
0.0
 40
0.0
 40
0.0
 40
1.0
 40
1.0
 40
1.0
 40
1.0
 10
78.70085093814559
 20
92.79363584852024
 30
0.0
 10
78.6730178845897
 20
92.79363584852024
 30
0.0
 10
78.6461968968194
 20
92.79363584852024
 30
0.0
 10
78.62046618041626
 20
92.79363584852024
 30
0.0
  0
LINE
  5
14E
330
1F
100
AcDbEntity
  8
0
  6
Continuous
 62
     7
370
    25
100
AcDbLine
 10
78.6204661804
 20
70.7936358485
 30
0.0
 11
78.6204661804
 21
71.3336225083
 31
0.0
  0
SPLINE
  5
14F
330
1F
100
AcDbEntity
  8
0
  6
Continuous
 62
     7
370
    25
100
AcDbSpline
210
0.0
220
0.0
230
1.0
 70
    24
 71
     3
 72
     8
 73
     4
 74
     0
 42
0.000000001
 43
0.00000001
 40
0.0
 40
0.0
 40
0.0
 40
0.0
 40
1.0
 40
1.0
 40
1.0
 40
1.0
 10
78.62046618041626
 20
70.79363584852025
 30
0.0
 10
78.64620667098588
 20
70.79363584852025
 30
0.0
 10
78.67302819063529
 20
70.79363584852025
 30
0.0
 10
78.70085093814559
 20
70.79363584852025
 30
0.0
  0
SPLINE
  5
150
330
1F
100
AcDbEntity
  8
0
  6
Continuous
 62
     7
370
    25
100
AcDbSpline
210
0.0
220
0.0
230
1.0
 70
    24
 71
     3
 72
     8
 73
     4
 74
     0
 42
0.000000001
 43
0.00000001
 40
0.0
 40
0.0
 40
0.0
 40
0.0
 40
1.0
 40
1.0
 40
1.0
 40
1.0
 10
78.54008142268692
 20
70.79363584852025
 30
0.0
 10
78.56791447624282
 20
70.79363584852025
 30
0.0
 10
78.59473546401311
 20
70.79363584852025
 30
0.0
 10
78.62046618041626
 20
70.79363584852025
 30
0.0
  0
LINE
  5
151
330
1F
100
AcDbEntity
  8
0
  6
Continuous
 62
     7
370
    25
100
AcDbLine
 10
86.6204661804
 20
81.7936358485
 30
0.0
 11
86.6204661804
 21
77.2936358485
 31
0.0
  0
LINE
  5
152
330
1F
100
AcDbEntity
  8
0
  6
Continuous
 62
     7
370
    25
100
AcDbLine
 10
86.6204661804
 20
86.2936358485
 30
0.0
 11
86.6204661804
 21
81.7936358485
 31
0.0
  0
LINE
  5
153
330
1F
100
AcDbEntity
  8
0
  6
Continuous
 62
     7
370
    25
100
AcDbLine
 10
101.6204661804
 20
81.7936358485
 30
0.0
 11
101.6204661804
 21
77.2936358485
 31
0.0
  0
LINE
  5
154
330
1F
100
AcDbEntity
  8
0
  6
Continuous
 62
     7
370
    25
100
AcDbLine
 10
101.6204661804
 20
86.2936358485
 30
0.0
 11
101.6204661804
 21
81.7936358485
 31
0.0
  0
LINE
  5
155
330
1F
100
AcDbEntity
  8
0
  6
Continuous
 62
     7
370
    25
100
AcDbLine
 10
91.6204661804
 20
81.7936358485
 30
0.0
 11
91.6204661804
 21
77.2936358485
 31
0.0
  0
LINE
  5
156
330
1F
100
AcDbEntity
  8
0
  6
Continuous
 62
     7
370
    25
100
AcDbLine
 10
91.6204661804
 20
86.2936358485
 30
0.0
 11
91.6204661804
 21
81.7936358485
 31
0.0
  0
LINE
  5
157
330
1F
100
AcDbEntity
  8
0
  6
Continuous
 62
     7
370
    25
100
AcDbLine
 10
96.6204661804
 20
81.7936358485
 30
0.0
 11
96.6204661804
 21
77.2936358485
 31
0.0
  0
LINE
  5
158
330
1F
100
AcDbEntity
  8
0
  6
Continuous
 62
     7
370
    25
100
AcDbLine
 10
96.6204661804
 20
86.2936358485
 30
0.0
 11
96.6204661804
 21
81.7936358485
 31
0.0
  0
LINE
  5
159
330
1F
100
AcDbEntity
  8
0
  6
Continuous
 62
     7
370
    25
100
AcDbLine
 10
107.6204661804
 20
85.1022447393
 30
0.0
 11
107.6204661804
 21
78.4850269578
 31
0.0
  0
LINE
  5
15A
330
1F
100
AcDbEntity
  8
0
  6
Continuous
 62
     8
370
    25
100
AcDbLine
 10
107.1824835477
 20
81.7936358485
 30
0.0
 11
107.1824835477
 21
85.5983836776
 31
0.0
  0
LINE
  5
15B
330
1F
100
AcDbEntity
  8
0
  6
Continuous
 62
     8
370
    25
100
AcDbLine
 10
107.1824835477
 20
77.9888880194
 30
0.0
 11
107.1824835477
 21
81.7936358485
 31
0.0
  0
LINE
  5
15C
330
1F
100
AcDbEntity
  8
0
  6
Continuous
 62
     7
370
    18
100
AcDbLine
 10
59.5016922114
 20
91.0524119347
 30
0.0
 11
75.1204661804
 21
91.5404986212
 31
0.0
  0
LINE
  5
15D
330
1F
100
AcDbEntity
  8
0
  6
Continuous
 62
     7
370
    18
100
AcDbLine
 10
59.5016922114
 20
72.5348597623
 30
0.0
 11
75.1204661804
 21
72.0467730758
 31
0.0
  0
LINE
  5
15E
330
1F
100
AcDbEntity
  8
0
  6
Continuous
 62
     7
370
    18
100
AcDbLine
 10
75.1204661804
 20
71.0555108485
 30
0.0
 11
75.1204661804
 21
92.5317608485
 31
0.0
  0
LINE
  5
15F
330
1F
100
AcDbEntity
  8
0
  6
CENTERX2
 62
     7
370
    18
100
AcDbLine
 10
108.6204661804
 20
81.7936358485
 30
0.0
 11
57.3551351857
 21
81.7936358485
 31
0.0
  0
ENDSEC
  0
SECTION
  2
OBJECTS
  0
DICTIONARY
  5
C
330
0
100
AcDbDictionary
281
     1
  3
ACAD_GROUP
350
D
  3
ACAD_LAYOUT
350
1A
  3
ACAD_MLINESTYLE
350
17
  3
ACAD_PLOTSETTINGS
350
19
  3
ACAD_PLOTSTYLENAME
350
E
  3
ACAD_SCALELIST
350
47
  0
DICTIONARY
  5
D
102
{ACAD_REACTORS
330
C
102
}
330
C
100
AcDbDictionary
281
     1
  0
DICTIONARY
  5
1A
102
{ACAD_REACTORS
330
C
102
}
330
C
100
AcDbDictionary
281
     1
  3
Layout1
350
1E
  3
Layout2
350
26
  3
Model
350
22
  0
DICTIONARY
  5
17
102
{ACAD_REACTORS
330
C
102
}
330
C
100
AcDbDictionary
281
     1
  3
Standard
350
18
  0
DICTIONARY
  5
19
102
{ACAD_REACTORS
330
C
102
}
330
C
100
AcDbDictionary
281
     1
  0
ACDBDICTIONARYWDFLT
  5
E
102
{ACAD_REACTORS
330
C
102
}
330
C
100
AcDbDictionary
281
     1
  3
Normal
350
F
100
AcDbDictionaryWithDefault
340
F
  0
DICTIONARY
  5
47
102
{ACAD_REACTORS
330
C
102
}
330
C
100
AcDbDictionary
281
     1
  3
A0
350
48
  3
A1
350
49
  3
A2
350
4A
  3
A3
350
4B
  3
A4
350
4C
  3
A5
350
4D
  3
A6
350
4E
  3
A7
350
4F
  3
A8
350
50
  3
A9
350
51
  3
B0
350
52
  3
B1
350
53
  3
B2
350
54
  3
B3
350
55
  3
B4
350
56
  3
B5
350
57
  3
B6
350
58
  3
B7
350
59
  3
B8
350
5A
  3
B9
350
5B
  3
C0
350
5C
  3
C1
350
5D
  3
C2
350
5E
  3
C3
350
5F
  3
C4
350
60
  3
C5
350
61
  3
C6
350
62
  3
C7
350
63
  3
C8
350
64
  3
C9
350
65
  3
D0
350
66
  3
D1
350
67
  3
D2
350
68
  0
LAYOUT
  5
1E
102
{ACAD_REACTORS
330
1A
102
}
330
1A
100
AcDbPlotSettings
  1

  2
none_device
  4

  6

 40
0.0
 41
0.0
 42
0.0
 43
0.0
 44
0.0
 45
0.0
 46
0.0
 47
0.0
 48
0.0
 49
0.0
140
0.0
141
0.0
142
1.0
143
1.0
 70
   688
 72
     1
 73
     0
 74
     5
  7

 75
    16
147
1.0
148
0.0
149
0.0
100
AcDbLayout
  1
Layout1
 70
     1
 71
     1
 10
0.0
 20
0.0
 11
420.0
 21
297.0
 12
0.0
 22
0.0
 32
0.0
 14
1.0000000000E+20
 24
1.0000000000E+20
 34
1.0000000000E+20
 15
-1.0000000000E+20
 25
-1.0000000000E+20
 35
-1.0000000000E+20
146
0.0
 13
0.0
 23
0.0
 33
0.0
 16
1.0
 26
0.0
 36
0.0
 17
0.0
 27
1.0
 37
0.0
 76
     0
330
1B
  0
LAYOUT
  5
26
102
{ACAD_REACTORS
330
1A
102
}
330
1A
100
AcDbPlotSettings
  1

  2
none_device
  4

  6

 40
0.0
 41
0.0
 42
0.0
 43
0.0
 44
0.0
 45
0.0
 46
0.0
 47
0.0
 48
0.0
 49
0.0
140
0.0
141
0.0
142
1.0
143
1.0
 70
   688
 72
     1
 73
     0
 74
     5
  7

 75
    16
147
1.0
148
0.0
149
0.0
100
AcDbLayout
  1
Layout2
 70
     1
 71
     2
 10
0.0
 20
0.0
 11
0.0
 21
0.0
 12
0.0
 22
0.0
 32
0.0
 14
0.0
 24
0.0
 34
0.0
 15
0.0
 25
0.0
 35
0.0
146
0.0
 13
0.0
 23
0.0
 33
0.0
 16
1.0
 26
0.0
 36
0.0
 17
0.0
 27
1.0
 37
0.0
 76
     0
330
23
  0
LAYOUT
  5
22
102
{ACAD_REACTORS
330
1A
102
}
330
1A
100
AcDbPlotSettings
  1

  2
none_device
  4
Letter_(8.50_x_11.00_Inches)
  6

 40
6.35
 41
6.35
 42
6.35000508
 43
6.35000508
 44
215.9
 45
279.4
 46
0.0
 47
0.0
 48
0.0
 49
0.0
140
0.0
141
0.0
142
1.0
143
1.0
 70
  1712
 72
     1
 73
     0
 74
     0
  7

 75
     0
147
1.0
148
0.0
149
0.0
100
AcDbLayout
  1
Model
 70
     1
 71
     0
 10
0.0
 20
0.0
 11
215.9
 21
139.7
 12
0.0
 22
0.0
 32
0.0
 14
0.0
 24
0.0
 34
0.0
 15
215.9
 25
139.7
 35
0.0
146
0.0
 13
0.0
 23
0.0
 33
0.0
 16
1.0
 26
0.0
 36
0.0
 17
0.0
 27
1.0
 37
0.0
 76
     0
330
1F
331
29
  0
MLINESTYLE
  5
18
102
{ACAD_REACTORS
330
17
102
}
330
17
100
AcDbMlineStyle
  2
Standard
 70
     0
  3

 62
   256
 51
90.0
 52
90.0
 71
     2
 49
0.5
 62
   256
  6
BYLAYER
 49
-0.5
 62
   256
  6
BYLAYER
  0
ACDBPLACEHOLDER
  5
F
102
{ACAD_REACTORS
330
E
102
}
330
E
  0
SCALE
  5
48
102
{ACAD_REACTORS
330
47
102
}
330
47
100
AcDbScale
 70
     0
300
1:1
140
1.0
141
1.0
290
     1
  0
SCALE
  5
49
102
{ACAD_REACTORS
330
47
102
}
330
47
100
AcDbScale
 70
     0
300
1:2
140
1.0
141
2.0
290
     0
  0
SCALE
  5
4A
102
{ACAD_REACTORS
330
47
102
}
330
47
100
AcDbScale
 70
     0
300
1:4
140
1.0
141
4.0
290
     0
  0
SCALE
  5
4B
102
{ACAD_REACTORS
330
47
102
}
330
47
100
AcDbScale
 70
     0
300
1:5
140
1.0
141
5.0
290
     0
  0
SCALE
  5
4C
102
{ACAD_REACTORS
330
47
102
}
330
47
100
AcDbScale
 70
     0
300
1:8
140
1.0
141
8.0
290
     0
  0
SCALE
  5
4D
102
{ACAD_REACTORS
330
47
102
}
330
47
100
AcDbScale
 70
     0
300
1:10
140
1.0
141
10.0
290
     0
  0
SCALE
  5
4E
102
{ACAD_REACTORS
330
47
102
}
330
47
100
AcDbScale
 70
     0
300
1:16
140
1.0
141
16.0
290
     0
  0
SCALE
  5
4F
102
{ACAD_REACTORS
330
47
102
}
330
47
100
AcDbScale
 70
     0
300
1:20
140
1.0
141
20.0
290
     0
  0
SCALE
  5
50
102
{ACAD_REACTORS
330
47
102
}
330
47
100
AcDbScale
 70
     0
300
1:30
140
1.0
141
30.0
290
     0
  0
SCALE
  5
51
102
{ACAD_REACTORS
330
47
102
}
330
47
100
AcDbScale
 70
     0
300
1:40
140
1.0
141
40.0
290
     0
  0
SCALE
  5
52
102
{ACAD_REACTORS
330
47
102
}
330
47
100
AcDbScale
 70
     0
300
1:50
140
1.0
141
50.0
290
     0
  0
SCALE
  5
53
102
{ACAD_REACTORS
330
47
102
}
330
47
100
AcDbScale
 70
     0
300
1:100
140
1.0
141
100.0
290
     0
  0
SCALE
  5
54
102
{ACAD_REACTORS
330
47
102
}
330
47
100
AcDbScale
 70
     0
300
2:1
140
2.0
141
1.0
290
     0
  0
SCALE
  5
55
102
{ACAD_REACTORS
330
47
102
}
330
47
100
AcDbScale
 70
     0
300
4:1
140
4.0
141
1.0
290
     0
  0
SCALE
  5
56
102
{ACAD_REACTORS
330
47
102
}
330
47
100
AcDbScale
 70
     0
300
8:1
140
8.0
141
1.0
290
     0
  0
SCALE
  5
57
102
{ACAD_REACTORS
330
47
102
}
330
47
100
AcDbScale
 70
     0
300
10:1
140
10.0
141
1.0
290
     0
  0
SCALE
  5
58
102
{ACAD_REACTORS
330
47
102
}
330
47
100
AcDbScale
 70
     0
300
100:1
140
100.0
141
1.0
290
     0
  0
SCALE
  5
59
102
{ACAD_REACTORS
330
47
102
}
330
47
100
AcDbScale
 70
     0
300
1/128" = 1'-0"
140
0.0078125
141
12.0
290
     0
  0
SCALE
  5
5A
102
{ACAD_REACTORS
330
47
102
}
330
47
100
AcDbScale
 70
     0
300
1/64" = 1'-0"
140
0.015625
141
12.0
290
     0
  0
SCALE
  5
5B
102
{ACAD_REACTORS
330
47
102
}
330
47
100
AcDbScale
 70
     0
300
1/32" = 1'-0"
140
0.03125
141
12.0
290
     0
  0
SCALE
  5
5C
102
{ACAD_REACTORS
330
47
102
}
330
47
100
AcDbScale
 70
     0
300
1/16" = 1'-0"
140
0.0625
141
12.0
290
     0
  0
SCALE
  5
5D
102
{ACAD_REACTORS
330
47
102
}
330
47
100
AcDbScale
 70
     0
300
3/32" = 1'-0"
140
0.09375
141
12.0
290
     0
  0
SCALE
  5
5E
102
{ACAD_REACTORS
330
47
102
}
330
47
100
AcDbScale
 70
     0
300
1/8" = 1'-0"
140
0.125
141
12.0
290
     0
  0
SCALE
  5
5F
102
{ACAD_REACTORS
330
47
102
}
330
47
100
AcDbScale
 70
     0
300
3/16" = 1'-0"
140
0.1875
141
12.0
290
     0
  0
SCALE
  5
60
102
{ACAD_REACTORS
330
47
102
}
330
47
100
AcDbScale
 70
     0
300
1/4" = 1'-0"
140
0.25
141
12.0
290
     0
  0
SCALE
  5
61
102
{ACAD_REACTORS
330
47
102
}
330
47
100
AcDbScale
 70
     0
300
3/8" = 1'-0"
140
0.375
141
12.0
290
     0
  0
SCALE
  5
62
102
{ACAD_REACTORS
330
47
102
}
330
47
100
AcDbScale
 70
     0
300
1/2" = 1'-0"
140
0.5
141
12.0
290
     0
  0
SCALE
  5
63
102
{ACAD_REACTORS
330
47
102
}
330
47
100
AcDbScale
 70
     0
300
3/4" = 1'-0"
140
0.75
141
12.0
290
     0
  0
SCALE
  5
64
102
{ACAD_REACTORS
330
47
102
}
330
47
100
AcDbScale
 70
     0
300
1" = 1'-0"
140
1.0
141
12.0
290
     0
  0
SCALE
  5
65
102
{ACAD_REACTORS
330
47
102
}
330
47
100
AcDbScale
 70
     0
300
1-1/2" = 1'-0"
140
1.5
141
12.0
290
     0
  0
SCALE
  5
66
102
{ACAD_REACTORS
330
47
102
}
330
47
100
AcDbScale
 70
     0
300
3" = 1'-0"
140
3.0
141
12.0
290
     0
  0
SCALE
  5
67
102
{ACAD_REACTORS
330
47
102
}
330
47
100
AcDbScale
 70
     0
300
6" = 1'-0"
140
6.0
141
12.0
290
     0
  0
SCALE
  5
68
102
{ACAD_REACTORS
330
47
102
}
330
47
100
AcDbScale
 70
     0
300
1'-0" = 1'-0"
140
12.0
141
12.0
290
     0
  0
ENDSEC
  0
EOF
