  0
SECTION
  2
HEADER
  9
$ACADVER
  1
AC1015
  9
$ACADMAINTVER
 70
     6
  9
$DWGCODEPAGE
  3
DOS932
  9
$INSBASE
 10
0.0
 20
0.0
 30
0.0
  9
$EXTMIN
 10
0.0
 20
0.0
 30
0.0
  9
$EXTMAX
 10
215.9
 20
139.7
 30
0.0
  9
$LIMMIN
 10
0.0
 20
0.0
  9
$LIMMAX
 10
215.9
 20
139.7
  9
$ORTHOMODE
 70
     0
  9
$REGENMODE
 70
     1
  9
$FILLMODE
 70
     1
  9
$QTEXTMODE
 70
     0
  9
$MIRRTEXT
 70
     1
  9
$LTSCALE
 40
0.5
  9
$ATTMODE
 70
     1
  9
$TEXTSIZE
 40
1.75
  9
$TRACEWID
 40
1.0
  9
$TEXTSTYLE
  7
Standard
  9
$CLAYER
  8
0
  9
$CELTYPE
  6
ByLayer
  9
$CECOLOR
 62
   256
  9
$CELTSCALE
 40
1.0
  9
$DISPSILH
 70
     0
  9
$DIMSCALE
 40
1.0
  9
$DIMASZ
 40
1.651
  9
$DIMEXO
 40
0.5
  9
$DIMDLI
 40
3.75
  9
$DIMRND
 40
0.0
  9
$DIMDLE
 40
0.0
  9
$DIMEXE
 40
0.5
  9
$DIMTP
 40
0.0
  9
$DIMTM
 40
0.0
  9
$DIMTXT
 40
1.75
  9
$DIMCEN
 40
2.5
  9
$DIMTSZ
 40
0.0
  9
$DIMTOL
 70
     0
  9
$DIMLIM
 70
     0
  9
$DIMTIH
 70
     1
  9
$DIMTOH
 70
     1
  9
$DIMSE1
 70
     0
  9
$DIMSE2
 70
     0
  9
$DIMTAD
 70
     1
  9
$DIMZIN
 70
     1
  9
$DIMBLK
  1

  9
$DIMASO
 70
     1
  9
$DIMSHO
 70
     1
  9
$DIMPOST
  1

  9
$DIMAPOST
  1

  9
$DIMALT
 70
     0
  9
$DIMALTD
 70
     3
  9
$DIMALTF
 40
0.0393700787
  9
$DIMLFAC
 40
1.0
  9
$DIMTOFL
 70
     1
  9
$DIMTVP
 40
0.0
  9
$DIMTIX
 70
     0
  9
$DIMSOXD
 70
     0
  9
$DIMSAH
 70
     0
  9
$DIMBLK1
  1

  9
$DIMBLK2
  1

  9
$DIMSTYLE
  2
ISO-25
  9
$DIMCLRD
 70
     0
  9
$DIMCLRE
 70
     0
  9
$DIMCLRT
 70
     0
  9
$DIMTFAC
 40
1.0
  9
$DIMGAP
 40
0.762
  9
$DIMJUST
 70
     0
  9
$DIMSD1
 70
     0
  9
$DIMSD2
 70
     0
  9
$DIMTOLJ
 70
     0
  9
$DIMTZIN
 70
     1
  9
$DIMALTZ
 70
     0
  9
$DIMALTTZ
 70
     0
  9
$DIMUPT
 70
     0
  9
$DIMDEC
 70
     2
  9
$DIMTDEC
 70
     2
  9
$DIMALTU
 70
     2
  9
$DIMALTTD
 70
     3
  9
$DIMTXSTY
  7
Standard
  9
$DIMAUNIT
 70
     0
  9
$DIMADEC
 70
     2
  9
$DIMALTRND
 40
0.0
  9
$DIMAZIN
 70
     0
  9
$DIMDSEP
 70
    44
  9
$DIMATFIT
 70
     3
  9
$DIMFRAC
 70
     0
  9
$DIMLDRBLK
  1

  9
$DIMLUNIT
 70
     2
  9
$DIMLWD
 70
    -2
  9
$DIMLWE
 70
    -2
  9
$DIMTMOVE
 70
     0
  9
$LUNITS
 70
     2
  9
$LUPREC
 70
     2
  9
$SKETCHINC
 40
1.0
  9
$FILLETRAD
 40
10.0
  9
$AUNITS
 70
     0
  9
$AUPREC
 70
     2
  9
$MENU
  1
.
  9
$ELEVATION
 40
0.0
  9
$PELEVATION
 40
0.0
  9
$THICKNESS
 40
0.0
  9
$LIMCHECK
 70
     0
  9
$CHAMFERA
 40
0.0
  9
$CHAMFERB
 40
0.0
  9
$CHAMFERC
 40
0.0
  9
$CHAMFERD
 40
0.0
  9
$SKPOLY
 70
     0
  9
$TDCREATE
 40
2460082.679053785
  9
$TDUCREATE
 40
2460082.304053785
  9
$TDUPDATE
 40
2460082.679054526
  9
$TDUUPDATE
 40
2460082.304054526
  9
$TDINDWG
 40
0.0000000116
  9
$TDUSRTIMER
 40
0.0000000116
  9
$USRTIMER
 70
     1
  9
$ANGBASE
 50
0.0
  9
$ANGDIR
 70
     0
  9
$PDMODE
 70
     0
  9
$PDSIZE
 40
-1.0
  9
$PLINEWID
 40
0.0
  9
$SPLFRAME
 70
     0
  9
$SPLINETYPE
 70
     6
  9
$SPLINESEGS
 70
     8
  9
$HANDSEED
  5
160
  9
$SURFTAB1
 70
     6
  9
$SURFTAB2
 70
     6
  9
$SURFTYPE
 70
     6
  9
$SURFU
 70
     6
  9
$SURFV
 70
     6
  9
$UCSBASE
  2

  9
$UCSNAME
  2

  9
$UCSORG
 10
0.0
 20
0.0
 30
0.0
  9
$UCSXDIR
 10
1.0
 20
0.0
 30
0.0
  9
$UCSYDIR
 10
0.0
 20
1.0
 30
0.0
  9
$UCSORTHOREF
  2

  9
$UCSORTHOVIEW
 70
     0
  9
$UCSORGTOP
 10
0.0
 20
0.0
 30
0.0
  9
$UCSORGBOTTOM
 10
0.0
 20
0.0
 30
0.0
  9
$UCSORGLEFT
 10
0.0
 20
0.0
 30
0.0
  9
$UCSORGRIGHT
 10
0.0
 20
0.0
 30
0.0
  9
$UCSORGFRONT
 10
0.0
 20
0.0
 30
0.0
  9
$UCSORGBACK
 10
0.0
 20
0.0
 30
0.0
  9
$PUCSBASE
  2

  9
$PUCSNAME
  2

  9
$PUCSORG
 10
0.0
 20
0.0
 30
0.0
  9
$PUCSXDIR
 10
1.0
 20
0.0
 30
0.0
  9
$PUCSYDIR
 10
0.0
 20
1.0
 30
0.0
  9
$PUCSORTHOREF
  2

  9
$PUCSORTHOVIEW
 70
     0
  9
$PUCSORGTOP
 10
0.0
 20
0.0
 30
0.0
  9
$PUCSORGBOTTOM
 10
0.0
 20
0.0
 30
0.0
  9
$PUCSORGLEFT
 10
0.0
 20
0.0
 30
0.0
  9
$PUCSORGRIGHT
 10
0.0
 20
0.0
 30
0.0
  9
$PUCSORGFRONT
 10
0.0
 20
0.0
 30
0.0
  9
$PUCSORGBACK
 10
0.0
 20
0.0
 30
0.0
  9
$USERI1
 70
     0
  9
$USERI2
 70
     0
  9
$USERI3
 70
     0
  9
$USERI4
 70
     0
  9
$USERI5
 70
     0
  9
$USERR1
 40
0.0
  9
$USERR2
 40
0.0
  9
$USERR3
 40
0.0
  9
$USERR4
 40
0.0
  9
$USERR5
 40
0.0
  9
$WORLDVIEW
 70
     1
  9
$SHADEDGE
 70
     3
  9
$SHADEDIF
 70
    70
  9
$TILEMODE
 70
     1
  9
$MAXACTVP
 70
    64
  9
$PINSBASE
 10
0.0
 20
0.0
 30
0.0
  9
$PLIMCHECK
 70
     0
  9
$PEXTMIN
 10
1.0000000000E+20
 20
1.0000000000E+20
 30
1.0000000000E+20
  9
$PEXTMAX
 10
-1.0000000000E+20
 20
-1.0000000000E+20
 30
-1.0000000000E+20
  9
$PLIMMIN
 10
0.0
 20
0.0
  9
$PLIMMAX
 10
420.0
 20
297.0
  9
$UNITMODE
 70
     0
  9
$VISRETAIN
 70
     1
  9
$PLINEGEN
 70
     0
  9
$PSLTSCALE
 70
     1
  9
$TREEDEPTH
 70
  3020
  9
$CMLSTYLE
  2
Standard
  9
$CMLJUST
 70
     0
  9
$CMLSCALE
 40
20.0
  9
$PROXYGRAPHICS
 70
     1
  9
$MEASUREMENT
 70
     1
  9
$CELWEIGHT
370
    -1
  9
$ENDCAPS
280
     0
  9
$JOINSTYLE
280
     0
  9
$LWDISPLAY
290
     1
  9
$INSUNITS
 70
     4
  9
$HYPERLINKBASE
  1

  9
$STYLESHEET
  1

  9
$XEDIT
290
     1
  9
$CEPSNTYPE
380
     0
  9
$PSTYLEMODE
290
     1
  9
$FINGERPRINTGUID
  2
{E84E7729-1149-49CA-B311-63E842408E7B}
  9
$VERSIONGUID
  2
{FAEB1C32-E019-11D5-929B-00C0DF256EC4}
  9
$EXTNAMES
290
     1
  9
$PSVPSCALE
 40
0.0
  9
$OLESTARTUP
290
     0
  0
ENDSEC
  0
SECTION
  2
CLASSES
  0
CLASS
  1
ACDBDICTIONARYWDFLT
  2
AcDbDictionaryWithDefault
  3
ObjectDBX Classes
 90
        0
280
     0
281
     0
  0
CLASS
  1
VISUALSTYLE
  2
AcDbVisualStyle
  3
ObjectDBX Classes
 90
     4095
280
     0
281
     0
  0
CLASS
  1
MATERIAL
  2
AcDbMaterial
  3
ObjectDBX Classes
 90
     1153
280
     0
281
     0
  0
CLASS
  1
SCALE
  2
AcDbScale
  3
ObjectDBX Classes
 90
     1153
280
     0
281
     0
  0
CLASS
  1
TABLESTYLE
  2
AcDbTableStyle
  3
ObjectDBX Classes
 90
     4095
280
     0
281
     0
  0
CLASS
  1
MLEADERSTYLE
  2
AcDbMLeaderStyle
  3
ACDB_MLEADERSTYLE_CLASS
 90
     4095
280
     0
281
     0
  0
CLASS
  1
SUN
  2
AcDbSun
  3
SCENEOE
 90
     1153
280
     0
281
     0
  0
CLASS
  1
ACDBPLACEHOLDER
  2
AcDbPlaceHolder
  3
ObjectDBX Classes
 90
        0
280
     0
281
     0
  0
CLASS
  1
LAYOUT
  2
AcDbLayout
  3
ObjectDBX Classes
 90
        0
280
     0
281
     0
  0
ENDSEC
  0
SECTION
  2
TABLES
  0
TABLE
  2
VPORT
  5
8
330
0
100
AcDbSymbolTable
 70
     1
  0
VPORT
  5
29
330
8
100
AcDbSymbolTableRecord
100
AcDbViewportTableRecord
  2
*Active
 70
     0
 10
0.0
 20
0.0
 11
1.0
 21
1.0
 12
107.95
 22
69.85
 13
0.0
 23
0.0
 14
10.0
 24
10.0
 15
10.0
 25
10.0
 16
0.0
 26
0.0
 36
1.0
 17
0.0
 27
0.0
 37
0.0
 40
139.7
 41
1.5454545455
 42
50.0
 43
0.0
 44
0.0
 50
0.0
 51
0.0
 71
     0
 72
  2000
 73
     1
 74
     3
 75
     0
 76
     0
 77
     0
 78
     0
281
     0
 65
     1
110
0.0
120
0.0
130
0.0
111
1.0
121
0.0
131
0.0
112
0.0
122
1.0
132
0.0
 79
     0
146
0.0
  0
ENDTAB
  0
TABLE
  2
LTYPE
  5
5
330
0
100
AcDbSymbolTable
 70
     6
  0
LTYPE
  5
14
330
5
100
AcDbSymbolTableRecord
100
AcDbLinetypeTableRecord
  2
ByBlock
 70
     0
  3

 72
    65
 73
     0
 40
0.0
  0
LTYPE
  5
15
330
5
100
AcDbSymbolTableRecord
100
AcDbLinetypeTableRecord
  2
ByLayer
 70
     0
  3

 72
    65
 73
     0
 40
0.0
  0
LTYPE
  5
16
330
5
100
AcDbSymbolTableRecord
100
AcDbLinetypeTableRecord
  2
Continuous
 70
     0
  3
Solid line
 72
    65
 73
     0
 40
0.0
  0
LTYPE
  5
6E
330
5
100
AcDbSymbolTableRecord
100
AcDbLinetypeTableRecord
  2
HIDDEN
 70
     0
  3
Hidden __ __ __ __ __ __ __ __ __ __ __ __ __ __
 72
    65
 73
     2
 40
1.905
 49
1.27
 74
     0
 49
-0.635
 74
     0
  0
LTYPE
  5
6F
330
5
100
AcDbSymbolTableRecord
100
AcDbLinetypeTableRecord
  2
PHANTOM
 70
     0
  3
Phantom ______  __  __  ______  __  __  ______
 72
    65
 73
     6
 40
12.7
 49
6.35
 74
     0
 49
-1.27
 74
     0
 49
1.27
 74
     0
 49
-1.27
 74
     0
 49
1.27
 74
     0
 49
-1.27
 74
     0
  0
LTYPE
  5
70
330
5
100
AcDbSymbolTableRecord
100
AcDbLinetypeTableRecord
  2
CENTER
 70
     0
  3
Center ____ _ ____ _ ____ _ ____ _ ____ _ ____
 72
    65
 73
     4
 40
10.16
 49
6.35
 74
     0
 49
-1.27
 74
     0
 49
1.27
 74
     0
 49
-1.27
 74
     0
  0
LTYPE
  5
71
330
5
100
AcDbSymbolTableRecord
100
AcDbLinetypeTableRecord
  2
CENTERX2
 70
     0
  3
Center (2x) ________  __  ________  __  _____
 72
    65
 73
     4
 40
20.32
 49
12.7
 74
     0
 49
-2.54
 74
     0
 49
2.54
 74
     0
 49
-2.54
 74
     0
  0
LTYPE
  5
72
330
5
100
AcDbSymbolTableRecord
100
AcDbLinetypeTableRecord
  2
DOT2
 70
     0
  3
Dot (.5x) ........................................
 72
    65
 73
     2
 40
0.635
 49
0.0
 74
     0
 49
-0.635
 74
     0
  0
ENDTAB
  0
TABLE
  2
LAYER
  5
2
330
0
100
AcDbSymbolTable
 70
     1
  0
LAYER
  5
10
330
2
100
AcDbSymbolTableRecord
100
AcDbLayerTableRecord
  2
0
 70
     0
 62
     7
  6
Continuous
370
    -3
390
F
  0
ENDTAB
  0
TABLE
  2
STYLE
  5
3
330
0
100
AcDbSymbolTable
 70
     2
  0
STYLE
  5
11
330
3
100
AcDbSymbolTableRecord
100
AcDbTextStyleTableRecord
  2
Standard
 70
     0
 40
0.0
 41
1.0
 50
0.0
 71
     0
 42
1.75
  3
txt
  4
bigfont
  0
STYLE
  5
73
330
3
100
AcDbSymbolTableRecord
100
AcDbTextStyleTableRecord
  2
SLDTEXTSTYLE0
 70
     0
 40
0.0
 41
0.7
 50
0.0
 71
     0
 42
1.75
  3
TXT
  4
bigfont
  0
ENDTAB
  0
TABLE
  2
VIEW
  5
6
330
0
100
AcDbSymbolTable
 70
     0
  0
ENDTAB
  0
TABLE
  2
UCS
  5
7
330
0
100
AcDbSymbolTable
 70
     0
  0
ENDTAB
  0
TABLE
  2
APPID
  5
9
330
0
100
AcDbSymbolTable
 70
     1
  0
APPID
  5
12
330
9
100
AcDbSymbolTableRecord
100
AcDbRegAppTableRecord
  2
ACAD
 70
     0
  0
ENDTAB
  0
TABLE
  2
DIMSTYLE
  5
A
330
0
100
AcDbSymbolTable
 70
     1
100
AcDbDimStyleTable
  0
DIMSTYLE
105
27
330
A
100
AcDbSymbolTableRecord
100
AcDbDimStyleTableRecord
  2
ISO-25
 70
     0
 41
2.5
 42
0.625
 43
3.75
 44
1.25
 73
     0
 74
     0
 77
     1
 78
     8
140
2.5
141
2.5
143
0.0393700787
147
0.625
171
     3
172
     1
178
     0
271
     2
272
     2
274
     3
278
    44
283
     0
284
     8
340
11
  0
ENDTAB
  0
TABLE
  2
BLOCK_RECORD
  5
1
330
0
100
AcDbSymbolTable
 70
     3
  0
BLOCK_RECORD
  5
1F
330
1
100
AcDbSymbolTableRecord
100
AcDbBlockTableRecord
  2
*Model_Space
340
22
  0
BLOCK_RECORD
  5
1B
330
1
100
AcDbSymbolTableRecord
100
AcDbBlockTableRecord
  2
*Paper_Space
340
1E
  0
BLOCK_RECORD
  5
23
330
1
100
AcDbSymbolTableRecord
100
AcDbBlockTableRecord
  2
*Paper_Space0
340
26
  0
BLOCK_RECORD
  5
FF
330
1
100
AcDbSymbolTableRecord
100
AcDbBlockTableRecord
  2
SW_CENTERMARKSYMBOL_0
340
0
102
{BLKREFS
331
10A
102
}
  0
BLOCK_RECORD
  5
10B
330
1
100
AcDbSymbolTableRecord
100
AcDbBlockTableRecord
  2
SW_CENTERMARKSYMBOL_1
340
0
102
{BLKREFS
331
116
102
}
  0
ENDTAB
  0
ENDSEC
  0
SECTION
  2
BLOCKS
  0
BLOCK
  5
20
330
1F
100
AcDbEntity
  8
0
100
AcDbBlockBegin
  2
*Model_Space
 70
     0
 10
0.0
 20
0.0
 30
0.0
  3
*Model_Space
  1

  0
ENDBLK
  5
21
330
1F
100
AcDbEntity
  8
0
100
AcDbBlockEnd
  0
BLOCK
  5
1C
330
1B
100
AcDbEntity
 67
     1
  8
0
100
AcDbBlockBegin
  2
*Paper_Space
 70
     0
 10
0.0
 20
0.0
 30
0.0
  3
*Paper_Space
  1

  0
ENDBLK
  5
1D
330
1B
100
AcDbEntity
 67
     1
  8
0
100
AcDbBlockEnd
  0
BLOCK
  5
24
330
23
100
AcDbEntity
  8
0
100
AcDbBlockBegin
  2
*Paper_Space0
 70
     0
 10
0.0
 20
0.0
 30
0.0
  3
*Paper_Space0
  1

  0
ENDBLK
  5
25
330
23
100
AcDbEntity
  8
0
100
AcDbBlockEnd
  0
BLOCK
  5
100
330
FF
100
AcDbEntity
  8
0
100
AcDbBlockBegin
  2
SW_CENTERMARKSYMBOL_0
 70
     0
 10
0.0
 20
0.0
 30
0.0
  3
SW_CENTERMARKSYMBOL_0
  1

  0
LINE
  5
102
330
FF
100
AcDbEntity
  8
0
  6
Continuous
 62
     0
370
    18
100
AcDbLine
 10
0.0
 20
0.0
 30
0.0
 11
0.0
 21
2.5
 31
0.0
  0
LINE
  5
103
330
FF
100
AcDbEntity
  8
0
  6
Continuous
 62
     0
370
    18
100
AcDbLine
 10
0.0
 20
0.0
 30
0.0
 11
-2.5
 21
0.0
 31
0.0
  0
LINE
  5
104
330
FF
100
AcDbEntity
  8
0
  6
Continuous
 62
     0
370
    18
100
AcDbLine
 10
0.0
 20
0.0
 30
0.0
 11
0.0
 21
-2.5
 31
0.0
  0
LINE
  5
105
330
FF
100
AcDbEntity
  8
0
  6
Continuous
 62
     0
370
    18
100
AcDbLine
 10
0.0
 20
0.0
 30
0.0
 11
2.5
 21
0.0
 31
0.0
  0
LINE
  5
106
330
FF
100
AcDbEntity
  8
0
  6
Continuous
 62
     0
370
    18
100
AcDbLine
 10
0.0
 20
2.5
 30
0.0
 11
0.0
 21
5.0
 31
0.0
  0
LINE
  5
107
330
FF
100
AcDbEntity
  8
0
  6
Continuous
 62
     0
370
    18
100
AcDbLine
 10
-2.5
 20
0.0
 30
0.0
 11
-5.0
 21
0.0
 31
0.0
  0
LINE
  5
108
330
FF
100
AcDbEntity
  8
0
  6
Continuous
 62
     0
370
    18
100
AcDbLine
 10
0.0
 20
-2.5
 30
0.0
 11
0.0
 21
-5.0
 31
0.0
  0
LINE
  5
109
330
FF
100
AcDbEntity
  8
0
  6
Continuous
 62
     0
370
    18
100
AcDbLine
 10
2.5
 20
0.0
 30
0.0
 11
5.0
 21
0.0
 31
0.0
  0
ENDBLK
  5
101
330
FF
100
AcDbEntity
  8
0
100
AcDbBlockEnd
  0
BLOCK
  5
10C
330
10B
100
AcDbEntity
  8
0
100
AcDbBlockBegin
  2
SW_CENTERMARKSYMBOL_1
 70
     0
 10
0.0
 20
0.0
 30
0.0
  3
SW_CENTERMARKSYMBOL_1
  1

  0
LINE
  5
10E
330
10B
100
AcDbEntity
  8
0
  6
Continuous
 62
     0
370
    18
100
AcDbLine
 10
0.0
 20
0.0
 30
0.0
 11
0.0
 21
2.5
 31
0.0
  0
LINE
  5
10F
330
10B
100
AcDbEntity
  8
0
  6
Continuous
 62
     0
370
    18
100
AcDbLine
 10
0.0
 20
0.0
 30
0.0
 11
-2.5
 21
0.0
 31
0.0
  0
LINE
  5
110
330
10B
100
AcDbEntity
  8
0
  6
Continuous
 62
     0
370
    18
100
AcDbLine
 10
0.0
 20
0.0
 30
0.0
 11
0.0
 21
-2.5
 31
0.0
  0
LINE
  5
111
330
10B
100
AcDbEntity
  8
0
  6
Continuous
 62
     0
370
    18
100
AcDbLine
 10
0.0
 20
0.0
 30
0.0
 11
2.5
 21
0.0
 31
0.0
  0
LINE
  5
112
330
10B
100
AcDbEntity
  8
0
  6
Continuous
 62
     0
370
    18
100
AcDbLine
 10
0.0
 20
5.0
 30
0.0
 11
0.0
 21
13.5
 31
0.0
  0
LINE
  5
113
330
10B
100
AcDbEntity
  8
0
  6
Continuous
 62
     0
370
    18
100
AcDbLine
 10
-5.0
 20
0.0
 30
0.0
 11
-13.5
 21
0.0
 31
0.0
  0
LINE
  5
114
330
10B
100
AcDbEntity
  8
0
  6
Continuous
 62
     0
370
    18
100
AcDbLine
 10
0.0
 20
-5.0
 30
0.0
 11
0.0
 21
-13.5
 31
0.0
  0
LINE
  5
115
330
10B
100
AcDbEntity
  8
0
  6
Continuous
 62
     0
370
    18
100
AcDbLine
 10
5.0
 20
0.0
 30
0.0
 11
13.5
 21
0.0
 31
0.0
  0
ENDBLK
  5
10D
330
10B
100
AcDbEntity
  8
0
100
AcDbBlockEnd
  0
ENDSEC
  0
SECTION
  2
ENTITIES
  0
MTEXT
  5
74
330
1F
100
AcDbEntity
  8
0
  6
Continuous
 62
     7
370
     0
100
AcDbMText
 10
100.9983867405
 20
67.4548637597
 30
0.0
 40
2.38125
 41
0.0
 71
     1
 72
     1
  1
エースニップル　HN-8408
  7
SLDTEXTSTYLE0
 73
     1
 44
1.0
  0
LINE
  5
75
330
1F
100
AcDbEntity
  8
0
  6
Continuous
 62
     7
370
    25
100
AcDbLine
 10
75.72102799
 20
57.5312865461
 30
0.0
 11
61.4174192629
 21
57.0842987734
 31
0.0
  0
LINE
  5
76
330
1F
100
AcDbEntity
  8
0
  6
Continuous
 62
     7
370
    25
100
AcDbLine
 10
61.4174192629
 20
36.4707743189
 30
0.0
 11
75.72102799
 21
36.0237865461
 31
0.0
  0
LINE
  5
77
330
1F
100
AcDbEntity
  8
0
  6
Continuous
 62
     7
370
    25
100
AcDbLine
 10
61.4174192629
 20
57.0842987734
 30
0.0
 11
58.72102799
 21
55.5275365461
 31
0.0
  0
LINE
  5
78
330
1F
100
AcDbEntity
  8
0
  6
Continuous
 62
     7
370
    25
100
AcDbLine
 10
58.72102799
 20
38.0275365461
 30
0.0
 11
61.4174192629
 21
36.4707743189
 31
0.0
  0
LINE
  5
79
330
1F
100
AcDbEntity
  8
0
  6
Continuous
 62
     7
370
    25
100
AcDbLine
 10
80.7385476177
 20
34.075830624
 30
0.0
 11
81.72102799
 21
35.7775365461
 31
0.0
  0
LINE
  5
7A
330
1F
100
AcDbEntity
  8
0
  6
Continuous
 62
     7
370
    25
100
AcDbLine
 10
75.72102799
 20
35.7775365461
 30
0.0
 11
76.7035083622
 21
34.075830624
 31
0.0
  0
LINE
  5
7B
330
1F
100
AcDbEntity
  8
0
  6
Continuous
 62
     7
370
    25
100
AcDbLine
 10
76.7035083622
 20
59.4792424683
 30
0.0
 11
75.72102799
 21
57.7775365461
 31
0.0
  0
LINE
  5
7C
330
1F
100
AcDbEntity
  8
0
  6
Continuous
 62
     7
370
    25
100
AcDbLine
 10
81.72102799
 20
57.7775365461
 30
0.0
 11
80.7385476177
 21
59.4792424683
 31
0.0
  0
LINE
  5
7D
330
1F
100
AcDbEntity
  8
0
  6
Continuous
 62
     7
370
    25
100
AcDbLine
 10
85.72102799
 20
50.7775365461
 30
0.0
 11
81.72102799
 21
50.7775365461
 31
0.0
  0
LINE
  5
7E
330
1F
100
AcDbEntity
  8
0
  6
Continuous
 62
     7
370
    25
100
AcDbLine
 10
81.72102799
 20
42.7775365461
 30
0.0
 11
85.72102799
 21
42.7775365461
 31
0.0
  0
LINE
  5
7F
330
1F
100
AcDbEntity
  8
0
  6
Continuous
 62
     7
370
    25
100
AcDbLine
 10
99.22102799
 20
42.7775365461
 30
0.0
 11
104.2885845923
 21
43.4685669919
 31
0.0
  0
LINE
  5
80
330
1F
100
AcDbEntity
  8
0
  6
Continuous
 62
     7
370
    25
100
AcDbLine
 10
104.2885845923
 20
50.0865061004
 30
0.0
 11
99.22102799
 21
50.7775365461
 31
0.0
  0
LINE
  5
81
330
1F
100
AcDbEntity
  8
0
  6
Continuous
 62
     7
370
    25
100
AcDbLine
 10
94.72102799
 20
42.7775365461
 30
0.0
 11
99.22102799
 21
43.5275365461
 31
0.0
  0
LINE
  5
82
330
1F
100
AcDbEntity
  8
0
  6
Continuous
 62
     7
370
    25
100
AcDbLine
 10
99.22102799
 20
50.0275365461
 30
0.0
 11
94.72102799
 21
50.7775365461
 31
0.0
  0
LINE
  5
83
330
1F
100
AcDbEntity
  8
0
  6
Continuous
 62
     7
370
    25
100
AcDbLine
 10
90.22102799
 20
42.7775365461
 30
0.0
 11
94.72102799
 21
43.5275365461
 31
0.0
  0
LINE
  5
84
330
1F
100
AcDbEntity
  8
0
  6
Continuous
 62
     7
370
    25
100
AcDbLine
 10
94.72102799
 20
50.0275365461
 30
0.0
 11
90.22102799
 21
50.7775365461
 31
0.0
  0
LINE
  5
85
330
1F
100
AcDbEntity
  8
0
  6
Continuous
 62
     7
370
    25
100
AcDbLine
 10
85.72102799
 20
42.7775365461
 30
0.0
 11
90.22102799
 21
43.5275365461
 31
0.0
  0
LINE
  5
86
330
1F
100
AcDbEntity
  8
0
  6
Continuous
 62
     7
370
    25
100
AcDbLine
 10
90.22102799
 20
50.0275365461
 30
0.0
 11
85.72102799
 21
50.7775365461
 31
0.0
  0
ARC
  5
87
330
1F
100
AcDbEntity
  8
0
  6
Continuous
 62
     7
370
    25
100
AcDbCircle
 10
104.22102799
 20
43.9639820759
 30
0.0
 40
0.5
100
AcDbArc
 50
277.7651660184
 51
0.0
  0
ARC
  5
88
330
1F
100
AcDbEntity
  8
0
  6
Continuous
 62
     7
370
    25
100
AcDbCircle
 10
104.22102799
 20
49.5910910163
 30
0.0
 40
0.5
100
AcDbArc
 50
0.0
 51
82.2348339816
  0
LINE
  5
89
330
1F
100
AcDbEntity
  8
0
  6
Continuous
 62
     7
370
    25
100
AcDbLine
 10
78.8014127477
 20
59.4792424683
 30
0.0
 11
78.72102799
 21
59.1792424683
 31
0.0
  0
LINE
  5
8A
330
1F
100
AcDbEntity
  8
0
  6
Continuous
 62
     7
370
    25
100
AcDbLine
 10
78.72102799
 20
59.1792424683
 30
0.0
 11
78.6406432322
 21
59.4792424683
 31
0.0
  0
LINE
  5
8B
330
1F
100
AcDbEntity
  8
0
  6
Continuous
 62
     7
370
    25
100
AcDbLine
 10
78.72102799
 20
34.375830624
 30
0.0
 11
78.8014127477
 21
34.075830624
 31
0.0
  0
LINE
  5
8C
330
1F
100
AcDbEntity
  8
0
  6
Continuous
 62
     7
370
    25
100
AcDbLine
 10
78.6406432322
 20
34.075830624
 30
0.0
 11
78.72102799
 21
34.375830624
 31
0.0
  0
SPLINE
  5
8D
330
1F
100
AcDbEntity
  8
0
  6
Continuous
 62
     7
370
    25
100
AcDbSpline
210
0.0
220
0.0
230
1.0
 70
     8
 71
     3
 72
    19
 73
    15
 74
     0
 42
0.000000001
 43
0.00000001
 40
0.0
 40
0.0
 40
0.0
 40
0.0
 40
0.1227280999764553
 40
0.239716523588393
 40
0.3518621792202463
 40
0.4632019818032239
 40
0.5202611541541643
 40
0.5794324380306665
 40
0.6405963441586369
 40
0.70529822908802
 40
0.7732361059084537
 40
0.844648929340316
 40
0.9200459817773698
 40
1.0
 40
1.0
 40
1.0
 40
1.0
 10
79.3056433745764
 20
47.71383462306645
 30
0.0
 10
79.30504823322862
 20
47.73091447375172
 30
0.0
 10
79.3038857837573
 20
47.76427539460413
 30
0.0
 10
79.29366837687714
 20
47.81235963821135
 30
0.0
 10
79.27747994894555
 20
47.85701430724041
 30
0.0
 10
79.25793247023236
 20
47.89103215731868
 30
0.0
 10
79.23870298786957
 20
47.91619476211033
 30
0.0
 10
79.22215986422252
 20
47.93452046409519
 30
0.0
 10
79.20340335034733
 20
47.95218831801761
 30
0.0
 10
79.18191897617756
 20
47.96850502126676
 30
0.0
 10
79.15844550238488
 20
47.98444830525362
 30
0.0
 10
79.13285364581586
 20
47.99986593544789
 30
0.0
 10
79.104778543186
 20
48.01426269721078
 30
0.0
 10
79.085035321809
 20
48.0230262418211
 30
0.0
 10
79.07487414380718
 20
48.02753654614338
 30
0.0
  0
SPLINE
  5
8E
330
1F
100
AcDbEntity
  8
0
  6
Continuous
 62
     7
370
    25
100
AcDbSpline
210
0.0
220
0.0
230
1.0
 70
     8
 71
     3
 72
    23
 73
    19
 74
     0
 42
0.000000001
 43
0.00000001
 40
0.0
 40
0.0
 40
0.0
 40
0.0
 40
0.0552698294993248
 40
0.1099567044850939
 40
0.1632335040550556
 40
0.2180575651623569
 40
0.2732775387226747
 40
0.330881045495497
 40
0.3904799376860887
 40
0.4536559730386418
 40
0.5189026226022312
 40
0.5833461108214767
 40
0.6485466930814432
 40
0.7150552190344911
 40
0.7825206438000537
 40
0.8523352944264511
 40
0.9249348997257085
 40
1.0
 40
1.0
 40
1.0
 40
1.0
 10
79.07036693226871
 20
47.41215193075877
 30
0.0
 10
79.0782002704471
 20
47.41232951478028
 30
0.0
 10
79.0937843252382
 20
47.41268280976873
 30
0.0
 10
79.11655193549358
 20
47.41713908935657
 30
0.0
 10
79.1386248009636
 20
47.42383397437026
 30
0.0
 10
79.15990276810024
 20
47.43304391129224
 30
0.0
 10
79.18026232968467
 20
47.44534878157227
 30
0.0
 10
79.19972846291165
 20
47.46011872503318
 30
0.0
 10
79.21862740001497
 20
47.4773608704185
 30
0.0
 10
79.23605499271858
 20
47.49752584077785
 30
0.0
 10
79.25249367541096
 20
47.51935657183083
 30
0.0
 10
79.26670430508796
 20
47.54305847701477
 30
0.0
 10
79.27874922530542
 20
47.56810878187845
 30
0.0
 10
79.28870089707549
 20
47.59453052195975
 30
0.0
 10
79.29618214344428
 20
47.6224295418935
 30
0.0
 10
79.30155501269799
 20
47.65166923309426
 30
0.0
 10
79.30491390579168
 20
47.6823068846728
 30
0.0
 10
79.30539752671035
 20
47.70320904543022
 30
0.0
 10
79.3056433745764
 20
47.71383462306645
 30
0.0
  0
SPLINE
  5
8F
330
1F
100
AcDbEntity
  8
0
  6
Continuous
 62
     7
370
    25
100
AcDbSpline
210
0.0
220
0.0
230
1.0
 70
     8
 71
     3
 72
    19
 73
    15
 74
     0
 42
0.000000001
 43
0.00000001
 40
0.0
 40
0.0
 40
0.0
 40
0.0
 40
0.1101423815503174
 40
0.2157418685830274
 40
0.3179605426392306
 40
0.4180517606815226
 40
0.5115631470355316
 40
0.5965727584443461
 40
0.6733290469034968
 40
0.7440491927238595
 40
0.8107168223002833
 40
0.8740854521098849
 40
0.9367096168966699
 40
1.0
 40
1.0
 40
1.0
 40
1.0
 10
78.82487414380718
 20
47.79676731537415
 30
0.0
 10
78.82519043277577
 20
47.77821018584198
 30
0.0
 10
78.82580996516774
 20
47.7418613277144
 30
0.0
 10
78.83325121227833
 20
47.68875654823577
 30
0.0
 10
78.8436605380982
 20
47.63791499860415
 30
0.0
 10
78.85923670973968
 20
47.59049719452935
 30
0.0
 10
78.87793256143968
 20
47.54741847643108
 30
0.0
 10
78.89901349956229
 20
47.50983904107807
 30
0.0
 10
78.92289725660311
 20
47.47864950638741
 30
0.0
 10
78.94927038115132
 20
47.45377194808596
 30
0.0
 10
78.97788617054283
 20
47.43551270363405
 30
0.0
 10
79.00739909790364
 20
47.42180733217862
 30
0.0
 10
79.03849583110565
 20
47.4137726881258
 30
0.0
 10
79.05970582427356
 20
47.4126940855226
 30
0.0
 10
79.07036693226871
 20
47.41215193075877
 30
0.0
  0
LINE
  5
90
330
1F
100
AcDbEntity
  8
0
  6
Continuous
 62
     7
370
    25
100
AcDbLine
 10
78.67102799
 20
47.7967673154
 30
0.0
 11
78.8248741438
 21
47.7967673154
 31
0.0
  0
SPLINE
  5
91
330
1F
100
AcDbEntity
  8
0
  6
Continuous
 62
     7
370
    25
100
AcDbSpline
210
0.0
220
0.0
230
1.0
 70
     8
 71
     3
 72
    23
 73
    19
 74
     0
 42
0.000000001
 43
0.00000001
 40
0.0
 40
0.0
 40
0.0
 40
0.0
 40
0.0669051223273616
 40
0.1334773340846825
 40
0.2010229080576287
 40
0.2712178684297488
 40
0.3428591616573978
 40
0.4138109980627169
 40
0.4855518488903453
 40
0.5598002749200529
 40
0.5998999649035781
 40
0.6436094423977958
 40
0.6919106424505659
 40
0.7447030291556902
 40
0.8015038302285953
 40
0.8628660266331954
 40
0.9293326711591618
 40
1.0
 40
1.0
 40
1.0
 40
1.0
 10
78.35372029765333
 20
47.33522885383569
 30
0.0
 10
78.36769660153587
 20
47.33588468570071
 30
0.0
 10
78.39557966515947
 20
47.33719308610274
 30
0.0
 10
78.43660124611951
 20
47.34718265172781
 30
0.0
 10
78.47612648849152
 20
47.36361291317756
 30
0.0
 10
78.51347535469557
 20
47.38661808357083
 30
0.0
 10
78.5481074227109
 20
47.41460891723865
 30
0.0
 10
78.57888684166744
 20
47.44731446450509
 30
0.0
 10
78.6045397124595
 20
47.48481495199392
 30
0.0
 10
78.62219818669524
 20
47.51955181317864
 30
0.0
 10
78.63396681716092
 20
47.55039481493362
 30
0.0
 10
78.64221876052588
 20
47.57673718891573
 30
0.0
 10
78.64881521782986
 20
47.60625436722287
 30
0.0
 10
78.6551959785535
 20
47.63859200255975
 30
0.0
 10
78.6605452034216
 20
47.67388647875472
 30
0.0
 10
78.66502538891088
 20
47.71216959390475
 30
0.0
 10
78.66860460975492
 20
47.75345674959885
 30
0.0
 10
78.67020386708926
 20
47.78203862040733
 30
0.0
 10
78.67102798996102
 20
47.79676731537415
 30
0.0
  0
SPLINE
  5
92
330
1F
100
AcDbEntity
  8
0
  6
Continuous
 62
     7
370
    25
100
AcDbSpline
210
0.0
220
0.0
230
1.0
 70
     8
 71
     3
 72
    23
 73
    19
 74
     0
 42
0.000000001
 43
0.00000001
 40
0.0
 40
0.0
 40
0.0
 40
0.0
 40
0.0760618905628339
 40
0.1487324608035361
 40
0.2183745247439722
 40
0.2857225935927383
 40
0.3510576941824569
 40
0.414934915729319
 40
0.4784859417740854
 40
0.542169035281216
 40
0.6047501165431387
 40
0.6641185017301124
 40
0.7214996756099116
 40
0.7776159163852548
 40
0.8326661086975489
 40
0.8878580281135741
 40
0.9434676608977686
 40
1.0
 40
1.0
 40
1.0
 40
1.0
 10
78.03641260534563
 20
47.717139911528
 30
0.0
 10
78.0366761354549
 20
47.70310250609221
 30
0.0
 10
78.0371914458338
 20
47.67565357156911
 30
0.0
 10
78.04194417485681
 20
47.63560414370541
 30
0.0
 10
78.04883577998268
 20
47.5974914665905
 30
0.0
 10
78.05961559034473
 20
47.56170447997885
 30
0.0
 10
78.0725477536691
 20
47.52775621080232
 30
0.0
 10
78.08947832894181
 20
47.49640448250825
 30
0.0
 10
78.10859867657757
 20
47.46672759301915
 30
0.0
 10
78.13083931829354
 20
47.43959493804485
 30
0.0
 10
78.15487904461826
 20
47.41513352287398
 30
0.0
 10
78.18038305188037
 20
47.39399615752119
 30
0.0
 10
78.2065605498833
 20
47.37568878165765
 30
0.0
 10
78.23402220674194
 20
47.36097270667663
 30
0.0
 10
78.26249864567886
 20
47.34933160065984
 30
0.0
 10
78.29209645425718
 20
47.34141160527692
 30
0.0
 10
78.32256640040904
 20
47.33590344668418
 30
0.0
 10
78.34327885773845
 20
47.33545494820325
 30
0.0
 10
78.35372029765333
 20
47.33522885383569
 30
0.0
  0
SPLINE
  5
93
330
1F
100
AcDbEntity
  8
0
  6
Continuous
 62
     7
370
    25
100
AcDbSpline
210
0.0
220
0.0
230
1.0
 70
     8
 71
     3
 72
    15
 73
    11
 74
     0
 42
0.000000001
 43
0.00000001
 40
0.0
 40
0.0
 40
0.0
 40
0.0
 40
0.1182713048357256
 40
0.2361775330837632
 40
0.355662932948509
 40
0.4759041646706825
 40
0.6001273417110832
 40
0.7286081161551193
 40
0.8613134756739422
 40
1.0
 40
1.0
 40
1.0
 40
1.0
 10
78.11754241303794
 20
47.96774087306646
 30
0.0
 10
78.1110674128013
 20
47.95934234026997
 30
0.0
 10
78.09813739917936
 20
47.94257119903538
 30
0.0
 10
78.08163670123461
 20
47.91524195713605
 30
0.0
 10
78.0673391189483
 20
47.8864998630993
 30
0.0
 10
78.05641753506988
 20
47.85572214557606
 30
0.0
 10
78.04716996616024
 20
47.82357295823861
 30
0.0
 10
78.04111831510345
 20
47.78953265885355
 30
0.0
 10
78.03696624167065
 20
47.75390156580566
 30
0.0
 10
78.03659984245962
 20
47.72957252431291
 30
0.0
 10
78.03641260534563
 20
47.717139911528
 30
0.0
  0
SPLINE
  5
94
330
1F
100
AcDbEntity
  8
0
  6
Continuous
 62
     7
370
    25
100
AcDbSpline
210
0.0
220
0.0
230
1.0
 70
     8
 71
     3
 72
    15
 73
    11
 74
     0
 42
0.000000001
 43
0.00000001
 40
0.0
 40
0.0
 40
0.0
 40
0.0
 40
0.1497703860319679
 40
0.2913164099952444
 40
0.4259663731047425
 40
0.5521595739695284
 40
0.6715274135235927
 40
0.7861216286916589
 40
0.8953250730704446
 40
1.0
 40
1.0
 40
1.0
 40
1.0
 10
78.32487414380718
 20
48.08522885383569
 30
0.0
 10
78.31332456669205
 20
48.08172172893271
 30
0.0
 10
78.29085963599856
 20
48.07490006636504
 30
0.0
 10
78.25852807642363
 20
48.06328822434999
 30
0.0
 10
78.22888891075586
 20
48.05005896489123
 30
0.0
 10
78.20172471562243
 20
48.03586701119006
 30
0.0
 10
78.17676797170921
 20
48.0209619628946
 30
0.0
 10
78.15467859926603
 20
48.00428413783614
 30
0.0
 10
78.13448636974755
 20
47.98706878991587
 30
0.0
 10
78.12311010748746
 20
47.97409192419386
 30
0.0
 10
78.11754241303794
 20
47.96774087306646
 30
0.0
  0
LINE
  5
95
330
1F
100
AcDbEntity
  8
0
  6
Continuous
 62
     7
370
    25
100
AcDbLine
 10
78.3248741438
 20
48.2198442385
 30
0.0
 11
78.3248741438
 21
48.0852288538
 31
0.0
  0
SPLINE
  5
96
330
1F
100
AcDbEntity
  8
0
  6
Continuous
 62
     7
370
    25
100
AcDbSpline
210
0.0
220
0.0
230
1.0
 70
     8
 71
     3
 72
    23
 73
    19
 74
     0
 42
0.000000001
 43
0.00000001
 40
0.0
 40
0.0
 40
0.0
 40
0.0
 40
0.0655411703374033
 40
0.1289631677825933
 40
0.1903771361885609
 40
0.2500923616690527
 40
0.308548432459201
 40
0.3663979630552958
 40
0.42454218926668
 40
0.4831699964229055
 40
0.5422433998311199
 40
0.6017393520173299
 40
0.6625060022496068
 40
0.7248555134488469
 40
0.7891278292811811
 40
0.8563463998785099
 40
0.9262952349869055
 40
1.0
 40
1.0
 40
1.0
 40
1.0
 10
77.88256645149947
 20
47.71954375768184
 30
0.0
 10
77.88293854289597
 20
47.73558060066033
 30
0.0
 10
77.88367069468622
 20
47.76713575997608
 30
0.0
 10
77.88867580948475
 20
47.81352583071308
 30
0.0
 10
77.89781724030095
 20
47.85780655901215
 30
0.0
 10
77.91011865688643
 20
47.90003781523644
 30
0.0
 10
77.92571511777805
 20
47.94025711654797
 30
0.0
 10
77.94513741693005
 20
47.97834173305269
 30
0.0
 10
77.9679852035237
 20
48.01452597313274
 30
0.0
 10
77.99452816972652
 20
48.04846838076613
 30
0.0
 10
78.02422017247942
 20
48.08016490978309
 30
0.0
 10
78.05758831960841
 20
48.10877322016744
 30
0.0
 10
78.09401577843173
 20
48.13477027428547
 30
0.0
 10
78.13392565965975
 20
48.1574599765904
 30
0.0
 10
78.17680219849308
 20
48.17787581342576
 30
0.0
 10
78.2231944120852
 20
48.19466765198889
 30
0.0
 10
78.27268756436621
 20
48.20944718140445
 30
0.0
 10
78.30717802444158
 20
48.21631866608134
 30
0.0
 10
78.32487414380718
 20
48.21984423845107
 30
0.0
  0
SPLINE
  5
97
330
1F
100
AcDbEntity
  8
0
  6
Continuous
 62
     7
370
    25
100
AcDbSpline
210
0.0
220
0.0
230
1.0
 70
     8
 71
     3
 72
    19
 73
    15
 74
     0
 42
0.000000001
 43
0.00000001
 40
0.0
 40
0.0
 40
0.0
 40
0.0
 40
0.079641704194991
 40
0.158908613257856
 40
0.2395997983184508
 40
0.3224093988203483
 40
0.405827748173513
 40
0.4876442139503136
 40
0.5697199979738973
 40
0.6530646649976933
 40
0.7374573001733064
 40
0.8224924079539123
 40
0.9097550737466982
 40
1.0
 40
1.0
 40
1.0
 40
1.0
 10
78.36664097073024
 20
47.2006134692203
 30
0.0
 10
78.34563763972693
 20
47.20138423993182
 30
0.0
 10
78.30372981973149
 20
47.20292215409556
 30
0.0
 10
78.24179955368884
 20
47.21661278379861
 30
0.0
 10
78.18136637962657
 20
47.23795938809884
 30
0.0
 10
78.12332572070157
 20
47.26774333179925
 30
0.0
 10
78.06913433034195
 20
47.3045938941889
 30
0.0
 10
78.0208677463054
 20
47.34867803972831
 30
0.0
 10
77.97909964005805
 20
47.39892408987088
 30
0.0
 10
77.94431393380151
 20
47.45500319424173
 30
0.0
 10
77.9164868697242
 20
47.51573377339003
 30
0.0
 10
77.89717792408021
 20
47.58069619250973
 30
0.0
 10
77.88460068925248
 20
47.64894582034623
 30
0.0
 10
77.88325208328052
 20
47.69574900240203
 30
0.0
 10
77.88256645149947
 20
47.71954375768184
 30
0.0
  0
SPLINE
  5
98
330
1F
100
AcDbEntity
  8
0
  6
Continuous
 62
     7
370
    25
100
AcDbSpline
210
0.0
220
0.0
230
1.0
 70
     8
 71
     3
 72
    15
 73
    11
 74
     0
 42
0.000000001
 43
0.00000001
 40
0.0
 40
0.0
 40
0.0
 40
0.0
 40
0.1281455049994643
 40
0.2541925386280419
 40
0.3781411397135888
 40
0.5013808330744057
 40
0.6239569784447038
 40
0.7470758858273289
 40
0.8728647202442611
 40
1.0
 40
1.0
 40
1.0
 40
1.0
 10
78.63316741303794
 20
47.29015673845107
 30
0.0
 10
78.62328657261294
 20
47.28293608226352
 30
0.0
 10
78.60368669736629
 20
47.26861301313298
 30
0.0
 10
78.57215570080069
 20
47.25098356446906
 30
0.0
 10
78.54037960156518
 20
47.23480735704796
 30
0.0
 10
78.50710900442135
 20
47.22290213663786
 30
0.0
 10
78.47341261980083
 20
47.2126284031998
 30
0.0
 10
78.43856887343492
 20
47.20586862868746
 30
0.0
 10
78.40290881040734
 20
47.20152912384177
 30
0.0
 10
78.37877307959836
 20
47.20091976873117
 30
0.0
 10
78.36664097073024
 20
47.2006134692203
 30
0.0
  0
SPLINE
  5
99
330
1F
100
AcDbEntity
  8
0
  6
Continuous
 62
     7
370
    25
100
AcDbSpline
210
0.0
220
0.0
230
1.0
 70
     8
 71
     3
 72
    11
 73
     7
 74
     0
 42
0.000000001
 43
0.00000001
 40
0.0
 40
0.0
 40
0.0
 40
0.0
 40
0.253879600326656
 40
0.5030089172783633
 40
0.7502910806899731
 40
1.0
 40
1.0
 40
1.0
 40
1.0
 10
78.76117222073024
 20
47.45271683460492
 30
0.0
 10
78.75346729006961
 20
47.4367603683592
 30
0.0
 10
78.73820159395095
 20
47.40514599367326
 30
0.0
 10
78.70826341215785
 20
47.36205290958772
 30
0.0
 10
78.67369640614905
 20
47.32293382014903
 30
0.0
 10
78.6467209834718
 20
47.30111794057598
 30
0.0
 10
78.63316741303794
 20
47.29015673845107
 30
0.0
  0
SPLINE
  5
9A
330
1F
100
AcDbEntity
  8
0
  6
Continuous
 62
     7
370
    25
100
AcDbSpline
210
0.0
220
0.0
230
1.0
 70
     8
 71
     3
 72
    15
 73
    11
 74
     0
 42
0.000000001
 43
0.00000001
 40
0.0
 40
0.0
 40
0.0
 40
0.0
 40
0.1280675485958904
 40
0.2506083188676684
 40
0.3706301659145029
 40
0.4900722467299488
 40
0.6103747641546199
 40
0.7343130699115256
 40
0.8632165042449895
 40
1.0
 40
1.0
 40
1.0
 40
1.0
 10
79.06976597073024
 20
47.27753654614338
 30
0.0
 10
79.05390591585643
 20
47.2780352280207
 30
0.0
 10
79.02287024965796
 20
47.27901107106832
 30
0.0
 10
78.97756103659874
 20
47.28729694488075
 30
0.0
 10
78.93485749362064
 20
47.30124105754199
 30
0.0
 10
78.89457985271059
 20
47.32055667007536
 30
0.0
 10
78.8569834927864
 20
47.34556019160691
 30
0.0
 10
78.82198382527476
 20
47.37584849027419
 30
0.0
 10
78.78942561464835
 20
47.41163534532082
 30
0.0
 10
78.77077441194457
 20
47.43875489018795
 30
0.0
 10
78.76117222073024
 20
47.45271683460492
 30
0.0
  0
SPLINE
  5
9B
330
1F
100
AcDbEntity
  8
0
  6
Continuous
 62
     7
370
    25
100
AcDbSpline
210
0.0
220
0.0
230
1.0
 70
     8
 71
     3
 72
    19
 73
    15
 74
     0
 42
0.000000001
 43
0.00000001
 40
0.0
 40
0.0
 40
0.0
 40
0.0
 40
0.0902542493426766
 40
0.1785397915286845
 40
0.2660930338538198
 40
0.3546309779571733
 40
0.4418861533505626
 40
0.5257469151636484
 40
0.6081136336036366
 40
0.6901972728278825
 40
0.770821484330335
 40
0.8483261812554109
 40
0.9240117400247433
 40
1.0
 40
1.0
 40
1.0
 40
1.0
 10
79.45948952842255
 20
47.71563750768185
 30
0.0
 10
79.45889842974614
 20
47.69605918964967
 30
0.0
 10
79.45772912597123
 20
47.65732961353104
 30
0.0
 10
79.44705151033733
 20
47.60043116483797
 30
0.0
 10
79.43015502504268
 20
47.54556252807992
 30
0.0
 10
79.40680914198396
 20
47.49332427901578
 30
0.0
 10
79.37801457920021
 20
47.44480209361738
 30
0.0
 10
79.34374397767388
 20
47.40162944215433
 30
0.0
 10
79.30465856275073
 20
47.36439150895264
 30
0.0
 10
79.26148746375705
 20
47.33315106138402
 30
0.0
 10
79.21534938830551
 20
47.30869034750386
 30
0.0
 10
79.16786360667095
 20
47.29065333029827
 30
0.0
 10
79.11914276179
 20
47.27967260987027
 30
0.0
 10
79.08624678500064
 20
47.27824951409445
 30
0.0
 10
79.06976597073024
 20
47.27753654614338
 30
0.0
  0
SPLINE
  5
9C
330
1F
100
AcDbEntity
  8
0
  6
Continuous
 62
     7
370
    25
100
AcDbSpline
210
0.0
220
0.0
230
1.0
 70
     8
 71
     3
 72
    23
 73
    19
 74
     0
 42
0.000000001
 43
0.00000001
 40
0.0
 40
0.0
 40
0.0
 40
0.0
 40
0.0726253460834355
 40
0.1419766113262345
 40
0.2089849284189386
 40
0.2739568703644447
 40
0.336889347396841
 40
0.3987449534945902
 40
0.4601158852788617
 40
0.5208249225900291
 40
0.5809944586324857
 40
0.6401519276014648
 40
0.6986224507562546
 40
0.7572710809271643
 40
0.8164266940046602
 40
0.8762540482034705
 40
0.9371652930625374
 40
1.0
 40
1.0
 40
1.0
 40
1.0
 10
79.07487414380718
 20
48.16215193075877
 30
0.0
 10
79.08997377979662
 20
48.15850498046691
 30
0.0
 10
79.1194923331069
 20
48.15137549094243
 30
0.0
 10
79.16166687347004
 20
48.13650510231291
 30
0.0
 10
79.20157695406606
 20
48.12030542151522
 30
0.0
 10
79.23847527136408
 20
48.10085294813032
 30
0.0
 10
79.27310337253523
 20
48.07963491060485
 30
0.0
 10
79.30467585445015
 20
48.05532517280376
 30
0.0
 10
79.33399569679321
 20
48.02904529170408
 30
0.0
 10
79.3600156557463
 20
47.99997745628902
 30
0.0
 10
79.38357753969203
 20
47.96949374415725
 30
0.0
 10
79.4036668499816
 20
47.93716462140694
 30
0.0
 10
79.42094862978068
 20
47.90364052411954
 30
0.0
 10
79.43518587201298
 20
47.86868918142729
 30
0.0
 10
79.44591109644131
 20
47.83220653641643
 30
0.0
 10
79.45369258455163
 20
47.79452241213608
 30
0.0
 10
79.45874591921498
 20
47.75553805494409
 30
0.0
 10
79.45923910339484
 20
47.72907480183055
 30
0.0
 10
79.45948952842255
 20
47.71563750768185
 30
0.0
  0
LINE
  5
9D
330
1F
100
AcDbEntity
  8
0
  6
Continuous
 62
     7
370
    25
100
AcDbLine
 10
79.0748741438
 20
48.0275365461
 30
0.0
 11
79.0748741438
 21
48.1621519308
 31
0.0
  0
LINE
  5
9E
330
1F
100
AcDbEntity
  8
0
  6
Continuous
 62
     7
370
    25
100
AcDbLine
 10
79.4594895284
 20
45.7401359457
 30
0.0
 11
79.37805924
 21
45.6364700803
 31
0.0
  0
LINE
  5
9F
330
1F
100
AcDbEntity
  8
0
  6
Continuous
 62
     7
370
    25
100
AcDbLine
 10
78.7749943361
 20
46.1878522918
 30
0.0
 11
79.4594895284
 21
45.7401359457
 31
0.0
  0
SPLINE
  5
A0
330
1F
100
AcDbEntity
  8
0
  6
Continuous
 62
     7
370
    25
100
AcDbSpline
210
0.0
220
0.0
230
1.0
 70
     8
 71
     3
 72
    19
 73
    15
 74
     0
 42
0.000000001
 43
0.00000001
 40
0.0
 40
0.0
 40
0.0
 40
0.0
 40
0.0978059775289525
 40
0.1996122522918967
 40
0.3052960258330042
 40
0.4158173591641855
 40
0.4742405666184931
 40
0.5372869128296535
 40
0.6033858352934857
 40
0.6743111580696057
 40
0.7495304673574823
 40
0.828608314269512
 40
0.9120427387714449
 40
1.0
 40
1.0
 40
1.0
 40
1.0
 10
78.33929722073024
 20
46.35552056104031
 30
0.0
 10
78.35473927469359
 20
46.3549769403398
 30
0.0
 10
78.38625496779854
 20
46.35386746467011
 30
0.0
 10
78.43412444186093
 20
46.34724624169711
 30
0.0
 10
78.48291325504323
 20
46.33510210979808
 30
0.0
 10
78.52427282068926
 20
46.32195950482853
 30
0.0
 10
78.55852603449445
 20
46.3089180733835
 30
0.0
 10
78.58557489260151
 20
46.29682575806677
 30
0.0
 10
78.6141393552788
 20
46.28330507612731
 30
0.0
 10
78.64367895478439
 20
46.26745695400808
 30
0.0
 10
78.6750377014573
 20
46.25065666560838
 30
0.0
 10
78.707054285174
 20
46.23103202226004
 30
0.0
 10
78.74089805043361
 20
46.21055340537971
 30
0.0
 10
78.76343070363532
 20
46.19555129271115
 30
0.0
 10
78.77499433611486
 20
46.18785229180953
 30
0.0
  0
SPLINE
  5
A1
330
1F
100
AcDbEntity
  8
0
  6
Continuous
 62
     7
370
    25
100
AcDbSpline
210
0.0
220
0.0
230
1.0
 70
     8
 71
     3
 72
    19
 73
    15
 74
     0
 42
0.000000001
 43
0.00000001
 40
0.0
 40
0.0
 40
0.0
 40
0.0
 40
0.0843261511037431
 40
0.1670353409858404
 40
0.2495407139852791
 40
0.3327066655796642
 40
0.4158726171740491
 40
0.4977774155681173
 40
0.5803136056784763
 40
0.6645325781316562
 40
0.7495711764063213
 40
0.8324741628544072
 40
0.9156738488962566
 40
0.9999999999999999
 40
0.9999999999999999
 40
0.9999999999999999
 40
0.9999999999999999
 10
77.88256645149947
 20
45.90119363796338
 30
0.0
 10
77.88322139516463
 20
45.92137794213512
 30
0.0
 10
77.88451872389365
 20
45.96135951470494
 30
0.0
 10
77.8960755785965
 20
46.02017351245329
 30
0.0
 10
77.91480710251065
 20
46.07668644967163
 30
0.0
 10
77.94061356655818
 20
46.13050108737706
 30
0.0
 10
77.9732085199897
 20
46.1803557963589
 30
0.0
 10
78.01245422337784
 20
46.22494422978245
 30
0.0
 10
78.05748330162722
 20
46.264111255124
 30
0.0
 10
78.10843388746841
 20
46.29653462246393
 30
0.0
 10
78.16283102870624
 20
46.32295975484782
 30
0.0
 10
78.22006863745088
 20
46.34159778284474
 30
0.0
 10
78.27899478411334
 20
46.35365104420013
 30
0.0
 10
78.31910650308919
 20
46.35489460148107
 30
0.0
 10
78.33929722073026
 20
46.35552056104031
 30
0.0
  0
SPLINE
  5
A2
330
1F
100
AcDbEntity
  8
0
  6
Continuous
 62
     7
370
    25
100
AcDbSpline
210
0.0
220
0.0
230
1.0
 70
     8
 71
     3
 72
    19
 73
    15
 74
     0
 42
0.000000001
 43
0.00000001
 40
0.0
 40
0.0
 40
0.0
 40
0.0
 40
0.0859901205637197
 40
0.1691084375726415
 40
0.2505285789581879
 40
0.332255696176845
 40
0.4135763652356401
 40
0.4941261456201216
 40
0.5763059341204168
 40
0.660712671904547
 40
0.7461272722239101
 40
0.830014985960974
 40
0.9144197259288509
 40
1.0
 40
1.0
 40
1.0
 40
1.0
 10
78.34200154765333
 20
45.43244363796338
 30
0.0
 10
78.32102272436721
 20
45.43322643596652
 30
0.0
 10
78.27976570548212
 20
45.43476588894527
 30
0.0
 10
78.21942395634038
 20
45.44597245277855
 30
0.0
 10
78.16239906111953
 20
45.46531247807471
 30
0.0
 10
78.10846692139654
 20
45.49118711275506
 30
0.0
 10
78.05919669593084
 20
45.52475741670774
 30
0.0
 10
78.01466962390053
 20
45.56454007256323
 30
0.0
 10
77.97585773949913
 20
45.6109111376377
 30
0.0
 10
77.94256264064138
 20
45.66277253487387
 30
0.0
 10
77.91610972652369
 20
45.71890267267089
 30
0.0
 10
77.89655254718262
 20
45.77775695819673
 30
0.0
 10
77.88486663550275
 20
45.83883233677844
 30
0.0
 10
77.88333670625069
 20
45.88031092229294
 30
0.0
 10
77.88256645149947
 20
45.90119363796338
 30
0.0
  0
SPLINE
  5
A3
330
1F
100
AcDbEntity
  8
0
  6
Continuous
 62
     7
370
    25
100
AcDbSpline
210
0.0
220
0.0
230
1.0
 70
     8
 71
     3
 72
    23
 73
    19
 74
     0
 42
0.000000001
 43
0.00000001
 40
0.0
 40
0.0
 40
0.0
 40
0.0
 40
0.0652308037420297
 40
0.128404896003223
 40
0.1900670715964782
 40
0.2509433657682801
 40
0.3115458328521434
 40
0.3728628021568294
 40
0.4350236738562386
 40
0.4990717247070431
 40
0.5630910750496624
 40
0.6255101063303751
 40
0.6866800359296492
 40
0.7472825030135124
 40
0.8085634952159588
 40
0.8707421035159856
 40
0.9343409515059125
 40
1.0
 40
1.0
 40
1.0
 40
1.0
 10
78.78641260534563
 20
45.87745565719415
 30
0.0
 10
78.7860028431903
 20
45.86221030162194
 30
0.0
 10
78.78519623858139
 20
45.8322002728551
 30
0.0
 10
78.77898887399917
 20
45.78814021478053
 30
0.0
 10
78.76920668317476
 20
45.74580209936346
 30
0.0
 10
78.75494714491124
 20
45.70536140839686
 30
0.0
 10
78.73673185018455
 20
45.6666729875999
 30
0.0
 10
78.71490090577862
 20
45.62951481783909
 30
0.0
 10
78.68832704276858
 20
45.59458538493643
 30
0.0
 10
78.65864206171837
 20
45.5614348795599
 30
0.0
 10
78.62576335407759
 20
45.53133755210578
 30
0.0
 10
78.59087706691786
 20
45.50469067115256
 30
0.0
 10
78.55401954649005
 20
45.48230776040937
 30
0.0
 10
78.51520946109005
 20
45.46414750828883
 30
0.0
 10
78.4745066355641
 20
45.45004541746116
 30
0.0
 10
78.43196314721193
 20
45.43976499815677
 30
0.0
 10
78.38754965944331
 20
45.4336880298054
 30
0.0
 10
78.35734472718637
 20
45.43286281949893
 30
0.0
 10
78.34200154765333
 20
45.43244363796338
 30
0.0
  0
SPLINE
  5
A4
330
1F
100
AcDbEntity
  8
0
  6
Continuous
 62
     7
370
    25
100
AcDbSpline
210
0.0
220
0.0
230
1.0
 70
     8
 71
     3
 72
     9
 73
     5
 74
     0
 42
0.000000001
 43
0.00000001
 40
0.0
 40
0.0
 40
0.0
 40
0.0
 40
0.5126593363417812
 40
1.0
 40
1.0
 40
1.0
 40
1.0
 10
78.77198952842255
 20
46.03280421488646
 30
0.0
 10
78.77619546870267
 20
46.00641695332217
 30
0.0
 10
78.7843996307689
 20
45.9549456161325
 30
0.0
 10
78.78575303596108
 20
45.90284594533633
 30
0.0
 10
78.78641260534563
 20
45.87745565719415
 30
0.0
  0
LINE
  5
A5
330
1F
100
AcDbEntity
  8
0
  6
Continuous
 62
     7
370
    25
100
AcDbLine
 10
79.37805924
 20
45.6364700803
 30
0.0
 11
78.7719895284
 21
46.0328042149
 31
0.0
  0
LINE
  5
A6
330
1F
100
AcDbEntity
  8
0
  6
Continuous
 62
     7
370
    25
100
AcDbLine
 10
79.42102799
 20
46.9698690011
 30
0.0
 11
79.42102799
 21
46.6925252511
 31
0.0
  0
LINE
  5
A7
330
1F
100
AcDbEntity
  8
0
  6
Continuous
 62
     7
370
    25
100
AcDbLine
 10
79.2671818361
 20
47.0579098665
 30
0.0
 11
79.42102799
 21
46.9698690011
 31
0.0
  0
LINE
  5
A8
330
1F
100
AcDbEntity
  8
0
  6
Continuous
 62
     7
370
    25
100
AcDbLine
 10
77.92102799
 20
46.8271406357
 30
0.0
 11
79.2671818361
 21
46.8271406357
 31
0.0
  0
LINE
  5
A9
330
1F
100
AcDbEntity
  8
0
  6
Continuous
 62
     7
370
    25
100
AcDbLine
 10
77.92102799
 20
46.6925252511
 30
0.0
 11
77.92102799
 21
46.8271406357
 31
0.0
  0
LINE
  5
AA
330
1F
100
AcDbEntity
  8
0
  6
Continuous
 62
     7
370
    25
100
AcDbLine
 10
79.42102799
 20
46.6925252511
 30
0.0
 11
77.92102799
 21
46.6925252511
 31
0.0
  0
LINE
  5
AB
330
1F
100
AcDbEntity
  8
0
  6
Continuous
 62
     7
370
    25
100
AcDbLine
 10
78.8014127477
 20
53.1283895072
 30
0.0
 11
80.7385476177
 21
53.1283895072
 31
0.0
  0
SPLINE
  5
AC
330
1F
100
AcDbEntity
  8
0
  6
Continuous
 62
     7
370
    25
100
AcDbSpline
210
0.0
220
0.0
230
1.0
 70
     8
 71
     3
 72
    12
 73
     8
 74
     0
 42
0.000000001
 43
0.00000001
 40
0.0
 40
0.0
 40
0.0
 40
0.0
 40
0.2499999999999999
 40
0.2499999999999999
 40
0.4999999999999999
 40
0.4999999999999999
 40
1.0
 40
1.0
 40
1.0
 40
1.0
 10
81.72102798996102
 20
46.77753654614338
 30
0.0
 10
81.72102798996102
 20
47.31507016904833
 30
0.0
 10
81.69808379540305
 20
47.85543691287986
 30
0.0
 10
81.6072270945299
 20
48.93652869769701
 30
0.0
 10
81.53995848209995
 20
49.47134681643902
 30
0.0
 10
81.2818388362576
 20
51.0610324510358
 30
0.0
 10
81.03506214865735
 20
52.10123304167512
 30
0.0
 10
80.73854761771356
 20
53.12838950722927
 30
0.0
  0
SPLINE
  5
AD
330
1F
100
AcDbEntity
  8
0
  6
Continuous
 62
     7
370
    25
100
AcDbSpline
210
0.0
220
0.0
230
1.0
 70
     8
 71
     3
 72
    10
 73
     6
 74
     0
 42
0.000000001
 43
0.00000001
 40
0.0
 40
0.0
 40
0.0
 40
0.0
 40
0.5
 40
0.5
 40
1.0
 40
1.0
 40
1.0
 40
1.0
 10
80.73854761771359
 20
40.4266835850575
 30
0.0
 10
81.03703017603715
 20
41.46065749743656
 30
0.0
 10
81.28689108941157
 20
42.5180595366967
 30
0.0
 10
81.62861387192214
 20
44.63698659687314
 30
0.0
 10
81.72102798996102
 20
45.70325396866524
 30
0.0
 10
81.72102798996102
 20
46.77753654614338
 30
0.0
  0
LINE
  5
AE
330
1F
100
AcDbEntity
  8
0
  6
Continuous
 62
     7
370
    25
100
AcDbLine
 10
78.8014127477
 20
40.4266835851
 30
0.0
 11
80.7385476177
 21
40.4266835851
 31
0.0
  0
SPLINE
  5
AF
330
1F
100
AcDbEntity
  8
0
  6
Continuous
 62
     7
370
    25
100
AcDbSpline
210
0.0
220
0.0
230
1.0
 70
     8
 71
     3
 72
     8
 73
     4
 74
     0
 42
0.000000001
 43
0.00000001
 40
0.0
 40
0.0
 40
0.0
 40
0.0
 40
1.0
 40
1.0
 40
1.0
 40
1.0
 10
78.80141274769035
 20
40.42668358505751
 30
0.0
 10
78.77357969413445
 20
40.63443232505829
 30
0.0
 10
78.74675870636415
 20
40.84227097153131
 30
0.0
 10
78.72102798996102
 20
41.05020647183911
 30
0.0
  0
SPLINE
  5
B0
330
1F
100
AcDbEntity
  8
0
  6
Continuous
 62
     7
370
    25
100
AcDbSpline
210
0.0
220
0.0
230
1.0
 70
     8
 71
     3
 72
     8
 73
     4
 74
     0
 42
0.000000001
 43
0.00000001
 40
0.0
 40
0.0
 40
0.0
 40
0.0
 40
1.0
 40
1.0
 40
1.0
 40
1.0
 10
78.72102798996102
 20
41.05020647183911
 30
0.0
 10
78.6952874993914
 20
40.84219198437189
 30
0.0
 10
78.668465979742
 20
40.63435539968674
 30
0.0
 10
78.64064323223168
 20
40.4266835850575
 30
0.0
  0
LINE
  5
B1
330
1F
100
AcDbEntity
  8
0
  6
Continuous
 62
     7
370
    25
100
AcDbLine
 10
76.7035083622
 20
40.4266835851
 30
0.0
 11
78.6406432322
 21
40.4266835851
 31
0.0
  0
SPLINE
  5
B2
330
1F
100
AcDbEntity
  8
0
  6
Continuous
 62
     7
370
    25
100
AcDbSpline
210
0.0
220
0.0
230
1.0
 70
     8
 71
     3
 72
    10
 73
     6
 74
     0
 42
0.000000001
 43
0.00000001
 40
0.0
 40
0.0
 40
0.0
 40
0.0
 40
0.5
 40
0.5
 40
1.0
 40
1.0
 40
1.0
 40
1.0
 10
76.70350836220844
 20
40.4266835850575
 30
0.0
 10
76.4050258038849
 20
41.46065749743656
 30
0.0
 10
76.15516489051046
 20
42.5180595366967
 30
0.0
 10
75.81344210799989
 20
44.63698659687314
 30
0.0
 10
75.72102798996103
 20
45.70325396866524
 30
0.0
 10
75.72102798996103
 20
46.77753654614338
 30
0.0
  0
SPLINE
  5
B3
330
1F
100
AcDbEntity
  8
0
  6
Continuous
 62
     7
370
    25
100
AcDbSpline
210
0.0
220
0.0
230
1.0
 70
     8
 71
     3
 72
    12
 73
     8
 74
     0
 42
0.000000001
 43
0.00000001
 40
0.0
 40
0.0
 40
0.0
 40
0.0
 40
0.2499999999999999
 40
0.2499999999999999
 40
0.4999999999999999
 40
0.4999999999999999
 40
1.0
 40
1.0
 40
1.0
 40
1.0
 10
75.72102798996103
 20
46.77753654614338
 30
0.0
 10
75.72102798996103
 20
47.31507016904833
 30
0.0
 10
75.743972184519
 20
47.85543691287986
 30
0.0
 10
75.83482888539214
 20
48.93652869769701
 30
0.0
 10
75.9020974978221
 20
49.47134681643902
 30
0.0
 10
76.16021714366444
 20
51.0610324510358
 30
0.0
 10
76.40699383126469
 20
52.10123304167512
 30
0.0
 10
76.70350836220847
 20
53.12838950722927
 30
0.0
  0
LINE
  5
B4
330
1F
100
AcDbEntity
  8
0
  6
Continuous
 62
     7
370
    25
100
AcDbLine
 10
76.7035083622
 20
53.1283895072
 30
0.0
 11
78.6406432322
 21
53.1283895072
 31
0.0
  0
SPLINE
  5
B5
330
1F
100
AcDbEntity
  8
0
  6
Continuous
 62
     7
370
    25
100
AcDbSpline
210
0.0
220
0.0
230
1.0
 70
     8
 71
     3
 72
     8
 73
     4
 74
     0
 42
0.000000001
 43
0.00000001
 40
0.0
 40
0.0
 40
0.0
 40
0.0
 40
1.0
 40
1.0
 40
1.0
 40
1.0
 10
78.64064323223168
 20
53.12838950722927
 30
0.0
 10
78.66847628578758
 20
52.92064076722848
 30
0.0
 10
78.69529727355788
 20
52.71280212075546
 30
0.0
 10
78.72102798996102
 20
52.50486662044766
 30
0.0
  0
SPLINE
  5
B6
330
1F
100
AcDbEntity
  8
0
  6
Continuous
 62
     7
370
    25
100
AcDbSpline
210
0.0
220
0.0
230
1.0
 70
     8
 71
     3
 72
     8
 73
     4
 74
     0
 42
0.000000001
 43
0.00000001
 40
0.0
 40
0.0
 40
0.0
 40
0.0
 40
1.0
 40
1.0
 40
1.0
 40
1.0
 10
78.72102798996102
 20
52.50486662044766
 30
0.0
 10
78.74676848053063
 20
52.71288110791487
 30
0.0
 10
78.77359000018005
 20
52.92071769260002
 30
0.0
 10
78.80141274769035
 20
53.12838950722927
 30
0.0
  0
LINE
  5
B7
330
1F
100
AcDbEntity
  8
0
  6
Continuous
 62
     7
370
    25
100
AcDbLine
 10
79.2671818361
 20
46.8271406357
 30
0.0
 11
79.2671818361
 21
47.0579098665
 31
0.0
  0
SPLINE
  5
B8
330
1F
100
AcDbEntity
  8
0
  6
Continuous
 62
     7
370
    25
100
AcDbSpline
210
0.0
220
0.0
230
1.0
 70
     8
 71
     3
 72
    12
 73
     8
 74
     0
 42
0.000000001
 43
0.00000001
 40
0.0
 40
0.0
 40
0.0
 40
0.0
 40
0.25
 40
0.25
 40
0.5
 40
0.5
 40
1.0
 40
1.0
 40
1.0
 40
1.0
 10
75.72102798996102
 20
37.25125710451456
 30
0.0
 10
75.72102798996102
 20
37.52074499874161
 30
0.0
 10
75.74425014428816
 20
37.79144187990863
 30
0.0
 10
75.83411729414894
 20
38.32693671084093
 30
0.0
 10
75.90067588323663
 20
38.59289311419285
 30
0.0
 10
76.15738535735831
 20
39.38603871763455
 30
0.0
 10
76.40434803038069
 20
39.90852269072294
 30
0.0
 10
76.70350836220831
 20
40.42668358505752
 30
0.0
  0
LINE
  5
B9
330
1F
100
AcDbEntity
  8
0
  6
Continuous
 62
     7
370
    25
100
AcDbLine
 10
75.72102799
 20
37.2512571045
 30
0.0
 11
75.72102799
 21
46.7775365461
 31
0.0
  0
SPLINE
  5
BA
330
1F
100
AcDbEntity
  8
0
  6
Continuous
 62
     7
370
    25
100
AcDbSpline
210
0.0
220
0.0
230
1.0
 70
     8
 71
     3
 72
    12
 73
     8
 74
     0
 42
0.000000001
 43
0.00000001
 40
0.0
 40
0.0
 40
0.0
 40
0.0
 40
0.25
 40
0.25
 40
0.5
 40
0.5
 40
1.0
 40
1.0
 40
1.0
 40
1.0
 10
81.72102798996103
 20
37.25125710451456
 30
0.0
 10
81.72102798996103
 20
37.52074499874161
 30
0.0
 10
81.69780583563387
 20
37.79144187990863
 30
0.0
 10
81.6079386857731
 20
38.32693671084093
 30
0.0
 10
81.54138009668542
 20
38.59289311419285
 30
0.0
 10
81.28467062256374
 20
39.38603871763455
 30
0.0
 10
81.03770794954133
 20
39.90852269072294
 30
0.0
 10
80.73854761771373
 20
40.42668358505752
 30
0.0
  0
SPLINE
  5
BB
330
1F
100
AcDbEntity
  8
0
  6
Continuous
 62
     7
370
    25
100
AcDbSpline
210
0.0
220
0.0
230
1.0
 70
     8
 71
     3
 72
    10
 73
     6
 74
     0
 42
0.000000001
 43
0.00000001
 40
0.0
 40
0.0
 40
0.0
 40
0.0
 40
0.5
 40
0.5
 40
1.0
 40
1.0
 40
1.0
 40
1.0
 10
80.73854761771389
 20
34.0758306239716
 30
0.0
 10
81.0384568693342
 20
34.59528868543791
 30
0.0
 10
81.28553752870013
 20
35.11854108763438
 30
0.0
 10
81.62739234273252
 20
36.17598509652976
 30
0.0
 10
81.72102798996103
 20
36.71025847495415
 30
0.0
 10
81.72102798996103
 20
37.25125710451456
 30
0.0
  0
LINE
  5
BC
330
1F
100
AcDbEntity
  8
0
  6
Continuous
 62
     7
370
    25
100
AcDbLine
 10
78.8014127477
 20
34.075830624
 30
0.0
 11
80.7385476177
 21
34.075830624
 31
0.0
  0
SPLINE
  5
BD
330
1F
100
AcDbEntity
  8
0
  6
Continuous
 62
     7
370
    25
100
AcDbSpline
210
0.0
220
0.0
230
1.0
 70
     8
 71
     3
 72
     8
 73
     4
 74
     0
 42
0.000000001
 43
0.00000001
 40
0.0
 40
0.0
 40
0.0
 40
0.0
 40
1.0
 40
1.0
 40
1.0
 40
1.0
 10
78.80141274769035
 20
34.07583062397162
 30
0.0
 10
78.77358107463326
 20
34.17969984188036
 30
0.0
 10
78.7467600147672
 20
34.2836190304641
 30
0.0
 10
78.72102798996102
 20
34.38759206736242
 30
0.0
  0
SPLINE
  5
BE
330
1F
100
AcDbEntity
  8
0
  6
Continuous
 62
     7
370
    25
100
AcDbSpline
210
0.0
220
0.0
230
1.0
 70
     8
 71
     3
 72
     8
 73
     4
 74
     0
 42
0.000000001
 43
0.00000001
 40
0.0
 40
0.0
 40
0.0
 40
0.0
 40
1.0
 40
1.0
 40
1.0
 40
1.0
 10
78.72102798996102
 20
34.38759206736242
 30
0.0
 10
78.69528704012771
 20
34.28358296792407
 30
0.0
 10
78.6684654958668
 20
34.17966472543944
 30
0.0
 10
78.64064323223168
 20
34.07583062397162
 30
0.0
  0
LINE
  5
BF
330
1F
100
AcDbEntity
  8
0
  6
Continuous
 62
     7
370
    25
100
AcDbLine
 10
76.7035083622
 20
34.075830624
 30
0.0
 11
78.6406432322
 21
34.075830624
 31
0.0
  0
SPLINE
  5
C0
330
1F
100
AcDbEntity
  8
0
  6
Continuous
 62
     7
370
    25
100
AcDbSpline
210
0.0
220
0.0
230
1.0
 70
     8
 71
     3
 72
    10
 73
     6
 74
     0
 42
0.000000001
 43
0.00000001
 40
0.0
 40
0.0
 40
0.0
 40
0.0
 40
0.5
 40
0.5
 40
1.0
 40
1.0
 40
1.0
 40
1.0
 10
76.70350836220814
 20
34.0758306239716
 30
0.0
 10
76.40359911058785
 20
34.59528868543791
 30
0.0
 10
76.15651845122191
 20
35.11854108763438
 30
0.0
 10
75.81466363718953
 20
36.17598509652976
 30
0.0
 10
75.72102798996102
 20
36.71025847495415
 30
0.0
 10
75.72102798996102
 20
37.25125710451456
 30
0.0
  0
SPLINE
  5
C1
330
1F
100
AcDbEntity
  8
0
  6
Continuous
 62
     7
370
    25
100
AcDbSpline
210
0.0
220
0.0
230
1.0
 70
     8
 71
     3
 72
     8
 73
     4
 74
     0
 42
0.000000001
 43
0.00000001
 40
0.0
 40
0.0
 40
0.0
 40
0.0
 40
1.0
 40
1.0
 40
1.0
 40
1.0
 10
78.64064323223168
 20
40.4266835850575
 30
0.0
 10
78.66847490528879
 20
40.32281436714874
 30
0.0
 10
78.69529596515483
 20
40.21889517856501
 30
0.0
 10
78.72102798996102
 20
40.1149221416667
 30
0.0
  0
SPLINE
  5
C2
330
1F
100
AcDbEntity
  8
0
  6
Continuous
 62
     7
370
    25
100
AcDbSpline
210
0.0
220
0.0
230
1.0
 70
     8
 71
     3
 72
     8
 73
     4
 74
     0
 42
0.000000001
 43
0.00000001
 40
0.0
 40
0.0
 40
0.0
 40
0.0
 40
1.0
 40
1.0
 40
1.0
 40
1.0
 10
78.72102798996102
 20
40.1149221416667
 30
0.0
 10
78.74676893979434
 20
40.21893124110505
 30
0.0
 10
78.77359048405525
 20
40.32284948358968
 30
0.0
 10
78.80141274769035
 20
40.4266835850575
 30
0.0
  0
LINE
  5
C3
330
1F
100
AcDbEntity
  8
0
  6
Continuous
 62
     7
370
    25
100
AcDbLine
 10
78.8014127477
 20
59.4792424683
 30
0.0
 11
80.7385476177
 21
59.4792424683
 31
0.0
  0
SPLINE
  5
C4
330
1F
100
AcDbEntity
  8
0
  6
Continuous
 62
     7
370
    25
100
AcDbSpline
210
0.0
220
0.0
230
1.0
 70
     8
 71
     3
 72
    12
 73
     8
 74
     0
 42
0.000000001
 43
0.00000001
 40
0.0
 40
0.0
 40
0.0
 40
0.0
 40
0.2500000000000002
 40
0.2500000000000002
 40
0.5000000000000001
 40
0.5000000000000001
 40
1.0
 40
1.0
 40
1.0
 40
1.0
 10
81.72102798996102
 20
56.3038159877722
 30
0.0
 10
81.72102798996102
 20
56.57330388199925
 30
0.0
 10
81.69780583563387
 20
56.84400076316629
 30
0.0
 10
81.6079386857731
 20
57.37949559409859
 30
0.0
 10
81.54138009668542
 20
57.64545199745051
 30
0.0
 10
81.28467062256374
 20
58.4385976008922
 30
0.0
 10
81.03770794954133
 20
58.96108157398059
 30
0.0
 10
80.73854761771373
 20
59.47924246831516
 30
0.0
  0
SPLINE
  5
C5
330
1F
100
AcDbEntity
  8
0
  6
Continuous
 62
     7
370
    25
100
AcDbSpline
210
0.0
220
0.0
230
1.0
 70
     8
 71
     3
 72
    10
 73
     6
 74
     0
 42
0.000000001
 43
0.00000001
 40
0.0
 40
0.0
 40
0.0
 40
0.0
 40
0.5
 40
0.5
 40
1.0
 40
1.0
 40
1.0
 40
1.0
 10
80.73854761771389
 20
53.12838950722924
 30
0.0
 10
81.03845686933418
 20
53.64784756869556
 30
0.0
 10
81.28553752870012
 20
54.17109997089203
 30
0.0
 10
81.62739234273252
 20
55.2285439797874
 30
0.0
 10
81.72102798996102
 20
55.7628173582118
 30
0.0
 10
81.72102798996102
 20
56.3038159877722
 30
0.0
  0
SPLINE
  5
C6
330
1F
100
AcDbEntity
  8
0
  6
Continuous
 62
     7
370
    25
100
AcDbSpline
210
0.0
220
0.0
230
1.0
 70
     8
 71
     3
 72
     8
 73
     4
 74
     0
 42
0.000000001
 43
0.00000001
 40
0.0
 40
0.0
 40
0.0
 40
0.0
 40
1.0
 40
1.0
 40
1.0
 40
1.0
 10
78.80141274769035
 20
53.12838950722927
 30
0.0
 10
78.77358107463326
 20
53.23225872513802
 30
0.0
 10
78.7467600147672
 20
53.33617791372176
 30
0.0
 10
78.72102798996102
 20
53.44015095062007
 30
0.0
  0
SPLINE
  5
C7
330
1F
100
AcDbEntity
  8
0
  6
Continuous
 62
     7
370
    25
100
AcDbSpline
210
0.0
220
0.0
230
1.0
 70
     8
 71
     3
 72
     8
 73
     4
 74
     0
 42
0.000000001
 43
0.00000001
 40
0.0
 40
0.0
 40
0.0
 40
0.0
 40
1.0
 40
1.0
 40
1.0
 40
1.0
 10
78.72102798996102
 20
53.44015095062007
 30
0.0
 10
78.69528704012771
 20
53.33614185118172
 30
0.0
 10
78.6684654958668
 20
53.2322236086971
 30
0.0
 10
78.64064323223168
 20
53.12838950722927
 30
0.0
  0
SPLINE
  5
C8
330
1F
100
AcDbEntity
  8
0
  6
Continuous
 62
     7
370
    25
100
AcDbSpline
210
0.0
220
0.0
230
1.0
 70
     8
 71
     3
 72
    10
 73
     6
 74
     0
 42
0.000000001
 43
0.00000001
 40
0.0
 40
0.0
 40
0.0
 40
0.0
 40
0.5
 40
0.5
 40
1.0
 40
1.0
 40
1.0
 40
1.0
 10
76.70350836220815
 20
53.12838950722924
 30
0.0
 10
76.40359911058785
 20
53.64784756869556
 30
0.0
 10
76.15651845122191
 20
54.17109997089203
 30
0.0
 10
75.81466363718953
 20
55.2285439797874
 30
0.0
 10
75.72102798996102
 20
55.7628173582118
 30
0.0
 10
75.72102798996102
 20
56.3038159877722
 30
0.0
  0
SPLINE
  5
C9
330
1F
100
AcDbEntity
  8
0
  6
Continuous
 62
     7
370
    25
100
AcDbSpline
210
0.0
220
0.0
230
1.0
 70
     8
 71
     3
 72
    12
 73
     8
 74
     0
 42
0.000000001
 43
0.00000001
 40
0.0
 40
0.0
 40
0.0
 40
0.0
 40
0.2500000000000002
 40
0.2500000000000002
 40
0.5000000000000001
 40
0.5000000000000001
 40
1.0
 40
1.0
 40
1.0
 40
1.0
 10
75.72102798996102
 20
56.3038159877722
 30
0.0
 10
75.72102798996102
 20
56.57330388199925
 30
0.0
 10
75.74425014428817
 20
56.84400076316629
 30
0.0
 10
75.83411729414894
 20
57.37949559409859
 30
0.0
 10
75.90067588323663
 20
57.64545199745051
 30
0.0
 10
76.15738535735831
 20
58.4385976008922
 30
0.0
 10
76.40434803038069
 20
58.96108157398059
 30
0.0
 10
76.70350836220831
 20
59.47924246831516
 30
0.0
  0
LINE
  5
CA
330
1F
100
AcDbEntity
  8
0
  6
Continuous
 62
     7
370
    25
100
AcDbLine
 10
76.7035083622
 20
59.4792424683
 30
0.0
 11
78.6406432322
 21
59.4792424683
 31
0.0
  0
SPLINE
  5
CB
330
1F
100
AcDbEntity
  8
0
  6
Continuous
 62
     7
370
    25
100
AcDbSpline
210
0.0
220
0.0
230
1.0
 70
     8
 71
     3
 72
     8
 73
     4
 74
     0
 42
0.000000001
 43
0.00000001
 40
0.0
 40
0.0
 40
0.0
 40
0.0
 40
1.0
 40
1.0
 40
1.0
 40
1.0
 10
78.64064323223168
 20
59.47924246831515
 30
0.0
 10
78.66847490528879
 20
59.3753732504064
 30
0.0
 10
78.69529596515483
 20
59.27145406182266
 30
0.0
 10
78.72102798996102
 20
59.16748102492434
 30
0.0
  0
SPLINE
  5
CC
330
1F
100
AcDbEntity
  8
0
  6
Continuous
 62
     7
370
    25
100
AcDbSpline
210
0.0
220
0.0
230
1.0
 70
     8
 71
     3
 72
     8
 73
     4
 74
     0
 42
0.000000001
 43
0.00000001
 40
0.0
 40
0.0
 40
0.0
 40
0.0
 40
1.0
 40
1.0
 40
1.0
 40
1.0
 10
78.72102798996102
 20
59.16748102492435
 30
0.0
 10
78.74676893979434
 20
59.2714901243627
 30
0.0
 10
78.77359048405525
 20
59.37540836684732
 30
0.0
 10
78.80141274769035
 20
59.47924246831514
 30
0.0
  0
SPLINE
  5
CD
330
1F
100
AcDbEntity
  8
0
  6
Continuous
 62
     7
370
    25
100
AcDbSpline
210
0.0
220
0.0
230
1.0
 70
     8
 71
     3
 72
    23
 73
    19
 74
     0
 42
0.000000001
 43
0.00000001
 40
0.0
 40
0.0
 40
0.0
 40
0.0
 40
0.0611415679303346
 40
0.1200010135310724
 40
0.1782359705414084
 40
0.236495543407017
 40
0.294887248704973
 40
0.3546771928192958
 40
0.4166948132897785
 40
0.4806333779628396
 40
0.5458046334786409
 40
0.6097347883178745
 40
0.6729516883751544
 40
0.7360010960706833
 40
0.7998274385165253
 40
0.8647672769393869
 40
0.9310835057306723
 40
1.0
 40
1.0
 40
1.0
 40
1.0
 10
78.3338885668841
 20
45.56705902257877
 30
0.0
 10
78.34413027733423
 20
45.56729211362181
 30
0.0
 10
78.36423142416304
 20
45.56774959553398
 30
0.0
 10
78.39365203776607
 20
45.57302417059017
 30
0.0
 10
78.4221768464996
 20
45.58014836203198
 30
0.0
 10
78.44916328302439
 20
45.59166170836933
 30
0.0
 10
78.47535763085476
 20
45.60537504363298
 30
0.0
 10
78.50001123596583
 20
45.62284493192835
 30
0.0
 10
78.52382253940982
 20
45.64287458646633
 30
0.0
 10
78.54591495313996
 20
45.66607086993118
 30
0.0
 10
78.5661224728045
 20
45.69130634978074
 30
0.0
 10
78.58395899534021
 20
45.71814244353397
 30
0.0
 10
78.59901266998581
 20
45.74621706758801
 30
0.0
 10
78.61157282645449
 20
45.77550310212337
 30
0.0
 10
78.62063689500991
 20
45.80633575002427
 30
0.0
 10
78.62777399692881
 20
45.8382173283757
 30
0.0
 10
78.6315720051391
 20
45.87155557402115
 30
0.0
 10
78.63223074726416
 20
45.89417412060831
 30
0.0
 10
78.63256645149947
 20
45.90570084950185
 30
0.0
  0
SPLINE
  5
CE
330
1F
100
AcDbEntity
  8
0
  6
Continuous
 62
     7
370
    25
100
AcDbSpline
210
0.0
220
0.0
230
1.0
 70
     8
 71
     3
 72
    23
 73
    19
 74
     0
 42
0.000000001
 43
0.00000001
 40
0.0
 40
0.0
 40
0.0
 40
0.0
 40
0.0679503475997533
 40
0.1332598223836994
 40
0.1978002967596469
 40
0.2608458295516821
 40
0.3233192927503666
 40
0.3862817224595717
 40
0.4500615162333125
 40
0.5152075844858149
 40
0.5796407692199315
 40
0.6418172023841521
 40
0.7016924412115346
 40
0.7607690981778942
 40
0.8192540511346831
 40
0.8787376269055535
 40
0.938158297016091
 40
1.0
 40
1.0
 40
1.0
 40
1.0
 10
78.03641260534563
 20
45.89398209950184
 30
0.0
 10
78.03674219438676
 20
45.88285401047846
 30
0.0
 10
78.03738856307554
 20
45.86103032275487
 30
0.0
 10
78.04128021707376
 20
45.82881338467018
 30
0.0
 10
78.04816370818439
 20
45.79792171865045
 30
0.0
 10
78.0579455454046
 20
45.76833383980716
 30
0.0
 10
78.06986458724064
 20
45.73980323034639
 30
0.0
 10
78.08507294726844
 20
45.71273467612195
 30
0.0
 10
78.10285019877605
 20
45.68676273219086
 30
0.0
 10
78.12318875199425
 20
45.66245271948572
 30
0.0
 10
78.14504652546286
 20
45.63980103372236
 30
0.0
 10
78.16905512693141
 20
45.62085098265155
 30
0.0
 10
78.19337024927647
 20
45.60374870085625
 30
0.0
 10
78.21946867129034
 20
45.59079432021416
 30
0.0
 10
78.24640507076921
 20
45.57993415055951
 30
0.0
 10
78.27459003151316
 20
45.57263340099222
 30
0.0
 10
78.30387825132861
 20
45.56785383533425
 30
0.0
 10
78.32375286121996
 20
45.56732746321322
 30
0.0
 10
78.3338885668841
 20
45.56705902257877
 30
0.0
  0
SPLINE
  5
CF
330
1F
100
AcDbEntity
  8
0
  6
Continuous
 62
     7
370
    25
100
AcDbSpline
210
0.0
220
0.0
230
1.0
 70
     8
 71
     3
 72
    23
 73
    19
 74
     0
 42
0.000000001
 43
0.00000001
 40
0.0
 40
0.0
 40
0.0
 40
0.0
 40
0.0618526459466918
 40
0.12128383061537
 40
0.1807779320756124
 40
0.2392732340142805
 40
0.2986414352139417
 40
0.3581858222417117
 40
0.4207600867589708
 40
0.4852046730216432
 40
0.5503622689482868
 40
0.6136499245309119
 40
0.6766234955168248
 40
0.7391080134690123
 40
0.8021647022429443
 40
0.8667165971324775
 40
0.9320376285055445
 40
1.0
 40
1.0
 40
1.0
 40
1.0
 10
78.3338885668841
 20
46.22090517642492
 30
0.0
 10
78.32375324702718
 20
46.22063604411746
 30
0.0
 10
78.30387939364641
 20
46.22010831572862
 30
0.0
 10
78.2745856682329
 20
46.21533862047541
 30
0.0
 10
78.24642135798193
 20
46.20800084882216
 30
0.0
 10
78.21936586328103
 20
46.19726029540037
 30
0.0
 10
78.19356676761763
 20
46.1837885009427
 30
0.0
 10
78.1688408124774
 20
46.16720997241079
 30
0.0
 10
78.14517093143732
 20
46.14780542432275
 30
0.0
 10
78.12315399488631
 20
46.12524802217742
 30
0.0
 10
78.1029595256469
 20
46.10092205094288
 30
0.0
 10
78.08497833232488
 20
46.07519572513774
 30
0.0
 10
78.06987893815091
 20
46.0481508444905
 30
0.0
 10
78.05794167689885
 20
46.01963308831941
 30
0.0
 10
78.04816477535655
 20
45.99004172749306
 30
0.0
 10
78.04127992624272
 20
45.9591510195067
 30
0.0
 10
78.03738863959698
 20
45.92693382226508
 30
0.0
 10
78.03674222022869
 20
45.90511017029447
 30
0.0
 10
78.03641260534563
 20
45.89398209950184
 30
0.0
  0
SPLINE
  5
D0
330
1F
100
AcDbEntity
  8
0
  6
Continuous
 62
     7
370
    25
100
AcDbSpline
210
0.0
220
0.0
230
1.0
 70
     8
 71
     3
 72
    23
 73
    19
 74
     0
 42
0.000000001
 43
0.00000001
 40
0.0
 40
0.0
 40
0.0
 40
0.0
 40
0.0705921865358075
 40
0.1385012886049303
 40
0.2037899961427016
 40
0.2667875726696014
 40
0.3290979656467185
 40
0.391174524603966
 40
0.4531677986176575
 40
0.5157967602265847
 40
0.5779688050530403
 40
0.6389663383752915
 40
0.698381066162843
 40
0.7573204555574266
 40
0.8164122397216688
 40
0.876279358230831
 40
0.9368234656501931
 40
1.0
 40
1.0
 40
1.0
 40
1.0
 10
78.63256645149947
 20
45.90570084950185
 30
0.0
 10
78.63222858704488
 20
45.91712716733966
 30
0.0
 10
78.63156569976752
 20
45.93954550883336
 30
0.0
 10
78.62782170764856
 20
45.97239496504859
 30
0.0
 10
78.62072786902817
 20
46.00340089873429
 30
0.0
 10
78.6115518254719
 20
46.03291744821843
 30
0.0
 10
78.59905800007508
 20
46.06063697356593
 30
0.0
 10
78.58406186753076
 20
46.08687567219427
 30
0.0
 10
78.56623244625797
 20
46.1113731801412
 30
0.0
 10
78.54576852992192
 20
46.13369927867338
 30
0.0
 10
78.52369077564202
 20
46.15420015110773
 30
0.0
 10
78.49990185190337
 20
46.17183424918269
 30
0.0
 10
78.47512855192258
 20
46.18706201029102
 30
0.0
 10
78.44913803673874
 20
46.19943891099399
 30
0.0
 10
78.42194697826405
 20
46.20907778929185
 30
0.0
 10
78.39367864740797
 20
46.21604982223454
 30
0.0
 10
78.36414396665292
 20
46.21993002143439
 30
0.0
 10
78.34411574817412
 20
46.22057554644316
 30
0.0
 10
78.3338885668841
 20
46.22090517642492
 30
0.0
  0
LINE
  5
D1
330
1F
100
AcDbEntity
  8
0
  6
Continuous
 62
     7
370
    25
100
AcDbLine
 10
81.72102799
 20
46.7775365461
 30
0.0
 11
81.72102799
 21
37.2512571045
 31
0.0
  0
LINE
  5
D2
330
1F
100
AcDbEntity
  8
0
  6
Continuous
 62
     7
370
    25
100
AcDbLine
 10
81.72102799
 20
56.3038159878
 30
0.0
 11
81.72102799
 21
46.7775365461
 31
0.0
  0
LINE
  5
D3
330
1F
100
AcDbEntity
  8
0
  6
Continuous
 62
     7
370
    25
100
AcDbLine
 10
75.72102799
 20
46.7775365461
 30
0.0
 11
75.72102799
 21
56.3038159878
 31
0.0
  0
LINE
  5
D4
330
1F
100
AcDbEntity
  8
0
  6
Continuous
 62
     7
370
    25
100
AcDbLine
 10
78.72102799
 20
40.1149221417
 30
0.0
 11
78.72102799
 21
41.0502064718
 31
0.0
  0
LINE
  5
D5
330
1F
100
AcDbEntity
  8
0
  6
Continuous
 62
     7
370
    25
100
AcDbLine
 10
78.72102799
 20
52.5048666204
 30
0.0
 11
78.72102799
 21
53.4401509506
 31
0.0
  0
LINE
  5
D6
330
1F
100
AcDbEntity
  8
0
  6
Continuous
 62
     7
370
    25
100
AcDbLine
 10
61.4174192629
 20
57.0842987734
 30
0.0
 11
61.4174192629
 21
36.4707743189
 31
0.0
  0
LINE
  5
D7
330
1F
100
AcDbEntity
  8
0
  6
Continuous
 62
     7
370
    25
100
AcDbLine
 10
58.72102799
 20
38.0275365461
 30
0.0
 11
58.72102799
 21
55.5275365461
 31
0.0
  0
LINE
  5
D8
330
1F
100
AcDbEntity
  8
0
  6
Continuous
 62
     7
370
    25
100
AcDbLine
 10
81.72102799
 20
37.2512571045
 30
0.0
 11
81.72102799
 21
35.7775365461
 31
0.0
  0
LINE
  5
D9
330
1F
100
AcDbEntity
  8
0
  6
Continuous
 62
     7
370
    25
100
AcDbLine
 10
75.72102799
 20
35.7775365461
 30
0.0
 11
75.72102799
 21
37.2512571045
 31
0.0
  0
LINE
  5
DA
330
1F
100
AcDbEntity
  8
0
  6
Continuous
 62
     7
370
    25
100
AcDbLine
 10
75.72102799
 20
56.3038159878
 30
0.0
 11
75.72102799
 21
57.7775365461
 31
0.0
  0
LINE
  5
DB
330
1F
100
AcDbEntity
  8
0
  6
Continuous
 62
     7
370
    25
100
AcDbLine
 10
81.72102799
 20
57.7775365461
 30
0.0
 11
81.72102799
 21
56.3038159878
 31
0.0
  0
LINE
  5
DC
330
1F
100
AcDbEntity
  8
0
  6
Continuous
 62
     7
370
    25
100
AcDbLine
 10
85.72102799
 20
50.7775365461
 30
0.0
 11
85.72102799
 21
42.7775365461
 31
0.0
  0
LINE
  5
DD
330
1F
100
AcDbEntity
  8
0
  6
Continuous
 62
     7
370
    25
100
AcDbLine
 10
99.22102799
 20
50.7775365461
 30
0.0
 11
99.22102799
 21
42.7775365461
 31
0.0
  0
LINE
  5
DE
330
1F
100
AcDbEntity
  8
0
  6
Continuous
 62
     7
370
    25
100
AcDbLine
 10
94.72102799
 20
50.7775365461
 30
0.0
 11
94.72102799
 21
42.7775365461
 31
0.0
  0
LINE
  5
DF
330
1F
100
AcDbEntity
  8
0
  6
Continuous
 62
     7
370
    25
100
AcDbLine
 10
90.22102799
 20
50.7775365461
 30
0.0
 11
90.22102799
 21
42.7775365461
 31
0.0
  0
LINE
  5
E0
330
1F
100
AcDbEntity
  8
0
  6
Continuous
 62
     7
370
    25
100
AcDbLine
 10
104.72102799
 20
49.591091009
 30
0.0
 11
104.72102799
 21
43.9639820759
 31
0.0
  0
LINE
  5
E1
330
1F
100
AcDbEntity
  8
0
  6
Continuous
 62
     7
370
    25
100
AcDbLine
 10
78.72102799
 20
59.1674810249
 30
0.0
 11
78.72102799
 21
59.1792424683
 31
0.0
  0
LINE
  5
E2
330
1F
100
AcDbEntity
  8
0
  6
Continuous
 62
     7
370
    25
100
AcDbLine
 10
78.72102799
 20
34.375830624
 30
0.0
 11
78.72102799
 21
34.3875920674
 31
0.0
  0
LINE
  5
E3
330
1F
100
AcDbEntity
  8
0
  6
Continuous
 62
     8
370
    25
100
AcDbLine
 10
104.2885845923
 20
43.4685669919
 30
0.0
 11
104.2885845923
 21
50.0865061004
 31
0.0
  0
LINE
  5
E4
330
1F
100
AcDbEntity
  8
0
  6
Continuous
 62
     7
370
    18
100
AcDbLine
 10
59.6022540209
 20
56.0363126323
 30
0.0
 11
75.22102799
 21
56.5243993189
 31
0.0
  0
LINE
  5
E5
330
1F
100
AcDbEntity
  8
0
  6
Continuous
 62
     7
370
    18
100
AcDbLine
 10
59.6022540209
 20
37.51876046
 30
0.0
 11
75.22102799
 21
37.0306737734
 31
0.0
  0
LINE
  5
E6
330
1F
100
AcDbEntity
  8
0
  6
Continuous
 62
     7
370
    18
100
AcDbLine
 10
75.22102799
 20
36.0394115461
 30
0.0
 11
75.22102799
 21
57.5156615461
 31
0.0
  0
LINE
  5
E7
330
1F
100
AcDbEntity
  8
0
  6
CENTERX2
 62
     7
370
    18
100
AcDbLine
 10
105.72102799
 20
46.7775365461
 30
0.0
 11
57.6982360231
 21
46.7775365461
 31
0.0
  0
CIRCLE
  5
E8
330
1F
100
AcDbEntity
  8
0
  6
Continuous
 62
     7
370
    25
100
AcDbCircle
 10
125.7472342794
 20
46.7775365461
 30
0.0
 40
2.813554470200572
  0
CIRCLE
  5
E9
330
1F
100
AcDbEntity
  8
0
  6
Continuous
 62
     7
370
    25
100
AcDbCircle
 10
125.7472342794
 20
46.7775365461
 30
0.0
 40
2.699999999999982
  0
CIRCLE
  5
EA
330
1F
100
AcDbEntity
  8
0
  6
Continuous
 62
     7
370
    25
100
AcDbCircle
 10
125.7472342794
 20
46.7775365461
 30
0.0
 40
3.308969554222728
  0
CIRCLE
  5
EB
330
1F
100
AcDbEntity
  8
0
  6
Continuous
 62
     7
370
    25
100
AcDbCircle
 10
125.7472342794
 20
46.7775365461
 30
0.0
 40
2.499999999999986
  0
CIRCLE
  5
EC
330
1F
100
AcDbEntity
  8
0
  6
Continuous
 62
     7
370
    25
100
AcDbCircle
 10
125.7472342794
 20
46.7775365461
 30
0.0
 40
4.0
  0
ARC
  5
ED
330
1F
100
AcDbEntity
  8
0
  6
Continuous
 62
     7
370
    25
100
AcDbCircle
 10
125.7472342794
 20
46.7775365461
 30
0.0
 40
11.00000000000001
100
AcDbArc
 50
240.0
 51
300.0
  0
ARC
  5
EE
330
1F
100
AcDbEntity
  8
0
  6
Continuous
 62
     7
370
    25
100
AcDbCircle
 10
125.7472342794
 20
46.7775365461
 30
0.0
 40
10.99999999999999
100
AcDbArc
 50
180.0
 51
240.0
  0
ARC
  5
EF
330
1F
100
AcDbEntity
  8
0
  6
Continuous
 62
     7
370
    25
100
AcDbCircle
 10
125.7472342794
 20
46.7775365461
 30
0.0
 40
10.99999999999999
100
AcDbArc
 50
120.0
 51
180.0
  0
ARC
  5
F0
330
1F
100
AcDbEntity
  8
0
  6
Continuous
 62
     7
370
    25
100
AcDbCircle
 10
125.7472342794
 20
46.7775365461
 30
0.0
 40
11.0
100
AcDbArc
 50
60.0
 51
120.0
  0
ARC
  5
F1
330
1F
100
AcDbEntity
  8
0
  6
Continuous
 62
     7
370
    25
100
AcDbCircle
 10
125.7472342794
 20
46.7775365461
 30
0.0
 40
11.00000000000003
100
AcDbArc
 50
0.0
 51
60.0
  0
ARC
  5
F2
330
1F
100
AcDbEntity
  8
0
  6
Continuous
 62
     7
370
    25
100
AcDbCircle
 10
125.7472342794
 20
46.7775365461
 30
0.0
 40
11.00000000000003
100
AcDbArc
 50
300.0
 51
0.0
  0
SPLINE
  5
F3
330
1F
100
AcDbEntity
  8
0
  6
Continuous
 62
     7
370
    25
100
AcDbSpline
210
0.0
220
0.0
230
1.0
 70
    24
 71
     3
 72
    10
 73
     6
 74
     0
 42
0.000000001
 43
0.00000001
 40
0.0
 40
0.0
 40
0.0
 40
0.0
 40
0.5000000000000001
 40
0.5000000000000001
 40
1.0
 40
1.0
 40
1.0
 40
1.0
 10
136.7472342794394
 20
40.42668358505749
 30
0.0
 10
136.7472342794394
 20
41.46065749743656
 30
0.0
 10
136.7472342794394
 20
42.5180595366967
 30
0.0
 10
136.7472342794394
 20
44.63698659687314
 30
0.0
 10
136.7472342794394
 20
45.70325396866524
 30
0.0
 10
136.7472342794394
 20
46.77753654614338
 30
0.0
  0
SPLINE
  5
F4
330
1F
100
AcDbEntity
  8
0
  6
Continuous
 62
     7
370
    25
100
AcDbSpline
210
0.0
220
0.0
230
1.0
 70
    24
 71
     3
 72
    10
 73
     6
 74
     0
 42
0.000000001
 43
0.00000001
 40
0.0
 40
0.0
 40
0.0
 40
0.0
 40
0.5
 40
0.5
 40
1.0
 40
1.0
 40
1.0
 40
1.0
 10
136.7472342794394
 20
40.42668358505752
 30
0.0
 10
135.8475065245786
 20
39.9072255235912
 30
0.0
 10
134.9412067787918
 20
39.38397312139474
 30
0.0
 10
133.1096600292257
 20
38.32652911249936
 30
0.0
 10
132.1842713926632
 20
37.79225573407496
 30
0.0
 10
131.2472342794394
 20
37.25125710451455
 30
0.0
  0
SPLINE
  5
F5
330
1F
100
AcDbEntity
  8
0
  6
Continuous
 62
     7
370
    25
100
AcDbSpline
210
0.0
220
0.0
230
1.0
 70
    24
 71
     3
 72
    12
 73
     8
 74
     0
 42
0.000000001
 43
0.00000001
 40
0.0
 40
0.0
 40
0.0
 40
0.0
 40
0.25
 40
0.25
 40
0.5
 40
0.5
 40
1.0
 40
1.0
 40
1.0
 40
1.0
 10
136.7472342794394
 20
46.77753654614338
 30
0.0
 10
136.7472342794394
 20
47.31507016904833
 30
0.0
 10
136.7472342794394
 20
47.85543691287987
 30
0.0
 10
136.7472342794394
 20
48.93652869769701
 30
0.0
 10
136.7472342794394
 20
49.47134681643902
 30
0.0
 10
136.7472342794394
 20
51.0610324510358
 30
0.0
 10
136.7472342794394
 20
52.10123304167512
 30
0.0
 10
136.7472342794394
 20
53.12838950722927
 30
0.0
  0
SPLINE
  5
F6
330
1F
100
AcDbEntity
  8
0
  6
Continuous
 62
     7
370
    25
100
AcDbSpline
210
0.0
220
0.0
230
1.0
 70
    24
 71
     3
 72
    12
 73
     8
 74
     0
 42
0.000000001
 43
0.00000001
 40
0.0
 40
0.0
 40
0.0
 40
0.0
 40
0.2500000000000001
 40
0.2500000000000001
 40
0.5000000000000001
 40
0.5000000000000001
 40
1.0
 40
1.0
 40
1.0
 40
1.0
 10
131.2472342794394
 20
56.3038159877722
 30
0.0
 10
131.7140010042654
 20
56.03432809354516
 30
0.0
 10
132.1828617558971
 20
55.76363121237813
 30
0.0
 10
133.1103660102624
 20
55.22813638144583
 30
0.0
 10
133.5710160134662
 20
54.96217997809391
 30
0.0
 10
134.9447844964271
 20
54.16903437465222
 30
0.0
 10
135.8497532839566
 20
53.64655040156383
 30
0.0
 10
136.7472342794394
 20
53.12838950722926
 30
0.0
  0
SPLINE
  5
F7
330
1F
100
AcDbEntity
  8
0
  6
Continuous
 62
     7
370
    25
100
AcDbSpline
210
0.0
220
0.0
230
1.0
 70
    24
 71
     3
 72
    10
 73
     6
 74
     0
 42
0.000000001
 43
0.00000001
 40
0.0
 40
0.0
 40
0.0
 40
0.0
 40
0.5
 40
0.5
 40
1.0
 40
1.0
 40
1.0
 40
1.0
 10
125.7472342794395
 20
34.0758306239716
 30
0.0
 10
124.8475065245785
 20
34.59528868543791
 30
0.0
 10
123.9412067787918
 20
35.11854108763438
 30
0.0
 10
122.1096600292257
 20
36.17598509652976
 30
0.0
 10
121.1842713926632
 20
36.71025847495415
 30
0.0
 10
120.2472342794394
 20
37.25125710451456
 30
0.0
  0
SPLINE
  5
F8
330
1F
100
AcDbEntity
  8
0
  6
Continuous
 62
     7
370
    25
100
AcDbSpline
210
0.0
220
0.0
230
1.0
 70
    24
 71
     3
 72
    12
 73
     8
 74
     0
 42
0.000000001
 43
0.00000001
 40
0.0
 40
0.0
 40
0.0
 40
0.0
 40
0.2500000000000002
 40
0.2500000000000002
 40
0.5000000000000002
 40
0.5000000000000002
 40
1.0
 40
1.0
 40
1.0
 40
1.0
 10
131.2472342794394
 20
37.25125710451455
 30
0.0
 10
130.7804675546134
 20
36.98176921028751
 30
0.0
 10
130.3116068029817
 20
36.71107232912048
 30
0.0
 10
129.3841025486164
 20
36.17557749818818
 30
0.0
 10
128.9234525454126
 20
35.90962109483625
 30
0.0
 10
127.5496840624517
 20
35.11647549139457
 30
0.0
 10
126.6447152749222
 20
34.59399151830618
 30
0.0
 10
125.7472342794394
 20
34.0758306239716
 30
0.0
  0
SPLINE
  5
F9
330
1F
100
AcDbEntity
  8
0
  6
Continuous
 62
     7
370
    25
100
AcDbSpline
210
0.0
220
0.0
230
1.0
 70
    24
 71
     3
 72
    12
 73
     8
 74
     0
 42
0.000000001
 43
0.00000001
 40
0.0
 40
0.0
 40
0.0
 40
0.0
 40
0.2500000000000002
 40
0.2500000000000002
 40
0.5000000000000001
 40
0.5000000000000001
 40
1.0
 40
1.0
 40
1.0
 40
1.0
 10
120.2472342794394
 20
56.3038159877722
 30
0.0
 10
120.7140010042654
 20
56.57330388199925
 30
0.0
 10
121.1828617558971
 20
56.84400076316629
 30
0.0
 10
122.1103660102624
 20
57.37949559409859
 30
0.0
 10
122.5710160134662
 20
57.64545199745051
 30
0.0
 10
123.9447844964271
 20
58.4385976008922
 30
0.0
 10
124.8497532839566
 20
58.96108157398059
 30
0.0
 10
125.7472342794394
 20
59.47924246831516
 30
0.0
  0
SPLINE
  5
FA
330
1F
100
AcDbEntity
  8
0
  6
Continuous
 62
     7
370
    25
100
AcDbSpline
210
0.0
220
0.0
230
1.0
 70
    24
 71
     3
 72
    10
 73
     6
 74
     0
 42
0.000000001
 43
0.00000001
 40
0.0
 40
0.0
 40
0.0
 40
0.0
 40
0.5
 40
0.5
 40
1.0
 40
1.0
 40
1.0
 40
1.0
 10
125.7472342794394
 20
59.47924246831516
 30
0.0
 10
126.6469620343003
 20
58.95978440684885
 30
0.0
 10
127.553261780087
 20
58.43653200465239
 30
0.0
 10
129.3848085296531
 20
57.379087995757
 30
0.0
 10
130.3101971662156
 20
56.84481461733262
 30
0.0
 10
131.2472342794394
 20
56.3038159877722
 30
0.0
  0
SPLINE
  5
FB
330
1F
100
AcDbEntity
  8
0
  6
Continuous
 62
     7
370
    25
100
AcDbSpline
210
0.0
220
0.0
230
1.0
 70
    24
 71
     3
 72
    10
 73
     6
 74
     0
 42
0.000000001
 43
0.00000001
 40
0.0
 40
0.0
 40
0.0
 40
0.0
 40
0.5
 40
0.5
 40
1.0
 40
1.0
 40
1.0
 40
1.0
 10
114.7472342794394
 20
40.4266835850575
 30
0.0
 10
114.7472342794394
 20
41.46065749743656
 30
0.0
 10
114.7472342794394
 20
42.5180595366967
 30
0.0
 10
114.7472342794394
 20
44.63698659687314
 30
0.0
 10
114.7472342794394
 20
45.70325396866524
 30
0.0
 10
114.7472342794394
 20
46.77753654614338
 30
0.0
  0
SPLINE
  5
FC
330
1F
100
AcDbEntity
  8
0
  6
Continuous
 62
     7
370
    25
100
AcDbSpline
210
0.0
220
0.0
230
1.0
 70
    24
 71
     3
 72
    12
 73
     8
 74
     0
 42
0.000000001
 43
0.00000001
 40
0.0
 40
0.0
 40
0.0
 40
0.0
 40
0.25
 40
0.25
 40
0.5
 40
0.5
 40
1.0
 40
1.0
 40
1.0
 40
1.0
 10
120.2472342794394
 20
37.25125710451456
 30
0.0
 10
119.7804675546134
 20
37.52074499874161
 30
0.0
 10
119.3116068029817
 20
37.79144187990863
 30
0.0
 10
118.3841025486164
 20
38.32693671084093
 30
0.0
 10
117.9234525454126
 20
38.59289311419285
 30
0.0
 10
116.5496840624517
 20
39.38603871763455
 30
0.0
 10
115.6447152749222
 20
39.90852269072294
 30
0.0
 10
114.7472342794394
 20
40.42668358505752
 30
0.0
  0
SPLINE
  5
FD
330
1F
100
AcDbEntity
  8
0
  6
Continuous
 62
     7
370
    25
100
AcDbSpline
210
0.0
220
0.0
230
1.0
 70
    24
 71
     3
 72
    12
 73
     8
 74
     0
 42
0.000000001
 43
0.00000001
 40
0.0
 40
0.0
 40
0.0
 40
0.0
 40
0.2499999999999999
 40
0.2499999999999999
 40
0.4999999999999999
 40
0.4999999999999999
 40
1.0
 40
1.0
 40
1.0
 40
1.0
 10
114.7472342794394
 20
46.77753654614338
 30
0.0
 10
114.7472342794394
 20
47.31507016904833
 30
0.0
 10
114.7472342794394
 20
47.85543691287986
 30
0.0
 10
114.7472342794394
 20
48.93652869769701
 30
0.0
 10
114.7472342794394
 20
49.47134681643902
 30
0.0
 10
114.7472342794394
 20
51.0610324510358
 30
0.0
 10
114.7472342794394
 20
52.10123304167512
 30
0.0
 10
114.7472342794394
 20
53.12838950722927
 30
0.0
  0
SPLINE
  5
FE
330
1F
100
AcDbEntity
  8
0
  6
Continuous
 62
     7
370
    25
100
AcDbSpline
210
0.0
220
0.0
230
1.0
 70
    24
 71
     3
 72
    10
 73
     6
 74
     0
 42
0.000000001
 43
0.00000001
 40
0.0
 40
0.0
 40
0.0
 40
0.0
 40
0.5
 40
0.5
 40
1.0
 40
1.0
 40
1.0
 40
1.0
 10
114.7472342794394
 20
53.12838950722924
 30
0.0
 10
115.6469620343003
 20
53.64784756869556
 30
0.0
 10
116.553261780087
 20
54.17109997089203
 30
0.0
 10
118.3848085296531
 20
55.2285439797874
 30
0.0
 10
119.3101971662156
 20
55.7628173582118
 30
0.0
 10
120.2472342794394
 20
56.3038159877722
 30
0.0
  0
INSERT
  5
10A
330
1F
100
AcDbEntity
  8
0
  6
Continuous
 62
     7
370
    18
100
AcDbBlockReference
  2
SW_CENTERMARKSYMBOL_0
 10
125.7472342794
 20
46.7775365461
 30
0.0
  0
INSERT
  5
116
330
1F
100
AcDbEntity
  8
0
  6
Continuous
 62
     7
370
    18
100
AcDbBlockReference
  2
SW_CENTERMARKSYMBOL_1
 10
125.7472342794
 20
46.7775365461
 30
0.0
  0
LINE
  5
117
330
1F
100
AcDbEntity
  8
0
  6
Continuous
 62
     7
370
    25
100
AcDbLine
 10
75.72102799
 20
89.3124121054
 30
0.0
 11
61.4174192629
 21
88.8654243327
 31
0.0
  0
LINE
  5
118
330
1F
100
AcDbEntity
  8
0
  6
Continuous
 62
     7
370
    25
100
AcDbLine
 10
61.4174192629
 20
68.2518998781
 30
0.0
 11
75.72102799
 21
67.8049121054
 31
0.0
  0
LINE
  5
119
330
1F
100
AcDbEntity
  8
0
  6
Continuous
 62
     7
370
    25
100
AcDbLine
 10
61.4174192629
 20
88.8654243327
 30
0.0
 11
58.72102799
 21
87.3086621054
 31
0.0
  0
LINE
  5
11A
330
1F
100
AcDbEntity
  8
0
  6
Continuous
 62
     7
370
    25
100
AcDbLine
 10
58.72102799
 20
69.8086621054
 30
0.0
 11
61.4174192629
 21
68.2518998781
 31
0.0
  0
LINE
  5
11B
330
1F
100
AcDbEntity
  8
0
  6
Continuous
 62
     7
370
    25
100
AcDbLine
 10
85.72102799
 20
82.5586621054
 30
0.0
 11
81.72102799
 21
82.5586621054
 31
0.0
  0
LINE
  5
11C
330
1F
100
AcDbEntity
  8
0
  6
Continuous
 62
     7
370
    25
100
AcDbLine
 10
81.72102799
 20
74.5586621054
 30
0.0
 11
85.72102799
 21
74.5586621054
 31
0.0
  0
LINE
  5
11D
330
1F
100
AcDbEntity
  8
0
  6
Continuous
 62
     7
370
    25
100
AcDbLine
 10
90.22102799
 20
74.5586621054
 30
0.0
 11
94.72102799
 21
75.3086621054
 31
0.0
  0
LINE
  5
11E
330
1F
100
AcDbEntity
  8
0
  6
Continuous
 62
     7
370
    25
100
AcDbLine
 10
94.72102799
 20
81.8086621054
 30
0.0
 11
90.22102799
 21
82.5586621054
 31
0.0
  0
LINE
  5
11F
330
1F
100
AcDbEntity
  8
0
  6
Continuous
 62
     7
370
    25
100
AcDbLine
 10
85.72102799
 20
74.5586621054
 30
0.0
 11
90.22102799
 21
75.3086621054
 31
0.0
  0
LINE
  5
120
330
1F
100
AcDbEntity
  8
0
  6
Continuous
 62
     7
370
    25
100
AcDbLine
 10
90.22102799
 20
81.8086621054
 30
0.0
 11
85.72102799
 21
82.5586621054
 31
0.0
  0
LINE
  5
121
330
1F
100
AcDbEntity
  8
0
  6
Continuous
 62
     7
370
    25
100
AcDbLine
 10
99.22102799
 20
74.5586621054
 30
0.0
 11
104.2885845923
 21
75.2496925512
 31
0.0
  0
LINE
  5
122
330
1F
100
AcDbEntity
  8
0
  6
Continuous
 62
     7
370
    25
100
AcDbLine
 10
104.2885845923
 20
81.8676316596
 30
0.0
 11
99.22102799
 21
82.5586621054
 31
0.0
  0
LINE
  5
123
330
1F
100
AcDbEntity
  8
0
  6
Continuous
 62
     7
370
    25
100
AcDbLine
 10
94.72102799
 20
74.5586621054
 30
0.0
 11
99.22102799
 21
75.3086621054
 31
0.0
  0
LINE
  5
124
330
1F
100
AcDbEntity
  8
0
  6
Continuous
 62
     7
370
    25
100
AcDbLine
 10
99.22102799
 20
81.8086621054
 30
0.0
 11
94.72102799
 21
82.5586621054
 31
0.0
  0
ARC
  5
125
330
1F
100
AcDbEntity
  8
0
  6
Continuous
 62
     7
370
    25
100
AcDbCircle
 10
104.22102799
 20
75.7451076352
 30
0.0
 40
0.5000000000000054
100
AcDbArc
 50
277.7651660184
 51
0.0
  0
ARC
  5
126
330
1F
100
AcDbEntity
  8
0
  6
Continuous
 62
     7
370
    25
100
AcDbCircle
 10
104.22102799
 20
81.3722165756
 30
0.0
 40
0.5000000000000054
100
AcDbArc
 50
0.0
 51
82.2348339816
  0
LINE
  5
127
330
1F
100
AcDbEntity
  8
0
  6
Continuous
 62
     7
370
    25
100
AcDbLine
 10
78.8014127477
 20
89.5586621054
 30
0.0
 11
80.7385476177
 21
89.5586621054
 31
0.0
  0
SPLINE
  5
128
330
1F
100
AcDbEntity
  8
0
  6
Continuous
 62
     7
370
    25
100
AcDbSpline
210
0.0
220
0.0
230
1.0
 70
     8
 71
     3
 72
    12
 73
     8
 74
     0
 42
0.000000001
 43
0.00000001
 40
0.0
 40
0.0
 40
0.0
 40
0.0
 40
0.2500000000000001
 40
0.2500000000000001
 40
0.5000000000000001
 40
0.5000000000000001
 40
1.0
 40
1.0
 40
1.0
 40
1.0
 10
81.72102798996103
 20
84.05866210542716
 30
0.0
 10
81.72102798996103
 20
84.52542883025315
 30
0.0
 10
81.69780583563387
 20
84.99428958188487
 30
0.0
 10
81.6079386857731
 20
85.92179383625013
 30
0.0
 10
81.54138009668542
 20
86.38244383945394
 30
0.0
 10
81.28467062256374
 20
87.75621232241481
 30
0.0
 10
81.03770794954133
 20
88.66118110994437
 30
0.0
 10
80.73854761771373
 20
89.55866210542717
 30
0.0
  0
SPLINE
  5
129
330
1F
100
AcDbEntity
  8
0
  6
Continuous
 62
     7
370
    25
100
AcDbSpline
210
0.0
220
0.0
230
1.0
 70
     8
 71
     3
 72
    10
 73
     6
 74
     0
 42
0.000000001
 43
0.00000001
 40
0.0
 40
0.0
 40
0.0
 40
0.0
 40
0.5
 40
0.5
 40
1.0
 40
1.0
 40
1.0
 40
1.0
 10
80.73854761771389
 20
78.55866210542712
 30
0.0
 10
81.0384568693342
 20
79.45838986028801
 30
0.0
 10
81.28553752870013
 20
80.36468960607476
 30
0.0
 10
81.62739234273252
 20
82.19623635564086
 30
0.0
 10
81.72102798996103
 20
83.1216249922034
 30
0.0
 10
81.72102798996103
 20
84.05866210542716
 30
0.0
  0
LINE
  5
12A
330
1F
100
AcDbEntity
  8
0
  6
Continuous
 62
     7
370
    25
100
AcDbLine
 10
78.8014127477
 20
78.5586621054
 30
0.0
 11
80.7385476177
 21
78.5586621054
 31
0.0
  0
SPLINE
  5
12B
330
1F
100
AcDbEntity
  8
0
  6
Continuous
 62
     7
370
    25
100
AcDbSpline
210
0.0
220
0.0
230
1.0
 70
     8
 71
     3
 72
     8
 73
     4
 74
     0
 42
0.000000001
 43
0.00000001
 40
0.0
 40
0.0
 40
0.0
 40
0.0
 40
1.0
 40
1.0
 40
1.0
 40
1.0
 10
78.80141274769035
 20
78.55866210542716
 30
0.0
 10
78.77358107463326
 20
78.73856886818754
 30
0.0
 10
78.7467600147672
 20
78.91856218269591
 30
0.0
 10
78.72102798996102
 20
79.09864876522103
 30
0.0
  0
SPLINE
  5
12C
330
1F
100
AcDbEntity
  8
0
  6
Continuous
 62
     7
370
    25
100
AcDbSpline
210
0.0
220
0.0
230
1.0
 70
     8
 71
     3
 72
     8
 73
     4
 74
     0
 42
0.000000001
 43
0.00000001
 40
0.0
 40
0.0
 40
0.0
 40
0.0
 40
1.0
 40
1.0
 40
1.0
 40
1.0
 10
78.72102798996102
 20
79.09864876522103
 30
0.0
 10
78.69528704012771
 20
78.91849972054432
 30
0.0
 10
78.6684654958668
 20
78.7385080447277
 30
0.0
 10
78.64064323223168
 20
78.55866210542716
 30
0.0
  0
LINE
  5
12D
330
1F
100
AcDbEntity
  8
0
  6
Continuous
 62
     7
370
    25
100
AcDbLine
 10
76.7035083622
 20
78.5586621054
 30
0.0
 11
78.6406432322
 21
78.5586621054
 31
0.0
  0
SPLINE
  5
12E
330
1F
100
AcDbEntity
  8
0
  6
Continuous
 62
     7
370
    25
100
AcDbSpline
210
0.0
220
0.0
230
1.0
 70
     8
 71
     3
 72
    10
 73
     6
 74
     0
 42
0.000000001
 43
0.00000001
 40
0.0
 40
0.0
 40
0.0
 40
0.0
 40
0.5
 40
0.5
 40
1.0
 40
1.0
 40
1.0
 40
1.0
 10
76.70350836220814
 20
78.55866210542712
 30
0.0
 10
76.40359911058785
 20
79.45838986028801
 30
0.0
 10
76.15651845122191
 20
80.36468960607476
 30
0.0
 10
75.81466363718953
 20
82.19623635564086
 30
0.0
 10
75.72102798996102
 20
83.1216249922034
 30
0.0
 10
75.72102798996102
 20
84.05866210542716
 30
0.0
  0
SPLINE
  5
12F
330
1F
100
AcDbEntity
  8
0
  6
Continuous
 62
     7
370
    25
100
AcDbSpline
210
0.0
220
0.0
230
1.0
 70
     8
 71
     3
 72
    12
 73
     8
 74
     0
 42
0.000000001
 43
0.00000001
 40
0.0
 40
0.0
 40
0.0
 40
0.0
 40
0.2500000000000001
 40
0.2500000000000001
 40
0.5000000000000001
 40
0.5000000000000001
 40
1.0
 40
1.0
 40
1.0
 40
1.0
 10
75.72102798996102
 20
84.05866210542716
 30
0.0
 10
75.72102798996102
 20
84.52542883025315
 30
0.0
 10
75.74425014428817
 20
84.99428958188487
 30
0.0
 10
75.83411729414894
 20
85.92179383625013
 30
0.0
 10
75.90067588323663
 20
86.38244383945394
 30
0.0
 10
76.15738535735831
 20
87.75621232241481
 30
0.0
 10
76.40434803038069
 20
88.66118110994437
 30
0.0
 10
76.70350836220831
 20
89.55866210542717
 30
0.0
  0
LINE
  5
130
330
1F
100
AcDbEntity
  8
0
  6
Continuous
 62
     7
370
    25
100
AcDbLine
 10
76.7035083622
 20
89.5586621054
 30
0.0
 11
78.6406432322
 21
89.5586621054
 31
0.0
  0
SPLINE
  5
131
330
1F
100
AcDbEntity
  8
0
  6
Continuous
 62
     7
370
    25
100
AcDbSpline
210
0.0
220
0.0
230
1.0
 70
     8
 71
     3
 72
     8
 73
     4
 74
     0
 42
0.000000001
 43
0.00000001
 40
0.0
 40
0.0
 40
0.0
 40
0.0
 40
1.0
 40
1.0
 40
1.0
 40
1.0
 10
78.64064323223168
 20
89.55866210542715
 30
0.0
 10
78.66847490528879
 20
89.37875534266676
 30
0.0
 10
78.69529596515483
 20
89.19876202815838
 30
0.0
 10
78.72102798996102
 20
89.01867544563328
 30
0.0
  0
SPLINE
  5
132
330
1F
100
AcDbEntity
  8
0
  6
Continuous
 62
     7
370
    25
100
AcDbSpline
210
0.0
220
0.0
230
1.0
 70
     8
 71
     3
 72
     8
 73
     4
 74
     0
 42
0.000000001
 43
0.00000001
 40
0.0
 40
0.0
 40
0.0
 40
0.0
 40
1.0
 40
1.0
 40
1.0
 40
1.0
 10
78.72102798996102
 20
89.01867544563328
 30
0.0
 10
78.74676893979434
 20
89.19882449030999
 30
0.0
 10
78.77359048405525
 20
89.37881616612661
 30
0.0
 10
78.80141274769035
 20
89.55866210542715
 30
0.0
  0
LINE
  5
133
330
1F
100
AcDbEntity
  8
0
  6
Continuous
 62
     7
370
    25
100
AcDbLine
 10
75.72102799
 20
73.0586621054
 30
0.0
 11
75.72102799
 21
84.0586621054
 31
0.0
  0
SPLINE
  5
134
330
1F
100
AcDbEntity
  8
0
  6
Continuous
 62
     7
370
    25
100
AcDbSpline
210
0.0
220
0.0
230
1.0
 70
     8
 71
     3
 72
    12
 73
     8
 74
     0
 42
0.000000001
 43
0.00000001
 40
0.0
 40
0.0
 40
0.0
 40
0.0
 40
0.2500000000000002
 40
0.2500000000000002
 40
0.5000000000000001
 40
0.5000000000000001
 40
1.0
 40
1.0
 40
1.0
 40
1.0
 10
75.72102798996102
 20
73.05866210542715
 30
0.0
 10
75.72102798996102
 20
73.52542883025315
 30
0.0
 10
75.74425014428817
 20
73.99428958188489
 30
0.0
 10
75.83411729414894
 20
74.92179383625013
 30
0.0
 10
75.90067588323663
 20
75.38244383945394
 30
0.0
 10
76.15738535735831
 20
76.75621232241483
 30
0.0
 10
76.40434803038069
 20
77.66118110994437
 30
0.0
 10
76.70350836220831
 20
78.55866210542719
 30
0.0
  0
SPLINE
  5
135
330
1F
100
AcDbEntity
  8
0
  6
Continuous
 62
     7
370
    25
100
AcDbSpline
210
0.0
220
0.0
230
1.0
 70
     8
 71
     3
 72
    12
 73
     8
 74
     0
 42
0.000000001
 43
0.00000001
 40
0.0
 40
0.0
 40
0.0
 40
0.0
 40
0.2500000000000002
 40
0.2500000000000002
 40
0.5000000000000001
 40
0.5000000000000001
 40
1.0
 40
1.0
 40
1.0
 40
1.0
 10
81.72102798996102
 20
73.05866210542715
 30
0.0
 10
81.72102798996102
 20
73.52542883025315
 30
0.0
 10
81.69780583563387
 20
73.99428958188489
 30
0.0
 10
81.6079386857731
 20
74.92179383625013
 30
0.0
 10
81.54138009668542
 20
75.38244383945394
 30
0.0
 10
81.28467062256374
 20
76.75621232241483
 30
0.0
 10
81.03770794954133
 20
77.66118110994437
 30
0.0
 10
80.73854761771373
 20
78.55866210542719
 30
0.0
  0
LINE
  5
136
330
1F
100
AcDbEntity
  8
0
  6
Continuous
 62
     7
370
    25
100
AcDbLine
 10
81.72102799
 20
84.0586621054
 30
0.0
 11
81.72102799
 21
73.0586621054
 31
0.0
  0
LINE
  5
137
330
1F
100
AcDbEntity
  8
0
  6
Continuous
 62
     7
370
    25
100
AcDbLine
 10
78.72102799
 20
78.0186754456
 30
0.0
 11
78.72102799
 21
79.0986487652
 31
0.0
  0
SPLINE
  5
138
330
1F
100
AcDbEntity
  8
0
  6
Continuous
 62
     7
370
    25
100
AcDbSpline
210
0.0
220
0.0
230
1.0
 70
     8
 71
     3
 72
     8
 73
     4
 74
     0
 42
0.000000001
 43
0.00000001
 40
0.0
 40
0.0
 40
0.0
 40
0.0
 40
1.0
 40
1.0
 40
1.0
 40
1.0
 10
78.64064323223168
 20
78.55866210542716
 30
0.0
 10
78.66847490528879
 20
78.37875534266675
 30
0.0
 10
78.69529596515483
 20
78.19876202815838
 30
0.0
 10
78.72102798996102
 20
78.01867544563328
 30
0.0
  0
SPLINE
  5
139
330
1F
100
AcDbEntity
  8
0
  6
Continuous
 62
     7
370
    25
100
AcDbSpline
210
0.0
220
0.0
230
1.0
 70
     8
 71
     3
 72
    10
 73
     6
 74
     0
 42
0.000000001
 43
0.00000001
 40
0.0
 40
0.0
 40
0.0
 40
0.0
 40
0.5
 40
0.5
 40
1.0
 40
1.0
 40
1.0
 40
1.0
 10
80.73854761771389
 20
67.55866210542712
 30
0.0
 10
81.03845686933418
 20
68.45838986028802
 30
0.0
 10
81.28553752870012
 20
69.36468960607475
 30
0.0
 10
81.62739234273252
 20
71.19623635564088
 30
0.0
 10
81.72102798996102
 20
72.1216249922034
 30
0.0
 10
81.72102798996102
 20
73.05866210542715
 30
0.0
  0
LINE
  5
13A
330
1F
100
AcDbEntity
  8
0
  6
Continuous
 62
     7
370
    25
100
AcDbLine
 10
78.8014127477
 20
67.5586621054
 30
0.0
 11
80.7385476177
 21
67.5586621054
 31
0.0
  0
SPLINE
  5
13B
330
1F
100
AcDbEntity
  8
0
  6
Continuous
 62
     7
370
    25
100
AcDbSpline
210
0.0
220
0.0
230
1.0
 70
     8
 71
     3
 72
     8
 73
     4
 74
     0
 42
0.000000001
 43
0.00000001
 40
0.0
 40
0.0
 40
0.0
 40
0.0
 40
1.0
 40
1.0
 40
1.0
 40
1.0
 10
78.80141274769035
 20
67.55866210542716
 30
0.0
 10
78.77358107463326
 20
67.73856886818754
 30
0.0
 10
78.7467600147672
 20
67.91856218269592
 30
0.0
 10
78.72102798996102
 20
68.09864876522104
 30
0.0
  0
SPLINE
  5
13C
330
1F
100
AcDbEntity
  8
0
  6
Continuous
 62
     7
370
    25
100
AcDbSpline
210
0.0
220
0.0
230
1.0
 70
     8
 71
     3
 72
     8
 73
     4
 74
     0
 42
0.000000001
 43
0.00000001
 40
0.0
 40
0.0
 40
0.0
 40
0.0
 40
1.0
 40
1.0
 40
1.0
 40
1.0
 10
78.72102798996102
 20
68.09864876522104
 30
0.0
 10
78.69528704012771
 20
67.91849972054433
 30
0.0
 10
78.6684654958668
 20
67.7385080447277
 30
0.0
 10
78.64064323223168
 20
67.55866210542716
 30
0.0
  0
LINE
  5
13D
330
1F
100
AcDbEntity
  8
0
  6
Continuous
 62
     7
370
    25
100
AcDbLine
 10
76.7035083622
 20
67.5586621054
 30
0.0
 11
78.6406432322
 21
67.5586621054
 31
0.0
  0
SPLINE
  5
13E
330
1F
100
AcDbEntity
  8
0
  6
Continuous
 62
     7
370
    25
100
AcDbSpline
210
0.0
220
0.0
230
1.0
 70
     8
 71
     3
 72
    10
 73
     6
 74
     0
 42
0.000000001
 43
0.00000001
 40
0.0
 40
0.0
 40
0.0
 40
0.0
 40
0.5
 40
0.5
 40
1.0
 40
1.0
 40
1.0
 40
1.0
 10
76.70350836220815
 20
67.55866210542712
 30
0.0
 10
76.40359911058785
 20
68.45838986028802
 30
0.0
 10
76.15651845122191
 20
69.36468960607475
 30
0.0
 10
75.81466363718953
 20
71.19623635564088
 30
0.0
 10
75.72102798996102
 20
72.1216249922034
 30
0.0
 10
75.72102798996102
 20
73.05866210542715
 30
0.0
  0
SPLINE
  5
13F
330
1F
100
AcDbEntity
  8
0
  6
Continuous
 62
     7
370
    25
100
AcDbSpline
210
0.0
220
0.0
230
1.0
 70
     8
 71
     3
 72
     8
 73
     4
 74
     0
 42
0.000000001
 43
0.00000001
 40
0.0
 40
0.0
 40
0.0
 40
0.0
 40
1.0
 40
1.0
 40
1.0
 40
1.0
 10
78.72102798996102
 20
78.01867544563328
 30
0.0
 10
78.74676893979434
 20
78.19882449030999
 30
0.0
 10
78.77359048405525
 20
78.37881616612661
 30
0.0
 10
78.80141274769035
 20
78.55866210542716
 30
0.0
  0
LINE
  5
140
330
1F
100
AcDbEntity
  8
0
  6
Continuous
 62
     7
370
    25
100
AcDbLine
 10
61.4174192629
 20
78.5586621054
 30
0.0
 11
61.4174192629
 21
68.2518998781
 31
0.0
  0
LINE
  5
141
330
1F
100
AcDbEntity
  8
0
  6
Continuous
 62
     7
370
    25
100
AcDbLine
 10
61.4174192629
 20
88.8654243327
 30
0.0
 11
61.4174192629
 21
78.5586621054
 31
0.0
  0
LINE
  5
142
330
1F
100
AcDbEntity
  8
0
  6
Continuous
 62
     7
370
    25
100
AcDbLine
 10
58.72102799
 20
69.8086621054
 30
0.0
 11
58.72102799
 21
87.3086621054
 31
0.0
  0
SPLINE
  5
143
330
1F
100
AcDbEntity
  8
0
  6
Continuous
 62
     7
370
    25
100
AcDbSpline
210
0.0
220
0.0
230
1.0
 70
    24
 71
     3
 72
    12
 73
     8
 74
     0
 42
0.000000001
 43
0.00000001
 40
0.0
 40
0.0
 40
0.0
 40
0.0
 40
0.25
 40
0.25
 40
0.5
 40
0.5
 40
1.0
 40
1.0
 40
1.0
 40
1.0
 10
75.72102798996103
 20
89.55866210542715
 30
0.0
 10
75.72102798996103
 20
89.55866210542715
 30
0.0
 10
75.743972184519
 20
89.55866210542715
 30
0.0
 10
75.83482888539214
 20
89.55866210542715
 30
0.0
 10
75.9020974978221
 20
89.55866210542715
 30
0.0
 10
76.16021714366444
 20
89.55866210542715
 30
0.0
 10
76.40699383126469
 20
89.55866210542715
 30
0.0
 10
76.70350836220847
 20
89.55866210542715
 30
0.0
  0
LINE
  5
144
330
1F
100
AcDbEntity
  8
0
  6
Continuous
 62
     7
370
    25
100
AcDbLine
 10
75.72102799
 20
89.5586621054
 30
0.0
 11
75.72102799
 21
84.0586621054
 31
0.0
  0
SPLINE
  5
145
330
1F
100
AcDbEntity
  8
0
  6
Continuous
 62
     7
370
    25
100
AcDbSpline
210
0.0
220
0.0
230
1.0
 70
    24
 71
     3
 72
    12
 73
     8
 74
     0
 42
0.000000001
 43
0.00000001
 40
0.0
 40
0.0
 40
0.0
 40
0.0
 40
0.25
 40
0.25
 40
0.5
 40
0.5
 40
1.0
 40
1.0
 40
1.0
 40
1.0
 10
81.72102798996102
 20
89.55866210542715
 30
0.0
 10
81.72102798996102
 20
89.55866210542715
 30
0.0
 10
81.69808379540305
 20
89.55866210542715
 30
0.0
 10
81.6072270945299
 20
89.55866210542715
 30
0.0
 10
81.53995848209995
 20
89.55866210542715
 30
0.0
 10
81.2818388362576
 20
89.55866210542715
 30
0.0
 10
81.03506214865736
 20
89.55866210542715
 30
0.0
 10
80.73854761771356
 20
89.55866210542715
 30
0.0
  0
LINE
  5
146
330
1F
100
AcDbEntity
  8
0
  6
Continuous
 62
     7
370
    25
100
AcDbLine
 10
81.72102799
 20
89.5586621054
 30
0.0
 11
81.72102799
 21
84.0586621054
 31
0.0
  0
SPLINE
  5
147
330
1F
100
AcDbEntity
  8
0
  6
Continuous
 62
     7
370
    25
100
AcDbSpline
210
0.0
220
0.0
230
1.0
 70
    24
 71
     3
 72
    12
 73
     8
 74
     0
 42
0.000000001
 43
0.00000001
 40
0.0
 40
0.0
 40
0.0
 40
0.0
 40
0.2499999999999999
 40
0.2499999999999999
 40
0.4999999999999999
 40
0.4999999999999999
 40
1.0
 40
1.0
 40
1.0
 40
1.0
 10
81.72102798996102
 20
67.55866210542716
 30
0.0
 10
81.72102798996102
 20
67.55866210542716
 30
0.0
 10
81.69808379540305
 20
67.55866210542716
 30
0.0
 10
81.6072270945299
 20
67.55866210542716
 30
0.0
 10
81.53995848209995
 20
67.55866210542716
 30
0.0
 10
81.2818388362576
 20
67.55866210542716
 30
0.0
 10
81.03506214865735
 20
67.55866210542716
 30
0.0
 10
80.73854761771356
 20
67.55866210542716
 30
0.0
  0
LINE
  5
148
330
1F
100
AcDbEntity
  8
0
  6
Continuous
 62
     7
370
    25
100
AcDbLine
 10
81.72102799
 20
73.0586621054
 30
0.0
 11
81.72102799
 21
67.5586621054
 31
0.0
  0
SPLINE
  5
149
330
1F
100
AcDbEntity
  8
0
  6
Continuous
 62
     7
370
    25
100
AcDbSpline
210
0.0
220
0.0
230
1.0
 70
    24
 71
     3
 72
    12
 73
     8
 74
     0
 42
0.000000001
 43
0.00000001
 40
0.0
 40
0.0
 40
0.0
 40
0.0
 40
0.2499999999999999
 40
0.2499999999999999
 40
0.4999999999999999
 40
0.4999999999999999
 40
1.0
 40
1.0
 40
1.0
 40
1.0
 10
75.72102798996103
 20
67.55866210542716
 30
0.0
 10
75.72102798996103
 20
67.55866210542716
 30
0.0
 10
75.743972184519
 20
67.55866210542716
 30
0.0
 10
75.83482888539214
 20
67.55866210542716
 30
0.0
 10
75.9020974978221
 20
67.55866210542716
 30
0.0
 10
76.16021714366444
 20
67.55866210542716
 30
0.0
 10
76.40699383126469
 20
67.55866210542716
 30
0.0
 10
76.70350836220847
 20
67.55866210542716
 30
0.0
  0
LINE
  5
14A
330
1F
100
AcDbEntity
  8
0
  6
Continuous
 62
     7
370
    25
100
AcDbLine
 10
75.72102799
 20
67.5586621054
 30
0.0
 11
75.72102799
 21
73.0586621054
 31
0.0
  0
LINE
  5
14B
330
1F
100
AcDbEntity
  8
0
  6
Continuous
 62
     7
370
    25
100
AcDbLine
 10
78.72102799
 20
89.0186754456
 30
0.0
 11
78.72102799
 21
89.5586621054
 31
0.0
  0
SPLINE
  5
14C
330
1F
100
AcDbEntity
  8
0
  6
Continuous
 62
     7
370
    25
100
AcDbSpline
210
0.0
220
0.0
230
1.0
 70
    24
 71
     3
 72
     8
 73
     4
 74
     0
 42
0.000000001
 43
0.00000001
 40
0.0
 40
0.0
 40
0.0
 40
0.0
 40
1.0
 40
1.0
 40
1.0
 40
1.0
 10
78.80141274769035
 20
89.55866210542715
 30
0.0
 10
78.77357969413445
 20
89.55866210542715
 30
0.0
 10
78.74675870636416
 20
89.55866210542715
 30
0.0
 10
78.72102798996102
 20
89.55866210542715
 30
0.0
  0
SPLINE
  5
14D
330
1F
100
AcDbEntity
  8
0
  6
Continuous
 62
     7
370
    25
100
AcDbSpline
210
0.0
220
0.0
230
1.0
 70
    24
 71
     3
 72
     8
 73
     4
 74
     0
 42
0.000000001
 43
0.00000001
 40
0.0
 40
0.0
 40
0.0
 40
0.0
 40
1.0
 40
1.0
 40
1.0
 40
1.0
 10
78.72102798996102
 20
89.55866210542715
 30
0.0
 10
78.6952874993914
 20
89.55866210542715
 30
0.0
 10
78.668465979742
 20
89.55866210542715
 30
0.0
 10
78.64064323223168
 20
89.55866210542715
 30
0.0
  0
LINE
  5
14E
330
1F
100
AcDbEntity
  8
0
  6
Continuous
 62
     7
370
    25
100
AcDbLine
 10
78.72102799
 20
67.5586621054
 30
0.0
 11
78.72102799
 21
68.0986487652
 31
0.0
  0
SPLINE
  5
14F
330
1F
100
AcDbEntity
  8
0
  6
Continuous
 62
     7
370
    25
100
AcDbSpline
210
0.0
220
0.0
230
1.0
 70
    24
 71
     3
 72
     8
 73
     4
 74
     0
 42
0.000000001
 43
0.00000001
 40
0.0
 40
0.0
 40
0.0
 40
0.0
 40
1.0
 40
1.0
 40
1.0
 40
1.0
 10
78.72102798996102
 20
67.55866210542716
 30
0.0
 10
78.74676848053063
 20
67.55866210542716
 30
0.0
 10
78.77359000018005
 20
67.55866210542716
 30
0.0
 10
78.80141274769035
 20
67.55866210542716
 30
0.0
  0
SPLINE
  5
150
330
1F
100
AcDbEntity
  8
0
  6
Continuous
 62
     7
370
    25
100
AcDbSpline
210
0.0
220
0.0
230
1.0
 70
    24
 71
     3
 72
     8
 73
     4
 74
     0
 42
0.000000001
 43
0.00000001
 40
0.0
 40
0.0
 40
0.0
 40
0.0
 40
1.0
 40
1.0
 40
1.0
 40
1.0
 10
78.64064323223168
 20
67.55866210542716
 30
0.0
 10
78.66847628578758
 20
67.55866210542716
 30
0.0
 10
78.69529727355788
 20
67.55866210542716
 30
0.0
 10
78.72102798996102
 20
67.55866210542716
 30
0.0
  0
LINE
  5
151
330
1F
100
AcDbEntity
  8
0
  6
Continuous
 62
     7
370
    25
100
AcDbLine
 10
85.72102799
 20
78.5586621054
 30
0.0
 11
85.72102799
 21
74.5586621054
 31
0.0
  0
LINE
  5
152
330
1F
100
AcDbEntity
  8
0
  6
Continuous
 62
     7
370
    25
100
AcDbLine
 10
85.72102799
 20
82.5586621054
 30
0.0
 11
85.72102799
 21
78.5586621054
 31
0.0
  0
LINE
  5
153
330
1F
100
AcDbEntity
  8
0
  6
Continuous
 62
     7
370
    25
100
AcDbLine
 10
90.22102799
 20
78.5586621054
 30
0.0
 11
90.22102799
 21
74.5586621054
 31
0.0
  0
LINE
  5
154
330
1F
100
AcDbEntity
  8
0
  6
Continuous
 62
     7
370
    25
100
AcDbLine
 10
90.22102799
 20
82.5586621054
 30
0.0
 11
90.22102799
 21
78.5586621054
 31
0.0
  0
LINE
  5
155
330
1F
100
AcDbEntity
  8
0
  6
Continuous
 62
     7
370
    25
100
AcDbLine
 10
99.22102799
 20
78.5586621054
 30
0.0
 11
99.22102799
 21
74.5586621054
 31
0.0
  0
LINE
  5
156
330
1F
100
AcDbEntity
  8
0
  6
Continuous
 62
     7
370
    25
100
AcDbLine
 10
99.22102799
 20
82.5586621054
 30
0.0
 11
99.22102799
 21
78.5586621054
 31
0.0
  0
LINE
  5
157
330
1F
100
AcDbEntity
  8
0
  6
Continuous
 62
     7
370
    25
100
AcDbLine
 10
94.72102799
 20
78.5586621054
 30
0.0
 11
94.72102799
 21
74.5586621054
 31
0.0
  0
LINE
  5
158
330
1F
100
AcDbEntity
  8
0
  6
Continuous
 62
     7
370
    25
100
AcDbLine
 10
94.72102799
 20
82.5586621054
 30
0.0
 11
94.72102799
 21
78.5586621054
 31
0.0
  0
LINE
  5
159
330
1F
100
AcDbEntity
  8
0
  6
Continuous
 62
     7
370
    25
100
AcDbLine
 10
104.72102799
 20
81.3722165756
 30
0.0
 11
104.72102799
 21
75.7451076352
 31
0.0
  0
LINE
  5
15A
330
1F
100
AcDbEntity
  8
0
  6
Continuous
 62
     8
370
    25
100
AcDbLine
 10
104.2885845923
 20
78.5586621054
 30
0.0
 11
104.2885845923
 21
81.8676316596
 31
0.0
  0
LINE
  5
15B
330
1F
100
AcDbEntity
  8
0
  6
Continuous
 62
     8
370
    25
100
AcDbLine
 10
104.2885845923
 20
75.2496925512
 30
0.0
 11
104.2885845923
 21
78.5586621054
 31
0.0
  0
LINE
  5
15C
330
1F
100
AcDbEntity
  8
0
  6
Continuous
 62
     7
370
    18
100
AcDbLine
 10
59.6022540209
 20
87.8174381916
 30
0.0
 11
75.22102799
 21
88.3055248781
 31
0.0
  0
LINE
  5
15D
330
1F
100
AcDbEntity
  8
0
  6
Continuous
 62
     7
370
    18
100
AcDbLine
 10
59.6022540209
 20
69.2998860192
 30
0.0
 11
75.22102799
 21
68.8117993327
 31
0.0
  0
LINE
  5
15E
330
1F
100
AcDbEntity
  8
0
  6
Continuous
 62
     7
370
    18
100
AcDbLine
 10
75.22102799
 20
67.8205371054
 30
0.0
 11
75.22102799
 21
89.2967871054
 31
0.0
  0
LINE
  5
15F
330
1F
100
AcDbEntity
  8
0
  6
CENTERX2
 62
     7
370
    18
100
AcDbLine
 10
105.72102799
 20
78.5586621054
 30
0.0
 11
57.5112882257
 21
78.5586621054
 31
0.0
  0
ENDSEC
  0
SECTION
  2
OBJECTS
  0
DICTIONARY
  5
C
330
0
100
AcDbDictionary
281
     1
  3
ACAD_GROUP
350
D
  3
ACAD_LAYOUT
350
1A
  3
ACAD_MLINESTYLE
350
17
  3
ACAD_PLOTSETTINGS
350
19
  3
ACAD_PLOTSTYLENAME
350
E
  3
ACAD_SCALELIST
350
47
  0
DICTIONARY
  5
D
102
{ACAD_REACTORS
330
C
102
}
330
C
100
AcDbDictionary
281
     1
  0
DICTIONARY
  5
1A
102
{ACAD_REACTORS
330
C
102
}
330
C
100
AcDbDictionary
281
     1
  3
Layout1
350
1E
  3
Layout2
350
26
  3
Model
350
22
  0
DICTIONARY
  5
17
102
{ACAD_REACTORS
330
C
102
}
330
C
100
AcDbDictionary
281
     1
  3
Standard
350
18
  0
DICTIONARY
  5
19
102
{ACAD_REACTORS
330
C
102
}
330
C
100
AcDbDictionary
281
     1
  0
ACDBDICTIONARYWDFLT
  5
E
102
{ACAD_REACTORS
330
C
102
}
330
C
100
AcDbDictionary
281
     1
  3
Normal
350
F
100
AcDbDictionaryWithDefault
340
F
  0
DICTIONARY
  5
47
102
{ACAD_REACTORS
330
C
102
}
330
C
100
AcDbDictionary
281
     1
  3
A0
350
48
  3
A1
350
49
  3
A2
350
4A
  3
A3
350
4B
  3
A4
350
4C
  3
A5
350
4D
  3
A6
350
4E
  3
A7
350
4F
  3
A8
350
50
  3
A9
350
51
  3
B0
350
52
  3
B1
350
53
  3
B2
350
54
  3
B3
350
55
  3
B4
350
56
  3
B5
350
57
  3
B6
350
58
  3
B7
350
59
  3
B8
350
5A
  3
B9
350
5B
  3
C0
350
5C
  3
C1
350
5D
  3
C2
350
5E
  3
C3
350
5F
  3
C4
350
60
  3
C5
350
61
  3
C6
350
62
  3
C7
350
63
  3
C8
350
64
  3
C9
350
65
  3
D0
350
66
  3
D1
350
67
  3
D2
350
68
  0
LAYOUT
  5
1E
102
{ACAD_REACTORS
330
1A
102
}
330
1A
100
AcDbPlotSettings
  1

  2
none_device
  4

  6

 40
0.0
 41
0.0
 42
0.0
 43
0.0
 44
0.0
 45
0.0
 46
0.0
 47
0.0
 48
0.0
 49
0.0
140
0.0
141
0.0
142
1.0
143
1.0
 70
   688
 72
     1
 73
     0
 74
     5
  7

 75
    16
147
1.0
148
0.0
149
0.0
100
AcDbLayout
  1
Layout1
 70
     1
 71
     1
 10
0.0
 20
0.0
 11
420.0
 21
297.0
 12
0.0
 22
0.0
 32
0.0
 14
1.0000000000E+20
 24
1.0000000000E+20
 34
1.0000000000E+20
 15
-1.0000000000E+20
 25
-1.0000000000E+20
 35
-1.0000000000E+20
146
0.0
 13
0.0
 23
0.0
 33
0.0
 16
1.0
 26
0.0
 36
0.0
 17
0.0
 27
1.0
 37
0.0
 76
     0
330
1B
  0
LAYOUT
  5
26
102
{ACAD_REACTORS
330
1A
102
}
330
1A
100
AcDbPlotSettings
  1

  2
none_device
  4

  6

 40
0.0
 41
0.0
 42
0.0
 43
0.0
 44
0.0
 45
0.0
 46
0.0
 47
0.0
 48
0.0
 49
0.0
140
0.0
141
0.0
142
1.0
143
1.0
 70
   688
 72
     1
 73
     0
 74
     5
  7

 75
    16
147
1.0
148
0.0
149
0.0
100
AcDbLayout
  1
Layout2
 70
     1
 71
     2
 10
0.0
 20
0.0
 11
0.0
 21
0.0
 12
0.0
 22
0.0
 32
0.0
 14
0.0
 24
0.0
 34
0.0
 15
0.0
 25
0.0
 35
0.0
146
0.0
 13
0.0
 23
0.0
 33
0.0
 16
1.0
 26
0.0
 36
0.0
 17
0.0
 27
1.0
 37
0.0
 76
     0
330
23
  0
LAYOUT
  5
22
102
{ACAD_REACTORS
330
1A
102
}
330
1A
100
AcDbPlotSettings
  1

  2
none_device
  4
Letter_(8.50_x_11.00_Inches)
  6

 40
6.35
 41
6.35
 42
6.35000508
 43
6.35000508
 44
215.9
 45
279.4
 46
0.0
 47
0.0
 48
0.0
 49
0.0
140
0.0
141
0.0
142
1.0
143
1.0
 70
  1712
 72
     1
 73
     0
 74
     0
  7

 75
     0
147
1.0
148
0.0
149
0.0
100
AcDbLayout
  1
Model
 70
     1
 71
     0
 10
0.0
 20
0.0
 11
215.9
 21
139.7
 12
0.0
 22
0.0
 32
0.0
 14
0.0
 24
0.0
 34
0.0
 15
215.9
 25
139.7
 35
0.0
146
0.0
 13
0.0
 23
0.0
 33
0.0
 16
1.0
 26
0.0
 36
0.0
 17
0.0
 27
1.0
 37
0.0
 76
     0
330
1F
331
29
  0
MLINESTYLE
  5
18
102
{ACAD_REACTORS
330
17
102
}
330
17
100
AcDbMlineStyle
  2
Standard
 70
     0
  3

 62
   256
 51
90.0
 52
90.0
 71
     2
 49
0.5
 62
   256
  6
BYLAYER
 49
-0.5
 62
   256
  6
BYLAYER
  0
ACDBPLACEHOLDER
  5
F
102
{ACAD_REACTORS
330
E
102
}
330
E
  0
SCALE
  5
48
102
{ACAD_REACTORS
330
47
102
}
330
47
100
AcDbScale
 70
     0
300
1:1
140
1.0
141
1.0
290
     1
  0
SCALE
  5
49
102
{ACAD_REACTORS
330
47
102
}
330
47
100
AcDbScale
 70
     0
300
1:2
140
1.0
141
2.0
290
     0
  0
SCALE
  5
4A
102
{ACAD_REACTORS
330
47
102
}
330
47
100
AcDbScale
 70
     0
300
1:4
140
1.0
141
4.0
290
     0
  0
SCALE
  5
4B
102
{ACAD_REACTORS
330
47
102
}
330
47
100
AcDbScale
 70
     0
300
1:5
140
1.0
141
5.0
290
     0
  0
SCALE
  5
4C
102
{ACAD_REACTORS
330
47
102
}
330
47
100
AcDbScale
 70
     0
300
1:8
140
1.0
141
8.0
290
     0
  0
SCALE
  5
4D
102
{ACAD_REACTORS
330
47
102
}
330
47
100
AcDbScale
 70
     0
300
1:10
140
1.0
141
10.0
290
     0
  0
SCALE
  5
4E
102
{ACAD_REACTORS
330
47
102
}
330
47
100
AcDbScale
 70
     0
300
1:16
140
1.0
141
16.0
290
     0
  0
SCALE
  5
4F
102
{ACAD_REACTORS
330
47
102
}
330
47
100
AcDbScale
 70
     0
300
1:20
140
1.0
141
20.0
290
     0
  0
SCALE
  5
50
102
{ACAD_REACTORS
330
47
102
}
330
47
100
AcDbScale
 70
     0
300
1:30
140
1.0
141
30.0
290
     0
  0
SCALE
  5
51
102
{ACAD_REACTORS
330
47
102
}
330
47
100
AcDbScale
 70
     0
300
1:40
140
1.0
141
40.0
290
     0
  0
SCALE
  5
52
102
{ACAD_REACTORS
330
47
102
}
330
47
100
AcDbScale
 70
     0
300
1:50
140
1.0
141
50.0
290
     0
  0
SCALE
  5
53
102
{ACAD_REACTORS
330
47
102
}
330
47
100
AcDbScale
 70
     0
300
1:100
140
1.0
141
100.0
290
     0
  0
SCALE
  5
54
102
{ACAD_REACTORS
330
47
102
}
330
47
100
AcDbScale
 70
     0
300
2:1
140
2.0
141
1.0
290
     0
  0
SCALE
  5
55
102
{ACAD_REACTORS
330
47
102
}
330
47
100
AcDbScale
 70
     0
300
4:1
140
4.0
141
1.0
290
     0
  0
SCALE
  5
56
102
{ACAD_REACTORS
330
47
102
}
330
47
100
AcDbScale
 70
     0
300
8:1
140
8.0
141
1.0
290
     0
  0
SCALE
  5
57
102
{ACAD_REACTORS
330
47
102
}
330
47
100
AcDbScale
 70
     0
300
10:1
140
10.0
141
1.0
290
     0
  0
SCALE
  5
58
102
{ACAD_REACTORS
330
47
102
}
330
47
100
AcDbScale
 70
     0
300
100:1
140
100.0
141
1.0
290
     0
  0
SCALE
  5
59
102
{ACAD_REACTORS
330
47
102
}
330
47
100
AcDbScale
 70
     0
300
1/128" = 1'-0"
140
0.0078125
141
12.0
290
     0
  0
SCALE
  5
5A
102
{ACAD_REACTORS
330
47
102
}
330
47
100
AcDbScale
 70
     0
300
1/64" = 1'-0"
140
0.015625
141
12.0
290
     0
  0
SCALE
  5
5B
102
{ACAD_REACTORS
330
47
102
}
330
47
100
AcDbScale
 70
     0
300
1/32" = 1'-0"
140
0.03125
141
12.0
290
     0
  0
SCALE
  5
5C
102
{ACAD_REACTORS
330
47
102
}
330
47
100
AcDbScale
 70
     0
300
1/16" = 1'-0"
140
0.0625
141
12.0
290
     0
  0
SCALE
  5
5D
102
{ACAD_REACTORS
330
47
102
}
330
47
100
AcDbScale
 70
     0
300
3/32" = 1'-0"
140
0.09375
141
12.0
290
     0
  0
SCALE
  5
5E
102
{ACAD_REACTORS
330
47
102
}
330
47
100
AcDbScale
 70
     0
300
1/8" = 1'-0"
140
0.125
141
12.0
290
     0
  0
SCALE
  5
5F
102
{ACAD_REACTORS
330
47
102
}
330
47
100
AcDbScale
 70
     0
300
3/16" = 1'-0"
140
0.1875
141
12.0
290
     0
  0
SCALE
  5
60
102
{ACAD_REACTORS
330
47
102
}
330
47
100
AcDbScale
 70
     0
300
1/4" = 1'-0"
140
0.25
141
12.0
290
     0
  0
SCALE
  5
61
102
{ACAD_REACTORS
330
47
102
}
330
47
100
AcDbScale
 70
     0
300
3/8" = 1'-0"
140
0.375
141
12.0
290
     0
  0
SCALE
  5
62
102
{ACAD_REACTORS
330
47
102
}
330
47
100
AcDbScale
 70
     0
300
1/2" = 1'-0"
140
0.5
141
12.0
290
     0
  0
SCALE
  5
63
102
{ACAD_REACTORS
330
47
102
}
330
47
100
AcDbScale
 70
     0
300
3/4" = 1'-0"
140
0.75
141
12.0
290
     0
  0
SCALE
  5
64
102
{ACAD_REACTORS
330
47
102
}
330
47
100
AcDbScale
 70
     0
300
1" = 1'-0"
140
1.0
141
12.0
290
     0
  0
SCALE
  5
65
102
{ACAD_REACTORS
330
47
102
}
330
47
100
AcDbScale
 70
     0
300
1-1/2" = 1'-0"
140
1.5
141
12.0
290
     0
  0
SCALE
  5
66
102
{ACAD_REACTORS
330
47
102
}
330
47
100
AcDbScale
 70
     0
300
3" = 1'-0"
140
3.0
141
12.0
290
     0
  0
SCALE
  5
67
102
{ACAD_REACTORS
330
47
102
}
330
47
100
AcDbScale
 70
     0
300
6" = 1'-0"
140
6.0
141
12.0
290
     0
  0
SCALE
  5
68
102
{ACAD_REACTORS
330
47
102
}
330
47
100
AcDbScale
 70
     0
300
1'-0" = 1'-0"
140
12.0
141
12.0
290
     0
  0
ENDSEC
  0
EOF
