  0
SECTION
  2
HEADER
  9
$ACADVER
  1
AC1015
  9
$ACADMAINTVER
 70
     6
  9
$DWGCODEPAGE
  3
DOS932
  9
$INSBASE
 10
0.0
 20
0.0
 30
0.0
  9
$EXTMIN
 10
0.0
 20
0.0
 30
0.0
  9
$EXTMAX
 10
215.9
 20
139.7
 30
0.0
  9
$LIMMIN
 10
0.0
 20
0.0
  9
$LIMMAX
 10
215.9
 20
139.7
  9
$ORTHOMODE
 70
     0
  9
$REGENMODE
 70
     1
  9
$FILLMODE
 70
     1
  9
$QTEXTMODE
 70
     0
  9
$MIRRTEXT
 70
     1
  9
$LTSCALE
 40
0.5
  9
$ATTMODE
 70
     1
  9
$TEXTSIZE
 40
1.75
  9
$TRACEWID
 40
1.0
  9
$TEXTSTYLE
  7
Standard
  9
$CLAYER
  8
0
  9
$CELTYPE
  6
ByLayer
  9
$CECOLOR
 62
   256
  9
$CELTSCALE
 40
1.0
  9
$DISPSILH
 70
     0
  9
$DIMSCALE
 40
1.0
  9
$DIMASZ
 40
1.651
  9
$DIMEXO
 40
0.5
  9
$DIMDLI
 40
3.75
  9
$DIMRND
 40
0.0
  9
$DIMDLE
 40
0.0
  9
$DIMEXE
 40
0.5
  9
$DIMTP
 40
0.0
  9
$DIMTM
 40
0.0
  9
$DIMTXT
 40
1.75
  9
$DIMCEN
 40
2.5
  9
$DIMTSZ
 40
0.0
  9
$DIMTOL
 70
     0
  9
$DIMLIM
 70
     0
  9
$DIMTIH
 70
     1
  9
$DIMTOH
 70
     1
  9
$DIMSE1
 70
     0
  9
$DIMSE2
 70
     0
  9
$DIMTAD
 70
     1
  9
$DIMZIN
 70
     1
  9
$DIMBLK
  1

  9
$DIMASO
 70
     1
  9
$DIMSHO
 70
     1
  9
$DIMPOST
  1

  9
$DIMAPOST
  1

  9
$DIMALT
 70
     0
  9
$DIMALTD
 70
     3
  9
$DIMALTF
 40
0.0393700787
  9
$DIMLFAC
 40
1.0
  9
$DIMTOFL
 70
     1
  9
$DIMTVP
 40
0.0
  9
$DIMTIX
 70
     0
  9
$DIMSOXD
 70
     0
  9
$DIMSAH
 70
     0
  9
$DIMBLK1
  1

  9
$DIMBLK2
  1

  9
$DIMSTYLE
  2
ISO-25
  9
$DIMCLRD
 70
     0
  9
$DIMCLRE
 70
     0
  9
$DIMCLRT
 70
     0
  9
$DIMTFAC
 40
1.0
  9
$DIMGAP
 40
0.762
  9
$DIMJUST
 70
     0
  9
$DIMSD1
 70
     0
  9
$DIMSD2
 70
     0
  9
$DIMTOLJ
 70
     0
  9
$DIMTZIN
 70
     1
  9
$DIMALTZ
 70
     0
  9
$DIMALTTZ
 70
     0
  9
$DIMUPT
 70
     0
  9
$DIMDEC
 70
     2
  9
$DIMTDEC
 70
     2
  9
$DIMALTU
 70
     2
  9
$DIMALTTD
 70
     3
  9
$DIMTXSTY
  7
Standard
  9
$DIMAUNIT
 70
     0
  9
$DIMADEC
 70
     2
  9
$DIMALTRND
 40
0.0
  9
$DIMAZIN
 70
     0
  9
$DIMDSEP
 70
    44
  9
$DIMATFIT
 70
     3
  9
$DIMFRAC
 70
     0
  9
$DIMLDRBLK
  1

  9
$DIMLUNIT
 70
     2
  9
$DIMLWD
 70
    -2
  9
$DIMLWE
 70
    -2
  9
$DIMTMOVE
 70
     0
  9
$LUNITS
 70
     2
  9
$LUPREC
 70
     2
  9
$SKETCHINC
 40
1.0
  9
$FILLETRAD
 40
10.0
  9
$AUNITS
 70
     0
  9
$AUPREC
 70
     2
  9
$MENU
  1
.
  9
$ELEVATION
 40
0.0
  9
$PELEVATION
 40
0.0
  9
$THICKNESS
 40
0.0
  9
$LIMCHECK
 70
     0
  9
$CHAMFERA
 40
0.0
  9
$CHAMFERB
 40
0.0
  9
$CHAMFERC
 40
0.0
  9
$CHAMFERD
 40
0.0
  9
$SKPOLY
 70
     0
  9
$TDCREATE
 40
2460082.677649421
  9
$TDUCREATE
 40
2460082.302649421
  9
$TDUPDATE
 40
2460082.677649954
  9
$TDUUPDATE
 40
2460082.302649954
  9
$TDINDWG
 40
0.0000000116
  9
$TDUSRTIMER
 40
0.0000000116
  9
$USRTIMER
 70
     1
  9
$ANGBASE
 50
0.0
  9
$ANGDIR
 70
     0
  9
$PDMODE
 70
     0
  9
$PDSIZE
 40
-1.0
  9
$PLINEWID
 40
0.0
  9
$SPLFRAME
 70
     0
  9
$SPLINETYPE
 70
     6
  9
$SPLINESEGS
 70
     8
  9
$HANDSEED
  5
155
  9
$SURFTAB1
 70
     6
  9
$SURFTAB2
 70
     6
  9
$SURFTYPE
 70
     6
  9
$SURFU
 70
     6
  9
$SURFV
 70
     6
  9
$UCSBASE
  2

  9
$UCSNAME
  2

  9
$UCSORG
 10
0.0
 20
0.0
 30
0.0
  9
$UCSXDIR
 10
1.0
 20
0.0
 30
0.0
  9
$UCSYDIR
 10
0.0
 20
1.0
 30
0.0
  9
$UCSORTHOREF
  2

  9
$UCSORTHOVIEW
 70
     0
  9
$UCSORGTOP
 10
0.0
 20
0.0
 30
0.0
  9
$UCSORGBOTTOM
 10
0.0
 20
0.0
 30
0.0
  9
$UCSORGLEFT
 10
0.0
 20
0.0
 30
0.0
  9
$UCSORGRIGHT
 10
0.0
 20
0.0
 30
0.0
  9
$UCSORGFRONT
 10
0.0
 20
0.0
 30
0.0
  9
$UCSORGBACK
 10
0.0
 20
0.0
 30
0.0
  9
$PUCSBASE
  2

  9
$PUCSNAME
  2

  9
$PUCSORG
 10
0.0
 20
0.0
 30
0.0
  9
$PUCSXDIR
 10
1.0
 20
0.0
 30
0.0
  9
$PUCSYDIR
 10
0.0
 20
1.0
 30
0.0
  9
$PUCSORTHOREF
  2

  9
$PUCSORTHOVIEW
 70
     0
  9
$PUCSORGTOP
 10
0.0
 20
0.0
 30
0.0
  9
$PUCSORGBOTTOM
 10
0.0
 20
0.0
 30
0.0
  9
$PUCSORGLEFT
 10
0.0
 20
0.0
 30
0.0
  9
$PUCSORGRIGHT
 10
0.0
 20
0.0
 30
0.0
  9
$PUCSORGFRONT
 10
0.0
 20
0.0
 30
0.0
  9
$PUCSORGBACK
 10
0.0
 20
0.0
 30
0.0
  9
$USERI1
 70
     0
  9
$USERI2
 70
     0
  9
$USERI3
 70
     0
  9
$USERI4
 70
     0
  9
$USERI5
 70
     0
  9
$USERR1
 40
0.0
  9
$USERR2
 40
0.0
  9
$USERR3
 40
0.0
  9
$USERR4
 40
0.0
  9
$USERR5
 40
0.0
  9
$WORLDVIEW
 70
     1
  9
$SHADEDGE
 70
     3
  9
$SHADEDIF
 70
    70
  9
$TILEMODE
 70
     1
  9
$MAXACTVP
 70
    64
  9
$PINSBASE
 10
0.0
 20
0.0
 30
0.0
  9
$PLIMCHECK
 70
     0
  9
$PEXTMIN
 10
1.0000000000E+20
 20
1.0000000000E+20
 30
1.0000000000E+20
  9
$PEXTMAX
 10
-1.0000000000E+20
 20
-1.0000000000E+20
 30
-1.0000000000E+20
  9
$PLIMMIN
 10
0.0
 20
0.0
  9
$PLIMMAX
 10
420.0
 20
297.0
  9
$UNITMODE
 70
     0
  9
$VISRETAIN
 70
     1
  9
$PLINEGEN
 70
     0
  9
$PSLTSCALE
 70
     1
  9
$TREEDEPTH
 70
  3020
  9
$CMLSTYLE
  2
Standard
  9
$CMLJUST
 70
     0
  9
$CMLSCALE
 40
20.0
  9
$PROXYGRAPHICS
 70
     1
  9
$MEASUREMENT
 70
     1
  9
$CELWEIGHT
370
    -1
  9
$ENDCAPS
280
     0
  9
$JOINSTYLE
280
     0
  9
$LWDISPLAY
290
     1
  9
$INSUNITS
 70
     4
  9
$HYPERLINKBASE
  1

  9
$STYLESHEET
  1

  9
$XEDIT
290
     1
  9
$CEPSNTYPE
380
     0
  9
$PSTYLEMODE
290
     1
  9
$FINGERPRINTGUID
  2
{7F5AE75A-F6B9-4B89-8A55-D02754962B89}
  9
$VERSIONGUID
  2
{FAEB1C32-E019-11D5-929B-00C0DF256EC4}
  9
$EXTNAMES
290
     1
  9
$PSVPSCALE
 40
0.0
  9
$OLESTARTUP
290
     0
  0
ENDSEC
  0
SECTION
  2
CLASSES
  0
CLASS
  1
ACDBDICTIONARYWDFLT
  2
AcDbDictionaryWithDefault
  3
ObjectDBX Classes
 90
        0
280
     0
281
     0
  0
CLASS
  1
VISUALSTYLE
  2
AcDbVisualStyle
  3
ObjectDBX Classes
 90
     4095
280
     0
281
     0
  0
CLASS
  1
MATERIAL
  2
AcDbMaterial
  3
ObjectDBX Classes
 90
     1153
280
     0
281
     0
  0
CLASS
  1
SCALE
  2
AcDbScale
  3
ObjectDBX Classes
 90
     1153
280
     0
281
     0
  0
CLASS
  1
TABLESTYLE
  2
AcDbTableStyle
  3
ObjectDBX Classes
 90
     4095
280
     0
281
     0
  0
CLASS
  1
MLEADERSTYLE
  2
AcDbMLeaderStyle
  3
ACDB_MLEADERSTYLE_CLASS
 90
     4095
280
     0
281
     0
  0
CLASS
  1
SUN
  2
AcDbSun
  3
SCENEOE
 90
     1153
280
     0
281
     0
  0
CLASS
  1
ACDBPLACEHOLDER
  2
AcDbPlaceHolder
  3
ObjectDBX Classes
 90
        0
280
     0
281
     0
  0
CLASS
  1
LAYOUT
  2
AcDbLayout
  3
ObjectDBX Classes
 90
        0
280
     0
281
     0
  0
ENDSEC
  0
SECTION
  2
TABLES
  0
TABLE
  2
VPORT
  5
8
330
0
100
AcDbSymbolTable
 70
     1
  0
VPORT
  5
29
330
8
100
AcDbSymbolTableRecord
100
AcDbViewportTableRecord
  2
*Active
 70
     0
 10
0.0
 20
0.0
 11
1.0
 21
1.0
 12
107.95
 22
69.85
 13
0.0
 23
0.0
 14
10.0
 24
10.0
 15
10.0
 25
10.0
 16
0.0
 26
0.0
 36
1.0
 17
0.0
 27
0.0
 37
0.0
 40
139.7
 41
1.5454545455
 42
50.0
 43
0.0
 44
0.0
 50
0.0
 51
0.0
 71
     0
 72
  2000
 73
     1
 74
     3
 75
     0
 76
     0
 77
     0
 78
     0
281
     0
 65
     1
110
0.0
120
0.0
130
0.0
111
1.0
121
0.0
131
0.0
112
0.0
122
1.0
132
0.0
 79
     0
146
0.0
  0
ENDTAB
  0
TABLE
  2
LTYPE
  5
5
330
0
100
AcDbSymbolTable
 70
     6
  0
LTYPE
  5
14
330
5
100
AcDbSymbolTableRecord
100
AcDbLinetypeTableRecord
  2
ByBlock
 70
     0
  3

 72
    65
 73
     0
 40
0.0
  0
LTYPE
  5
15
330
5
100
AcDbSymbolTableRecord
100
AcDbLinetypeTableRecord
  2
ByLayer
 70
     0
  3

 72
    65
 73
     0
 40
0.0
  0
LTYPE
  5
16
330
5
100
AcDbSymbolTableRecord
100
AcDbLinetypeTableRecord
  2
Continuous
 70
     0
  3
Solid line
 72
    65
 73
     0
 40
0.0
  0
LTYPE
  5
6E
330
5
100
AcDbSymbolTableRecord
100
AcDbLinetypeTableRecord
  2
HIDDEN
 70
     0
  3
Hidden __ __ __ __ __ __ __ __ __ __ __ __ __ __
 72
    65
 73
     2
 40
1.905
 49
1.27
 74
     0
 49
-0.635
 74
     0
  0
LTYPE
  5
6F
330
5
100
AcDbSymbolTableRecord
100
AcDbLinetypeTableRecord
  2
PHANTOM
 70
     0
  3
Phantom ______  __  __  ______  __  __  ______
 72
    65
 73
     6
 40
12.7
 49
6.35
 74
     0
 49
-1.27
 74
     0
 49
1.27
 74
     0
 49
-1.27
 74
     0
 49
1.27
 74
     0
 49
-1.27
 74
     0
  0
LTYPE
  5
70
330
5
100
AcDbSymbolTableRecord
100
AcDbLinetypeTableRecord
  2
CENTER
 70
     0
  3
Center ____ _ ____ _ ____ _ ____ _ ____ _ ____
 72
    65
 73
     4
 40
10.16
 49
6.35
 74
     0
 49
-1.27
 74
     0
 49
1.27
 74
     0
 49
-1.27
 74
     0
  0
LTYPE
  5
71
330
5
100
AcDbSymbolTableRecord
100
AcDbLinetypeTableRecord
  2
CENTERX2
 70
     0
  3
Center (2x) ________  __  ________  __  _____
 72
    65
 73
     4
 40
20.32
 49
12.7
 74
     0
 49
-2.54
 74
     0
 49
2.54
 74
     0
 49
-2.54
 74
     0
  0
LTYPE
  5
72
330
5
100
AcDbSymbolTableRecord
100
AcDbLinetypeTableRecord
  2
DOT2
 70
     0
  3
Dot (.5x) ........................................
 72
    65
 73
     2
 40
0.635
 49
0.0
 74
     0
 49
-0.635
 74
     0
  0
ENDTAB
  0
TABLE
  2
LAYER
  5
2
330
0
100
AcDbSymbolTable
 70
     1
  0
LAYER
  5
10
330
2
100
AcDbSymbolTableRecord
100
AcDbLayerTableRecord
  2
0
 70
     0
 62
     7
  6
Continuous
370
    -3
390
F
  0
ENDTAB
  0
TABLE
  2
STYLE
  5
3
330
0
100
AcDbSymbolTable
 70
     2
  0
STYLE
  5
11
330
3
100
AcDbSymbolTableRecord
100
AcDbTextStyleTableRecord
  2
Standard
 70
     0
 40
0.0
 41
1.0
 50
0.0
 71
     0
 42
1.75
  3
txt
  4
bigfont
  0
STYLE
  5
73
330
3
100
AcDbSymbolTableRecord
100
AcDbTextStyleTableRecord
  2
SLDTEXTSTYLE0
 70
     0
 40
0.0
 41
0.7
 50
0.0
 71
     0
 42
1.75
  3
TXT
  4
bigfont
  0
ENDTAB
  0
TABLE
  2
VIEW
  5
6
330
0
100
AcDbSymbolTable
 70
     0
  0
ENDTAB
  0
TABLE
  2
UCS
  5
7
330
0
100
AcDbSymbolTable
 70
     0
  0
ENDTAB
  0
TABLE
  2
APPID
  5
9
330
0
100
AcDbSymbolTable
 70
     1
  0
APPID
  5
12
330
9
100
AcDbSymbolTableRecord
100
AcDbRegAppTableRecord
  2
ACAD
 70
     0
  0
ENDTAB
  0
TABLE
  2
DIMSTYLE
  5
A
330
0
100
AcDbSymbolTable
 70
     1
100
AcDbDimStyleTable
  0
DIMSTYLE
105
27
330
A
100
AcDbSymbolTableRecord
100
AcDbDimStyleTableRecord
  2
ISO-25
 70
     0
 41
2.5
 42
0.625
 43
3.75
 44
1.25
 73
     0
 74
     0
 77
     1
 78
     8
140
2.5
141
2.5
143
0.0393700787
147
0.625
171
     3
172
     1
178
     0
271
     2
272
     2
274
     3
278
    44
283
     0
284
     8
340
11
  0
ENDTAB
  0
TABLE
  2
BLOCK_RECORD
  5
1
330
0
100
AcDbSymbolTable
 70
     3
  0
BLOCK_RECORD
  5
1F
330
1
100
AcDbSymbolTableRecord
100
AcDbBlockTableRecord
  2
*Model_Space
340
22
  0
BLOCK_RECORD
  5
1B
330
1
100
AcDbSymbolTableRecord
100
AcDbBlockTableRecord
  2
*Paper_Space
340
1E
  0
BLOCK_RECORD
  5
23
330
1
100
AcDbSymbolTableRecord
100
AcDbBlockTableRecord
  2
*Paper_Space0
340
26
  0
BLOCK_RECORD
  5
F2
330
1
100
AcDbSymbolTableRecord
100
AcDbBlockTableRecord
  2
SW_CENTERMARKSYMBOL_0
340
0
102
{BLKREFS
331
FD
102
}
  0
BLOCK_RECORD
  5
FE
330
1
100
AcDbSymbolTableRecord
100
AcDbBlockTableRecord
  2
SW_CENTERMARKSYMBOL_1
340
0
102
{BLKREFS
331
109
102
}
  0
ENDTAB
  0
ENDSEC
  0
SECTION
  2
BLOCKS
  0
BLOCK
  5
20
330
1F
100
AcDbEntity
  8
0
100
AcDbBlockBegin
  2
*Model_Space
 70
     0
 10
0.0
 20
0.0
 30
0.0
  3
*Model_Space
  1

  0
ENDBLK
  5
21
330
1F
100
AcDbEntity
  8
0
100
AcDbBlockEnd
  0
BLOCK
  5
1C
330
1B
100
AcDbEntity
 67
     1
  8
0
100
AcDbBlockBegin
  2
*Paper_Space
 70
     0
 10
0.0
 20
0.0
 30
0.0
  3
*Paper_Space
  1

  0
ENDBLK
  5
1D
330
1B
100
AcDbEntity
 67
     1
  8
0
100
AcDbBlockEnd
  0
BLOCK
  5
24
330
23
100
AcDbEntity
  8
0
100
AcDbBlockBegin
  2
*Paper_Space0
 70
     0
 10
0.0
 20
0.0
 30
0.0
  3
*Paper_Space0
  1

  0
ENDBLK
  5
25
330
23
100
AcDbEntity
  8
0
100
AcDbBlockEnd
  0
BLOCK
  5
F3
330
F2
100
AcDbEntity
  8
0
100
AcDbBlockBegin
  2
SW_CENTERMARKSYMBOL_0
 70
     0
 10
0.0
 20
0.0
 30
0.0
  3
SW_CENTERMARKSYMBOL_0
  1

  0
LINE
  5
F5
330
F2
100
AcDbEntity
  8
0
  6
Continuous
 62
     0
370
    18
100
AcDbLine
 10
0.0
 20
0.0
 30
0.0
 11
0.0
 21
2.5
 31
0.0
  0
LINE
  5
F6
330
F2
100
AcDbEntity
  8
0
  6
Continuous
 62
     0
370
    18
100
AcDbLine
 10
0.0
 20
0.0
 30
0.0
 11
-2.5
 21
0.0
 31
0.0
  0
LINE
  5
F7
330
F2
100
AcDbEntity
  8
0
  6
Continuous
 62
     0
370
    18
100
AcDbLine
 10
0.0
 20
0.0
 30
0.0
 11
0.0
 21
-2.5
 31
0.0
  0
LINE
  5
F8
330
F2
100
AcDbEntity
  8
0
  6
Continuous
 62
     0
370
    18
100
AcDbLine
 10
0.0
 20
0.0
 30
0.0
 11
2.5
 21
0.0
 31
0.0
  0
LINE
  5
F9
330
F2
100
AcDbEntity
  8
0
  6
Continuous
 62
     0
370
    18
100
AcDbLine
 10
0.0
 20
5.0
 30
0.0
 11
0.0
 21
7.5
 31
0.0
  0
LINE
  5
FA
330
F2
100
AcDbEntity
  8
0
  6
Continuous
 62
     0
370
    18
100
AcDbLine
 10
-5.0
 20
0.0
 30
0.0
 11
-7.5
 21
0.0
 31
0.0
  0
LINE
  5
FB
330
F2
100
AcDbEntity
  8
0
  6
Continuous
 62
     0
370
    18
100
AcDbLine
 10
0.0
 20
-5.0
 30
0.0
 11
0.0
 21
-7.5
 31
0.0
  0
LINE
  5
FC
330
F2
100
AcDbEntity
  8
0
  6
Continuous
 62
     0
370
    18
100
AcDbLine
 10
5.0
 20
0.0
 30
0.0
 11
7.5
 21
0.0
 31
0.0
  0
ENDBLK
  5
F4
330
F2
100
AcDbEntity
  8
0
100
AcDbBlockEnd
  0
BLOCK
  5
FF
330
FE
100
AcDbEntity
  8
0
100
AcDbBlockBegin
  2
SW_CENTERMARKSYMBOL_1
 70
     0
 10
0.0
 20
0.0
 30
0.0
  3
SW_CENTERMARKSYMBOL_1
  1

  0
LINE
  5
101
330
FE
100
AcDbEntity
  8
0
  6
Continuous
 62
     0
370
    18
100
AcDbLine
 10
0.0
 20
0.0
 30
0.0
 11
0.0
 21
2.5
 31
0.0
  0
LINE
  5
102
330
FE
100
AcDbEntity
  8
0
  6
Continuous
 62
     0
370
    18
100
AcDbLine
 10
0.0
 20
0.0
 30
0.0
 11
-2.5
 21
0.0
 31
0.0
  0
LINE
  5
103
330
FE
100
AcDbEntity
  8
0
  6
Continuous
 62
     0
370
    18
100
AcDbLine
 10
0.0
 20
0.0
 30
0.0
 11
0.0
 21
-2.5
 31
0.0
  0
LINE
  5
104
330
FE
100
AcDbEntity
  8
0
  6
Continuous
 62
     0
370
    18
100
AcDbLine
 10
0.0
 20
0.0
 30
0.0
 11
2.5
 21
0.0
 31
0.0
  0
LINE
  5
105
330
FE
100
AcDbEntity
  8
0
  6
Continuous
 62
     0
370
    18
100
AcDbLine
 10
0.0
 20
5.0
 30
0.0
 11
0.0
 21
10.75
 31
0.0
  0
LINE
  5
106
330
FE
100
AcDbEntity
  8
0
  6
Continuous
 62
     0
370
    18
100
AcDbLine
 10
-5.0
 20
0.0
 30
0.0
 11
-10.75
 21
0.0
 31
0.0
  0
LINE
  5
107
330
FE
100
AcDbEntity
  8
0
  6
Continuous
 62
     0
370
    18
100
AcDbLine
 10
0.0
 20
-5.0
 30
0.0
 11
0.0
 21
-10.75
 31
0.0
  0
LINE
  5
108
330
FE
100
AcDbEntity
  8
0
  6
Continuous
 62
     0
370
    18
100
AcDbLine
 10
5.0
 20
0.0
 30
0.0
 11
10.75
 21
0.0
 31
0.0
  0
ENDBLK
  5
100
330
FE
100
AcDbEntity
  8
0
100
AcDbBlockEnd
  0
ENDSEC
  0
SECTION
  2
ENTITIES
  0
MTEXT
  5
74
330
1F
100
AcDbEntity
  8
0
  6
Continuous
 62
     7
370
     0
100
AcDbMText
 10
100.1571216522
 20
65.1297281097
 30
0.0
 40
2.1166666667
 41
0.0
 71
     1
 72
     1
  1
エースニップル　HN-8316
  7
SLDTEXTSTYLE0
 73
     1
 44
1.0
  0
LINE
  5
75
330
1F
100
AcDbEntity
  8
0
  6
Continuous
 62
     7
370
    25
100
AcDbLine
 10
71.5621487251
 20
57.0216813767
 30
0.0
 11
60.6360581588
 21
56.6802410465
 31
0.0
  0
LINE
  5
76
330
1F
100
AcDbEntity
  8
0
  6
Continuous
 62
     7
370
    25
100
AcDbLine
 10
60.6360581588
 20
40.2854967069
 30
0.0
 11
71.5621487251
 21
39.9440563767
 31
0.0
  0
LINE
  5
77
330
1F
100
AcDbEntity
  8
0
  6
Continuous
 62
     7
370
    25
100
AcDbLine
 10
76.6586217792
 20
38.6679143005
 30
0.0
 11
77.5621487251
 21
40.2328688767
 31
0.0
  0
LINE
  5
78
330
1F
100
AcDbEntity
  8
0
  6
Continuous
 62
     7
370
    25
100
AcDbLine
 10
77.5621487251
 20
56.7328688767
 30
0.0
 11
76.6586217792
 21
58.2978234529
 31
0.0
  0
LINE
  5
79
330
1F
100
AcDbEntity
  8
0
  6
Continuous
 62
     7
370
    25
100
AcDbLine
 10
60.6360581588
 20
56.6802410465
 30
0.0
 11
58.5621487251
 21
55.4828688767
 31
0.0
  0
LINE
  5
7A
330
1F
100
AcDbEntity
  8
0
  6
Continuous
 62
     7
370
    25
100
AcDbLine
 10
58.5621487251
 20
41.4828688767
 30
0.0
 11
60.6360581588
 21
40.2854967069
 31
0.0
  0
LINE
  5
7B
330
1F
100
AcDbEntity
  8
0
  6
Continuous
 62
     7
370
    25
100
AcDbLine
 10
83.5621487251
 20
40.4828688767
 30
0.0
 11
88.5621487251
 21
41.4828688767
 31
0.0
  0
LINE
  5
7C
330
1F
100
AcDbEntity
  8
0
  6
Continuous
 62
     7
370
    25
100
AcDbLine
 10
88.5621487251
 20
55.4828688767
 30
0.0
 11
83.5621487251
 21
56.4828688767
 31
0.0
  0
LINE
  5
7D
330
1F
100
AcDbEntity
  8
0
  6
Continuous
 62
     7
370
    25
100
AcDbLine
 10
88.5621487251
 20
40.4828688767
 30
0.0
 11
93.5621487251
 21
41.4828688767
 31
0.0
  0
LINE
  5
7E
330
1F
100
AcDbEntity
  8
0
  6
Continuous
 62
     7
370
    25
100
AcDbLine
 10
93.5621487251
 20
55.4828688767
 30
0.0
 11
88.5621487251
 21
56.4828688767
 31
0.0
  0
LINE
  5
7F
330
1F
100
AcDbEntity
  8
0
  6
Continuous
 62
     7
370
    25
100
AcDbLine
 10
98.5621487251
 20
40.4828688767
 30
0.0
 11
104.1443482187
 21
41.4132354589
 31
0.0
  0
LINE
  5
80
330
1F
100
AcDbEntity
  8
0
  6
Continuous
 62
     7
370
    25
100
AcDbLine
 10
104.1443482187
 20
55.5525022944
 30
0.0
 11
98.5621487251
 21
56.4828688767
 31
0.0
  0
LINE
  5
81
330
1F
100
AcDbEntity
  8
0
  6
Continuous
 62
     7
370
    25
100
AcDbLine
 10
93.5621487251
 20
40.4828688767
 30
0.0
 11
98.5621487251
 21
41.4828688767
 31
0.0
  0
LINE
  5
82
330
1F
100
AcDbEntity
  8
0
  6
Continuous
 62
     7
370
    25
100
AcDbLine
 10
98.5621487251
 20
55.4828688767
 30
0.0
 11
93.5621487251
 21
56.4828688767
 31
0.0
  0
LINE
  5
83
330
1F
100
AcDbEntity
  8
0
  6
Continuous
 62
     7
370
    25
100
AcDbLine
 10
83.5621487251
 20
56.4828688767
 30
0.0
 11
77.5621487251
 21
56.4828688767
 31
0.0
  0
LINE
  5
84
330
1F
100
AcDbEntity
  8
0
  6
Continuous
 62
     7
370
    25
100
AcDbLine
 10
77.5621487251
 20
40.4828688767
 30
0.0
 11
83.5621487251
 21
40.4828688767
 31
0.0
  0
ARC
  5
85
330
1F
100
AcDbEntity
  8
0
  6
Continuous
 62
     7
370
    25
100
AcDbCircle
 10
104.0621487251
 20
55.0593053325
 30
0.0
 40
0.5
100
AcDbArc
 50
0.0
 51
80.537677792
  0
ARC
  5
86
330
1F
100
AcDbEntity
  8
0
  6
Continuous
 62
     7
370
    25
100
AcDbCircle
 10
104.0621487251
 20
41.9064324209
 30
0.0
 40
0.5000000000000028
100
AcDbArc
 50
279.462322208
 51
0.0
  0
LINE
  5
87
330
1F
100
AcDbEntity
  8
0
  6
Continuous
 62
     7
370
    25
100
AcDbLine
 10
72.2989296963
 20
58.2978234529
 30
0.0
 11
71.5621487251
 21
57.0216813767
 31
0.0
  0
LINE
  5
88
330
1F
100
AcDbEntity
  8
0
  6
Continuous
 62
     7
370
    25
100
AcDbLine
 10
71.5621487251
 20
39.9440563767
 30
0.0
 11
72.2989296963
 21
38.6679143005
 31
0.0
  0
LINE
  5
89
330
1F
100
AcDbEntity
  8
0
  6
Continuous
 62
     7
370
    25
100
AcDbLine
 10
74.3983909801
 20
38.6679143005
 30
0.0
 11
74.4787757378
 21
38.9679143005
 31
0.0
  0
LINE
  5
8A
330
1F
100
AcDbEntity
  8
0
  6
Continuous
 62
     7
370
    25
100
AcDbLine
 10
74.4787757378
 20
38.9679143005
 30
0.0
 11
74.5591604955
 21
38.6679143005
 31
0.0
  0
LINE
  5
8B
330
1F
100
AcDbEntity
  8
0
  6
Continuous
 62
     7
370
    25
100
AcDbLine
 10
74.4787757378
 20
57.9978234529
 30
0.0
 11
74.3983909801
 21
58.2978234529
 31
0.0
  0
LINE
  5
8C
330
1F
100
AcDbEntity
  8
0
  6
Continuous
 62
     7
370
    25
100
AcDbLine
 10
74.5591604955
 20
58.2978234529
 30
0.0
 11
74.4787757378
 21
57.9978234529
 31
0.0
  0
LINE
  5
8D
330
1F
100
AcDbEntity
  8
0
  6
Continuous
 62
     7
370
    25
100
AcDbLine
 10
60.6360581588
 20
56.6802410465
 30
0.0
 11
60.6360581588
 21
40.2854967069
 31
0.0
  0
LINE
  5
8E
330
1F
100
AcDbEntity
  8
0
  6
Continuous
 62
     7
370
    25
100
AcDbLine
 10
71.5621487251
 20
47.6696537082
 30
0.0
 11
71.5621487251
 21
49.2960840451
 31
0.0
  0
LINE
  5
8F
330
1F
100
AcDbEntity
  8
0
  6
Continuous
 62
     7
370
    25
100
AcDbLine
 10
71.5621487251
 20
41.5282605287
 30
0.0
 11
71.5621487251
 21
47.6696537082
 31
0.0
  0
LINE
  5
90
330
1F
100
AcDbEntity
  8
0
  6
Continuous
 62
     7
370
    25
100
AcDbLine
 10
71.5621487251
 20
40.7150453603
 30
0.0
 11
71.5621487251
 21
41.5282605287
 31
0.0
  0
LINE
  5
91
330
1F
100
AcDbEntity
  8
0
  6
Continuous
 62
     7
370
    25
100
AcDbLine
 10
71.5621487251
 20
39.9440563767
 30
0.0
 11
71.5621487251
 21
40.7150453603
 31
0.0
  0
LINE
  5
92
330
1F
100
AcDbEntity
  8
0
  6
Continuous
 62
     7
370
    25
100
AcDbLine
 10
71.5621487251
 20
56.2506923931
 30
0.0
 11
71.5621487251
 21
57.0216813767
 31
0.0
  0
LINE
  5
93
330
1F
100
AcDbEntity
  8
0
  6
Continuous
 62
     7
370
    25
100
AcDbLine
 10
71.5621487251
 20
55.4374772246
 30
0.0
 11
71.5621487251
 21
56.2506923931
 31
0.0
  0
LINE
  5
94
330
1F
100
AcDbEntity
  8
0
  6
Continuous
 62
     7
370
    25
100
AcDbLine
 10
71.5621487251
 20
49.2960840451
 30
0.0
 11
71.5621487251
 21
55.4374772246
 31
0.0
  0
LINE
  5
95
330
1F
100
AcDbEntity
  8
0
  6
Continuous
 62
     7
370
    25
100
AcDbLine
 10
74.3983909801
 20
38.6679143005
 30
0.0
 11
72.2989296963
 21
38.6679143005
 31
0.0
  0
SPLINE
  5
96
330
1F
100
AcDbEntity
  8
0
  6
Continuous
 62
     7
370
    25
100
AcDbSpline
210
0.0
220
0.0
230
1.0
 70
     8
 71
     3
 72
    10
 73
     6
 74
     0
 42
0.000000001
 43
0.00000001
 40
0.0
 40
0.0
 40
0.0
 40
0.0
 40
0.5
 40
0.5
 40
1.0
 40
1.0
 40
1.0
 40
1.0
 10
72.29892969632625
 20
38.66791430045053
 30
0.0
 10
72.10499459624516
 20
39.00381974716191
 30
0.0
 10
71.9386227444498
 20
39.3440103108376
 30
0.0
 10
71.68637595657862
 20
40.0262231774683
 30
0.0
 10
71.60016072344278
 20
40.36938996516177
 30
0.0
 10
71.56214872509433
 20
40.71504536029401
 30
0.0
  0
SPLINE
  5
97
330
1F
100
AcDbEntity
  8
0
  6
Continuous
 62
     7
370
    25
100
AcDbSpline
210
0.0
220
0.0
230
1.0
 70
     8
 71
     3
 72
    12
 73
     8
 74
     0
 42
0.000000001
 43
0.00000001
 40
0.0
 40
0.0
 40
0.0
 40
0.0
 40
0.2499999999999999
 40
0.2499999999999999
 40
0.4999999999999998
 40
0.4999999999999998
 40
1.0
 40
1.0
 40
1.0
 40
1.0
 10
71.56214872509433
 20
41.52826052871886
 30
0.0
 10
71.58134257897449
 20
41.70279644988349
 30
0.0
 10
71.61305860225035
 20
41.87820383278269
 30
0.0
 10
71.69853631703127
 20
42.22458975654447
 30
0.0
 10
71.7523136345818
 20
42.39629907198503
 30
0.0
 10
71.9423608727128
 20
42.90756748260466
 30
0.0
 10
72.10718963967336
 20
43.24328806859342
 30
0.0
 10
72.29892969632625
 20
43.57539158856234
 30
0.0
  0
LINE
  5
98
330
1F
100
AcDbEntity
  8
0
  6
Continuous
 62
     7
370
    25
100
AcDbLine
 10
74.3983909801
 20
43.5753915886
 30
0.0
 11
72.2989296963
 21
43.5753915886
 31
0.0
  0
SPLINE
  5
99
330
1F
100
AcDbEntity
  8
0
  6
Continuous
 62
     7
370
    25
100
AcDbSpline
210
0.0
220
0.0
230
1.0
 70
     8
 71
     3
 72
     8
 73
     4
 74
     0
 42
0.000000001
 43
0.00000001
 40
0.0
 40
0.0
 40
0.0
 40
0.0
 40
1.0
 40
1.0
 40
1.0
 40
1.0
 10
74.47877573778416
 20
43.25966373655118
 30
0.0
 10
74.45340110462499
 20
43.36502577268986
 30
0.0
 10
74.42655970341822
 20
43.47026448178585
 30
0.0
 10
74.39839098005484
 20
43.57539158856234
 30
0.0
  0
SPLINE
  5
9A
330
1F
100
AcDbEntity
  8
0
  6
Continuous
 62
     7
370
    25
100
AcDbSpline
210
0.0
220
0.0
230
1.0
 70
     8
 71
     3
 72
     8
 73
     4
 74
     0
 42
0.000000001
 43
0.00000001
 40
0.0
 40
0.0
 40
0.0
 40
0.0
 40
1.0
 40
1.0
 40
1.0
 40
1.0
 10
74.55916049551351
 20
43.57539158856235
 30
0.0
 10
74.53097918969034
 20
43.47021752340666
 30
0.0
 10
74.50413866369561
 20
43.36497716117099
 30
0.0
 10
74.47877573778416
 20
43.25966373655118
 30
0.0
  0
LINE
  5
9B
330
1F
100
AcDbEntity
  8
0
  6
Continuous
 62
     7
370
    25
100
AcDbLine
 10
76.6586217792
 20
43.5753915886
 30
0.0
 11
74.5591604955
 21
43.5753915886
 31
0.0
  0
SPLINE
  5
9C
330
1F
100
AcDbEntity
  8
0
  6
Continuous
 62
     7
370
    25
100
AcDbSpline
210
0.0
220
0.0
230
1.0
 70
     8
 71
     3
 72
    16
 73
    12
 74
     0
 42
0.000000001
 43
0.00000001
 40
0.0
 40
0.0
 40
0.0
 40
0.0
 40
0.2500000000000001
 40
0.2500000000000001
 40
0.5000000000000001
 40
0.5000000000000001
 40
0.6250000000000001
 40
0.6250000000000001
 40
0.7500000000000002
 40
0.7500000000000002
 40
1.0
 40
1.0
 40
1.0
 40
1.0
 10
76.65862177924248
 20
43.57539158856237
 30
0.0
 10
76.88993653292512
 20
43.17474268264378
 30
0.0
 10
77.08058182625555
 20
42.77117269295893
 30
0.0
 10
77.34468748266286
 20
41.95561590661784
 30
0.0
 10
77.41727667397683
 20
41.54356653805453
 30
0.0
 10
77.41807392006777
 20
40.91772917000493
 30
0.0
 10
77.40032866344433
 20
40.70813518654181
 30
0.0
 10
77.33113157991454
 20
40.29353616916558
 30
0.0
 10
77.27974997385226
 20
40.0876266571434
 30
0.0
 10
77.08134197511563
 20
39.47356405909024
 30
0.0
 10
76.89022487341168
 20
39.06906262674205
 30
0.0
 10
76.6586217792423
 20
38.66791430045051
 30
0.0
  0
LINE
  5
9D
330
1F
100
AcDbEntity
  8
0
  6
Continuous
 62
     7
370
    25
100
AcDbLine
 10
76.6586217792
 20
38.6679143005
 30
0.0
 11
74.5591604955
 21
38.6679143005
 31
0.0
  0
SPLINE
  5
9E
330
1F
100
AcDbEntity
  8
0
  6
Continuous
 62
     7
370
    25
100
AcDbSpline
210
0.0
220
0.0
230
1.0
 70
     8
 71
     3
 72
     8
 73
     4
 74
     0
 42
0.000000001
 43
0.00000001
 40
0.0
 40
0.0
 40
0.0
 40
0.0
 40
1.0
 40
1.0
 40
1.0
 40
1.0
 10
74.47877573778416
 20
38.98364215246169
 30
0.0
 10
74.50415037094335
 20
38.878280116323
 30
0.0
 10
74.53099177215013
 20
38.77304140722701
 30
0.0
 10
74.55916049551351
 20
38.66791430045053
 30
0.0
  0
SPLINE
  5
9F
330
1F
100
AcDbEntity
  8
0
  6
Continuous
 62
     7
370
    25
100
AcDbSpline
210
0.0
220
0.0
230
1.0
 70
     8
 71
     3
 72
     8
 73
     4
 74
     0
 42
0.000000001
 43
0.00000001
 40
0.0
 40
0.0
 40
0.0
 40
0.0
 40
1.0
 40
1.0
 40
1.0
 40
1.0
 10
74.39839098005484
 20
38.66791430045053
 30
0.0
 10
74.426572285878
 20
38.77308836560621
 30
0.0
 10
74.45341281187274
 20
38.87832872784188
 30
0.0
 10
74.47877573778416
 20
38.98364215246169
 30
0.0
  0
SPLINE
  5
A0
330
1F
100
AcDbEntity
  8
0
  6
Continuous
 62
     7
370
    25
100
AcDbSpline
210
0.0
220
0.0
230
1.0
 70
     8
 71
     3
 72
     8
 73
     4
 74
     0
 42
0.000000001
 43
0.00000001
 40
0.0
 40
0.0
 40
0.0
 40
0.0
 40
1.0
 40
1.0
 40
1.0
 40
1.0
 10
74.47877573778416
 20
44.20684729258466
 30
0.0
 10
74.5041497683685
 20
43.99612822440037
 30
0.0
 10
74.53099112508549
 20
43.78565063187153
 30
0.0
 10
74.55916049551351
 20
43.57539158856235
 30
0.0
  0
LINE
  5
A1
330
1F
100
AcDbEntity
  8
0
  6
Continuous
 62
     7
370
    25
100
AcDbLine
 10
74.4787757378
 20
43.2596637366
 30
0.0
 11
74.4787757378
 21
44.2068472926
 31
0.0
  0
SPLINE
  5
A2
330
1F
100
AcDbEntity
  8
0
  6
Continuous
 62
     7
370
    25
100
AcDbSpline
210
0.0
220
0.0
230
1.0
 70
     8
 71
     3
 72
    10
 73
     6
 74
     0
 42
0.000000001
 43
0.00000001
 40
0.0
 40
0.0
 40
0.0
 40
0.0
 40
0.5
 40
0.5
 40
1.0
 40
1.0
 40
1.0
 40
1.0
 10
72.29892969632624
 20
43.57539158856234
 30
0.0
 10
72.10582302102235
 20
44.24433273437644
 30
0.0
 10
71.93871268181209
 20
44.92687647724703
 30
0.0
 10
71.68590394149037
 20
46.29478350140093
 30
0.0
 10
71.60001884219821
 20
46.98092326207554
 30
0.0
 10
71.56214872509433
 20
47.66965370824931
 30
0.0
  0
SPLINE
  5
A3
330
1F
100
AcDbEntity
  8
0
  6
Continuous
 62
     7
370
    25
100
AcDbSpline
210
0.0
220
0.0
230
1.0
 70
     8
 71
     3
 72
    10
 73
     6
 74
     0
 42
0.000000001
 43
0.00000001
 40
0.0
 40
0.0
 40
0.0
 40
0.0
 40
0.5
 40
0.5
 40
1.0
 40
1.0
 40
1.0
 40
1.0
 10
71.56214872509433
 20
49.29608404509901
 30
0.0
 10
71.60019095572179
 20
49.98794465914523
 30
0.0
 10
71.68824398148571
 20
50.68699265871044
 30
0.0
 10
71.94230163524595
 20
52.05482372931507
 30
0.0
 10
72.10736822330676
 20
52.72675775670102
 30
0.0
 10
72.29892969632625
 20
53.39034616478599
 30
0.0
  0
LINE
  5
A4
330
1F
100
AcDbEntity
  8
0
  6
Continuous
 62
     7
370
    25
100
AcDbLine
 10
74.3983909801
 20
53.3903461648
 30
0.0
 11
72.2989296963
 21
53.3903461648
 31
0.0
  0
SPLINE
  5
A5
330
1F
100
AcDbEntity
  8
0
  6
Continuous
 62
     7
370
    25
100
AcDbSpline
210
0.0
220
0.0
230
1.0
 70
     8
 71
     3
 72
     8
 73
     4
 74
     0
 42
0.000000001
 43
0.00000001
 40
0.0
 40
0.0
 40
0.0
 40
0.0
 40
1.0
 40
1.0
 40
1.0
 40
1.0
 10
74.47877573778416
 20
52.75889046076365
 30
0.0
 10
74.45340170719984
 20
52.96960952894796
 30
0.0
 10
74.42656035048286
 20
53.18008712147682
 30
0.0
 10
74.39839098005484
 20
53.39034616478599
 30
0.0
  0
SPLINE
  5
A6
330
1F
100
AcDbEntity
  8
0
  6
Continuous
 62
     7
370
    25
100
AcDbSpline
210
0.0
220
0.0
230
1.0
 70
     8
 71
     3
 72
     8
 73
     4
 74
     0
 42
0.000000001
 43
0.00000001
 40
0.0
 40
0.0
 40
0.0
 40
0.0
 40
1.0
 40
1.0
 40
1.0
 40
1.0
 10
74.55916049551351
 20
53.39034616478598
 30
0.0
 10
74.53097734362134
 20
53.17998425522806
 30
0.0
 10
74.50413694782323
 20
52.96950306051183
 30
0.0
 10
74.47877573778416
 20
52.75889046076365
 30
0.0
  0
LINE
  5
A7
330
1F
100
AcDbEntity
  8
0
  6
Continuous
 62
     7
370
    25
100
AcDbLine
 10
76.6586217792
 20
53.3903461648
 30
0.0
 11
74.5591604955
 21
53.3903461648
 31
0.0
  0
SPLINE
  5
A8
330
1F
100
AcDbEntity
  8
0
  6
Continuous
 62
     7
370
    25
100
AcDbSpline
210
0.0
220
0.0
230
1.0
 70
     8
 71
     3
 72
    16
 73
    12
 74
     0
 42
0.000000001
 43
0.00000001
 40
0.0
 40
0.0
 40
0.0
 40
0.0
 40
0.25
 40
0.25
 40
0.5
 40
0.5
 40
0.625
 40
0.625
 40
0.75
 40
0.75
 40
1.0
 40
1.0
 40
1.0
 40
1.0
 10
76.6586217792421
 20
43.57539158856234
 30
0.0
 10
76.88946818370243
 20
44.37506699110211
 30
0.0
 10
77.0824891685402
 20
45.19213719504246
 30
0.0
 10
77.34649782159508
 20
46.82964461650035
 30
0.0
 10
77.41792411917542
 20
47.65396923891109
 30
0.0
 10
77.41775447253502
 20
48.90032459330958
 30
0.0
 10
77.39991009412591
 20
49.31859312750738
 30
0.0
 10
77.32965233493655
 20
50.1530544228175
 30
0.0
 10
77.27768034825357
 20
50.56594241807552
 30
0.0
 10
77.07828970711321
 20
51.79339734206174
 30
0.0
 10
76.88768990761866
 20
52.59683089130008
 30
0.0
 10
76.65862177924208
 20
53.39034616478599
 30
0.0
  0
SPLINE
  5
A9
330
1F
100
AcDbEntity
  8
0
  6
Continuous
 62
     7
370
    25
100
AcDbSpline
210
0.0
220
0.0
230
1.0
 70
     8
 71
     3
 72
     8
 73
     4
 74
     0
 42
0.000000001
 43
0.00000001
 40
0.0
 40
0.0
 40
0.0
 40
0.0
 40
1.0
 40
1.0
 40
1.0
 40
1.0
 10
74.39839098005484
 20
43.57539158856234
 30
0.0
 10
74.42657413194699
 20
43.78575349812026
 30
0.0
 10
74.45341452774512
 20
43.9962346928365
 30
0.0
 10
74.47877573778416
 20
44.20684729258466
 30
0.0
  0
LINE
  5
AA
330
1F
100
AcDbEntity
  8
0
  6
Continuous
 62
     7
370
    25
100
AcDbLine
 10
74.5161150712
 20
47.8855224763
 30
0.0
 11
75.2006102636
 21
47.4378061301
 31
0.0
  0
SPLINE
  5
AB
330
1F
100
AcDbEntity
  8
0
  6
Continuous
 62
     7
370
    25
100
AcDbSpline
210
0.0
220
0.0
230
1.0
 70
     8
 71
     3
 72
    19
 73
    15
 74
     0
 42
0.000000001
 43
0.00000001
 40
0.0
 40
0.0
 40
0.0
 40
0.0
 40
0.0978059775289525
 40
0.1996122522918966
 40
0.3052960258330041
 40
0.4158173591641854
 40
0.474240566618493
 40
0.5372869128296534
 40
0.6033858352934854
 40
0.6743111580696056
 40
0.749530467357482
 40
0.8286083142695116
 40
0.9120427387714447
 40
0.9999999999999999
 40
0.9999999999999999
 40
0.9999999999999999
 40
0.9999999999999999
 10
74.08041795586357
 20
48.05319074548645
 30
0.0
 10
74.0958600098269
 20
48.05264712478595
 30
0.0
 10
74.12737570293184
 20
48.05153764911626
 30
0.0
 10
74.17524517699425
 20
48.04491642614326
 30
0.0
 10
74.22403399017655
 20
48.03277229424422
 30
0.0
 10
74.26539355582257
 20
48.01962968927467
 30
0.0
 10
74.29964676962777
 20
48.00658825782964
 30
0.0
 10
74.32669562773484
 20
47.99449594251292
 30
0.0
 10
74.3552600904121
 20
47.98097526057344
 30
0.0
 10
74.3847996899177
 20
47.96512713845422
 30
0.0
 10
74.41615843659062
 20
47.94832685005453
 30
0.0
 10
74.4481750203073
 20
47.92870220670618
 30
0.0
 10
74.48201878556692
 20
47.90822358982584
 30
0.0
 10
74.50455143876864
 20
47.89322147715729
 30
0.0
 10
74.51611507124818
 20
47.88552247625568
 30
0.0
  0
SPLINE
  5
AC
330
1F
100
AcDbEntity
  8
0
  6
Continuous
 62
     7
370
    25
100
AcDbSpline
210
0.0
220
0.0
230
1.0
 70
     8
 71
     3
 72
    19
 73
    15
 74
     0
 42
0.000000001
 43
0.00000001
 40
0.0
 40
0.0
 40
0.0
 40
0.0
 40
0.0843261511037433
 40
0.1670353409858406
 40
0.2495407139852792
 40
0.3327066655796642
 40
0.4158726171740492
 40
0.4977774155681174
 40
0.5803136056784763
 40
0.6645325781316563
 40
0.7495711764063215
 40
0.8324741628544073
 40
0.9156738488962566
 40
1.0
 40
1.0
 40
1.0
 40
1.0
 10
73.6236871866328
 20
47.59886382240953
 30
0.0
 10
73.62434213029795
 20
47.61904812658126
 30
0.0
 10
73.62563945902697
 20
47.65902969915108
 30
0.0
 10
73.6371963137298
 20
47.71784369689943
 30
0.0
 10
73.65592783764396
 20
47.77435663411777
 30
0.0
 10
73.6817343016915
 20
47.8281712718232
 30
0.0
 10
73.71432925512302
 20
47.87802598080504
 30
0.0
 10
73.75357495851117
 20
47.92261441422859
 30
0.0
 10
73.79860403676054
 20
47.96178143957015
 30
0.0
 10
73.84955462260173
 20
47.99420480691006
 30
0.0
 10
73.90395176383954
 20
48.02062993929395
 30
0.0
 10
73.96118937258419
 20
48.03926796729089
 30
0.0
 10
74.02011551924666
 20
48.05132122864627
 30
0.0
 10
74.06022723822251
 20
48.05256478592722
 30
0.0
 10
74.08041795586357
 20
48.05319074548645
 30
0.0
  0
SPLINE
  5
AD
330
1F
100
AcDbEntity
  8
0
  6
Continuous
 62
     7
370
    25
100
AcDbSpline
210
0.0
220
0.0
230
1.0
 70
     8
 71
     3
 72
    19
 73
    15
 74
     0
 42
0.000000001
 43
0.00000001
 40
0.0
 40
0.0
 40
0.0
 40
0.0
 40
0.0859901205637198
 40
0.1691084375726415
 40
0.2505285789581879
 40
0.332255696176845
 40
0.4135763652356403
 40
0.4941261456201216
 40
0.576305934120417
 40
0.6607126719045473
 40
0.7461272722239103
 40
0.8300149859609743
 40
0.9144197259288509
 40
1.0
 40
1.0
 40
1.0
 40
1.0
 10
74.08312228278665
 20
47.13011382240953
 30
0.0
 10
74.06214345950052
 20
47.13089662041266
 30
0.0
 10
74.02088644061544
 20
47.13243607339141
 30
0.0
 10
73.96054469147369
 20
47.14364263722469
 30
0.0
 10
73.90351979625284
 20
47.16298266252085
 30
0.0
 10
73.84958765652986
 20
47.1888572972012
 30
0.0
 10
73.80031743106414
 20
47.22242760115387
 30
0.0
 10
73.75579035903387
 20
47.26221025700937
 30
0.0
 10
73.71697847463246
 20
47.30858132208384
 30
0.0
 10
73.6836833757747
 20
47.36044271932001
 30
0.0
 10
73.657230461657
 20
47.41657285711702
 30
0.0
 10
73.63767328231593
 20
47.47542714264288
 30
0.0
 10
73.62598737063605
 20
47.53650252122458
 30
0.0
 10
73.62445744138401
 20
47.57798110673908
 30
0.0
 10
73.6236871866328
 20
47.59886382240953
 30
0.0
  0
SPLINE
  5
AE
330
1F
100
AcDbEntity
  8
0
  6
Continuous
 62
     7
370
    25
100
AcDbSpline
210
0.0
220
0.0
230
1.0
 70
     8
 71
     3
 72
    23
 73
    19
 74
     0
 42
0.000000001
 43
0.00000001
 40
0.0
 40
0.0
 40
0.0
 40
0.0
 40
0.0652308037420294
 40
0.1284048960032227
 40
0.1900670715964781
 40
0.25094336576828
 40
0.3115458328521431
 40
0.3728628021568291
 40
0.4350236738562383
 40
0.4990717247070431
 40
0.563091075049662
 40
0.625510106330375
 40
0.6866800359296492
 40
0.7472825030135124
 40
0.8085634952159588
 40
0.8707421035159856
 40
0.9343409515059125
 40
1.0
 40
1.0
 40
1.0
 40
1.0
 10
74.52753334047894
 20
47.57512584164029
 30
0.0
 10
74.52712357832361
 20
47.55988048606808
 30
0.0
 10
74.5263169737147
 20
47.52987045730125
 30
0.0
 10
74.52010960913248
 20
47.48581039922668
 30
0.0
 10
74.51032741830808
 20
47.4434722838096
 30
0.0
 10
74.49606788004456
 20
47.40303159284299
 30
0.0
 10
74.47785258531786
 20
47.36434317204604
 30
0.0
 10
74.45602164091194
 20
47.32718500228523
 30
0.0
 10
74.4294477779019
 20
47.29225556938258
 30
0.0
 10
74.39976279685168
 20
47.25910506400604
 30
0.0
 10
74.3668840892109
 20
47.22900773655193
 30
0.0
 10
74.33199780205116
 20
47.2023608555987
 30
0.0
 10
74.29514028162338
 20
47.17997794485551
 30
0.0
 10
74.25633019622336
 20
47.16181769273498
 30
0.0
 10
74.21562737069742
 20
47.14771560190731
 30
0.0
 10
74.17308388234525
 20
47.1374351826029
 30
0.0
 10
74.12867039457663
 20
47.13135821425155
 30
0.0
 10
74.0984654623197
 20
47.13053300394508
 30
0.0
 10
74.08312228278665
 20
47.13011382240953
 30
0.0
  0
SPLINE
  5
AF
330
1F
100
AcDbEntity
  8
0
  6
Continuous
 62
     7
370
    25
100
AcDbSpline
210
0.0
220
0.0
230
1.0
 70
     8
 71
     3
 72
     9
 73
     5
 74
     0
 42
0.000000001
 43
0.00000001
 40
0.0
 40
0.0
 40
0.0
 40
0.0
 40
0.5126593363417812
 40
1.0
 40
1.0
 40
1.0
 40
1.0
 10
74.51311026355586
 20
47.73047439933261
 30
0.0
 10
74.51731620383599
 20
47.70408713776832
 30
0.0
 10
74.52552036590221
 20
47.65261580057864
 30
0.0
 10
74.52687377109439
 20
47.60051612978247
 30
0.0
 10
74.52753334047894
 20
47.57512584164029
 30
0.0
  0
LINE
  5
B0
330
1F
100
AcDbEntity
  8
0
  6
Continuous
 62
     7
370
    25
100
AcDbLine
 10
75.1191799751
 20
47.3341402647
 30
0.0
 11
74.5131102636
 21
47.7304743993
 31
0.0
  0
LINE
  5
B1
330
1F
100
AcDbEntity
  8
0
  6
Continuous
 62
     7
370
    25
100
AcDbLine
 10
75.2006102636
 20
47.4378061301
 30
0.0
 11
75.1191799751
 21
47.3341402647
 31
0.0
  0
LINE
  5
B2
330
1F
100
AcDbEntity
  8
0
  6
Continuous
 62
     7
370
    25
100
AcDbLine
 10
75.0083025712
 20
48.7815731504
 30
0.0
 11
75.1621487251
 21
48.693532285
 31
0.0
  0
LINE
  5
B3
330
1F
100
AcDbEntity
  8
0
  6
Continuous
 62
     7
370
    25
100
AcDbLine
 10
75.0083025712
 20
48.5508039196
 30
0.0
 11
75.0083025712
 21
48.7815731504
 31
0.0
  0
LINE
  5
B4
330
1F
100
AcDbEntity
  8
0
  6
Continuous
 62
     7
370
    25
100
AcDbLine
 10
73.6621487251
 20
48.5508039196
 30
0.0
 11
75.0083025712
 21
48.5508039196
 31
0.0
  0
LINE
  5
B5
330
1F
100
AcDbEntity
  8
0
  6
Continuous
 62
     7
370
    25
100
AcDbLine
 10
73.6621487251
 20
48.416188535
 30
0.0
 11
73.6621487251
 21
48.5508039196
 31
0.0
  0
LINE
  5
B6
330
1F
100
AcDbEntity
  8
0
  6
Continuous
 62
     7
370
    25
100
AcDbLine
 10
75.1621487251
 20
48.416188535
 30
0.0
 11
73.6621487251
 21
48.416188535
 31
0.0
  0
LINE
  5
B7
330
1F
100
AcDbEntity
  8
0
  6
Continuous
 62
     7
370
    25
100
AcDbLine
 10
75.1621487251
 20
48.693532285
 30
0.0
 11
75.1621487251
 21
48.416188535
 31
0.0
  0
SPLINE
  5
B8
330
1F
100
AcDbEntity
  8
0
  6
Continuous
 62
     7
370
    25
100
AcDbSpline
210
0.0
220
0.0
230
1.0
 70
     8
 71
     3
 72
    19
 73
    15
 74
     0
 42
0.000000001
 43
0.00000001
 40
0.0
 40
0.0
 40
0.0
 40
0.0
 40
0.1227280999764553
 40
0.239716523588393
 40
0.3518621792202463
 40
0.4632019818032239
 40
0.5202611541541643
 40
0.5794324380306665
 40
0.6405963441586369
 40
0.70529822908802
 40
0.7732361059084537
 40
0.844648929340316
 40
0.9200459817773698
 40
1.0
 40
1.0
 40
1.0
 40
1.0
 10
75.04676410970971
 20
49.60891097129469
 30
0.0
 10
75.04616896836194
 20
49.62599082197996
 30
0.0
 10
75.04500651889062
 20
49.65935174283236
 30
0.0
 10
75.03478911201046
 20
49.70743598643959
 30
0.0
 10
75.01860068407888
 20
49.75209065546863
 30
0.0
 10
74.99905320536567
 20
49.78610850554692
 30
0.0
 10
74.97982372300288
 20
49.81127111033856
 30
0.0
 10
74.96328059935583
 20
49.82959681232342
 30
0.0
 10
74.94452408548064
 20
49.84726466624585
 30
0.0
 10
74.92303971131088
 20
49.86358136949499
 30
0.0
 10
74.89956623751819
 20
49.87952465348185
 30
0.0
 10
74.87397438094916
 20
49.89494228367612
 30
0.0
 10
74.84589927831931
 20
49.90933904543902
 30
0.0
 10
74.82615605694232
 20
49.91810259004934
 30
0.0
 10
74.81599487894049
 20
49.92261289437162
 30
0.0
  0
SPLINE
  5
B9
330
1F
100
AcDbEntity
  8
0
  6
Continuous
 62
     7
370
    25
100
AcDbSpline
210
0.0
220
0.0
230
1.0
 70
     8
 71
     3
 72
    23
 73
    19
 74
     0
 42
0.000000001
 43
0.00000001
 40
0.0
 40
0.0
 40
0.0
 40
0.0
 40
0.0552698294993248
 40
0.1099567044850938
 40
0.1632335040550556
 40
0.2180575651623568
 40
0.2732775387226747
 40
0.330881045495497
 40
0.3904799376860887
 40
0.4536559730386417
 40
0.5189026226022311
 40
0.5833461108214766
 40
0.6485466930814431
 40
0.7150552190344909
 40
0.7825206438000536
 40
0.852335294426451
 40
0.9249348997257087
 40
0.9999999999999999
 40
0.9999999999999999
 40
0.9999999999999999
 40
0.9999999999999999
 10
74.81148766740203
 20
49.307228278987
 30
0.0
 10
74.8193210055804
 20
49.30740586300851
 30
0.0
 10
74.83490506037151
 20
49.30775915799695
 30
0.0
 10
74.8576726706269
 20
49.3122154375848
 30
0.0
 10
74.8797455360969
 20
49.3189103225985
 30
0.0
 10
74.90102350323355
 20
49.32812025952047
 30
0.0
 10
74.92138306481799
 20
49.3404251298005
 30
0.0
 10
74.94084919804496
 20
49.35519507326141
 30
0.0
 10
74.95974813514827
 20
49.37243721864673
 30
0.0
 10
74.9771757278519
 20
49.39260218900608
 30
0.0
 10
74.99361441054428
 20
49.41443292005906
 30
0.0
 10
75.00782504022128
 20
49.438134825243
 30
0.0
 10
75.01986996043873
 20
49.46318513010668
 30
0.0
 10
75.0298216322088
 20
49.48960687018798
 30
0.0
 10
75.0373028785776
 20
49.51750589012173
 30
0.0
 10
75.0426757478313
 20
49.54674558132248
 30
0.0
 10
75.04603464092499
 20
49.57738323290104
 30
0.0
 10
75.04651826184367
 20
49.59828539365845
 30
0.0
 10
75.04676410970971
 20
49.60891097129469
 30
0.0
  0
SPLINE
  5
BA
330
1F
100
AcDbEntity
  8
0
  6
Continuous
 62
     7
370
    25
100
AcDbSpline
210
0.0
220
0.0
230
1.0
 70
     8
 71
     3
 72
    19
 73
    15
 74
     0
 42
0.000000001
 43
0.00000001
 40
0.0
 40
0.0
 40
0.0
 40
0.0
 40
0.1101423815503176
 40
0.2157418685830274
 40
0.3179605426392306
 40
0.4180517606815226
 40
0.5115631470355316
 40
0.5965727584443461
 40
0.6733290469034968
 40
0.7440491927238595
 40
0.8107168223002833
 40
0.8740854521098849
 40
0.9367096168966699
 40
1.0
 40
1.0
 40
1.0
 40
1.0
 10
74.56599487894049
 20
49.69184366360239
 30
0.0
 10
74.56631116790909
 20
49.67328653407021
 30
0.0
 10
74.56693070030104
 20
49.63693767594263
 30
0.0
 10
74.57437194741165
 20
49.58383289646401
 30
0.0
 10
74.58478127323153
 20
49.53299134683238
 30
0.0
 10
74.60035744487301
 20
49.48557354275758
 30
0.0
 10
74.619053296573
 20
49.44249482465931
 30
0.0
 10
74.64013423469561
 20
49.40491538930631
 30
0.0
 10
74.66401799173643
 20
49.37372585461564
 30
0.0
 10
74.69039111628464
 20
49.34884829631419
 30
0.0
 10
74.71900690567615
 20
49.33058905186228
 30
0.0
 10
74.74851983303695
 20
49.31688368040685
 30
0.0
 10
74.77961656623896
 20
49.30884903635404
 30
0.0
 10
74.80082655940689
 20
49.30777043375083
 30
0.0
 10
74.81148766740203
 20
49.307228278987
 30
0.0
  0
LINE
  5
BB
330
1F
100
AcDbEntity
  8
0
  6
Continuous
 62
     7
370
    25
100
AcDbLine
 10
74.4121487251
 20
49.6918436636
 30
0.0
 11
74.5659948789
 21
49.6918436636
 31
0.0
  0
SPLINE
  5
BC
330
1F
100
AcDbEntity
  8
0
  6
Continuous
 62
     7
370
    25
100
AcDbSpline
210
0.0
220
0.0
230
1.0
 70
     8
 71
     3
 72
    23
 73
    19
 74
     0
 42
0.000000001
 43
0.00000001
 40
0.0
 40
0.0
 40
0.0
 40
0.0
 40
0.0669051223273616
 40
0.1334773340846825
 40
0.2010229080576287
 40
0.2712178684297488
 40
0.3428591616573978
 40
0.4138109980627169
 40
0.4855518488903453
 40
0.5598002749200529
 40
0.5998999649035781
 40
0.6436094423977958
 40
0.6919106424505659
 40
0.7447030291556902
 40
0.8015038302285953
 40
0.8628660266331954
 40
0.9293326711591618
 40
1.0
 40
1.0
 40
1.0
 40
1.0
 10
74.09484103278665
 20
49.23030520206392
 30
0.0
 10
74.10881733666919
 20
49.23096103392895
 30
0.0
 10
74.1367004002928
 20
49.23226943433097
 30
0.0
 10
74.17772198125283
 20
49.24225899995604
 30
0.0
 10
74.21724722362484
 20
49.25868926140579
 30
0.0
 10
74.25459608982888
 20
49.28169443179906
 30
0.0
 10
74.2892281578442
 20
49.30968526546688
 30
0.0
 10
74.32000757680075
 20
49.34239081273333
 30
0.0
 10
74.34566044759282
 20
49.37989130022216
 30
0.0
 10
74.36331892182857
 20
49.41462816140687
 30
0.0
 10
74.37508755229425
 20
49.44547116316185
 30
0.0
 10
74.3833394956592
 20
49.47181353714397
 30
0.0
 10
74.38993595296317
 20
49.50133071545111
 30
0.0
 10
74.39631671368682
 20
49.53366835078798
 30
0.0
 10
74.40166593855491
 20
49.56896282698295
 30
0.0
 10
74.4061461240442
 20
49.60724594213299
 30
0.0
 10
74.40972534488824
 20
49.64853309782709
 30
0.0
 10
74.41132460222258
 20
49.67711496863556
 30
0.0
 10
74.41214872509433
 20
49.69184366360239
 30
0.0
  0
SPLINE
  5
BD
330
1F
100
AcDbEntity
  8
0
  6
Continuous
 62
     7
370
    25
100
AcDbSpline
210
0.0
220
0.0
230
1.0
 70
     8
 71
     3
 72
    23
 73
    19
 74
     0
 42
0.000000001
 43
0.00000001
 40
0.0
 40
0.0
 40
0.0
 40
0.0
 40
0.0760618905628339
 40
0.1487324608035359
 40
0.2183745247439722
 40
0.2857225935927383
 40
0.3510576941824569
 40
0.414934915729319
 40
0.4784859417740854
 40
0.542169035281216
 40
0.6047501165431387
 40
0.6641185017301124
 40
0.7214996756099116
 40
0.7776159163852547
 40
0.832666108697549
 40
0.8878580281135741
 40
0.9434676608977686
 40
1.0
 40
1.0
 40
1.0
 40
1.0
 10
73.77753334047894
 20
49.61221625975623
 30
0.0
 10
73.7777968705882
 20
49.59817885432044
 30
0.0
 10
73.7783121809671
 20
49.57072991979734
 30
0.0
 10
73.78306490999012
 20
49.53068049193364
 30
0.0
 10
73.789956515116
 20
49.49256781481874
 30
0.0
 10
73.80073632547804
 20
49.45678082820709
 30
0.0
 10
73.81366848880242
 20
49.42283255903055
 30
0.0
 10
73.83059906407512
 20
49.39148083073649
 30
0.0
 10
73.8497194117109
 20
49.36180394124738
 30
0.0
 10
73.87196005342685
 20
49.33467128627309
 30
0.0
 10
73.89599977975158
 20
49.31020987110221
 30
0.0
 10
73.92150378701368
 20
49.28907250574942
 30
0.0
 10
73.94768128501663
 20
49.27076512988588
 30
0.0
 10
73.97514294187526
 20
49.25604905490486
 30
0.0
 10
74.00361938081217
 20
49.24440794888807
 30
0.0
 10
74.03321718939048
 20
49.23648795350515
 30
0.0
 10
74.06368713554235
 20
49.23097979491242
 30
0.0
 10
74.08439959287178
 20
49.23053129643149
 30
0.0
 10
74.09484103278665
 20
49.23030520206392
 30
0.0
  0
SPLINE
  5
BE
330
1F
100
AcDbEntity
  8
0
  6
Continuous
 62
     7
370
    25
100
AcDbSpline
210
0.0
220
0.0
230
1.0
 70
     8
 71
     3
 72
    15
 73
    11
 74
     0
 42
0.000000001
 43
0.00000001
 40
0.0
 40
0.0
 40
0.0
 40
0.0
 40
0.1182713048357256
 40
0.2361775330837632
 40
0.355662932948509
 40
0.4759041646706825
 40
0.6001273417110832
 40
0.7286081161551193
 40
0.8613134756739422
 40
1.0
 40
1.0
 40
1.0
 40
1.0
 10
73.85866314817126
 20
49.8628172212947
 30
0.0
 10
73.85218814793461
 20
49.8544186884982
 30
0.0
 10
73.83925813431269
 20
49.83764754726361
 30
0.0
 10
73.82275743636794
 20
49.81031830536428
 30
0.0
 10
73.8084598540816
 20
49.78157621132754
 30
0.0
 10
73.79753827020319
 20
49.7507984938043
 30
0.0
 10
73.78829070129355
 20
49.71864930646685
 30
0.0
 10
73.78223905023677
 20
49.68460900708178
 30
0.0
 10
73.77808697680396
 20
49.64897791403389
 30
0.0
 10
73.77772057759293
 20
49.62464887254115
 30
0.0
 10
73.77753334047894
 20
49.61221625975623
 30
0.0
  0
SPLINE
  5
BF
330
1F
100
AcDbEntity
  8
0
  6
Continuous
 62
     7
370
    25
100
AcDbSpline
210
0.0
220
0.0
230
1.0
 70
     8
 71
     3
 72
    15
 73
    11
 74
     0
 42
0.000000001
 43
0.00000001
 40
0.0
 40
0.0
 40
0.0
 40
0.0
 40
0.1497703860319681
 40
0.2913164099952446
 40
0.4259663731047426
 40
0.5521595739695285
 40
0.6715274135235928
 40
0.7861216286916589
 40
0.8953250730704446
 40
1.0
 40
1.0
 40
1.0
 40
1.0
 10
74.06599487894049
 20
49.98030520206392
 30
0.0
 10
74.05444530182535
 20
49.97679807716095
 30
0.0
 10
74.03198037113188
 20
49.96997641459328
 30
0.0
 10
73.99964881155694
 20
49.95836457257823
 30
0.0
 10
73.97000964588916
 20
49.94513531311947
 30
0.0
 10
73.94284545075574
 20
49.93094335941829
 30
0.0
 10
73.91788870684252
 20
49.91603831112283
 30
0.0
 10
73.89579933439936
 20
49.89936048606437
 30
0.0
 10
73.87560710488087
 20
49.8821451381441
 30
0.0
 10
73.86423084262078
 20
49.86916827242209
 30
0.0
 10
73.85866314817126
 20
49.8628172212947
 30
0.0
  0
LINE
  5
C0
330
1F
100
AcDbEntity
  8
0
  6
Continuous
 62
     7
370
    25
100
AcDbLine
 10
74.0659948789
 20
50.1149205867
 30
0.0
 11
74.0659948789
 21
49.9803052021
 31
0.0
  0
SPLINE
  5
C1
330
1F
100
AcDbEntity
  8
0
  6
Continuous
 62
     7
370
    25
100
AcDbSpline
210
0.0
220
0.0
230
1.0
 70
     8
 71
     3
 72
    23
 73
    19
 74
     0
 42
0.000000001
 43
0.00000001
 40
0.0
 40
0.0
 40
0.0
 40
0.0
 40
0.0655411703374033
 40
0.1289631677825933
 40
0.1903771361885609
 40
0.2500923616690527
 40
0.308548432459201
 40
0.3663979630552958
 40
0.42454218926668
 40
0.4831699964229055
 40
0.5422433998311199
 40
0.6017393520173299
 40
0.6625060022496068
 40
0.7248555134488469
 40
0.7891278292811811
 40
0.8563463998785099
 40
0.9262952349869055
 40
1.0
 40
1.0
 40
1.0
 40
1.0
 10
73.6236871866328
 20
49.61462010591008
 30
0.0
 10
73.62405927802928
 20
49.63065694888856
 30
0.0
 10
73.62479142981954
 20
49.66221210820431
 30
0.0
 10
73.62979654461807
 20
49.70860217894131
 30
0.0
 10
73.63893797543426
 20
49.75288290724038
 30
0.0
 10
73.65123939201973
 20
49.79511416346467
 30
0.0
 10
73.66683585291138
 20
49.8353334647762
 30
0.0
 10
73.68625815206336
 20
49.87341808128093
 30
0.0
 10
73.709105938657
 20
49.90960232136098
 30
0.0
 10
73.73564890485983
 20
49.94354472899436
 30
0.0
 10
73.76534090761272
 20
49.97524125801132
 30
0.0
 10
73.79870905474174
 20
50.00384956839567
 30
0.0
 10
73.83513651356503
 20
50.0298466225137
 30
0.0
 10
73.87504639479306
 20
50.05253632481863
 30
0.0
 10
73.9179229336264
 20
50.072952161654
 30
0.0
 10
73.96431514721853
 20
50.08974400021712
 30
0.0
 10
74.01380829949952
 20
50.10452352963269
 30
0.0
 10
74.04829875957489
 20
50.11139501430957
 30
0.0
 10
74.06599487894049
 20
50.11492058667931
 30
0.0
  0
SPLINE
  5
C2
330
1F
100
AcDbEntity
  8
0
  6
Continuous
 62
     7
370
    25
100
AcDbSpline
210
0.0
220
0.0
230
1.0
 70
     8
 71
     3
 72
    19
 73
    15
 74
     0
 42
0.000000001
 43
0.00000001
 40
0.0
 40
0.0
 40
0.0
 40
0.0
 40
0.079641704194991
 40
0.1589086132578561
 40
0.2395997983184508
 40
0.3224093988203484
 40
0.405827748173513
 40
0.4876442139503137
 40
0.5697199979738974
 40
0.6530646649976934
 40
0.7374573001733065
 40
0.8224924079539125
 40
0.9097550737466981
 40
1.0
 40
1.0
 40
1.0
 40
1.0
 10
74.10776170586357
 20
49.09568981744854
 30
0.0
 10
74.08675837486024
 20
49.09646058816005
 30
0.0
 10
74.04485055486482
 20
49.09799850232379
 30
0.0
 10
73.98292028882214
 20
49.11168913202684
 30
0.0
 10
73.92248711475987
 20
49.13303573632707
 30
0.0
 10
73.86444645583488
 20
49.16281968002749
 30
0.0
 10
73.81025506547526
 20
49.19967024241713
 30
0.0
 10
73.7619884814387
 20
49.24375438795654
 30
0.0
 10
73.72022037519136
 20
49.29400043809912
 30
0.0
 10
73.68543466893482
 20
49.35007954246996
 30
0.0
 10
73.65760760485752
 20
49.41081012161826
 30
0.0
 10
73.63829865921353
 20
49.47577254073796
 30
0.0
 10
73.6257214243858
 20
49.54402216857446
 30
0.0
 10
73.62437281841385
 20
49.59082535063027
 30
0.0
 10
73.6236871866328
 20
49.61462010591008
 30
0.0
  0
SPLINE
  5
C3
330
1F
100
AcDbEntity
  8
0
  6
Continuous
 62
     7
370
    25
100
AcDbSpline
210
0.0
220
0.0
230
1.0
 70
     8
 71
     3
 72
    15
 73
    11
 74
     0
 42
0.000000001
 43
0.00000001
 40
0.0
 40
0.0
 40
0.0
 40
0.0
 40
0.1281455049994643
 40
0.2541925386280419
 40
0.3781411397135888
 40
0.5013808330744057
 40
0.6239569784447038
 40
0.7470758858273289
 40
0.8728647202442611
 40
1.0
 40
1.0
 40
1.0
 40
1.0
 10
74.37428814817126
 20
49.1852330866793
 30
0.0
 10
74.36440730774625
 20
49.17801243049175
 30
0.0
 10
74.34480743249959
 20
49.16368936136121
 30
0.0
 10
74.31327643593401
 20
49.14605991269729
 30
0.0
 10
74.2815003366985
 20
49.1298837052762
 30
0.0
 10
74.24822973955466
 20
49.11797848486609
 30
0.0
 10
74.21453335493415
 20
49.10770475142803
 30
0.0
 10
74.17968960856822
 20
49.10094497691569
 30
0.0
 10
74.14402954554066
 20
49.09660547207
 30
0.0
 10
74.11989381473167
 20
49.09599611695941
 30
0.0
 10
74.10776170586357
 20
49.09568981744854
 30
0.0
  0
SPLINE
  5
C4
330
1F
100
AcDbEntity
  8
0
  6
Continuous
 62
     7
370
    25
100
AcDbSpline
210
0.0
220
0.0
230
1.0
 70
     8
 71
     3
 72
    11
 73
     7
 74
     0
 42
0.000000001
 43
0.00000001
 40
0.0
 40
0.0
 40
0.0
 40
0.0
 40
0.253879600326656
 40
0.5030089172783633
 40
0.7502910806899731
 40
1.0
 40
1.0
 40
1.0
 40
1.0
 10
74.50229295586357
 20
49.34779318283315
 30
0.0
 10
74.49458802520293
 20
49.33183671658744
 30
0.0
 10
74.47932232908427
 20
49.30022234190149
 30
0.0
 10
74.44938414729117
 20
49.25712925781596
 30
0.0
 10
74.41481714128236
 20
49.21801016837726
 30
0.0
 10
74.38784171860512
 20
49.19619428880421
 30
0.0
 10
74.37428814817126
 20
49.1852330866793
 30
0.0
  0
SPLINE
  5
C5
330
1F
100
AcDbEntity
  8
0
  6
Continuous
 62
     7
370
    25
100
AcDbSpline
210
0.0
220
0.0
230
1.0
 70
     8
 71
     3
 72
    15
 73
    11
 74
     0
 42
0.000000001
 43
0.00000001
 40
0.0
 40
0.0
 40
0.0
 40
0.0
 40
0.1280675485958904
 40
0.2506083188676684
 40
0.3706301659145029
 40
0.4900722467299488
 40
0.6103747641546199
 40
0.7343130699115256
 40
0.8632165042449895
 40
1.0
 40
1.0
 40
1.0
 40
1.0
 10
74.81088670586357
 20
49.17261289437162
 30
0.0
 10
74.79502665098974
 20
49.17311157624893
 30
0.0
 10
74.76399098479126
 20
49.17408741929655
 30
0.0
 10
74.71868177173205
 20
49.18237329310898
 30
0.0
 10
74.67597822875396
 20
49.19631740577022
 30
0.0
 10
74.6357005878439
 20
49.21563301830359
 30
0.0
 10
74.5981042279197
 20
49.24063653983514
 30
0.0
 10
74.56310456040808
 20
49.27092483850242
 30
0.0
 10
74.53054634978167
 20
49.30671169354906
 30
0.0
 10
74.5118951470779
 20
49.33383123841618
 30
0.0
 10
74.50229295586357
 20
49.34779318283315
 30
0.0
  0
SPLINE
  5
C6
330
1F
100
AcDbEntity
  8
0
  6
Continuous
 62
     7
370
    25
100
AcDbSpline
210
0.0
220
0.0
230
1.0
 70
     8
 71
     3
 72
    19
 73
    15
 74
     0
 42
0.000000001
 43
0.00000001
 40
0.0
 40
0.0
 40
0.0
 40
0.0
 40
0.0902542493426766
 40
0.1785397915286843
 40
0.2660930338538198
 40
0.3546309779571733
 40
0.4418861533505626
 40
0.5257469151636484
 40
0.6081136336036366
 40
0.6901972728278825
 40
0.770821484330335
 40
0.8483261812554109
 40
0.9240117400247433
 40
1.0
 40
1.0
 40
1.0
 40
1.0
 10
75.20061026355587
 20
49.61071385591008
 30
0.0
 10
75.20001916487946
 20
49.5911355378779
 30
0.0
 10
75.19884986110455
 20
49.55240596175927
 30
0.0
 10
75.18817224547065
 20
49.4955075130662
 30
0.0
 10
75.171275760176
 20
49.44063887630816
 30
0.0
 10
75.14792987711728
 20
49.38840062724401
 30
0.0
 10
75.11913531433352
 20
49.33987844184561
 30
0.0
 10
75.0848647128072
 20
49.29670579038256
 30
0.0
 10
75.04577929788404
 20
49.25946785718087
 30
0.0
 10
75.00260819889037
 20
49.22822740961224
 30
0.0
 10
74.95647012343882
 20
49.20376669573209
 30
0.0
 10
74.90898434180427
 20
49.18572967852651
 30
0.0
 10
74.86026349692331
 20
49.1747489580985
 30
0.0
 10
74.82736752013396
 20
49.17332586232269
 30
0.0
 10
74.81088670586357
 20
49.17261289437162
 30
0.0
  0
SPLINE
  5
C7
330
1F
100
AcDbEntity
  8
0
  6
Continuous
 62
     7
370
    25
100
AcDbSpline
210
0.0
220
0.0
230
1.0
 70
     8
 71
     3
 72
    23
 73
    19
 74
     0
 42
0.000000001
 43
0.00000001
 40
0.0
 40
0.0
 40
0.0
 40
0.0
 40
0.0726253460834355
 40
0.1419766113262345
 40
0.2089849284189386
 40
0.2739568703644447
 40
0.336889347396841
 40
0.3987449534945902
 40
0.4601158852788617
 40
0.5208249225900291
 40
0.5809944586324857
 40
0.6401519276014648
 40
0.6986224507562546
 40
0.7572710809271643
 40
0.8164266940046602
 40
0.8762540482034705
 40
0.9371652930625374
 40
1.0
 40
1.0
 40
1.0
 40
1.0
 10
74.81599487894049
 20
50.057228278987
 30
0.0
 10
74.83109451492993
 20
50.05358132869514
 30
0.0
 10
74.86061306824021
 20
50.04645183917067
 30
0.0
 10
74.90278760860336
 20
50.03158145054115
 30
0.0
 10
74.94269768919938
 20
50.01538176974346
 30
0.0
 10
74.97959600649739
 20
49.99592929635855
 30
0.0
 10
75.01422410766855
 20
49.97471125883308
 30
0.0
 10
75.04579658958346
 20
49.95040152103198
 30
0.0
 10
75.07511643192652
 20
49.9241216399323
 30
0.0
 10
75.1011363908796
 20
49.89505380451726
 30
0.0
 10
75.12469827482533
 20
49.86457009238548
 30
0.0
 10
75.14478758511493
 20
49.83224096963518
 30
0.0
 10
75.16206936491399
 20
49.79871687234777
 30
0.0
 10
75.17630660714629
 20
49.76376552965552
 30
0.0
 10
75.18703183157463
 20
49.72728288464466
 30
0.0
 10
75.19481331968495
 20
49.68959876036431
 30
0.0
 10
75.19986665434828
 20
49.65061440317233
 30
0.0
 10
75.20035983852816
 20
49.62415115005879
 30
0.0
 10
75.20061026355587
 20
49.61071385591008
 30
0.0
  0
LINE
  5
C8
330
1F
100
AcDbEntity
  8
0
  6
Continuous
 62
     7
370
    25
100
AcDbLine
 10
74.8159948789
 20
49.9226128944
 30
0.0
 11
74.8159948789
 21
50.057228279
 31
0.0
  0
SPLINE
  5
C9
330
1F
100
AcDbEntity
  8
0
  6
Continuous
 62
     7
370
    25
100
AcDbSpline
210
0.0
220
0.0
230
1.0
 70
     8
 71
     3
 72
     8
 73
     4
 74
     0
 42
0.000000001
 43
0.00000001
 40
0.0
 40
0.0
 40
0.0
 40
0.0
 40
1.0
 40
1.0
 40
1.0
 40
1.0
 10
74.39839098005484
 20
53.39034616478598
 30
0.0
 10
74.426572285878
 20
53.49552022994168
 30
0.0
 10
74.45341281187274
 20
53.60076059217734
 30
0.0
 10
74.47877573778416
 20
53.70607401679715
 30
0.0
  0
LINE
  5
CA
330
1F
100
AcDbEntity
  8
0
  6
Continuous
 62
     7
370
    25
100
AcDbLine
 10
74.4787757378
 20
52.7588904608
 30
0.0
 11
74.4787757378
 21
53.7060740168
 31
0.0
  0
SPLINE
  5
CB
330
1F
100
AcDbEntity
  8
0
  6
Continuous
 62
     7
370
    25
100
AcDbSpline
210
0.0
220
0.0
230
1.0
 70
     8
 71
     3
 72
     8
 73
     4
 74
     0
 42
0.000000001
 43
0.00000001
 40
0.0
 40
0.0
 40
0.0
 40
0.0
 40
1.0
 40
1.0
 40
1.0
 40
1.0
 10
74.47877573778416
 20
53.70607401679715
 30
0.0
 10
74.50415037094335
 20
53.60071198065847
 30
0.0
 10
74.53099177215013
 20
53.49547327156247
 30
0.0
 10
74.55916049551351
 20
53.39034616478598
 30
0.0
  0
SPLINE
  5
CC
330
1F
100
AcDbEntity
  8
0
  6
Continuous
 62
     7
370
    25
100
AcDbSpline
210
0.0
220
0.0
230
1.0
 70
     8
 71
     3
 72
    10
 73
     6
 74
     0
 42
0.000000001
 43
0.00000001
 40
0.0
 40
0.0
 40
0.0
 40
0.0
 40
0.5
 40
0.5
 40
1.0
 40
1.0
 40
1.0
 40
1.0
 10
72.29892969632625
 20
53.39034616478599
 30
0.0
 10
72.10499459624516
 20
53.72625161149737
 30
0.0
 10
71.9386227444498
 20
54.06644217517307
 30
0.0
 10
71.6863759565786
 20
54.74865504180378
 30
0.0
 10
71.60016072344278
 20
55.09182182949725
 30
0.0
 10
71.56214872509433
 20
55.4374772246295
 30
0.0
  0
SPLINE
  5
CD
330
1F
100
AcDbEntity
  8
0
  6
Continuous
 62
     7
370
    25
100
AcDbSpline
210
0.0
220
0.0
230
1.0
 70
     8
 71
     3
 72
    12
 73
     8
 74
     0
 42
0.000000001
 43
0.00000001
 40
0.0
 40
0.0
 40
0.0
 40
0.0
 40
0.2500000000000001
 40
0.2500000000000001
 40
0.5000000000000002
 40
0.5000000000000002
 40
1.0
 40
1.0
 40
1.0
 40
1.0
 10
71.56214872509433
 20
56.2506923930543
 30
0.0
 10
71.58134257897449
 20
56.42522831421892
 30
0.0
 10
71.61305860225035
 20
56.60063569711813
 30
0.0
 10
71.69853631703126
 20
56.94702162087991
 30
0.0
 10
71.7523136345818
 20
57.11873093632049
 30
0.0
 10
71.9423608727128
 20
57.62999934694012
 30
0.0
 10
72.10718963967336
 20
57.96571993292887
 30
0.0
 10
72.29892969632625
 20
58.2978234528978
 30
0.0
  0
LINE
  5
CE
330
1F
100
AcDbEntity
  8
0
  6
Continuous
 62
     7
370
    25
100
AcDbLine
 10
74.3983909801
 20
58.2978234529
 30
0.0
 11
72.2989296963
 21
58.2978234529
 31
0.0
  0
SPLINE
  5
CF
330
1F
100
AcDbEntity
  8
0
  6
Continuous
 62
     7
370
    25
100
AcDbSpline
210
0.0
220
0.0
230
1.0
 70
     8
 71
     3
 72
     8
 73
     4
 74
     0
 42
0.000000001
 43
0.00000001
 40
0.0
 40
0.0
 40
0.0
 40
0.0
 40
1.0
 40
1.0
 40
1.0
 40
1.0
 10
74.47877573778416
 20
57.98209560088664
 30
0.0
 10
74.45340110462499
 20
58.08745763702532
 30
0.0
 10
74.42655970341822
 20
58.19269634612132
 30
0.0
 10
74.39839098005484
 20
58.2978234528978
 30
0.0
  0
SPLINE
  5
D0
330
1F
100
AcDbEntity
  8
0
  6
Continuous
 62
     7
370
    25
100
AcDbSpline
210
0.0
220
0.0
230
1.0
 70
     8
 71
     3
 72
     8
 73
     4
 74
     0
 42
0.000000001
 43
0.00000001
 40
0.0
 40
0.0
 40
0.0
 40
0.0
 40
1.0
 40
1.0
 40
1.0
 40
1.0
 10
74.55916049551351
 20
58.29782345289781
 30
0.0
 10
74.53097918969034
 20
58.19264938774212
 30
0.0
 10
74.50413866369561
 20
58.08740902550645
 30
0.0
 10
74.47877573778416
 20
57.98209560088664
 30
0.0
  0
LINE
  5
D1
330
1F
100
AcDbEntity
  8
0
  6
Continuous
 62
     7
370
    25
100
AcDbLine
 10
76.6586217792
 20
58.2978234529
 30
0.0
 11
74.5591604955
 21
58.2978234529
 31
0.0
  0
SPLINE
  5
D2
330
1F
100
AcDbEntity
  8
0
  6
Continuous
 62
     7
370
    25
100
AcDbSpline
210
0.0
220
0.0
230
1.0
 70
     8
 71
     3
 72
    16
 73
    12
 74
     0
 42
0.000000001
 43
0.00000001
 40
0.0
 40
0.0
 40
0.0
 40
0.0
 40
0.2500000000000002
 40
0.2500000000000002
 40
0.5000000000000004
 40
0.5000000000000004
 40
0.6250000000000003
 40
0.6250000000000003
 40
0.7500000000000002
 40
0.7500000000000002
 40
1.0
 40
1.0
 40
1.0
 40
1.0
 10
76.65862177924248
 20
58.29782345289784
 30
0.0
 10
76.88993653292512
 20
57.89717454697925
 30
0.0
 10
77.08058182625555
 20
57.4936045572944
 30
0.0
 10
77.34468748266286
 20
56.67804777095331
 30
0.0
 10
77.41727667397683
 20
56.26599840239
 30
0.0
 10
77.41807392006777
 20
55.64016103434039
 30
0.0
 10
77.40032866344433
 20
55.43056705087727
 30
0.0
 10
77.33113157991454
 20
55.01596803350104
 30
0.0
 10
77.27974997385226
 20
54.81005852147887
 30
0.0
 10
77.08134197511565
 20
54.19599592342571
 30
0.0
 10
76.89022487341168
 20
53.79149449107752
 30
0.0
 10
76.6586217792423
 20
53.39034616478597
 30
0.0
  0
LINE
  5
D3
330
1F
100
AcDbEntity
  8
0
  6
Continuous
 62
     7
370
    25
100
AcDbLine
 10
77.5621487251
 20
56.7328688767
 30
0.0
 11
77.5621487251
 21
40.2328688767
 31
0.0
  0
SPLINE
  5
D4
330
1F
100
AcDbEntity
  8
0
  6
Continuous
 62
     7
370
    25
100
AcDbSpline
210
0.0
220
0.0
230
1.0
 70
     8
 71
     3
 72
    23
 73
    19
 74
     0
 42
0.000000001
 43
0.00000001
 40
0.0
 40
0.0
 40
0.0
 40
0.0
 40
0.0611415679303346
 40
0.1200010135310723
 40
0.1782359705414083
 40
0.2364955434070171
 40
0.2948872487049731
 40
0.3546771928192958
 40
0.4166948132897783
 40
0.4806333779628393
 40
0.5458046334786407
 40
0.6097347883178743
 40
0.6729516883751544
 40
0.7360010960706834
 40
0.7998274385165249
 40
0.864767276939387
 40
0.9310835057306723
 40
1.0
 40
1.0
 40
1.0
 40
1.0
 10
74.0750093020174
 20
47.26472920702491
 30
0.0
 10
74.08525101246757
 20
47.26496229806795
 30
0.0
 10
74.10535215929634
 20
47.26541977998012
 30
0.0
 10
74.13477277289938
 20
47.27069435503631
 30
0.0
 10
74.16329758163292
 20
47.27781854647812
 30
0.0
 10
74.1902840181577
 20
47.28933189281546
 30
0.0
 10
74.21647836598807
 20
47.30304522807912
 30
0.0
 10
74.24113197109914
 20
47.32051511637449
 30
0.0
 10
74.26494327454314
 20
47.34054477091247
 30
0.0
 10
74.28703568827328
 20
47.36374105437733
 30
0.0
 10
74.3072432079378
 20
47.38897653422688
 30
0.0
 10
74.32507973047353
 20
47.41581262798012
 30
0.0
 10
74.34013340511913
 20
47.44388725203415
 30
0.0
 10
74.35269356158781
 20
47.47317328656952
 30
0.0
 10
74.36175763014323
 20
47.50400593447041
 30
0.0
 10
74.36889473206213
 20
47.53588751282183
 30
0.0
 10
74.37269274027243
 20
47.5692257584673
 30
0.0
 10
74.37335148239747
 20
47.59184430505445
 30
0.0
 10
74.37368718663281
 20
47.60337103394799
 30
0.0
  0
SPLINE
  5
D5
330
1F
100
AcDbEntity
  8
0
  6
Continuous
 62
     7
370
    25
100
AcDbSpline
210
0.0
220
0.0
230
1.0
 70
     8
 71
     3
 72
    23
 73
    19
 74
     0
 42
0.000000001
 43
0.00000001
 40
0.0
 40
0.0
 40
0.0
 40
0.0
 40
0.0679503475997537
 40
0.1332598223836998
 40
0.1978002967596474
 40
0.2608458295516822
 40
0.3233192927503671
 40
0.3862817224595722
 40
0.450061516233313
 40
0.5152075844858154
 40
0.5796407692199316
 40
0.6418172023841522
 40
0.7016924412115348
 40
0.7607690981778945
 40
0.8192540511346832
 40
0.8787376269055537
 40
0.9381582970160912
 40
1.0
 40
1.0
 40
1.0
 40
1.0
 10
73.77753334047894
 20
47.59165228394799
 30
0.0
 10
73.77786292952007
 20
47.58052419492461
 30
0.0
 10
73.77850929820885
 20
47.55870050720101
 30
0.0
 10
73.78240095220707
 20
47.52648356911631
 30
0.0
 10
73.78928444331771
 20
47.4955919030966
 30
0.0
 10
73.79906628053793
 20
47.46600402425329
 30
0.0
 10
73.81098532237397
 20
47.43747341479253
 30
0.0
 10
73.82619368240177
 20
47.41040486056809
 30
0.0
 10
73.84397093390938
 20
47.384432916637
 30
0.0
 10
73.86430948712757
 20
47.36012290393186
 30
0.0
 10
73.88616726059618
 20
47.33747121816851
 30
0.0
 10
73.91017586206472
 20
47.31852116709769
 30
0.0
 10
73.93449098440978
 20
47.30141888530238
 30
0.0
 10
73.96058940642367
 20
47.2884645046603
 30
0.0
 10
73.98752580590252
 20
47.27760433500566
 30
0.0
 10
74.01571076664648
 20
47.27030358543836
 30
0.0
 10
74.04499898646192
 20
47.26552401978039
 30
0.0
 10
74.06487359635327
 20
47.26499764765936
 30
0.0
 10
74.0750093020174
 20
47.26472920702491
 30
0.0
  0
SPLINE
  5
D6
330
1F
100
AcDbEntity
  8
0
  6
Continuous
 62
     7
370
    25
100
AcDbSpline
210
0.0
220
0.0
230
1.0
 70
     8
 71
     3
 72
    23
 73
    19
 74
     0
 42
0.000000001
 43
0.00000001
 40
0.0
 40
0.0
 40
0.0
 40
0.0
 40
0.0618526459466917
 40
0.1212838306153701
 40
0.1807779320756125
 40
0.2392732340142805
 40
0.2986414352139417
 40
0.3581858222417117
 40
0.4207600867589709
 40
0.4852046730216432
 40
0.5503622689482871
 40
0.613649924530912
 40
0.6766234955168249
 40
0.7391080134690126
 40
0.8021647022429448
 40
0.8667165971324778
 40
0.9320376285055445
 40
1.0
 40
1.0
 40
1.0
 40
1.0
 10
74.0750093020174
 20
47.91857536087106
 30
0.0
 10
74.0648739821605
 20
47.91830622856361
 30
0.0
 10
74.04500012877972
 20
47.91777850017476
 30
0.0
 10
74.01570640336621
 20
47.91300880492156
 30
0.0
 10
73.98754209311525
 20
47.9056710332683
 30
0.0
 10
73.96048659841435
 20
47.89493047984651
 30
0.0
 10
73.93468750275095
 20
47.88145868538884
 30
0.0
 10
73.90996154761072
 20
47.86488015685693
 30
0.0
 10
73.88629166657064
 20
47.8454756087689
 30
0.0
 10
73.86427473001962
 20
47.82291820662356
 30
0.0
 10
73.8440802607802
 20
47.79859223538902
 30
0.0
 10
73.8260990674582
 20
47.77286590958389
 30
0.0
 10
73.81099967328423
 20
47.74582102893665
 30
0.0
 10
73.79906241203217
 20
47.71730327276555
 30
0.0
 10
73.78928551048988
 20
47.68771191193919
 30
0.0
 10
73.78240066137604
 20
47.65682120395284
 30
0.0
 10
73.77850937473029
 20
47.62460400671122
 30
0.0
 10
73.777862955362
 20
47.60278035474061
 30
0.0
 10
73.77753334047894
 20
47.59165228394799
 30
0.0
  0
SPLINE
  5
D7
330
1F
100
AcDbEntity
  8
0
  6
Continuous
 62
     7
370
    25
100
AcDbSpline
210
0.0
220
0.0
230
1.0
 70
     8
 71
     3
 72
    23
 73
    19
 74
     0
 42
0.000000001
 43
0.00000001
 40
0.0
 40
0.0
 40
0.0
 40
0.0
 40
0.0705921865358071
 40
0.1385012886049299
 40
0.2037899961427012
 40
0.266787572669601
 40
0.3290979656467183
 40
0.3911745246039658
 40
0.4531677986176573
 40
0.5157967602265844
 40
0.5779688050530403
 40
0.6389663383752914
 40
0.698381066162843
 40
0.7573204555574266
 40
0.8164122397216688
 40
0.876279358230831
 40
0.936823465650193
 40
1.0
 40
1.0
 40
1.0
 40
1.0
 10
74.37368718663281
 20
47.60337103394799
 30
0.0
 10
74.37334932217819
 20
47.6147973517858
 30
0.0
 10
74.37268643490084
 20
47.6372156932795
 30
0.0
 10
74.36894244278189
 20
47.67006514949473
 30
0.0
 10
74.36184860416148
 20
47.70107108318043
 30
0.0
 10
74.35267256060521
 20
47.73058763266457
 30
0.0
 10
74.3401787352084
 20
47.75830715801207
 30
0.0
 10
74.32518260266407
 20
47.78454585664041
 30
0.0
 10
74.30735318139128
 20
47.80904336458733
 30
0.0
 10
74.28688926505522
 20
47.83136946311952
 30
0.0
 10
74.26481151077535
 20
47.85187033555387
 30
0.0
 10
74.24102258703668
 20
47.86950443362883
 30
0.0
 10
74.2162492870559
 20
47.88473219473716
 30
0.0
 10
74.19025877187205
 20
47.89710909544013
 30
0.0
 10
74.16306771339737
 20
47.906747973738
 30
0.0
 10
74.13479938254129
 20
47.91372000668068
 30
0.0
 10
74.10526470178624
 20
47.91760020588053
 30
0.0
 10
74.08523648330744
 20
47.9182457308893
 30
0.0
 10
74.0750093020174
 20
47.91857536087106
 30
0.0
  0
LINE
  5
D8
330
1F
100
AcDbEntity
  8
0
  6
Continuous
 62
     7
370
    25
100
AcDbLine
 10
58.5621487251
 20
48.4828688767
 30
0.0
 11
58.5621487251
 21
55.4828688767
 31
0.0
  0
LINE
  5
D9
330
1F
100
AcDbEntity
  8
0
  6
Continuous
 62
     7
370
    25
100
AcDbLine
 10
58.5621487251
 20
41.4828688767
 30
0.0
 11
58.5621487251
 21
48.4828688767
 31
0.0
  0
LINE
  5
DA
330
1F
100
AcDbEntity
  8
0
  6
Continuous
 62
     7
370
    25
100
AcDbLine
 10
83.5621487251
 20
56.4828688767
 30
0.0
 11
83.5621487251
 21
40.4828688767
 31
0.0
  0
LINE
  5
DB
330
1F
100
AcDbEntity
  8
0
  6
Continuous
 62
     7
370
    25
100
AcDbLine
 10
88.5621487251
 20
56.4828688767
 30
0.0
 11
88.5621487251
 21
40.4828688767
 31
0.0
  0
LINE
  5
DC
330
1F
100
AcDbEntity
  8
0
  6
Continuous
 62
     7
370
    25
100
AcDbLine
 10
98.5621487251
 20
56.4828688767
 30
0.0
 11
98.5621487251
 21
40.4828688767
 31
0.0
  0
LINE
  5
DD
330
1F
100
AcDbEntity
  8
0
  6
Continuous
 62
     7
370
    25
100
AcDbLine
 10
93.5621487251
 20
56.4828688767
 30
0.0
 11
93.5621487251
 21
40.4828688767
 31
0.0
  0
LINE
  5
DE
330
1F
100
AcDbEntity
  8
0
  6
Continuous
 62
     7
370
    25
100
AcDbLine
 10
104.5621487251
 20
55.0593053325
 30
0.0
 11
104.5621487251
 21
41.9064324231
 31
0.0
  0
LINE
  5
DF
330
1F
100
AcDbEntity
  8
0
  6
Continuous
 62
     7
370
    25
100
AcDbLine
 10
74.4787757378
 20
38.9679143005
 30
0.0
 11
74.4787757378
 21
38.9836421525
 31
0.0
  0
LINE
  5
E0
330
1F
100
AcDbEntity
  8
0
  6
Continuous
 62
     7
370
    25
100
AcDbLine
 10
74.4787757378
 20
57.9820956009
 30
0.0
 11
74.4787757378
 21
57.9978234529
 31
0.0
  0
LINE
  5
E1
330
1F
100
AcDbEntity
  8
0
  6
Continuous
 62
     8
370
    25
100
AcDbLine
 10
104.1443482187
 20
41.4132354589
 30
0.0
 11
104.1443482187
 21
55.5525022944
 31
0.0
  0
LINE
  5
E2
330
1F
100
AcDbEntity
  8
0
  6
Continuous
 62
     7
370
    18
100
AcDbLine
 10
59.4319523615
 20
55.9850502403
 30
0.0
 11
71.0621487251
 21
56.3484938767
 31
0.0
  0
LINE
  5
E3
330
1F
100
AcDbEntity
  8
0
  6
Continuous
 62
     7
370
    18
100
AcDbLine
 10
59.4319523615
 20
40.980687513
 30
0.0
 11
71.0621487251
 21
40.6172438767
 31
0.0
  0
LINE
  5
E4
330
1F
100
AcDbEntity
  8
0
  6
Continuous
 62
     7
370
    18
100
AcDbLine
 10
71.0621487251
 20
39.9596813767
 30
0.0
 11
71.0621487251
 21
57.0060563767
 31
0.0
  0
LINE
  5
E5
330
1F
100
AcDbEntity
  8
0
  6
CENTERX2
 62
     7
370
    18
100
AcDbLine
 10
105.5621487251
 20
48.4828688767
 30
0.0
 11
57.2589350621
 21
48.4828688767
 31
0.0
  0
CIRCLE
  5
E6
330
1F
100
AcDbEntity
  8
0
  6
Continuous
 62
     7
370
    25
100
AcDbCircle
 10
124.4666682301
 20
48.4828688767
 30
0.0
 40
6.576436455808484
  0
CIRCLE
  5
E7
330
1F
100
AcDbEntity
  8
0
  6
Continuous
 62
     7
370
    25
100
AcDbCircle
 10
124.4666682301
 20
48.4828688767
 30
0.0
 40
7.069633417724553
  0
CIRCLE
  5
E8
330
1F
100
AcDbEntity
  8
0
  6
Continuous
 62
     7
370
    25
100
AcDbCircle
 10
124.4666682301
 20
48.4828688767
 30
0.0
 40
5.500000000000007
  0
CIRCLE
  5
E9
330
1F
100
AcDbEntity
  8
0
  6
Continuous
 62
     7
370
    25
100
AcDbCircle
 10
124.4666682301
 20
48.4828688767
 30
0.0
 40
4.999999999999972
  0
CIRCLE
  5
EA
330
1F
100
AcDbEntity
  8
0
  6
Continuous
 62
     7
370
    25
100
AcDbCircle
 10
124.4666682301
 20
48.4828688767
 30
0.0
 40
8.0
  0
SPLINE
  5
EB
330
1F
100
AcDbEntity
  8
0
  6
Continuous
 62
     7
370
    25
100
AcDbSpline
210
0.0
220
0.0
230
1.0
 70
    24
 71
     3
 72
    16
 73
    12
 74
     0
 42
0.000000001
 43
0.00000001
 40
0.0
 40
0.0
 40
0.0
 40
0.0
 40
0.25
 40
0.25
 40
0.5000000000000001
 40
0.5000000000000001
 40
0.6250000000000001
 40
0.6250000000000001
 40
0.7500000000000001
 40
0.7500000000000001
 40
1.0
 40
1.0
 40
1.0
 40
1.0
 10
132.9666682301275
 20
43.57539158856233
 30
0.0
 10
132.9666682301275
 20
44.37506699110511
 30
0.0
 10
132.9666682301274
 20
45.19213719504346
 30
0.0
 10
132.9666682301275
 20
46.8296446164701
 30
0.0
 10
132.9666682301275
 20
47.65396923885684
 30
0.0
 10
132.9666682301275
 20
48.90032459320388
 30
0.0
 10
132.9666682301275
 20
49.31859312735018
 30
0.0
 10
132.9666682301275
 20
50.15305442271656
 30
0.0
 10
132.9666682301274
 20
50.56594241799709
 30
0.0
 10
132.9666682301274
 20
51.7933973420371
 30
0.0
 10
132.9666682301274
 20
52.59683089129322
 30
0.0
 10
132.9666682301274
 20
53.39034616478599
 30
0.0
  0
SPLINE
  5
EC
330
1F
100
AcDbEntity
  8
0
  6
Continuous
 62
     7
370
    25
100
AcDbSpline
210
0.0
220
0.0
230
1.0
 70
    24
 71
     3
 72
    16
 73
    12
 74
     0
 42
0.000000001
 43
0.00000001
 40
0.0
 40
0.0
 40
0.0
 40
0.0
 40
0.2499999999999998
 40
0.2499999999999998
 40
0.4999999999999997
 40
0.4999999999999997
 40
0.6249999999999998
 40
0.6249999999999998
 40
0.7499999999999999
 40
0.7499999999999999
 40
1.0
 40
1.0
 40
1.0
 40
1.0
 10
124.4666682301274
 20
38.6679143004505
 30
0.0
 10
125.1606124911753
 20
39.06856320636908
 30
0.0
 10
125.8596162177195
 20
39.47213319605393
 30
0.0
 10
127.2722020081198
 20
40.28768998239502
 30
0.0
 10
127.9858924496982
 20
40.69973935095833
 30
0.0
 10
129.0698745684353
 20
41.32557671900793
 30
0.0
 10
129.4329019967541
 20
41.53517070247105
 30
0.0
 10
130.1510085596179
 20
41.94976971984728
 30
0.0
 10
130.507654296202
 20
42.15567923186946
 30
0.0
 10
131.5712419150578
 20
42.76974182992262
 30
0.0
 10
132.2718589476193
 20
43.17424326227081
 30
0.0
 10
132.9666682301275
 20
43.57539158856235
 30
0.0
  0
SPLINE
  5
ED
330
1F
100
AcDbEntity
  8
0
  6
Continuous
 62
     7
370
    25
100
AcDbSpline
210
0.0
220
0.0
230
1.0
 70
    24
 71
     3
 72
    16
 73
    12
 74
     0
 42
0.000000001
 43
0.00000001
 40
0.0
 40
0.0
 40
0.0
 40
0.0
 40
0.2500000000000001
 40
0.2500000000000001
 40
0.5000000000000001
 40
0.5000000000000001
 40
0.6250000000000001
 40
0.6250000000000001
 40
0.7500000000000002
 40
0.7500000000000002
 40
1.0
 40
1.0
 40
1.0
 40
1.0
 10
115.9666682301274
 20
43.57539158856237
 30
0.0
 10
116.6606124911753
 20
43.17474268264378
 30
0.0
 10
117.3596162177195
 20
42.77117269295893
 30
0.0
 10
118.7722020081198
 20
41.95561590661784
 30
0.0
 10
119.4858924496982
 20
41.54356653805453
 30
0.0
 10
120.5698745684353
 20
40.91772917000493
 30
0.0
 10
120.9329019967541
 20
40.70813518654181
 30
0.0
 10
121.6510085596179
 20
40.29353616916558
 30
0.0
 10
122.007654296202
 20
40.0876266571434
 30
0.0
 10
123.0712419150578
 20
39.47356405909024
 30
0.0
 10
123.7718589476193
 20
39.06906262674205
 30
0.0
 10
124.4666682301275
 20
38.66791430045051
 30
0.0
  0
SPLINE
  5
EE
330
1F
100
AcDbEntity
  8
0
  6
Continuous
 62
     7
370
    25
100
AcDbSpline
210
0.0
220
0.0
230
1.0
 70
    24
 71
     3
 72
    16
 73
    12
 74
     0
 42
0.000000001
 43
0.00000001
 40
0.0
 40
0.0
 40
0.0
 40
0.0
 40
0.25
 40
0.25
 40
0.5
 40
0.5
 40
0.625
 40
0.625
 40
0.75
 40
0.75
 40
1.0
 40
1.0
 40
1.0
 40
1.0
 10
115.9666682301274
 20
43.57539158856234
 30
0.0
 10
115.9666682301274
 20
44.37506699110211
 30
0.0
 10
115.9666682301274
 20
45.19213719504246
 30
0.0
 10
115.9666682301274
 20
46.82964461650035
 30
0.0
 10
115.9666682301274
 20
47.65396923891109
 30
0.0
 10
115.9666682301274
 20
48.90032459330958
 30
0.0
 10
115.9666682301274
 20
49.31859312750738
 30
0.0
 10
115.9666682301274
 20
50.1530544228175
 30
0.0
 10
115.9666682301274
 20
50.56594241807552
 30
0.0
 10
115.9666682301274
 20
51.79339734206174
 30
0.0
 10
115.9666682301274
 20
52.59683089130008
 30
0.0
 10
115.9666682301274
 20
53.39034616478599
 30
0.0
  0
SPLINE
  5
EF
330
1F
100
AcDbEntity
  8
0
  6
Continuous
 62
     7
370
    25
100
AcDbSpline
210
0.0
220
0.0
230
1.0
 70
    24
 71
     3
 72
    16
 73
    12
 74
     0
 42
0.000000001
 43
0.00000001
 40
0.0
 40
0.0
 40
0.0
 40
0.0
 40
0.2500000000000002
 40
0.2500000000000002
 40
0.5000000000000004
 40
0.5000000000000004
 40
0.6250000000000003
 40
0.6250000000000003
 40
0.7500000000000002
 40
0.7500000000000002
 40
1.0
 40
1.0
 40
1.0
 40
1.0
 10
124.4666682301275
 20
58.29782345289784
 30
0.0
 10
123.7727239690796
 20
57.89717454697925
 30
0.0
 10
123.0737202425354
 20
57.4936045572944
 30
0.0
 10
121.6611344521351
 20
56.67804777095331
 30
0.0
 10
120.9474440105567
 20
56.26599840239
 30
0.0
 10
119.8634618918196
 20
55.64016103434039
 30
0.0
 10
119.5004344635007
 20
55.43056705087727
 30
0.0
 10
118.782327900637
 20
55.01596803350104
 30
0.0
 10
118.4256821640529
 20
54.81005852147887
 30
0.0
 10
117.362094545197
 20
54.19599592342571
 30
0.0
 10
116.6614775126356
 20
53.79149449107752
 30
0.0
 10
115.9666682301274
 20
53.39034616478597
 30
0.0
  0
SPLINE
  5
F0
330
1F
100
AcDbEntity
  8
0
  6
Continuous
 62
     7
370
    25
100
AcDbSpline
210
0.0
220
0.0
230
1.0
 70
    24
 71
     3
 72
    16
 73
    12
 74
     0
 42
0.000000001
 43
0.00000001
 40
0.0
 40
0.0
 40
0.0
 40
0.0
 40
0.2499999999999998
 40
0.2499999999999998
 40
0.4999999999999996
 40
0.4999999999999996
 40
0.6249999999999994
 40
0.6249999999999994
 40
0.7499999999999996
 40
0.7499999999999996
 40
1.0
 40
1.0
 40
1.0
 40
1.0
 10
132.9666682301275
 20
53.39034616478595
 30
0.0
 10
132.2727239690796
 20
53.79099507070455
 30
0.0
 10
131.5737202425354
 20
54.1945650603894
 30
0.0
 10
130.1611344521351
 20
55.01012184673048
 30
0.0
 10
129.4474440105567
 20
55.4221712152938
 30
0.0
 10
128.3634618918196
 20
56.0480085833434
 30
0.0
 10
128.0004344635007
 20
56.25760256680653
 30
0.0
 10
127.282327900637
 20
56.67220158418275
 30
0.0
 10
126.9256821640529
 20
56.87811109620493
 30
0.0
 10
125.862094545197
 20
57.49217369425809
 30
0.0
 10
125.1614775126356
 20
57.89667512660626
 30
0.0
 10
124.4666682301274
 20
58.29782345289782
 30
0.0
  0
CIRCLE
  5
F1
330
1F
100
AcDbEntity
  8
0
  6
Continuous
 62
     7
370
    25
100
AcDbCircle
 10
124.4666682301
 20
48.4828688767
 30
0.0
 40
8.25
  0
INSERT
  5
FD
330
1F
100
AcDbEntity
  8
0
  6
Continuous
 62
     7
370
    18
100
AcDbBlockReference
  2
SW_CENTERMARKSYMBOL_0
 10
124.4666682301
 20
48.4828688767
 30
0.0
  0
INSERT
  5
109
330
1F
100
AcDbEntity
  8
0
  6
Continuous
 62
     7
370
    18
100
AcDbBlockReference
  2
SW_CENTERMARKSYMBOL_1
 10
124.4666682301
 20
48.4828688767
 30
0.0
  0
LINE
  5
10A
330
1F
100
AcDbEntity
  8
0
  6
Continuous
 62
     7
370
    25
100
AcDbLine
 10
77.4178111578
 20
68.0250384878
 30
0.0
 11
77.5621487251
 21
68.2750384878
 31
0.0
  0
LINE
  5
10B
330
1F
100
AcDbEntity
  8
0
  6
Continuous
 62
     7
370
    25
100
AcDbLine
 10
77.5621487251
 20
84.7750384878
 30
0.0
 11
77.4178111578
 21
85.0250384878
 31
0.0
  0
LINE
  5
10C
330
1F
100
AcDbEntity
  8
0
  6
Continuous
 62
     7
370
    25
100
AcDbLine
 10
71.5621487251
 20
85.0638509878
 30
0.0
 11
60.6360581588
 21
84.7224106576
 31
0.0
  0
LINE
  5
10D
330
1F
100
AcDbEntity
  8
0
  6
Continuous
 62
     7
370
    25
100
AcDbLine
 10
60.6360581588
 20
68.327666318
 30
0.0
 11
71.5621487251
 21
67.9862259878
 31
0.0
  0
LINE
  5
10E
330
1F
100
AcDbEntity
  8
0
  6
Continuous
 62
     7
370
    25
100
AcDbLine
 10
60.6360581588
 20
84.7224106576
 30
0.0
 11
58.5621487251
 21
83.5250384878
 31
0.0
  0
LINE
  5
10F
330
1F
100
AcDbEntity
  8
0
  6
Continuous
 62
     7
370
    25
100
AcDbLine
 10
58.5621487251
 20
69.5250384878
 30
0.0
 11
60.6360581588
 21
68.327666318
 31
0.0
  0
LINE
  5
110
330
1F
100
AcDbEntity
  8
0
  6
Continuous
 62
     7
370
    25
100
AcDbLine
 10
98.5621487251
 20
68.5250384878
 30
0.0
 11
104.1443482187
 21
69.4554050701
 31
0.0
  0
LINE
  5
111
330
1F
100
AcDbEntity
  8
0
  6
Continuous
 62
     7
370
    25
100
AcDbLine
 10
104.1443482187
 20
83.5946719055
 30
0.0
 11
98.5621487251
 21
84.5250384878
 31
0.0
  0
LINE
  5
112
330
1F
100
AcDbEntity
  8
0
  6
Continuous
 62
     7
370
    25
100
AcDbLine
 10
88.5621487251
 20
68.5250384878
 30
0.0
 11
93.5621487251
 21
69.5250384878
 31
0.0
  0
LINE
  5
113
330
1F
100
AcDbEntity
  8
0
  6
Continuous
 62
     7
370
    25
100
AcDbLine
 10
93.5621487251
 20
83.5250384878
 30
0.0
 11
88.5621487251
 21
84.5250384878
 31
0.0
  0
LINE
  5
114
330
1F
100
AcDbEntity
  8
0
  6
Continuous
 62
     7
370
    25
100
AcDbLine
 10
93.5621487251
 20
68.5250384878
 30
0.0
 11
98.5621487251
 21
69.5250384878
 31
0.0
  0
LINE
  5
115
330
1F
100
AcDbEntity
  8
0
  6
Continuous
 62
     7
370
    25
100
AcDbLine
 10
98.5621487251
 20
83.5250384878
 30
0.0
 11
93.5621487251
 21
84.5250384878
 31
0.0
  0
LINE
  5
116
330
1F
100
AcDbEntity
  8
0
  6
Continuous
 62
     7
370
    25
100
AcDbLine
 10
83.5621487251
 20
68.5250384878
 30
0.0
 11
88.5621487251
 21
69.5250384878
 31
0.0
  0
LINE
  5
117
330
1F
100
AcDbEntity
  8
0
  6
Continuous
 62
     7
370
    25
100
AcDbLine
 10
88.5621487251
 20
83.5250384878
 30
0.0
 11
83.5621487251
 21
84.5250384878
 31
0.0
  0
LINE
  5
118
330
1F
100
AcDbEntity
  8
0
  6
Continuous
 62
     7
370
    25
100
AcDbLine
 10
83.5621487251
 20
84.5250384878
 30
0.0
 11
77.5621487251
 21
84.5250384878
 31
0.0
  0
LINE
  5
119
330
1F
100
AcDbEntity
  8
0
  6
Continuous
 62
     7
370
    25
100
AcDbLine
 10
77.5621487251
 20
68.5250384878
 30
0.0
 11
83.5621487251
 21
68.5250384878
 31
0.0
  0
ARC
  5
11A
330
1F
100
AcDbEntity
  8
0
  6
Continuous
 62
     7
370
    25
100
AcDbCircle
 10
104.0621487251
 20
83.1014749436
 30
0.0
 40
0.5000000000000098
100
AcDbArc
 50
0.0
 51
80.537677792
  0
ARC
  5
11B
330
1F
100
AcDbEntity
  8
0
  6
Continuous
 62
     7
370
    25
100
AcDbCircle
 10
104.0621487251
 20
69.948602032
 30
0.0
 40
0.5000000000000098
100
AcDbArc
 50
279.462322208
 51
0.0
  0
LINE
  5
11C
330
1F
100
AcDbEntity
  8
0
  6
Continuous
 62
     7
370
    25
100
AcDbLine
 10
74.3983909801
 20
76.5250384878
 30
0.0
 11
72.2989296963
 21
76.5250384878
 31
0.0
  0
SPLINE
  5
11D
330
1F
100
AcDbEntity
  8
0
  6
Continuous
 62
     7
370
    25
100
AcDbSpline
210
0.0
220
0.0
230
1.0
 70
     8
 71
     3
 72
    10
 73
     6
 74
     0
 42
0.000000001
 43
0.00000001
 40
0.0
 40
0.0
 40
0.0
 40
0.0
 40
0.5
 40
0.5
 40
1.0
 40
1.0
 40
1.0
 40
1.0
 10
72.29892969632627
 20
76.5250384878069
 30
0.0
 10
72.10499459624518
 20
77.10684378805014
 30
0.0
 10
71.93862274444982
 20
77.69607112859195
 30
0.0
 10
71.68637595657862
 20
78.87769847517353
 30
0.0
 10
71.6001607234428
 20
79.47208078692884
 30
0.0
 10
71.56214872509435
 20
80.07077349320818
 30
0.0
  0
SPLINE
  5
11E
330
1F
100
AcDbEntity
  8
0
  6
Continuous
 62
     7
370
    25
100
AcDbSpline
210
0.0
220
0.0
230
1.0
 70
     8
 71
     3
 72
    12
 73
     8
 74
     0
 42
0.000000001
 43
0.00000001
 40
0.0
 40
0.0
 40
0.0
 40
0.0
 40
0.2499999999999999
 40
0.2499999999999999
 40
0.4999999999999999
 40
0.4999999999999999
 40
1.0
 40
1.0
 40
1.0
 40
1.0
 10
71.56214872509433
 20
81.47930348240561
 30
0.0
 10
71.5813425789745
 20
81.7816085656086
 30
0.0
 10
71.61305860225036
 20
82.0854230648127
 30
0.0
 10
71.69853631703127
 20
82.68538108379478
 30
0.0
 10
71.75231363458181
 20
82.98279034227073
 30
0.0
 10
71.94236087271281
 20
83.86833320576892
 30
0.0
 10
72.10718963967338
 20
84.44981831784824
 30
0.0
 10
72.29892969632627
 20
85.0250384878069
 30
0.0
  0
LINE
  5
11F
330
1F
100
AcDbEntity
  8
0
  6
Continuous
 62
     7
370
    25
100
AcDbLine
 10
74.3983909801
 20
85.0250384878
 30
0.0
 11
72.2989296963
 21
85.0250384878
 31
0.0
  0
SPLINE
  5
120
330
1F
100
AcDbEntity
  8
0
  6
Continuous
 62
     7
370
    25
100
AcDbSpline
210
0.0
220
0.0
230
1.0
 70
     8
 71
     3
 72
     8
 73
     4
 74
     0
 42
0.000000001
 43
0.00000001
 40
0.0
 40
0.0
 40
0.0
 40
0.0
 40
1.0
 40
1.0
 40
1.0
 40
1.0
 10
74.47877573778418
 20
84.47818180675897
 30
0.0
 10
74.453401104625
 20
84.66067420654008
 30
0.0
 10
74.42655970341823
 20
84.84295299761729
 30
0.0
 10
74.39839098005486
 20
85.0250384878069
 30
0.0
  0
SPLINE
  5
121
330
1F
100
AcDbEntity
  8
0
  6
Continuous
 62
     7
370
    25
100
AcDbSpline
210
0.0
220
0.0
230
1.0
 70
     8
 71
     3
 72
     8
 73
     4
 74
     0
 42
0.000000001
 43
0.00000001
 40
0.0
 40
0.0
 40
0.0
 40
0.0
 40
1.0
 40
1.0
 40
1.0
 40
1.0
 10
74.55916049551352
 20
85.0250384878069
 30
0.0
 10
74.53097918969034
 20
84.84287166331866
 30
0.0
 10
74.50413866369563
 20
84.66059000891956
 30
0.0
 10
74.47877573778418
 20
84.47818180675897
 30
0.0
  0
LINE
  5
122
330
1F
100
AcDbEntity
  8
0
  6
Continuous
 62
     7
370
    25
100
AcDbLine
 10
76.6586217792
 20
85.0250384878
 30
0.0
 11
74.5591604955
 21
85.0250384878
 31
0.0
  0
SPLINE
  5
123
330
1F
100
AcDbEntity
  8
0
  6
Continuous
 62
     7
370
    25
100
AcDbSpline
210
0.0
220
0.0
230
1.0
 70
     8
 71
     3
 72
    16
 73
    12
 74
     0
 42
0.000000001
 43
0.00000001
 40
0.0
 40
0.0
 40
0.0
 40
0.0
 40
0.2499999999999998
 40
0.2499999999999998
 40
0.4999999999999996
 40
0.4999999999999996
 40
0.6249999999999994
 40
0.6249999999999994
 40
0.7499999999999996
 40
0.7499999999999996
 40
1.0
 40
1.0
 40
1.0
 40
1.0
 10
76.65862177924251
 20
85.02503848780694
 30
0.0
 10
76.88993653292513
 20
84.33109422675906
 30
0.0
 10
77.08058182625557
 20
83.63209050021486
 30
0.0
 10
77.34468748266288
 20
82.2195047098145
 30
0.0
 10
77.41727667397684
 20
81.50581426823616
 30
0.0
 10
77.41807392006778
 20
80.42183214949907
 30
0.0
 10
77.40032866344434
 20
80.0588047211802
 30
0.0
 10
77.33113157991455
 20
79.34069815831643
 30
0.0
 10
77.27974997385228
 20
78.98405242173231
 30
0.0
 10
77.08134197511565
 20
77.9204648028765
 30
0.0
 10
76.8902248734117
 20
77.21984777031506
 30
0.0
 10
76.65862177924231
 20
76.52503848780687
 30
0.0
  0
LINE
  5
124
330
1F
100
AcDbEntity
  8
0
  6
Continuous
 62
     7
370
    25
100
AcDbLine
 10
76.6586217792
 20
76.5250384878
 30
0.0
 11
74.5591604955
 21
76.5250384878
 31
0.0
  0
SPLINE
  5
125
330
1F
100
AcDbEntity
  8
0
  6
Continuous
 62
     7
370
    25
100
AcDbSpline
210
0.0
220
0.0
230
1.0
 70
     8
 71
     3
 72
     8
 73
     4
 74
     0
 42
0.000000001
 43
0.00000001
 40
0.0
 40
0.0
 40
0.0
 40
0.0
 40
1.0
 40
1.0
 40
1.0
 40
1.0
 10
74.47877573778418
 20
77.07189516885482
 30
0.0
 10
74.50415037094336
 20
76.88940276907371
 30
0.0
 10
74.53099177215014
 20
76.70712397799649
 30
0.0
 10
74.55916049551352
 20
76.5250384878069
 30
0.0
  0
SPLINE
  5
126
330
1F
100
AcDbEntity
  8
0
  6
Continuous
 62
     7
370
    25
100
AcDbSpline
210
0.0
220
0.0
230
1.0
 70
     8
 71
     3
 72
     8
 73
     4
 74
     0
 42
0.000000001
 43
0.00000001
 40
0.0
 40
0.0
 40
0.0
 40
0.0
 40
1.0
 40
1.0
 40
1.0
 40
1.0
 10
74.39839098005486
 20
76.5250384878069
 30
0.0
 10
74.42657228587801
 20
76.70720531229512
 30
0.0
 10
74.45341281187274
 20
76.88948696669425
 30
0.0
 10
74.47877573778418
 20
77.07189516885482
 30
0.0
  0
SPLINE
  5
127
330
1F
100
AcDbEntity
  8
0
  6
Continuous
 62
     7
370
    25
100
AcDbSpline
210
0.0
220
0.0
230
1.0
 70
    24
 71
     3
 72
    12
 73
     8
 74
     0
 42
0.000000001
 43
0.00000001
 40
0.0
 40
0.0
 40
0.0
 40
0.0
 40
0.2209517138703545
 40
0.4142476998986578
 40
0.6082245850609483
 40
0.8039007034748112
 40
1.0
 40
1.0
 40
1.0
 40
1.0
 10
77.41057692447852
 20
85.0250384878069
 30
0.0
 10
77.40576608212811
 20
85.0250384878069
 30
0.0
 10
77.39674655318525
 20
85.0250384878069
 30
0.0
 10
77.28414092432175
 20
85.0250384878069
 30
0.0
 10
77.12665146663853
 20
85.0250384878069
 30
0.0
 10
76.91899596736843
 20
85.0250384878069
 30
0.0
 10
76.74547565155396
 20
85.0250384878069
 30
0.0
 10
76.6586217792421
 20
85.0250384878069
 30
0.0
  0
SPLINE
  5
128
330
1F
100
AcDbEntity
  8
0
  6
Continuous
 62
     7
370
    25
100
AcDbSpline
210
0.0
220
0.0
230
1.0
 70
    24
 71
     3
 72
    12
 73
     8
 74
     0
 42
0.000000001
 43
0.00000001
 40
0.0
 40
0.0
 40
0.0
 40
0.0
 40
0.1936013663636587
 40
0.3875698381939612
 40
0.5829791150326125
 40
0.7790445032423136
 40
1.0
 40
1.0
 40
1.0
 40
1.0
 10
76.6586217792421
 20
68.02503848780688
 30
0.0
 10
76.74441354098532
 20
68.02503848780688
 30
0.0
 10
76.9161597421704
 20
68.02503848780688
 30
0.0
 10
77.12360031303342
 20
68.02503848780688
 30
0.0
 10
77.2828401756444
 20
68.02503848780688
 30
0.0
 10
77.39629162441305
 20
68.02503848780688
 30
0.0
 10
77.40663906034763
 20
68.02503848780688
 30
0.0
 10
77.41212157436433
 20
68.02503848780688
 30
0.0
  0
SPLINE
  5
129
330
1F
100
AcDbEntity
  8
0
  6
Continuous
 62
     7
370
    25
100
AcDbSpline
210
0.0
220
0.0
230
1.0
 70
     8
 71
     3
 72
    16
 73
    12
 74
     0
 42
0.000000001
 43
0.00000001
 40
0.0
 40
0.0
 40
0.0
 40
0.0
 40
0.2500000000000002
 40
0.2500000000000002
 40
0.5000000000000004
 40
0.5000000000000004
 40
0.6250000000000003
 40
0.6250000000000003
 40
0.7500000000000002
 40
0.7500000000000002
 40
1.0
 40
1.0
 40
1.0
 40
1.0
 10
76.6586217792425
 20
76.52503848780695
 30
0.0
 10
76.88993653292512
 20
75.83109422675908
 30
0.0
 10
77.08058182625557
 20
75.13209050021486
 30
0.0
 10
77.34468748266288
 20
73.7195047098145
 30
0.0
 10
77.41727667397684
 20
73.00581426823615
 30
0.0
 10
77.41807392006778
 20
71.92183214949907
 30
0.0
 10
77.40032866344434
 20
71.55880472118021
 30
0.0
 10
77.33113157991455
 20
70.84069815831643
 30
0.0
 10
77.27974997385228
 20
70.48405242173231
 30
0.0
 10
77.08134197511565
 20
69.4204648028765
 30
0.0
 10
76.8902248734117
 20
68.71984777031504
 30
0.0
 10
76.65862177924231
 20
68.02503848780687
 30
0.0
  0
LINE
  5
12A
330
1F
100
AcDbEntity
  8
0
  6
Continuous
 62
     7
370
    25
100
AcDbLine
 10
77.5621487251
 20
84.7750384878
 30
0.0
 11
77.5621487251
 21
68.2750384878
 31
0.0
  0
SPLINE
  5
12B
330
1F
100
AcDbEntity
  8
0
  6
Continuous
 62
     7
370
    25
100
AcDbSpline
210
0.0
220
0.0
230
1.0
 70
     8
 71
     3
 72
    12
 73
     8
 74
     0
 42
0.000000001
 43
0.00000001
 40
0.0
 40
0.0
 40
0.0
 40
0.0
 40
0.2500000000000001
 40
0.2500000000000001
 40
0.5000000000000002
 40
0.5000000000000002
 40
1.0
 40
1.0
 40
1.0
 40
1.0
 10
71.56214872509435
 20
72.97930348240563
 30
0.0
 10
71.5813425789745
 20
73.28160856560858
 30
0.0
 10
71.61305860225036
 20
73.58542306481269
 30
0.0
 10
71.69853631703127
 20
74.18538108379477
 30
0.0
 10
71.75231363458181
 20
74.48279034227073
 30
0.0
 10
71.94236087271281
 20
75.36833320576892
 30
0.0
 10
72.10718963967338
 20
75.94981831784824
 30
0.0
 10
72.29892969632627
 20
76.5250384878069
 30
0.0
  0
LINE
  5
12C
330
1F
100
AcDbEntity
  8
0
  6
Continuous
 62
     7
370
    25
100
AcDbLine
 10
71.5621487251
 20
72.9793034824
 30
0.0
 11
71.5621487251
 21
80.0707734932
 31
0.0
  0
LINE
  5
12D
330
1F
100
AcDbEntity
  8
0
  6
Continuous
 62
     7
370
    25
100
AcDbLine
 10
74.4787757378
 20
75.9781818068
 30
0.0
 11
74.4787757378
 21
77.0718951689
 31
0.0
  0
SPLINE
  5
12E
330
1F
100
AcDbEntity
  8
0
  6
Continuous
 62
     7
370
    25
100
AcDbSpline
210
0.0
220
0.0
230
1.0
 70
     8
 71
     3
 72
     8
 73
     4
 74
     0
 42
0.000000001
 43
0.00000001
 40
0.0
 40
0.0
 40
0.0
 40
0.0
 40
1.0
 40
1.0
 40
1.0
 40
1.0
 10
74.47877573778418
 20
75.97818180675897
 30
0.0
 10
74.453401104625
 20
76.1606742065401
 30
0.0
 10
74.42655970341823
 20
76.3429529976173
 30
0.0
 10
74.39839098005486
 20
76.5250384878069
 30
0.0
  0
SPLINE
  5
12F
330
1F
100
AcDbEntity
  8
0
  6
Continuous
 62
     7
370
    25
100
AcDbSpline
210
0.0
220
0.0
230
1.0
 70
     8
 71
     3
 72
     8
 73
     4
 74
     0
 42
0.000000001
 43
0.00000001
 40
0.0
 40
0.0
 40
0.0
 40
0.0
 40
1.0
 40
1.0
 40
1.0
 40
1.0
 10
74.55916049551352
 20
76.5250384878069
 30
0.0
 10
74.53097918969036
 20
76.34287166331868
 30
0.0
 10
74.50413866369563
 20
76.16059000891956
 30
0.0
 10
74.47877573778418
 20
75.97818180675897
 30
0.0
  0
LINE
  5
130
330
1F
100
AcDbEntity
  8
0
  6
Continuous
 62
     7
370
    25
100
AcDbLine
 10
74.3983909801
 20
68.0250384878
 30
0.0
 11
72.2989296963
 21
68.0250384878
 31
0.0
  0
SPLINE
  5
131
330
1F
100
AcDbEntity
  8
0
  6
Continuous
 62
     7
370
    25
100
AcDbSpline
210
0.0
220
0.0
230
1.0
 70
     8
 71
     3
 72
    10
 73
     6
 74
     0
 42
0.000000001
 43
0.00000001
 40
0.0
 40
0.0
 40
0.0
 40
0.0
 40
0.5
 40
0.5
 40
1.0
 40
1.0
 40
1.0
 40
1.0
 10
72.29892969632627
 20
68.02503848780688
 30
0.0
 10
72.10499459624518
 20
68.60684378805014
 30
0.0
 10
71.93862274444982
 20
69.19607112859194
 30
0.0
 10
71.68637595657862
 20
70.37769847517353
 30
0.0
 10
71.6001607234428
 20
70.97208078692883
 30
0.0
 10
71.56214872509435
 20
71.57077349320818
 30
0.0
  0
LINE
  5
132
330
1F
100
AcDbEntity
  8
0
  6
Continuous
 62
     7
370
    25
100
AcDbLine
 10
76.6586217792
 20
68.0250384878
 30
0.0
 11
74.5591604955
 21
68.0250384878
 31
0.0
  0
SPLINE
  5
133
330
1F
100
AcDbEntity
  8
0
  6
Continuous
 62
     7
370
    25
100
AcDbSpline
210
0.0
220
0.0
230
1.0
 70
     8
 71
     3
 72
     8
 73
     4
 74
     0
 42
0.000000001
 43
0.00000001
 40
0.0
 40
0.0
 40
0.0
 40
0.0
 40
1.0
 40
1.0
 40
1.0
 40
1.0
 10
74.47877573778418
 20
68.57189516885482
 30
0.0
 10
74.50415037094336
 20
68.38940276907371
 30
0.0
 10
74.53099177215014
 20
68.2071239779965
 30
0.0
 10
74.55916049551352
 20
68.02503848780688
 30
0.0
  0
SPLINE
  5
134
330
1F
100
AcDbEntity
  8
0
  6
Continuous
 62
     7
370
    25
100
AcDbSpline
210
0.0
220
0.0
230
1.0
 70
     8
 71
     3
 72
     8
 73
     4
 74
     0
 42
0.000000001
 43
0.00000001
 40
0.0
 40
0.0
 40
0.0
 40
0.0
 40
1.0
 40
1.0
 40
1.0
 40
1.0
 10
74.39839098005486
 20
68.02503848780688
 30
0.0
 10
74.42657228587801
 20
68.20720531229512
 30
0.0
 10
74.45341281187274
 20
68.38948696669424
 30
0.0
 10
74.47877573778418
 20
68.57189516885482
 30
0.0
  0
LINE
  5
135
330
1F
100
AcDbEntity
  8
0
  6
Continuous
 62
     7
370
    25
100
AcDbLine
 10
60.6360581588
 20
84.7224106576
 30
0.0
 11
60.6360581588
 21
68.327666318
 31
0.0
  0
LINE
  5
136
330
1F
100
AcDbEntity
  8
0
  6
Continuous
 62
     7
370
    25
100
AcDbLine
 10
71.5621487251
 20
67.9862259878
 30
0.0
 11
71.5621487251
 21
68.0250384878
 31
0.0
  0
LINE
  5
137
330
1F
100
AcDbEntity
  8
0
  6
Continuous
 62
     7
370
    25
100
AcDbLine
 10
71.5621487251
 20
85.0250384878
 30
0.0
 11
71.5621487251
 21
85.0638509878
 31
0.0
  0
LINE
  5
138
330
1F
100
AcDbEntity
  8
0
  6
Continuous
 62
     7
370
    25
100
AcDbLine
 10
71.5621487251
 20
81.4793034824
 30
0.0
 11
71.5621487251
 21
85.0250384878
 31
0.0
  0
LINE
  5
139
330
1F
100
AcDbEntity
  8
0
  6
Continuous
 62
     7
370
    25
100
AcDbLine
 10
71.5621487251
 20
80.0707734932
 30
0.0
 11
71.5621487251
 21
81.4793034824
 31
0.0
  0
LINE
  5
13A
330
1F
100
AcDbEntity
  8
0
  6
Continuous
 62
     7
370
    25
100
AcDbLine
 10
71.5621487251
 20
71.5707734932
 30
0.0
 11
71.5621487251
 21
72.9793034824
 31
0.0
  0
LINE
  5
13B
330
1F
100
AcDbEntity
  8
0
  6
Continuous
 62
     7
370
    25
100
AcDbLine
 10
71.5621487251
 20
68.0250384878
 30
0.0
 11
71.5621487251
 21
71.5707734932
 31
0.0
  0
LINE
  5
13C
330
1F
100
AcDbEntity
  8
0
  6
Continuous
 62
     7
370
    25
100
AcDbLine
 10
58.5621487251
 20
69.5250384878
 30
0.0
 11
58.5621487251
 21
83.5250384878
 31
0.0
  0
LINE
  5
13D
330
1F
100
AcDbEntity
  8
0
  6
Continuous
 62
     7
370
    25
100
AcDbLine
 10
98.5621487251
 20
76.5250384878
 30
0.0
 11
98.5621487251
 21
68.5250384878
 31
0.0
  0
LINE
  5
13E
330
1F
100
AcDbEntity
  8
0
  6
Continuous
 62
     7
370
    25
100
AcDbLine
 10
98.5621487251
 20
84.5250384878
 30
0.0
 11
98.5621487251
 21
76.5250384878
 31
0.0
  0
LINE
  5
13F
330
1F
100
AcDbEntity
  8
0
  6
Continuous
 62
     7
370
    25
100
AcDbLine
 10
88.5621487251
 20
76.5250384878
 30
0.0
 11
88.5621487251
 21
68.5250384878
 31
0.0
  0
LINE
  5
140
330
1F
100
AcDbEntity
  8
0
  6
Continuous
 62
     7
370
    25
100
AcDbLine
 10
88.5621487251
 20
84.5250384878
 30
0.0
 11
88.5621487251
 21
76.5250384878
 31
0.0
  0
LINE
  5
141
330
1F
100
AcDbEntity
  8
0
  6
Continuous
 62
     7
370
    25
100
AcDbLine
 10
93.5621487251
 20
76.5250384878
 30
0.0
 11
93.5621487251
 21
68.5250384878
 31
0.0
  0
LINE
  5
142
330
1F
100
AcDbEntity
  8
0
  6
Continuous
 62
     7
370
    25
100
AcDbLine
 10
93.5621487251
 20
84.5250384878
 30
0.0
 11
93.5621487251
 21
76.5250384878
 31
0.0
  0
LINE
  5
143
330
1F
100
AcDbEntity
  8
0
  6
Continuous
 62
     7
370
    25
100
AcDbLine
 10
83.5621487251
 20
76.5250384878
 30
0.0
 11
83.5621487251
 21
68.5250384878
 31
0.0
  0
LINE
  5
144
330
1F
100
AcDbEntity
  8
0
  6
Continuous
 62
     7
370
    25
100
AcDbLine
 10
83.5621487251
 20
84.5250384878
 30
0.0
 11
83.5621487251
 21
76.5250384878
 31
0.0
  0
LINE
  5
145
330
1F
100
AcDbEntity
  8
0
  6
Continuous
 62
     7
370
    25
100
AcDbLine
 10
104.5621487251
 20
76.5250384878
 30
0.0
 11
104.5621487251
 21
69.948602032
 31
0.0
  0
LINE
  5
146
330
1F
100
AcDbEntity
  8
0
  6
Continuous
 62
     7
370
    25
100
AcDbLine
 10
104.5621487251
 20
83.1014749436
 30
0.0
 11
104.5621487251
 21
76.5250384878
 31
0.0
  0
SPLINE
  5
147
330
1F
100
AcDbEntity
  8
0
  6
Continuous
 62
     7
370
    25
100
AcDbSpline
210
0.0
220
0.0
230
1.0
 70
    24
 71
     3
 72
    10
 73
     6
 74
     0
 42
0.000000001
 43
0.00000001
 40
0.0
 40
0.0
 40
0.0
 40
0.0
 40
0.5
 40
0.5
 40
1.0
 40
1.0
 40
1.0
 40
1.0
 10
72.29892969632625
 20
85.0250384878069
 30
0.0
 10
72.10582302102236
 20
85.0250384878069
 30
0.0
 10
71.9387126818121
 20
85.0250384878069
 30
0.0
 10
71.68590394149038
 20
85.0250384878069
 30
0.0
 10
71.60001884219822
 20
85.0250384878069
 30
0.0
 10
71.56214872509435
 20
85.0250384878069
 30
0.0
  0
SPLINE
  5
148
330
1F
100
AcDbEntity
  8
0
  6
Continuous
 62
     7
370
    25
100
AcDbSpline
210
0.0
220
0.0
230
1.0
 70
    24
 71
     3
 72
    10
 73
     6
 74
     0
 42
0.000000001
 43
0.00000001
 40
0.0
 40
0.0
 40
0.0
 40
0.0
 40
0.5
 40
0.5
 40
1.0
 40
1.0
 40
1.0
 40
1.0
 10
71.56214872509435
 20
68.02503848780688
 30
0.0
 10
71.6001909557218
 20
68.02503848780688
 30
0.0
 10
71.68824398148573
 20
68.02503848780688
 30
0.0
 10
71.94230163524597
 20
68.02503848780688
 30
0.0
 10
72.10736822330678
 20
68.02503848780688
 30
0.0
 10
72.29892969632627
 20
68.02503848780688
 30
0.0
  0
LINE
  5
149
330
1F
100
AcDbEntity
  8
0
  6
Continuous
 62
     7
370
    25
100
AcDbLine
 10
74.4787757378
 20
84.4781818068
 30
0.0
 11
74.4787757378
 21
85.0250384878
 31
0.0
  0
SPLINE
  5
14A
330
1F
100
AcDbEntity
  8
0
  6
Continuous
 62
     7
370
    25
100
AcDbSpline
210
0.0
220
0.0
230
1.0
 70
    24
 71
     3
 72
     8
 73
     4
 74
     0
 42
0.000000001
 43
0.00000001
 40
0.0
 40
0.0
 40
0.0
 40
0.0
 40
1.0
 40
1.0
 40
1.0
 40
1.0
 10
74.47877573778418
 20
85.0250384878069
 30
0.0
 10
74.5041497683685
 20
85.0250384878069
 30
0.0
 10
74.5309911250855
 20
85.0250384878069
 30
0.0
 10
74.55916049551352
 20
85.0250384878069
 30
0.0
  0
SPLINE
  5
14B
330
1F
100
AcDbEntity
  8
0
  6
Continuous
 62
     7
370
    25
100
AcDbSpline
210
0.0
220
0.0
230
1.0
 70
    24
 71
     3
 72
     8
 73
     4
 74
     0
 42
0.000000001
 43
0.00000001
 40
0.0
 40
0.0
 40
0.0
 40
0.0
 40
1.0
 40
1.0
 40
1.0
 40
1.0
 10
74.39839098005486
 20
85.0250384878069
 30
0.0
 10
74.426574131947
 20
85.0250384878069
 30
0.0
 10
74.45341452774514
 20
85.0250384878069
 30
0.0
 10
74.47877573778418
 20
85.0250384878069
 30
0.0
  0
SPLINE
  5
14C
330
1F
100
AcDbEntity
  8
0
  6
Continuous
 62
     7
370
    25
100
AcDbSpline
210
0.0
220
0.0
230
1.0
 70
    24
 71
     3
 72
     8
 73
     4
 74
     0
 42
0.000000001
 43
0.00000001
 40
0.0
 40
0.0
 40
0.0
 40
0.0
 40
1.0
 40
1.0
 40
1.0
 40
1.0
 10
74.47877573778418
 20
68.02503848780688
 30
0.0
 10
74.45340170719986
 20
68.02503848780688
 30
0.0
 10
74.42656035048287
 20
68.02503848780688
 30
0.0
 10
74.39839098005486
 20
68.02503848780688
 30
0.0
  0
LINE
  5
14D
330
1F
100
AcDbEntity
  8
0
  6
Continuous
 62
     7
370
    25
100
AcDbLine
 10
74.4787757378
 20
68.0250384878
 30
0.0
 11
74.4787757378
 21
68.5718951689
 31
0.0
  0
SPLINE
  5
14E
330
1F
100
AcDbEntity
  8
0
  6
Continuous
 62
     7
370
    25
100
AcDbSpline
210
0.0
220
0.0
230
1.0
 70
    24
 71
     3
 72
     8
 73
     4
 74
     0
 42
0.000000001
 43
0.00000001
 40
0.0
 40
0.0
 40
0.0
 40
0.0
 40
1.0
 40
1.0
 40
1.0
 40
1.0
 10
74.55916049551352
 20
68.02503848780688
 30
0.0
 10
74.53097734362136
 20
68.02503848780688
 30
0.0
 10
74.50413694782324
 20
68.02503848780688
 30
0.0
 10
74.47877573778418
 20
68.02503848780688
 30
0.0
  0
LINE
  5
14F
330
1F
100
AcDbEntity
  8
0
  6
Continuous
 62
     8
370
    25
100
AcDbLine
 10
104.1443482187
 20
76.5250384878
 30
0.0
 11
104.1443482187
 21
83.5946719055
 31
0.0
  0
LINE
  5
150
330
1F
100
AcDbEntity
  8
0
  6
Continuous
 62
     8
370
    25
100
AcDbLine
 10
104.1443482187
 20
69.4554050701
 30
0.0
 11
104.1443482187
 21
76.5250384878
 31
0.0
  0
LINE
  5
151
330
1F
100
AcDbEntity
  8
0
  6
Continuous
 62
     7
370
    18
100
AcDbLine
 10
59.4319523615
 20
84.0272198514
 30
0.0
 11
71.0621487251
 21
84.3906634878
 31
0.0
  0
LINE
  5
152
330
1F
100
AcDbEntity
  8
0
  6
Continuous
 62
     7
370
    18
100
AcDbLine
 10
59.4319523615
 20
69.0228571242
 30
0.0
 11
71.0621487251
 21
68.6594134878
 31
0.0
  0
LINE
  5
153
330
1F
100
AcDbEntity
  8
0
  6
Continuous
 62
     7
370
    18
100
AcDbLine
 10
71.0621487251
 20
68.0018509878
 30
0.0
 11
71.0621487251
 21
85.0482259878
 31
0.0
  0
LINE
  5
154
330
1F
100
AcDbEntity
  8
0
  6
CENTERX2
 62
     7
370
    18
100
AcDbLine
 10
105.5621487251
 20
76.5250384878
 30
0.0
 11
57.4458828595
 21
76.5250384878
 31
0.0
  0
ENDSEC
  0
SECTION
  2
OBJECTS
  0
DICTIONARY
  5
C
330
0
100
AcDbDictionary
281
     1
  3
ACAD_GROUP
350
D
  3
ACAD_LAYOUT
350
1A
  3
ACAD_MLINESTYLE
350
17
  3
ACAD_PLOTSETTINGS
350
19
  3
ACAD_PLOTSTYLENAME
350
E
  3
ACAD_SCALELIST
350
47
  0
DICTIONARY
  5
D
102
{ACAD_REACTORS
330
C
102
}
330
C
100
AcDbDictionary
281
     1
  0
DICTIONARY
  5
1A
102
{ACAD_REACTORS
330
C
102
}
330
C
100
AcDbDictionary
281
     1
  3
Layout1
350
1E
  3
Layout2
350
26
  3
Model
350
22
  0
DICTIONARY
  5
17
102
{ACAD_REACTORS
330
C
102
}
330
C
100
AcDbDictionary
281
     1
  3
Standard
350
18
  0
DICTIONARY
  5
19
102
{ACAD_REACTORS
330
C
102
}
330
C
100
AcDbDictionary
281
     1
  0
ACDBDICTIONARYWDFLT
  5
E
102
{ACAD_REACTORS
330
C
102
}
330
C
100
AcDbDictionary
281
     1
  3
Normal
350
F
100
AcDbDictionaryWithDefault
340
F
  0
DICTIONARY
  5
47
102
{ACAD_REACTORS
330
C
102
}
330
C
100
AcDbDictionary
281
     1
  3
A0
350
48
  3
A1
350
49
  3
A2
350
4A
  3
A3
350
4B
  3
A4
350
4C
  3
A5
350
4D
  3
A6
350
4E
  3
A7
350
4F
  3
A8
350
50
  3
A9
350
51
  3
B0
350
52
  3
B1
350
53
  3
B2
350
54
  3
B3
350
55
  3
B4
350
56
  3
B5
350
57
  3
B6
350
58
  3
B7
350
59
  3
B8
350
5A
  3
B9
350
5B
  3
C0
350
5C
  3
C1
350
5D
  3
C2
350
5E
  3
C3
350
5F
  3
C4
350
60
  3
C5
350
61
  3
C6
350
62
  3
C7
350
63
  3
C8
350
64
  3
C9
350
65
  3
D0
350
66
  3
D1
350
67
  3
D2
350
68
  0
LAYOUT
  5
1E
102
{ACAD_REACTORS
330
1A
102
}
330
1A
100
AcDbPlotSettings
  1

  2
none_device
  4

  6

 40
0.0
 41
0.0
 42
0.0
 43
0.0
 44
0.0
 45
0.0
 46
0.0
 47
0.0
 48
0.0
 49
0.0
140
0.0
141
0.0
142
1.0
143
1.0
 70
   688
 72
     1
 73
     0
 74
     5
  7

 75
    16
147
1.0
148
0.0
149
0.0
100
AcDbLayout
  1
Layout1
 70
     1
 71
     1
 10
0.0
 20
0.0
 11
420.0
 21
297.0
 12
0.0
 22
0.0
 32
0.0
 14
1.0000000000E+20
 24
1.0000000000E+20
 34
1.0000000000E+20
 15
-1.0000000000E+20
 25
-1.0000000000E+20
 35
-1.0000000000E+20
146
0.0
 13
0.0
 23
0.0
 33
0.0
 16
1.0
 26
0.0
 36
0.0
 17
0.0
 27
1.0
 37
0.0
 76
     0
330
1B
  0
LAYOUT
  5
26
102
{ACAD_REACTORS
330
1A
102
}
330
1A
100
AcDbPlotSettings
  1

  2
none_device
  4

  6

 40
0.0
 41
0.0
 42
0.0
 43
0.0
 44
0.0
 45
0.0
 46
0.0
 47
0.0
 48
0.0
 49
0.0
140
0.0
141
0.0
142
1.0
143
1.0
 70
   688
 72
     1
 73
     0
 74
     5
  7

 75
    16
147
1.0
148
0.0
149
0.0
100
AcDbLayout
  1
Layout2
 70
     1
 71
     2
 10
0.0
 20
0.0
 11
0.0
 21
0.0
 12
0.0
 22
0.0
 32
0.0
 14
0.0
 24
0.0
 34
0.0
 15
0.0
 25
0.0
 35
0.0
146
0.0
 13
0.0
 23
0.0
 33
0.0
 16
1.0
 26
0.0
 36
0.0
 17
0.0
 27
1.0
 37
0.0
 76
     0
330
23
  0
LAYOUT
  5
22
102
{ACAD_REACTORS
330
1A
102
}
330
1A
100
AcDbPlotSettings
  1

  2
none_device
  4
Letter_(8.50_x_11.00_Inches)
  6

 40
6.35
 41
6.35
 42
6.35000508
 43
6.35000508
 44
215.9
 45
279.4
 46
0.0
 47
0.0
 48
0.0
 49
0.0
140
0.0
141
0.0
142
1.0
143
1.0
 70
  1712
 72
     1
 73
     0
 74
     0
  7

 75
     0
147
1.0
148
0.0
149
0.0
100
AcDbLayout
  1
Model
 70
     1
 71
     0
 10
0.0
 20
0.0
 11
215.9
 21
139.7
 12
0.0
 22
0.0
 32
0.0
 14
0.0
 24
0.0
 34
0.0
 15
215.9
 25
139.7
 35
0.0
146
0.0
 13
0.0
 23
0.0
 33
0.0
 16
1.0
 26
0.0
 36
0.0
 17
0.0
 27
1.0
 37
0.0
 76
     0
330
1F
331
29
  0
MLINESTYLE
  5
18
102
{ACAD_REACTORS
330
17
102
}
330
17
100
AcDbMlineStyle
  2
Standard
 70
     0
  3

 62
   256
 51
90.0
 52
90.0
 71
     2
 49
0.5
 62
   256
  6
BYLAYER
 49
-0.5
 62
   256
  6
BYLAYER
  0
ACDBPLACEHOLDER
  5
F
102
{ACAD_REACTORS
330
E
102
}
330
E
  0
SCALE
  5
48
102
{ACAD_REACTORS
330
47
102
}
330
47
100
AcDbScale
 70
     0
300
1:1
140
1.0
141
1.0
290
     1
  0
SCALE
  5
49
102
{ACAD_REACTORS
330
47
102
}
330
47
100
AcDbScale
 70
     0
300
1:2
140
1.0
141
2.0
290
     0
  0
SCALE
  5
4A
102
{ACAD_REACTORS
330
47
102
}
330
47
100
AcDbScale
 70
     0
300
1:4
140
1.0
141
4.0
290
     0
  0
SCALE
  5
4B
102
{ACAD_REACTORS
330
47
102
}
330
47
100
AcDbScale
 70
     0
300
1:5
140
1.0
141
5.0
290
     0
  0
SCALE
  5
4C
102
{ACAD_REACTORS
330
47
102
}
330
47
100
AcDbScale
 70
     0
300
1:8
140
1.0
141
8.0
290
     0
  0
SCALE
  5
4D
102
{ACAD_REACTORS
330
47
102
}
330
47
100
AcDbScale
 70
     0
300
1:10
140
1.0
141
10.0
290
     0
  0
SCALE
  5
4E
102
{ACAD_REACTORS
330
47
102
}
330
47
100
AcDbScale
 70
     0
300
1:16
140
1.0
141
16.0
290
     0
  0
SCALE
  5
4F
102
{ACAD_REACTORS
330
47
102
}
330
47
100
AcDbScale
 70
     0
300
1:20
140
1.0
141
20.0
290
     0
  0
SCALE
  5
50
102
{ACAD_REACTORS
330
47
102
}
330
47
100
AcDbScale
 70
     0
300
1:30
140
1.0
141
30.0
290
     0
  0
SCALE
  5
51
102
{ACAD_REACTORS
330
47
102
}
330
47
100
AcDbScale
 70
     0
300
1:40
140
1.0
141
40.0
290
     0
  0
SCALE
  5
52
102
{ACAD_REACTORS
330
47
102
}
330
47
100
AcDbScale
 70
     0
300
1:50
140
1.0
141
50.0
290
     0
  0
SCALE
  5
53
102
{ACAD_REACTORS
330
47
102
}
330
47
100
AcDbScale
 70
     0
300
1:100
140
1.0
141
100.0
290
     0
  0
SCALE
  5
54
102
{ACAD_REACTORS
330
47
102
}
330
47
100
AcDbScale
 70
     0
300
2:1
140
2.0
141
1.0
290
     0
  0
SCALE
  5
55
102
{ACAD_REACTORS
330
47
102
}
330
47
100
AcDbScale
 70
     0
300
4:1
140
4.0
141
1.0
290
     0
  0
SCALE
  5
56
102
{ACAD_REACTORS
330
47
102
}
330
47
100
AcDbScale
 70
     0
300
8:1
140
8.0
141
1.0
290
     0
  0
SCALE
  5
57
102
{ACAD_REACTORS
330
47
102
}
330
47
100
AcDbScale
 70
     0
300
10:1
140
10.0
141
1.0
290
     0
  0
SCALE
  5
58
102
{ACAD_REACTORS
330
47
102
}
330
47
100
AcDbScale
 70
     0
300
100:1
140
100.0
141
1.0
290
     0
  0
SCALE
  5
59
102
{ACAD_REACTORS
330
47
102
}
330
47
100
AcDbScale
 70
     0
300
1/128" = 1'-0"
140
0.0078125
141
12.0
290
     0
  0
SCALE
  5
5A
102
{ACAD_REACTORS
330
47
102
}
330
47
100
AcDbScale
 70
     0
300
1/64" = 1'-0"
140
0.015625
141
12.0
290
     0
  0
SCALE
  5
5B
102
{ACAD_REACTORS
330
47
102
}
330
47
100
AcDbScale
 70
     0
300
1/32" = 1'-0"
140
0.03125
141
12.0
290
     0
  0
SCALE
  5
5C
102
{ACAD_REACTORS
330
47
102
}
330
47
100
AcDbScale
 70
     0
300
1/16" = 1'-0"
140
0.0625
141
12.0
290
     0
  0
SCALE
  5
5D
102
{ACAD_REACTORS
330
47
102
}
330
47
100
AcDbScale
 70
     0
300
3/32" = 1'-0"
140
0.09375
141
12.0
290
     0
  0
SCALE
  5
5E
102
{ACAD_REACTORS
330
47
102
}
330
47
100
AcDbScale
 70
     0
300
1/8" = 1'-0"
140
0.125
141
12.0
290
     0
  0
SCALE
  5
5F
102
{ACAD_REACTORS
330
47
102
}
330
47
100
AcDbScale
 70
     0
300
3/16" = 1'-0"
140
0.1875
141
12.0
290
     0
  0
SCALE
  5
60
102
{ACAD_REACTORS
330
47
102
}
330
47
100
AcDbScale
 70
     0
300
1/4" = 1'-0"
140
0.25
141
12.0
290
     0
  0
SCALE
  5
61
102
{ACAD_REACTORS
330
47
102
}
330
47
100
AcDbScale
 70
     0
300
3/8" = 1'-0"
140
0.375
141
12.0
290
     0
  0
SCALE
  5
62
102
{ACAD_REACTORS
330
47
102
}
330
47
100
AcDbScale
 70
     0
300
1/2" = 1'-0"
140
0.5
141
12.0
290
     0
  0
SCALE
  5
63
102
{ACAD_REACTORS
330
47
102
}
330
47
100
AcDbScale
 70
     0
300
3/4" = 1'-0"
140
0.75
141
12.0
290
     0
  0
SCALE
  5
64
102
{ACAD_REACTORS
330
47
102
}
330
47
100
AcDbScale
 70
     0
300
1" = 1'-0"
140
1.0
141
12.0
290
     0
  0
SCALE
  5
65
102
{ACAD_REACTORS
330
47
102
}
330
47
100
AcDbScale
 70
     0
300
1-1/2" = 1'-0"
140
1.5
141
12.0
290
     0
  0
SCALE
  5
66
102
{ACAD_REACTORS
330
47
102
}
330
47
100
AcDbScale
 70
     0
300
3" = 1'-0"
140
3.0
141
12.0
290
     0
  0
SCALE
  5
67
102
{ACAD_REACTORS
330
47
102
}
330
47
100
AcDbScale
 70
     0
300
6" = 1'-0"
140
6.0
141
12.0
290
     0
  0
SCALE
  5
68
102
{ACAD_REACTORS
330
47
102
}
330
47
100
AcDbScale
 70
     0
300
1'-0" = 1'-0"
140
12.0
141
12.0
290
     0
  0
ENDSEC
  0
EOF
