  0
SECTION
  2
HEADER
  9
$ACADVER
  1
AC1015
  9
$ACADMAINTVER
 70
     6
  9
$DWGCODEPAGE
  3
DOS932
  9
$INSBASE
 10
0.0
 20
0.0
 30
0.0
  9
$EXTMIN
 10
0.0
 20
0.0
 30
0.0
  9
$EXTMAX
 10
215.9
 20
139.7
 30
0.0
  9
$LIMMIN
 10
0.0
 20
0.0
  9
$LIMMAX
 10
215.9
 20
139.7
  9
$ORTHOMODE
 70
     0
  9
$REGENMODE
 70
     1
  9
$FILLMODE
 70
     1
  9
$QTEXTMODE
 70
     0
  9
$MIRRTEXT
 70
     1
  9
$LTSCALE
 40
0.5
  9
$ATTMODE
 70
     1
  9
$TEXTSIZE
 40
1.75
  9
$TRACEWID
 40
1.0
  9
$TEXTSTYLE
  7
Standard
  9
$CLAYER
  8
0
  9
$CELTYPE
  6
ByLayer
  9
$CECOLOR
 62
   256
  9
$CELTSCALE
 40
1.0
  9
$DISPSILH
 70
     0
  9
$DIMSCALE
 40
1.0
  9
$DIMASZ
 40
1.651
  9
$DIMEXO
 40
0.5
  9
$DIMDLI
 40
3.75
  9
$DIMRND
 40
0.0
  9
$DIMDLE
 40
0.0
  9
$DIMEXE
 40
0.5
  9
$DIMTP
 40
0.0
  9
$DIMTM
 40
0.0
  9
$DIMTXT
 40
1.75
  9
$DIMCEN
 40
2.5
  9
$DIMTSZ
 40
0.0
  9
$DIMTOL
 70
     0
  9
$DIMLIM
 70
     0
  9
$DIMTIH
 70
     1
  9
$DIMTOH
 70
     1
  9
$DIMSE1
 70
     0
  9
$DIMSE2
 70
     0
  9
$DIMTAD
 70
     1
  9
$DIMZIN
 70
     1
  9
$DIMBLK
  1

  9
$DIMASO
 70
     1
  9
$DIMSHO
 70
     1
  9
$DIMPOST
  1

  9
$DIMAPOST
  1

  9
$DIMALT
 70
     0
  9
$DIMALTD
 70
     3
  9
$DIMALTF
 40
0.0393700787
  9
$DIMLFAC
 40
1.0
  9
$DIMTOFL
 70
     1
  9
$DIMTVP
 40
0.0
  9
$DIMTIX
 70
     0
  9
$DIMSOXD
 70
     0
  9
$DIMSAH
 70
     0
  9
$DIMBLK1
  1

  9
$DIMBLK2
  1

  9
$DIMSTYLE
  2
ISO-25
  9
$DIMCLRD
 70
     0
  9
$DIMCLRE
 70
     0
  9
$DIMCLRT
 70
     0
  9
$DIMTFAC
 40
1.0
  9
$DIMGAP
 40
0.762
  9
$DIMJUST
 70
     0
  9
$DIMSD1
 70
     0
  9
$DIMSD2
 70
     0
  9
$DIMTOLJ
 70
     0
  9
$DIMTZIN
 70
     1
  9
$DIMALTZ
 70
     0
  9
$DIMALTTZ
 70
     0
  9
$DIMUPT
 70
     0
  9
$DIMDEC
 70
     2
  9
$DIMTDEC
 70
     2
  9
$DIMALTU
 70
     2
  9
$DIMALTTD
 70
     3
  9
$DIMTXSTY
  7
Standard
  9
$DIMAUNIT
 70
     0
  9
$DIMADEC
 70
     2
  9
$DIMALTRND
 40
0.0
  9
$DIMAZIN
 70
     0
  9
$DIMDSEP
 70
    44
  9
$DIMATFIT
 70
     3
  9
$DIMFRAC
 70
     0
  9
$DIMLDRBLK
  1

  9
$DIMLUNIT
 70
     2
  9
$DIMLWD
 70
    -2
  9
$DIMLWE
 70
    -2
  9
$DIMTMOVE
 70
     0
  9
$LUNITS
 70
     2
  9
$LUPREC
 70
     2
  9
$SKETCHINC
 40
1.0
  9
$FILLETRAD
 40
10.0
  9
$AUNITS
 70
     0
  9
$AUPREC
 70
     2
  9
$MENU
  1
.
  9
$ELEVATION
 40
0.0
  9
$PELEVATION
 40
0.0
  9
$THICKNESS
 40
0.0
  9
$LIMCHECK
 70
     0
  9
$CHAMFERA
 40
0.0
  9
$CHAMFERB
 40
0.0
  9
$CHAMFERC
 40
0.0
  9
$CHAMFERD
 40
0.0
  9
$SKPOLY
 70
     0
  9
$TDCREATE
 40
2460082.676816887
  9
$TDUCREATE
 40
2460082.301816887
  9
$TDUPDATE
 40
2460082.676817465
  9
$TDUUPDATE
 40
2460082.301817465
  9
$TDINDWG
 40
0.0000000116
  9
$TDUSRTIMER
 40
0.0000000116
  9
$USRTIMER
 70
     1
  9
$ANGBASE
 50
0.0
  9
$ANGDIR
 70
     0
  9
$PDMODE
 70
     0
  9
$PDSIZE
 40
-1.0
  9
$PLINEWID
 40
0.0
  9
$SPLFRAME
 70
     0
  9
$SPLINETYPE
 70
     6
  9
$SPLINESEGS
 70
     8
  9
$HANDSEED
  5
155
  9
$SURFTAB1
 70
     6
  9
$SURFTAB2
 70
     6
  9
$SURFTYPE
 70
     6
  9
$SURFU
 70
     6
  9
$SURFV
 70
     6
  9
$UCSBASE
  2

  9
$UCSNAME
  2

  9
$UCSORG
 10
0.0
 20
0.0
 30
0.0
  9
$UCSXDIR
 10
1.0
 20
0.0
 30
0.0
  9
$UCSYDIR
 10
0.0
 20
1.0
 30
0.0
  9
$UCSORTHOREF
  2

  9
$UCSORTHOVIEW
 70
     0
  9
$UCSORGTOP
 10
0.0
 20
0.0
 30
0.0
  9
$UCSORGBOTTOM
 10
0.0
 20
0.0
 30
0.0
  9
$UCSORGLEFT
 10
0.0
 20
0.0
 30
0.0
  9
$UCSORGRIGHT
 10
0.0
 20
0.0
 30
0.0
  9
$UCSORGFRONT
 10
0.0
 20
0.0
 30
0.0
  9
$UCSORGBACK
 10
0.0
 20
0.0
 30
0.0
  9
$PUCSBASE
  2

  9
$PUCSNAME
  2

  9
$PUCSORG
 10
0.0
 20
0.0
 30
0.0
  9
$PUCSXDIR
 10
1.0
 20
0.0
 30
0.0
  9
$PUCSYDIR
 10
0.0
 20
1.0
 30
0.0
  9
$PUCSORTHOREF
  2

  9
$PUCSORTHOVIEW
 70
     0
  9
$PUCSORGTOP
 10
0.0
 20
0.0
 30
0.0
  9
$PUCSORGBOTTOM
 10
0.0
 20
0.0
 30
0.0
  9
$PUCSORGLEFT
 10
0.0
 20
0.0
 30
0.0
  9
$PUCSORGRIGHT
 10
0.0
 20
0.0
 30
0.0
  9
$PUCSORGFRONT
 10
0.0
 20
0.0
 30
0.0
  9
$PUCSORGBACK
 10
0.0
 20
0.0
 30
0.0
  9
$USERI1
 70
     0
  9
$USERI2
 70
     0
  9
$USERI3
 70
     0
  9
$USERI4
 70
     0
  9
$USERI5
 70
     0
  9
$USERR1
 40
0.0
  9
$USERR2
 40
0.0
  9
$USERR3
 40
0.0
  9
$USERR4
 40
0.0
  9
$USERR5
 40
0.0
  9
$WORLDVIEW
 70
     1
  9
$SHADEDGE
 70
     3
  9
$SHADEDIF
 70
    70
  9
$TILEMODE
 70
     1
  9
$MAXACTVP
 70
    64
  9
$PINSBASE
 10
0.0
 20
0.0
 30
0.0
  9
$PLIMCHECK
 70
     0
  9
$PEXTMIN
 10
1.0000000000E+20
 20
1.0000000000E+20
 30
1.0000000000E+20
  9
$PEXTMAX
 10
-1.0000000000E+20
 20
-1.0000000000E+20
 30
-1.0000000000E+20
  9
$PLIMMIN
 10
0.0
 20
0.0
  9
$PLIMMAX
 10
420.0
 20
297.0
  9
$UNITMODE
 70
     0
  9
$VISRETAIN
 70
     1
  9
$PLINEGEN
 70
     0
  9
$PSLTSCALE
 70
     1
  9
$TREEDEPTH
 70
  3020
  9
$CMLSTYLE
  2
Standard
  9
$CMLJUST
 70
     0
  9
$CMLSCALE
 40
20.0
  9
$PROXYGRAPHICS
 70
     1
  9
$MEASUREMENT
 70
     1
  9
$CELWEIGHT
370
    -1
  9
$ENDCAPS
280
     0
  9
$JOINSTYLE
280
     0
  9
$LWDISPLAY
290
     1
  9
$INSUNITS
 70
     4
  9
$HYPERLINKBASE
  1

  9
$STYLESHEET
  1

  9
$XEDIT
290
     1
  9
$CEPSNTYPE
380
     0
  9
$PSTYLEMODE
290
     1
  9
$FINGERPRINTGUID
  2
{F0D65BEA-D381-4B45-B859-1AF7C47C313D}
  9
$VERSIONGUID
  2
{FAEB1C32-E019-11D5-929B-00C0DF256EC4}
  9
$EXTNAMES
290
     1
  9
$PSVPSCALE
 40
0.0
  9
$OLESTARTUP
290
     0
  0
ENDSEC
  0
SECTION
  2
CLASSES
  0
CLASS
  1
ACDBDICTIONARYWDFLT
  2
AcDbDictionaryWithDefault
  3
ObjectDBX Classes
 90
        0
280
     0
281
     0
  0
CLASS
  1
VISUALSTYLE
  2
AcDbVisualStyle
  3
ObjectDBX Classes
 90
     4095
280
     0
281
     0
  0
CLASS
  1
MATERIAL
  2
AcDbMaterial
  3
ObjectDBX Classes
 90
     1153
280
     0
281
     0
  0
CLASS
  1
SCALE
  2
AcDbScale
  3
ObjectDBX Classes
 90
     1153
280
     0
281
     0
  0
CLASS
  1
TABLESTYLE
  2
AcDbTableStyle
  3
ObjectDBX Classes
 90
     4095
280
     0
281
     0
  0
CLASS
  1
MLEADERSTYLE
  2
AcDbMLeaderStyle
  3
ACDB_MLEADERSTYLE_CLASS
 90
     4095
280
     0
281
     0
  0
CLASS
  1
SUN
  2
AcDbSun
  3
SCENEOE
 90
     1153
280
     0
281
     0
  0
CLASS
  1
ACDBPLACEHOLDER
  2
AcDbPlaceHolder
  3
ObjectDBX Classes
 90
        0
280
     0
281
     0
  0
CLASS
  1
LAYOUT
  2
AcDbLayout
  3
ObjectDBX Classes
 90
        0
280
     0
281
     0
  0
ENDSEC
  0
SECTION
  2
TABLES
  0
TABLE
  2
VPORT
  5
8
330
0
100
AcDbSymbolTable
 70
     1
  0
VPORT
  5
29
330
8
100
AcDbSymbolTableRecord
100
AcDbViewportTableRecord
  2
*Active
 70
     0
 10
0.0
 20
0.0
 11
1.0
 21
1.0
 12
107.95
 22
69.85
 13
0.0
 23
0.0
 14
10.0
 24
10.0
 15
10.0
 25
10.0
 16
0.0
 26
0.0
 36
1.0
 17
0.0
 27
0.0
 37
0.0
 40
139.7
 41
1.5454545455
 42
50.0
 43
0.0
 44
0.0
 50
0.0
 51
0.0
 71
     0
 72
  2000
 73
     1
 74
     3
 75
     0
 76
     0
 77
     0
 78
     0
281
     0
 65
     1
110
0.0
120
0.0
130
0.0
111
1.0
121
0.0
131
0.0
112
0.0
122
1.0
132
0.0
 79
     0
146
0.0
  0
ENDTAB
  0
TABLE
  2
LTYPE
  5
5
330
0
100
AcDbSymbolTable
 70
     6
  0
LTYPE
  5
14
330
5
100
AcDbSymbolTableRecord
100
AcDbLinetypeTableRecord
  2
ByBlock
 70
     0
  3

 72
    65
 73
     0
 40
0.0
  0
LTYPE
  5
15
330
5
100
AcDbSymbolTableRecord
100
AcDbLinetypeTableRecord
  2
ByLayer
 70
     0
  3

 72
    65
 73
     0
 40
0.0
  0
LTYPE
  5
16
330
5
100
AcDbSymbolTableRecord
100
AcDbLinetypeTableRecord
  2
Continuous
 70
     0
  3
Solid line
 72
    65
 73
     0
 40
0.0
  0
LTYPE
  5
6E
330
5
100
AcDbSymbolTableRecord
100
AcDbLinetypeTableRecord
  2
HIDDEN
 70
     0
  3
Hidden __ __ __ __ __ __ __ __ __ __ __ __ __ __
 72
    65
 73
     2
 40
1.905
 49
1.27
 74
     0
 49
-0.635
 74
     0
  0
LTYPE
  5
6F
330
5
100
AcDbSymbolTableRecord
100
AcDbLinetypeTableRecord
  2
PHANTOM
 70
     0
  3
Phantom ______  __  __  ______  __  __  ______
 72
    65
 73
     6
 40
12.7
 49
6.35
 74
     0
 49
-1.27
 74
     0
 49
1.27
 74
     0
 49
-1.27
 74
     0
 49
1.27
 74
     0
 49
-1.27
 74
     0
  0
LTYPE
  5
70
330
5
100
AcDbSymbolTableRecord
100
AcDbLinetypeTableRecord
  2
CENTER
 70
     0
  3
Center ____ _ ____ _ ____ _ ____ _ ____ _ ____
 72
    65
 73
     4
 40
10.16
 49
6.35
 74
     0
 49
-1.27
 74
     0
 49
1.27
 74
     0
 49
-1.27
 74
     0
  0
LTYPE
  5
71
330
5
100
AcDbSymbolTableRecord
100
AcDbLinetypeTableRecord
  2
CENTERX2
 70
     0
  3
Center (2x) ________  __  ________  __  _____
 72
    65
 73
     4
 40
20.32
 49
12.7
 74
     0
 49
-2.54
 74
     0
 49
2.54
 74
     0
 49
-2.54
 74
     0
  0
LTYPE
  5
72
330
5
100
AcDbSymbolTableRecord
100
AcDbLinetypeTableRecord
  2
DOT2
 70
     0
  3
Dot (.5x) ........................................
 72
    65
 73
     2
 40
0.635
 49
0.0
 74
     0
 49
-0.635
 74
     0
  0
ENDTAB
  0
TABLE
  2
LAYER
  5
2
330
0
100
AcDbSymbolTable
 70
     1
  0
LAYER
  5
10
330
2
100
AcDbSymbolTableRecord
100
AcDbLayerTableRecord
  2
0
 70
     0
 62
     7
  6
Continuous
370
    -3
390
F
  0
ENDTAB
  0
TABLE
  2
STYLE
  5
3
330
0
100
AcDbSymbolTable
 70
     2
  0
STYLE
  5
11
330
3
100
AcDbSymbolTableRecord
100
AcDbTextStyleTableRecord
  2
Standard
 70
     0
 40
0.0
 41
1.0
 50
0.0
 71
     0
 42
1.75
  3
txt
  4
bigfont
  0
STYLE
  5
73
330
3
100
AcDbSymbolTableRecord
100
AcDbTextStyleTableRecord
  2
SLDTEXTSTYLE0
 70
     0
 40
0.0
 41
0.7
 50
0.0
 71
     0
 42
1.75
  3
TXT
  4
bigfont
  0
ENDTAB
  0
TABLE
  2
VIEW
  5
6
330
0
100
AcDbSymbolTable
 70
     0
  0
ENDTAB
  0
TABLE
  2
UCS
  5
7
330
0
100
AcDbSymbolTable
 70
     0
  0
ENDTAB
  0
TABLE
  2
APPID
  5
9
330
0
100
AcDbSymbolTable
 70
     1
  0
APPID
  5
12
330
9
100
AcDbSymbolTableRecord
100
AcDbRegAppTableRecord
  2
ACAD
 70
     0
  0
ENDTAB
  0
TABLE
  2
DIMSTYLE
  5
A
330
0
100
AcDbSymbolTable
 70
     1
100
AcDbDimStyleTable
  0
DIMSTYLE
105
27
330
A
100
AcDbSymbolTableRecord
100
AcDbDimStyleTableRecord
  2
ISO-25
 70
     0
 41
2.5
 42
0.625
 43
3.75
 44
1.25
 73
     0
 74
     0
 77
     1
 78
     8
140
2.5
141
2.5
143
0.0393700787
147
0.625
171
     3
172
     1
178
     0
271
     2
272
     2
274
     3
278
    44
283
     0
284
     8
340
11
  0
ENDTAB
  0
TABLE
  2
BLOCK_RECORD
  5
1
330
0
100
AcDbSymbolTable
 70
     3
  0
BLOCK_RECORD
  5
1F
330
1
100
AcDbSymbolTableRecord
100
AcDbBlockTableRecord
  2
*Model_Space
340
22
  0
BLOCK_RECORD
  5
1B
330
1
100
AcDbSymbolTableRecord
100
AcDbBlockTableRecord
  2
*Paper_Space
340
1E
  0
BLOCK_RECORD
  5
23
330
1
100
AcDbSymbolTableRecord
100
AcDbBlockTableRecord
  2
*Paper_Space0
340
26
  0
BLOCK_RECORD
  5
F2
330
1
100
AcDbSymbolTableRecord
100
AcDbBlockTableRecord
  2
SW_CENTERMARKSYMBOL_0
340
0
102
{BLKREFS
331
FD
102
}
  0
BLOCK_RECORD
  5
FE
330
1
100
AcDbSymbolTableRecord
100
AcDbBlockTableRecord
  2
SW_CENTERMARKSYMBOL_1
340
0
102
{BLKREFS
331
109
102
}
  0
ENDTAB
  0
ENDSEC
  0
SECTION
  2
BLOCKS
  0
BLOCK
  5
20
330
1F
100
AcDbEntity
  8
0
100
AcDbBlockBegin
  2
*Model_Space
 70
     0
 10
0.0
 20
0.0
 30
0.0
  3
*Model_Space
  1

  0
ENDBLK
  5
21
330
1F
100
AcDbEntity
  8
0
100
AcDbBlockEnd
  0
BLOCK
  5
1C
330
1B
100
AcDbEntity
 67
     1
  8
0
100
AcDbBlockBegin
  2
*Paper_Space
 70
     0
 10
0.0
 20
0.0
 30
0.0
  3
*Paper_Space
  1

  0
ENDBLK
  5
1D
330
1B
100
AcDbEntity
 67
     1
  8
0
100
AcDbBlockEnd
  0
BLOCK
  5
24
330
23
100
AcDbEntity
  8
0
100
AcDbBlockBegin
  2
*Paper_Space0
 70
     0
 10
0.0
 20
0.0
 30
0.0
  3
*Paper_Space0
  1

  0
ENDBLK
  5
25
330
23
100
AcDbEntity
  8
0
100
AcDbBlockEnd
  0
BLOCK
  5
F3
330
F2
100
AcDbEntity
  8
0
100
AcDbBlockBegin
  2
SW_CENTERMARKSYMBOL_0
 70
     0
 10
0.0
 20
0.0
 30
0.0
  3
SW_CENTERMARKSYMBOL_0
  1

  0
LINE
  5
F5
330
F2
100
AcDbEntity
  8
0
  6
Continuous
 62
     0
370
    18
100
AcDbLine
 10
0.0
 20
0.0
 30
0.0
 11
0.0
 21
2.5
 31
0.0
  0
LINE
  5
F6
330
F2
100
AcDbEntity
  8
0
  6
Continuous
 62
     0
370
    18
100
AcDbLine
 10
0.0
 20
0.0
 30
0.0
 11
-2.5
 21
0.0
 31
0.0
  0
LINE
  5
F7
330
F2
100
AcDbEntity
  8
0
  6
Continuous
 62
     0
370
    18
100
AcDbLine
 10
0.0
 20
0.0
 30
0.0
 11
0.0
 21
-2.5
 31
0.0
  0
LINE
  5
F8
330
F2
100
AcDbEntity
  8
0
  6
Continuous
 62
     0
370
    18
100
AcDbLine
 10
0.0
 20
0.0
 30
0.0
 11
2.5
 21
0.0
 31
0.0
  0
LINE
  5
F9
330
F2
100
AcDbEntity
  8
0
  6
Continuous
 62
     0
370
    18
100
AcDbLine
 10
0.0
 20
5.0
 30
0.0
 11
0.0
 21
7.5
 31
0.0
  0
LINE
  5
FA
330
F2
100
AcDbEntity
  8
0
  6
Continuous
 62
     0
370
    18
100
AcDbLine
 10
-5.0
 20
0.0
 30
0.0
 11
-7.5
 21
0.0
 31
0.0
  0
LINE
  5
FB
330
F2
100
AcDbEntity
  8
0
  6
Continuous
 62
     0
370
    18
100
AcDbLine
 10
0.0
 20
-5.0
 30
0.0
 11
0.0
 21
-7.5
 31
0.0
  0
LINE
  5
FC
330
F2
100
AcDbEntity
  8
0
  6
Continuous
 62
     0
370
    18
100
AcDbLine
 10
5.0
 20
0.0
 30
0.0
 11
7.5
 21
0.0
 31
0.0
  0
ENDBLK
  5
F4
330
F2
100
AcDbEntity
  8
0
100
AcDbBlockEnd
  0
BLOCK
  5
FF
330
FE
100
AcDbEntity
  8
0
100
AcDbBlockBegin
  2
SW_CENTERMARKSYMBOL_1
 70
     0
 10
0.0
 20
0.0
 30
0.0
  3
SW_CENTERMARKSYMBOL_1
  1

  0
LINE
  5
101
330
FE
100
AcDbEntity
  8
0
  6
Continuous
 62
     0
370
    18
100
AcDbLine
 10
0.0
 20
0.0
 30
0.0
 11
0.0
 21
2.5
 31
0.0
  0
LINE
  5
102
330
FE
100
AcDbEntity
  8
0
  6
Continuous
 62
     0
370
    18
100
AcDbLine
 10
0.0
 20
0.0
 30
0.0
 11
-2.5
 21
0.0
 31
0.0
  0
LINE
  5
103
330
FE
100
AcDbEntity
  8
0
  6
Continuous
 62
     0
370
    18
100
AcDbLine
 10
0.0
 20
0.0
 30
0.0
 11
0.0
 21
-2.5
 31
0.0
  0
LINE
  5
104
330
FE
100
AcDbEntity
  8
0
  6
Continuous
 62
     0
370
    18
100
AcDbLine
 10
0.0
 20
0.0
 30
0.0
 11
2.5
 21
0.0
 31
0.0
  0
LINE
  5
105
330
FE
100
AcDbEntity
  8
0
  6
Continuous
 62
     0
370
    18
100
AcDbLine
 10
0.0
 20
5.0
 30
0.0
 11
0.0
 21
10.75
 31
0.0
  0
LINE
  5
106
330
FE
100
AcDbEntity
  8
0
  6
Continuous
 62
     0
370
    18
100
AcDbLine
 10
-5.0
 20
0.0
 30
0.0
 11
-10.75
 21
0.0
 31
0.0
  0
LINE
  5
107
330
FE
100
AcDbEntity
  8
0
  6
Continuous
 62
     0
370
    18
100
AcDbLine
 10
0.0
 20
-5.0
 30
0.0
 11
0.0
 21
-10.75
 31
0.0
  0
LINE
  5
108
330
FE
100
AcDbEntity
  8
0
  6
Continuous
 62
     0
370
    18
100
AcDbLine
 10
5.0
 20
0.0
 30
0.0
 11
10.75
 21
0.0
 31
0.0
  0
ENDBLK
  5
100
330
FE
100
AcDbEntity
  8
0
100
AcDbBlockEnd
  0
ENDSEC
  0
SECTION
  2
ENTITIES
  0
MTEXT
  5
74
330
1F
100
AcDbEntity
  8
0
  6
Continuous
 62
     7
370
     0
100
AcDbMText
 10
100.1571216522
 20
65.1297281097
 30
0.0
 40
2.1166666667
 41
0.0
 71
     1
 72
     1
  1
エースニップル　HN-8314
  7
SLDTEXTSTYLE0
 73
     1
 44
1.0
  0
LINE
  5
75
330
1F
100
AcDbEntity
  8
0
  6
Continuous
 62
     7
370
    25
100
AcDbLine
 10
71.2832312116
 20
56.103941313
 30
0.0
 11
60.3571406452
 21
55.7625009828
 31
0.0
  0
LINE
  5
76
330
1F
100
AcDbEntity
  8
0
  6
Continuous
 62
     7
370
    25
100
AcDbLine
 10
60.3571406452
 20
39.3677566432
 30
0.0
 11
71.2832312116
 21
39.026316313
 31
0.0
  0
LINE
  5
77
330
1F
100
AcDbEntity
  8
0
  6
Continuous
 62
     7
370
    25
100
AcDbLine
 10
76.3797042657
 20
37.7501742367
 30
0.0
 11
77.2832312116
 21
39.315128813
 31
0.0
  0
LINE
  5
78
330
1F
100
AcDbEntity
  8
0
  6
Continuous
 62
     7
370
    25
100
AcDbLine
 10
77.2832312116
 20
55.815128813
 30
0.0
 11
76.3797042657
 21
57.3800833892
 31
0.0
  0
LINE
  5
79
330
1F
100
AcDbEntity
  8
0
  6
Continuous
 62
     7
370
    25
100
AcDbLine
 10
60.3571406452
 20
55.7625009828
 30
0.0
 11
58.2832312116
 21
54.565128813
 31
0.0
  0
LINE
  5
7A
330
1F
100
AcDbEntity
  8
0
  6
Continuous
 62
     7
370
    25
100
AcDbLine
 10
58.2832312116
 20
40.565128813
 30
0.0
 11
60.3571406452
 21
39.3677566432
 31
0.0
  0
LINE
  5
7B
330
1F
100
AcDbEntity
  8
0
  6
Continuous
 62
     7
370
    25
100
AcDbLine
 10
88.2832312116
 20
40.565128813
 30
0.0
 11
93.2832312116
 21
41.315128813
 31
0.0
  0
LINE
  5
7C
330
1F
100
AcDbEntity
  8
0
  6
Continuous
 62
     7
370
    25
100
AcDbLine
 10
93.2832312116
 20
53.815128813
 30
0.0
 11
88.2832312116
 21
54.565128813
 31
0.0
  0
LINE
  5
7D
330
1F
100
AcDbEntity
  8
0
  6
Continuous
 62
     7
370
    25
100
AcDbLine
 10
93.2832312116
 20
40.565128813
 30
0.0
 11
98.2832312116
 21
41.315128813
 31
0.0
  0
LINE
  5
7E
330
1F
100
AcDbEntity
  8
0
  6
Continuous
 62
     7
370
    25
100
AcDbLine
 10
98.2832312116
 20
53.815128813
 30
0.0
 11
93.2832312116
 21
54.565128813
 31
0.0
  0
LINE
  5
7F
330
1F
100
AcDbEntity
  8
0
  6
Continuous
 62
     7
370
    25
100
AcDbLine
 10
98.2832312116
 20
40.565128813
 30
0.0
 11
103.8452485789
 21
41.2603809839
 31
0.0
  0
LINE
  5
80
330
1F
100
AcDbEntity
  8
0
  6
Continuous
 62
     7
370
    25
100
AcDbLine
 10
103.8452485789
 20
53.8698766421
 30
0.0
 11
98.2832312116
 21
54.565128813
 31
0.0
  0
LINE
  5
81
330
1F
100
AcDbEntity
  8
0
  6
Continuous
 62
     7
370
    25
100
AcDbLine
 10
83.2832312116
 20
40.565128813
 30
0.0
 11
88.2832312116
 21
41.315128813
 31
0.0
  0
LINE
  5
82
330
1F
100
AcDbEntity
  8
0
  6
Continuous
 62
     7
370
    25
100
AcDbLine
 10
88.2832312116
 20
53.815128813
 30
0.0
 11
83.2832312116
 21
54.565128813
 31
0.0
  0
LINE
  5
83
330
1F
100
AcDbEntity
  8
0
  6
Continuous
 62
     7
370
    25
100
AcDbLine
 10
83.2832312116
 20
54.565128813
 30
0.0
 11
77.2832312116
 21
54.565128813
 31
0.0
  0
LINE
  5
84
330
1F
100
AcDbEntity
  8
0
  6
Continuous
 62
     7
370
    25
100
AcDbLine
 10
77.2832312116
 20
40.565128813
 30
0.0
 11
83.2832312116
 21
40.565128813
 31
0.0
  0
ARC
  5
85
330
1F
100
AcDbEntity
  8
0
  6
Continuous
 62
     7
370
    25
100
AcDbCircle
 10
103.7832312116
 20
53.3737377037
 30
0.0
 40
0.5
100
AcDbArc
 50
0.0
 51
82.8749836511
  0
ARC
  5
86
330
1F
100
AcDbEntity
  8
0
  6
Continuous
 62
     7
370
    25
100
AcDbCircle
 10
103.7832312116
 20
41.7565199222
 30
0.0
 40
0.5
100
AcDbArc
 50
277.1250163489
 51
0.0
  0
LINE
  5
87
330
1F
100
AcDbEntity
  8
0
  6
Continuous
 62
     7
370
    25
100
AcDbLine
 10
72.0200121828
 20
57.3800833892
 30
0.0
 11
71.2832312116
 21
56.103941313
 31
0.0
  0
LINE
  5
88
330
1F
100
AcDbEntity
  8
0
  6
Continuous
 62
     7
370
    25
100
AcDbLine
 10
71.2832312116
 20
39.026316313
 30
0.0
 11
72.0200121828
 21
37.7501742367
 31
0.0
  0
LINE
  5
89
330
1F
100
AcDbEntity
  8
0
  6
Continuous
 62
     7
370
    25
100
AcDbLine
 10
74.1998582242
 20
38.0501742367
 30
0.0
 11
74.280242982
 21
37.7501742367
 31
0.0
  0
LINE
  5
8A
330
1F
100
AcDbEntity
  8
0
  6
Continuous
 62
     7
370
    25
100
AcDbLine
 10
74.1194734665
 20
37.7501742367
 30
0.0
 11
74.1998582242
 21
38.0501742367
 31
0.0
  0
LINE
  5
8B
330
1F
100
AcDbEntity
  8
0
  6
Continuous
 62
     7
370
    25
100
AcDbLine
 10
74.280242982
 20
57.3800833892
 30
0.0
 11
74.1998582242
 21
57.0800833892
 31
0.0
  0
LINE
  5
8C
330
1F
100
AcDbEntity
  8
0
  6
Continuous
 62
     7
370
    25
100
AcDbLine
 10
74.1998582242
 20
57.0800833892
 30
0.0
 11
74.1194734665
 21
57.3800833892
 31
0.0
  0
LINE
  5
8D
330
1F
100
AcDbEntity
  8
0
  6
Continuous
 62
     7
370
    25
100
AcDbLine
 10
60.3571406452
 20
55.7625009828
 30
0.0
 11
60.3571406452
 21
39.3677566432
 31
0.0
  0
LINE
  5
8E
330
1F
100
AcDbEntity
  8
0
  6
Continuous
 62
     7
370
    25
100
AcDbLine
 10
71.2832312116
 20
40.610520465
 30
0.0
 11
71.2832312116
 21
46.7519136445
 31
0.0
  0
LINE
  5
8F
330
1F
100
AcDbEntity
  8
0
  6
Continuous
 62
     7
370
    25
100
AcDbLine
 10
71.2832312116
 20
39.7973052966
 30
0.0
 11
71.2832312116
 21
40.610520465
 31
0.0
  0
LINE
  5
90
330
1F
100
AcDbEntity
  8
0
  6
Continuous
 62
     7
370
    25
100
AcDbLine
 10
71.2832312116
 20
39.026316313
 30
0.0
 11
71.2832312116
 21
39.7973052966
 31
0.0
  0
LINE
  5
91
330
1F
100
AcDbEntity
  8
0
  6
Continuous
 62
     7
370
    25
100
AcDbLine
 10
71.2832312116
 20
55.3329523293
 30
0.0
 11
71.2832312116
 21
56.103941313
 31
0.0
  0
LINE
  5
92
330
1F
100
AcDbEntity
  8
0
  6
Continuous
 62
     7
370
    25
100
AcDbLine
 10
71.2832312116
 20
54.5197371609
 30
0.0
 11
71.2832312116
 21
55.3329523293
 31
0.0
  0
LINE
  5
93
330
1F
100
AcDbEntity
  8
0
  6
Continuous
 62
     7
370
    25
100
AcDbLine
 10
71.2832312116
 20
48.3783439814
 30
0.0
 11
71.2832312116
 21
54.5197371609
 31
0.0
  0
LINE
  5
94
330
1F
100
AcDbEntity
  8
0
  6
Continuous
 62
     7
370
    25
100
AcDbLine
 10
71.2832312116
 20
46.7519136445
 30
0.0
 11
71.2832312116
 21
48.3783439814
 31
0.0
  0
LINE
  5
95
330
1F
100
AcDbEntity
  8
0
  6
Continuous
 62
     7
370
    25
100
AcDbLine
 10
74.1194734665
 20
42.6576515249
 30
0.0
 11
72.0200121828
 21
42.6576515249
 31
0.0
  0
SPLINE
  5
96
330
1F
100
AcDbEntity
  8
0
  6
Continuous
 62
     7
370
    25
100
AcDbSpline
210
0.0
220
0.0
230
1.0
 70
     8
 71
     3
 72
    10
 73
     6
 74
     0
 42
0.000000001
 43
0.00000001
 40
0.0
 40
0.0
 40
0.0
 40
0.0
 40
0.5
 40
0.5
 40
1.0
 40
1.0
 40
1.0
 40
1.0
 10
72.02001218279104
 20
42.65765152485144
 30
0.0
 10
71.82690550748714
 20
43.32659267066554
 30
0.0
 10
71.65979516827689
 20
44.00913641353613
 30
0.0
 10
71.40698642795516
 20
45.37704343769002
 30
0.0
 10
71.321101328663
 20
46.06318319836464
 30
0.0
 10
71.28323121155914
 20
46.7519136445384
 30
0.0
  0
SPLINE
  5
97
330
1F
100
AcDbEntity
  8
0
  6
Continuous
 62
     7
370
    25
100
AcDbSpline
210
0.0
220
0.0
230
1.0
 70
     8
 71
     3
 72
    10
 73
     6
 74
     0
 42
0.000000001
 43
0.00000001
 40
0.0
 40
0.0
 40
0.0
 40
0.0
 40
0.5
 40
0.5
 40
1.0
 40
1.0
 40
1.0
 40
1.0
 10
71.28323121155914
 20
48.37834398138811
 30
0.0
 10
71.32127344218658
 20
49.07020459543433
 30
0.0
 10
71.4093264679505
 20
49.76925259499954
 30
0.0
 10
71.66338412171075
 20
51.13708366560417
 30
0.0
 10
71.82845070977156
 20
51.80901769299012
 30
0.0
 10
72.02001218279105
 20
52.47260610107509
 30
0.0
  0
LINE
  5
98
330
1F
100
AcDbEntity
  8
0
  6
Continuous
 62
     7
370
    25
100
AcDbLine
 10
74.1194734665
 20
52.4726061011
 30
0.0
 11
72.0200121828
 21
52.4726061011
 31
0.0
  0
SPLINE
  5
99
330
1F
100
AcDbEntity
  8
0
  6
Continuous
 62
     7
370
    25
100
AcDbSpline
210
0.0
220
0.0
230
1.0
 70
     8
 71
     3
 72
     8
 73
     4
 74
     0
 42
0.000000001
 43
0.00000001
 40
0.0
 40
0.0
 40
0.0
 40
0.0
 40
1.0
 40
1.0
 40
1.0
 40
1.0
 10
74.19985822424896
 20
51.84115039705276
 30
0.0
 10
74.17448419366464
 20
52.05186946523706
 30
0.0
 10
74.14764283694765
 20
52.26234705776591
 30
0.0
 10
74.11947346651964
 20
52.47260610107509
 30
0.0
  0
SPLINE
  5
9A
330
1F
100
AcDbEntity
  8
0
  6
Continuous
 62
     7
370
    25
100
AcDbSpline
210
0.0
220
0.0
230
1.0
 70
     8
 71
     3
 72
     8
 73
     4
 74
     0
 42
0.000000001
 43
0.00000001
 40
0.0
 40
0.0
 40
0.0
 40
0.0
 40
1.0
 40
1.0
 40
1.0
 40
1.0
 10
74.2802429819783
 20
52.47260610107508
 30
0.0
 10
74.25205983008615
 20
52.26224419151715
 30
0.0
 10
74.22521943428802
 20
52.05176299680092
 30
0.0
 10
74.19985822424896
 20
51.84115039705275
 30
0.0
  0
LINE
  5
9B
330
1F
100
AcDbEntity
  8
0
  6
Continuous
 62
     7
370
    25
100
AcDbLine
 10
76.3797042657
 20
52.4726061011
 30
0.0
 11
74.280242982
 21
52.4726061011
 31
0.0
  0
SPLINE
  5
9C
330
1F
100
AcDbEntity
  8
0
  6
Continuous
 62
     7
370
    25
100
AcDbSpline
210
0.0
220
0.0
230
1.0
 70
     8
 71
     3
 72
    16
 73
    12
 74
     0
 42
0.000000001
 43
0.00000001
 40
0.0
 40
0.0
 40
0.0
 40
0.0
 40
0.25
 40
0.25
 40
0.5
 40
0.5
 40
0.625
 40
0.625
 40
0.75
 40
0.75
 40
1.0
 40
1.0
 40
1.0
 40
1.0
 10
76.37970426570689
 20
42.65765152485143
 30
0.0
 10
76.61055067016723
 20
43.4573269273912
 30
0.0
 10
76.80357165500502
 20
44.27439713133155
 30
0.0
 10
77.06758030805987
 20
45.91190455278944
 30
0.0
 10
77.13900660564022
 20
46.73622917520019
 30
0.0
 10
77.13883695899982
 20
47.98258452959868
 30
0.0
 10
77.12099258059071
 20
48.40085306379648
 30
0.0
 10
77.05073482140135
 20
49.2353143591066
 30
0.0
 10
76.99876283471836
 20
49.64820235436461
 30
0.0
 10
76.79937219357801
 20
50.87565727835084
 30
0.0
 10
76.60877239408346
 20
51.67909082758918
 30
0.0
 10
76.37970426570688
 20
52.47260610107509
 30
0.0
  0
LINE
  5
9D
330
1F
100
AcDbEntity
  8
0
  6
Continuous
 62
     7
370
    25
100
AcDbLine
 10
76.3797042657
 20
42.6576515249
 30
0.0
 11
74.280242982
 21
42.6576515249
 31
0.0
  0
SPLINE
  5
9E
330
1F
100
AcDbEntity
  8
0
  6
Continuous
 62
     7
370
    25
100
AcDbSpline
210
0.0
220
0.0
230
1.0
 70
     8
 71
     3
 72
     8
 73
     4
 74
     0
 42
0.000000001
 43
0.00000001
 40
0.0
 40
0.0
 40
0.0
 40
0.0
 40
1.0
 40
1.0
 40
1.0
 40
1.0
 10
74.19985822424896
 20
43.28910722887376
 30
0.0
 10
74.2252322548333
 20
43.07838816068946
 30
0.0
 10
74.25207361155029
 20
42.86791056816061
 30
0.0
 10
74.2802429819783
 20
42.65765152485145
 30
0.0
  0
SPLINE
  5
9F
330
1F
100
AcDbEntity
  8
0
  6
Continuous
 62
     7
370
    25
100
AcDbSpline
210
0.0
220
0.0
230
1.0
 70
     8
 71
     3
 72
     8
 73
     4
 74
     0
 42
0.000000001
 43
0.00000001
 40
0.0
 40
0.0
 40
0.0
 40
0.0
 40
1.0
 40
1.0
 40
1.0
 40
1.0
 10
74.11947346651964
 20
42.65765152485144
 30
0.0
 10
74.14765661841179
 20
42.86801343440936
 30
0.0
 10
74.17449701420992
 20
43.07849462912558
 30
0.0
 10
74.19985822424896
 20
43.28910722887376
 30
0.0
  0
LINE
  5
A0
330
1F
100
AcDbEntity
  8
0
  6
Continuous
 62
     7
370
    25
100
AcDbLine
 10
74.2371975577
 20
46.9677824125
 30
0.0
 11
74.92169275
 21
46.5200660664
 31
0.0
  0
SPLINE
  5
A1
330
1F
100
AcDbEntity
  8
0
  6
Continuous
 62
     7
370
    25
100
AcDbSpline
210
0.0
220
0.0
230
1.0
 70
     8
 71
     3
 72
    19
 73
    15
 74
     0
 42
0.000000001
 43
0.00000001
 40
0.0
 40
0.0
 40
0.0
 40
0.0
 40
0.0978059775289525
 40
0.1996122522918966
 40
0.3052960258330041
 40
0.4158173591641854
 40
0.474240566618493
 40
0.5372869128296534
 40
0.6033858352934854
 40
0.6743111580696056
 40
0.749530467357482
 40
0.8286083142695116
 40
0.9120427387714447
 40
0.9999999999999999
 40
0.9999999999999999
 40
0.9999999999999999
 40
0.9999999999999999
 10
73.80150044232836
 20
47.13545068177554
 30
0.0
 10
73.81694249629169
 20
47.13490706107505
 30
0.0
 10
73.84845818939664
 20
47.13379758540535
 30
0.0
 10
73.89632766345905
 20
47.12717636243235
 30
0.0
 10
73.94511647664135
 20
47.11503223053332
 30
0.0
 10
73.98647604228736
 20
47.10188962556377
 30
0.0
 10
74.02072925609257
 20
47.08884819411874
 30
0.0
 10
74.04777811419963
 20
47.07675587880202
 30
0.0
 10
74.0763425768769
 20
47.06323519686254
 30
0.0
 10
74.1058821763825
 20
47.04738707474332
 30
0.0
 10
74.13724092305542
 20
47.03058678634362
 30
0.0
 10
74.1692575067721
 20
47.01096214299527
 30
0.0
 10
74.20310127203173
 20
46.99048352611494
 30
0.0
 10
74.22563392523344
 20
46.97548141344639
 30
0.0
 10
74.23719755771297
 20
46.96778241254478
 30
0.0
  0
SPLINE
  5
A2
330
1F
100
AcDbEntity
  8
0
  6
Continuous
 62
     7
370
    25
100
AcDbSpline
210
0.0
220
0.0
230
1.0
 70
     8
 71
     3
 72
    19
 73
    15
 74
     0
 42
0.000000001
 43
0.00000001
 40
0.0
 40
0.0
 40
0.0
 40
0.0
 40
0.0843261511037433
 40
0.1670353409858406
 40
0.2495407139852792
 40
0.3327066655796642
 40
0.4158726171740492
 40
0.4977774155681174
 40
0.5803136056784763
 40
0.6645325781316563
 40
0.7495711764063215
 40
0.8324741628544073
 40
0.9156738488962566
 40
1.0
 40
1.0
 40
1.0
 40
1.0
 10
73.3447696730976
 20
46.68112375869863
 30
0.0
 10
73.34542461676274
 20
46.70130806287036
 30
0.0
 10
73.34672194549177
 20
46.74128963544018
 30
0.0
 10
73.3582788001946
 20
46.80010363318853
 30
0.0
 10
73.37701032410877
 20
46.85661657040686
 30
0.0
 10
73.4028167881563
 20
46.91043120811229
 30
0.0
 10
73.43541174158781
 20
46.96028591709413
 30
0.0
 10
73.47465744497596
 20
47.00487435051769
 30
0.0
 10
73.51968652322535
 20
47.04404137585924
 30
0.0
 10
73.57063710906652
 20
47.07646474319916
 30
0.0
 10
73.62503425030434
 20
47.10288987558305
 30
0.0
 10
73.68227185904898
 20
47.12152790357999
 30
0.0
 10
73.74119800571145
 20
47.13358116493536
 30
0.0
 10
73.7813097246873
 20
47.13482472221632
 30
0.0
 10
73.80150044232836
 20
47.13545068177554
 30
0.0
  0
SPLINE
  5
A3
330
1F
100
AcDbEntity
  8
0
  6
Continuous
 62
     7
370
    25
100
AcDbSpline
210
0.0
220
0.0
230
1.0
 70
     8
 71
     3
 72
    19
 73
    15
 74
     0
 42
0.000000001
 43
0.00000001
 40
0.0
 40
0.0
 40
0.0
 40
0.0
 40
0.0859901205637198
 40
0.1691084375726415
 40
0.2505285789581879
 40
0.332255696176845
 40
0.4135763652356403
 40
0.4941261456201216
 40
0.576305934120417
 40
0.6607126719045473
 40
0.7461272722239103
 40
0.8300149859609743
 40
0.9144197259288509
 40
1.0
 40
1.0
 40
1.0
 40
1.0
 10
73.80420476925144
 20
46.21237375869862
 30
0.0
 10
73.78322594596531
 20
46.21315655670175
 30
0.0
 10
73.74196892708024
 20
46.21469600968051
 30
0.0
 10
73.68162717793848
 20
46.22590257351379
 30
0.0
 10
73.62460228271763
 20
46.24524259880995
 30
0.0
 10
73.57067014299466
 20
46.27111723349029
 30
0.0
 10
73.52139991752894
 20
46.30468753744297
 30
0.0
 10
73.47687284549866
 20
46.34447019329846
 30
0.0
 10
73.43806096109725
 20
46.39084125837294
 30
0.0
 10
73.4047658622395
 20
46.4427026556091
 30
0.0
 10
73.37831294812179
 20
46.49883279340612
 30
0.0
 10
73.35875576878072
 20
46.55768707893197
 30
0.0
 10
73.34706985710085
 20
46.61876245751368
 30
0.0
 10
73.34553992784882
 20
46.66024104302818
 30
0.0
 10
73.3447696730976
 20
46.68112375869863
 30
0.0
  0
SPLINE
  5
A4
330
1F
100
AcDbEntity
  8
0
  6
Continuous
 62
     7
370
    25
100
AcDbSpline
210
0.0
220
0.0
230
1.0
 70
     8
 71
     3
 72
    23
 73
    19
 74
     0
 42
0.000000001
 43
0.00000001
 40
0.0
 40
0.0
 40
0.0
 40
0.0
 40
0.0652308037420294
 40
0.1284048960032227
 40
0.1900670715964781
 40
0.25094336576828
 40
0.3115458328521431
 40
0.3728628021568291
 40
0.4350236738562383
 40
0.4990717247070431
 40
0.563091075049662
 40
0.625510106330375
 40
0.6866800359296492
 40
0.7472825030135124
 40
0.8085634952159588
 40
0.8707421035159856
 40
0.9343409515059125
 40
1.0
 40
1.0
 40
1.0
 40
1.0
 10
74.24861582694373
 20
46.65738577792939
 30
0.0
 10
74.2482060647884
 20
46.64214042235717
 30
0.0
 10
74.2473994601795
 20
46.61213039359034
 30
0.0
 10
74.24119209559728
 20
46.56807033551577
 30
0.0
 10
74.23140990477287
 20
46.5257322200987
 30
0.0
 10
74.21715036650936
 20
46.48529152913209
 30
0.0
 10
74.19893507178266
 20
46.44660310833513
 30
0.0
 10
74.17710412737674
 20
46.40944493857433
 30
0.0
 10
74.15053026436671
 20
46.37451550567167
 30
0.0
 10
74.12084528331647
 20
46.34136500029514
 30
0.0
 10
74.0879665756757
 20
46.31126767284102
 30
0.0
 10
74.05308028851596
 20
46.2846207918878
 30
0.0
 10
74.01622276808817
 20
46.2622378811446
 30
0.0
 10
73.97741268268817
 20
46.24407762902406
 30
0.0
 10
73.93670985716221
 20
46.22997553819641
 30
0.0
 10
73.89416636881005
 20
46.219695118892
 30
0.0
 10
73.84975288104143
 20
46.21361815054064
 30
0.0
 10
73.81954794878449
 20
46.21279294023417
 30
0.0
 10
73.80420476925144
 20
46.21237375869862
 30
0.0
  0
SPLINE
  5
A5
330
1F
100
AcDbEntity
  8
0
  6
Continuous
 62
     7
370
    25
100
AcDbSpline
210
0.0
220
0.0
230
1.0
 70
     8
 71
     3
 72
     9
 73
     5
 74
     0
 42
0.000000001
 43
0.00000001
 40
0.0
 40
0.0
 40
0.0
 40
0.0
 40
0.5126593363417812
 40
1.0
 40
1.0
 40
1.0
 40
1.0
 10
74.23419275002067
 20
46.8127343356217
 30
0.0
 10
74.23839869030078
 20
46.78634707405741
 30
0.0
 10
74.246602852367
 20
46.73487573686774
 30
0.0
 10
74.24795625755918
 20
46.68277606607157
 30
0.0
 10
74.24861582694373
 20
46.65738577792939
 30
0.0
  0
LINE
  5
A6
330
1F
100
AcDbEntity
  8
0
  6
Continuous
 62
     7
370
    25
100
AcDbLine
 10
74.8402624616
 20
46.416400201
 30
0.0
 11
74.23419275
 21
46.8127343356
 31
0.0
  0
LINE
  5
A7
330
1F
100
AcDbEntity
  8
0
  6
Continuous
 62
     7
370
    25
100
AcDbLine
 10
74.92169275
 20
46.5200660664
 30
0.0
 11
74.8402624616
 21
46.416400201
 31
0.0
  0
LINE
  5
A8
330
1F
100
AcDbEntity
  8
0
  6
Continuous
 62
     7
370
    25
100
AcDbLine
 10
74.7293850577
 20
47.8638330867
 30
0.0
 11
74.8832312116
 21
47.7757922213
 31
0.0
  0
LINE
  5
A9
330
1F
100
AcDbEntity
  8
0
  6
Continuous
 62
     7
370
    25
100
AcDbLine
 10
74.7293850577
 20
47.6330638559
 30
0.0
 11
74.7293850577
 21
47.8638330867
 31
0.0
  0
LINE
  5
AA
330
1F
100
AcDbEntity
  8
0
  6
Continuous
 62
     7
370
    25
100
AcDbLine
 10
73.3832312116
 20
47.6330638559
 30
0.0
 11
74.7293850577
 21
47.6330638559
 31
0.0
  0
LINE
  5
AB
330
1F
100
AcDbEntity
  8
0
  6
Continuous
 62
     7
370
    25
100
AcDbLine
 10
73.3832312116
 20
47.4984484713
 30
0.0
 11
73.3832312116
 21
47.6330638559
 31
0.0
  0
LINE
  5
AC
330
1F
100
AcDbEntity
  8
0
  6
Continuous
 62
     7
370
    25
100
AcDbLine
 10
74.8832312116
 20
47.4984484713
 30
0.0
 11
73.3832312116
 21
47.4984484713
 31
0.0
  0
LINE
  5
AD
330
1F
100
AcDbEntity
  8
0
  6
Continuous
 62
     7
370
    25
100
AcDbLine
 10
74.8832312116
 20
47.7757922213
 30
0.0
 11
74.8832312116
 21
47.4984484713
 31
0.0
  0
SPLINE
  5
AE
330
1F
100
AcDbEntity
  8
0
  6
Continuous
 62
     7
370
    25
100
AcDbSpline
210
0.0
220
0.0
230
1.0
 70
     8
 71
     3
 72
    19
 73
    15
 74
     0
 42
0.000000001
 43
0.00000001
 40
0.0
 40
0.0
 40
0.0
 40
0.0
 40
0.1227280999764553
 40
0.239716523588393
 40
0.3518621792202463
 40
0.4632019818032239
 40
0.5202611541541643
 40
0.5794324380306665
 40
0.6405963441586369
 40
0.70529822908802
 40
0.7732361059084537
 40
0.844648929340316
 40
0.9200459817773698
 40
1.0
 40
1.0
 40
1.0
 40
1.0
 10
74.76784659617451
 20
48.69117090758378
 30
0.0
 10
74.76725145482673
 20
48.70825075826905
 30
0.0
 10
74.76608900535541
 20
48.74161167912145
 30
0.0
 10
74.75587159847525
 20
48.78969592272868
 30
0.0
 10
74.73968317054367
 20
48.83435059175773
 30
0.0
 10
74.72013569183046
 20
48.868368441836
 30
0.0
 10
74.70090620946768
 20
48.89353104662766
 30
0.0
 10
74.68436308582062
 20
48.91185674861251
 30
0.0
 10
74.66560657194543
 20
48.92952460253494
 30
0.0
 10
74.64412219777567
 20
48.94584130578409
 30
0.0
 10
74.62064872398298
 20
48.96178458977095
 30
0.0
 10
74.59505686741397
 20
48.97720221996521
 30
0.0
 10
74.5669817647841
 20
48.99159898172811
 30
0.0
 10
74.54723854340712
 20
49.00036252633843
 30
0.0
 10
74.53707736540528
 20
49.00487283066071
 30
0.0
  0
SPLINE
  5
AF
330
1F
100
AcDbEntity
  8
0
  6
Continuous
 62
     7
370
    25
100
AcDbSpline
210
0.0
220
0.0
230
1.0
 70
     8
 71
     3
 72
    23
 73
    19
 74
     0
 42
0.000000001
 43
0.00000001
 40
0.0
 40
0.0
 40
0.0
 40
0.0
 40
0.0552698294993248
 40
0.1099567044850938
 40
0.1632335040550556
 40
0.2180575651623568
 40
0.2732775387226747
 40
0.330881045495497
 40
0.3904799376860887
 40
0.4536559730386417
 40
0.5189026226022311
 40
0.5833461108214766
 40
0.6485466930814431
 40
0.7150552190344909
 40
0.7825206438000536
 40
0.852335294426451
 40
0.9249348997257087
 40
0.9999999999999999
 40
0.9999999999999999
 40
0.9999999999999999
 40
0.9999999999999999
 10
74.53257015386683
 20
48.3894882152761
 30
0.0
 10
74.5404034920452
 20
48.3896657992976
 30
0.0
 10
74.5559875468363
 20
48.39001909428605
 30
0.0
 10
74.57875515709169
 20
48.3944753738739
 30
0.0
 10
74.6008280225617
 20
48.40117025888759
 30
0.0
 10
74.62210598969834
 20
48.41038019580957
 30
0.0
 10
74.64246555128278
 20
48.4226850660896
 30
0.0
 10
74.66193168450975
 20
48.43745500955051
 30
0.0
 10
74.68083062161307
 20
48.45469715493583
 30
0.0
 10
74.6982582143167
 20
48.47486212529518
 30
0.0
 10
74.71469689700908
 20
48.49669285634815
 30
0.0
 10
74.72890752668607
 20
48.5203947615321
 30
0.0
 10
74.74095244690352
 20
48.54544506639578
 30
0.0
 10
74.75090411867359
 20
48.57186680647708
 30
0.0
 10
74.7583853650424
 20
48.59976582641083
 30
0.0
 10
74.76375823429609
 20
48.62900551761158
 30
0.0
 10
74.76711712738978
 20
48.65964316919013
 30
0.0
 10
74.76760074830847
 20
48.68054532994755
 30
0.0
 10
74.76784659617451
 20
48.69117090758378
 30
0.0
  0
SPLINE
  5
B0
330
1F
100
AcDbEntity
  8
0
  6
Continuous
 62
     7
370
    25
100
AcDbSpline
210
0.0
220
0.0
230
1.0
 70
     8
 71
     3
 72
    19
 73
    15
 74
     0
 42
0.000000001
 43
0.00000001
 40
0.0
 40
0.0
 40
0.0
 40
0.0
 40
0.1101423815503176
 40
0.2157418685830274
 40
0.3179605426392306
 40
0.4180517606815226
 40
0.5115631470355316
 40
0.5965727584443461
 40
0.6733290469034968
 40
0.7440491927238595
 40
0.8107168223002833
 40
0.8740854521098849
 40
0.9367096168966699
 40
1.0
 40
1.0
 40
1.0
 40
1.0
 10
74.28707736540528
 20
48.77410359989148
 30
0.0
 10
74.28739365437389
 20
48.75554647035931
 30
0.0
 10
74.28801318676584
 20
48.71919761223172
 30
0.0
 10
74.29545443387644
 20
48.6660928327531
 30
0.0
 10
74.30586375969632
 20
48.61525128312147
 30
0.0
 10
74.3214399313378
 20
48.56783347904668
 30
0.0
 10
74.3401357830378
 20
48.52475476094841
 30
0.0
 10
74.3612167211604
 20
48.4871753255954
 30
0.0
 10
74.38510047820122
 20
48.45598579090474
 30
0.0
 10
74.41147360274944
 20
48.43110823260329
 30
0.0
 10
74.44008939214095
 20
48.41284898815137
 30
0.0
 10
74.46960231950176
 20
48.39914361669594
 30
0.0
 10
74.50069905270375
 20
48.39110897264313
 30
0.0
 10
74.52190904587168
 20
48.39003037003992
 30
0.0
 10
74.53257015386683
 20
48.3894882152761
 30
0.0
  0
LINE
  5
B1
330
1F
100
AcDbEntity
  8
0
  6
Continuous
 62
     7
370
    25
100
AcDbLine
 10
74.1332312116
 20
48.7741035999
 30
0.0
 11
74.2870773654
 21
48.7741035999
 31
0.0
  0
SPLINE
  5
B2
330
1F
100
AcDbEntity
  8
0
  6
Continuous
 62
     7
370
    25
100
AcDbSpline
210
0.0
220
0.0
230
1.0
 70
     8
 71
     3
 72
    23
 73
    19
 74
     0
 42
0.000000001
 43
0.00000001
 40
0.0
 40
0.0
 40
0.0
 40
0.0
 40
0.0669051223273616
 40
0.1334773340846825
 40
0.2010229080576287
 40
0.2712178684297488
 40
0.3428591616573978
 40
0.4138109980627169
 40
0.4855518488903453
 40
0.5598002749200529
 40
0.5998999649035781
 40
0.6436094423977958
 40
0.6919106424505659
 40
0.7447030291556902
 40
0.8015038302285953
 40
0.8628660266331954
 40
0.9293326711591618
 40
1.0
 40
1.0
 40
1.0
 40
1.0
 10
73.81592351925144
 20
48.31256513835302
 30
0.0
 10
73.82989982313399
 20
48.31322097021803
 30
0.0
 10
73.85778288675759
 20
48.31452937062006
 30
0.0
 10
73.89880446771762
 20
48.32451893624513
 30
0.0
 10
73.93832971008963
 20
48.34094919769489
 30
0.0
 10
73.97567857629369
 20
48.36395436808816
 30
0.0
 10
74.010310644309
 20
48.39194520175597
 30
0.0
 10
74.04109006326554
 20
48.42465074902242
 30
0.0
 10
74.06674293405761
 20
48.46215123651125
 30
0.0
 10
74.08440140829336
 20
48.49688809769597
 30
0.0
 10
74.09617003875904
 20
48.52773109945095
 30
0.0
 10
74.104421982124
 20
48.55407347343306
 30
0.0
 10
74.11101843942797
 20
48.58359065174021
 30
0.0
 10
74.11739920015162
 20
48.61592828707708
 30
0.0
 10
74.12274842501972
 20
48.65122276327205
 30
0.0
 10
74.127228610509
 20
48.68950587842209
 30
0.0
 10
74.13080783135304
 20
48.73079303411618
 30
0.0
 10
74.13240708868737
 20
48.75937490492466
 30
0.0
 10
74.13323121155912
 20
48.77410359989148
 30
0.0
  0
SPLINE
  5
B3
330
1F
100
AcDbEntity
  8
0
  6
Continuous
 62
     7
370
    25
100
AcDbSpline
210
0.0
220
0.0
230
1.0
 70
     8
 71
     3
 72
    23
 73
    19
 74
     0
 42
0.000000001
 43
0.00000001
 40
0.0
 40
0.0
 40
0.0
 40
0.0
 40
0.0760618905628339
 40
0.1487324608035359
 40
0.2183745247439722
 40
0.2857225935927383
 40
0.3510576941824569
 40
0.414934915729319
 40
0.4784859417740854
 40
0.542169035281216
 40
0.6047501165431387
 40
0.6641185017301124
 40
0.7214996756099116
 40
0.7776159163852547
 40
0.832666108697549
 40
0.8878580281135741
 40
0.9434676608977686
 40
1.0
 40
1.0
 40
1.0
 40
1.0
 10
73.49861582694373
 20
48.69447619604533
 30
0.0
 10
73.498879357053
 20
48.68043879060954
 30
0.0
 10
73.4993946674319
 20
48.65298985608644
 30
0.0
 10
73.50414739645491
 20
48.61294042822274
 30
0.0
 10
73.51103900158081
 20
48.57482775110784
 30
0.0
 10
73.52181881194284
 20
48.53904076449618
 30
0.0
 10
73.53475097526722
 20
48.50509249531964
 30
0.0
 10
73.55168155053991
 20
48.47374076702558
 30
0.0
 10
73.57080189817569
 20
48.44406387753648
 30
0.0
 10
73.59304253989164
 20
48.41693122256218
 30
0.0
 10
73.61708226621637
 20
48.39246980739131
 30
0.0
 10
73.64258627347847
 20
48.37133244203851
 30
0.0
 10
73.66876377148142
 20
48.35302506617498
 30
0.0
 10
73.69622542834006
 20
48.33830899119395
 30
0.0
 10
73.72470186727696
 20
48.32666788517717
 30
0.0
 10
73.75429967585528
 20
48.31874788979425
 30
0.0
 10
73.78476962200716
 20
48.31323973120152
 30
0.0
 10
73.80548207933657
 20
48.31279123272058
 30
0.0
 10
73.81592351925144
 20
48.31256513835302
 30
0.0
  0
SPLINE
  5
B4
330
1F
100
AcDbEntity
  8
0
  6
Continuous
 62
     7
370
    25
100
AcDbSpline
210
0.0
220
0.0
230
1.0
 70
     8
 71
     3
 72
    15
 73
    11
 74
     0
 42
0.000000001
 43
0.00000001
 40
0.0
 40
0.0
 40
0.0
 40
0.0
 40
0.1182713048357256
 40
0.2361775330837632
 40
0.355662932948509
 40
0.4759041646706825
 40
0.6001273417110832
 40
0.7286081161551193
 40
0.8613134756739422
 40
1.0
 40
1.0
 40
1.0
 40
1.0
 10
73.57974563463605
 20
48.94507715758379
 30
0.0
 10
73.5732706343994
 20
48.9366786247873
 30
0.0
 10
73.56034062077748
 20
48.91990748355271
 30
0.0
 10
73.54383992283273
 20
48.89257824165337
 30
0.0
 10
73.5295423405464
 20
48.86383614761664
 30
0.0
 10
73.51862075666799
 20
48.83305843009339
 30
0.0
 10
73.50937318775834
 20
48.80090924275594
 30
0.0
 10
73.50332153670156
 20
48.76686894337088
 30
0.0
 10
73.49916946326876
 20
48.73123785032298
 30
0.0
 10
73.49880306405774
 20
48.70690880883025
 30
0.0
 10
73.49861582694373
 20
48.69447619604533
 30
0.0
  0
SPLINE
  5
B5
330
1F
100
AcDbEntity
  8
0
  6
Continuous
 62
     7
370
    25
100
AcDbSpline
210
0.0
220
0.0
230
1.0
 70
     8
 71
     3
 72
    15
 73
    11
 74
     0
 42
0.000000001
 43
0.00000001
 40
0.0
 40
0.0
 40
0.0
 40
0.0
 40
0.1497703860319681
 40
0.2913164099952446
 40
0.4259663731047426
 40
0.5521595739695285
 40
0.6715274135235928
 40
0.7861216286916589
 40
0.8953250730704446
 40
1.0
 40
1.0
 40
1.0
 40
1.0
 10
73.78707736540528
 20
49.06256513835302
 30
0.0
 10
73.77552778829015
 20
49.05905801345004
 30
0.0
 10
73.75306285759669
 20
49.05223635088237
 30
0.0
 10
73.72073129802173
 20
49.04062450886732
 30
0.0
 10
73.69109213235396
 20
49.02739524940856
 30
0.0
 10
73.66392793722054
 20
49.01320329570738
 30
0.0
 10
73.63897119330731
 20
48.99829824741193
 30
0.0
 10
73.61688182086415
 20
48.98162042235347
 30
0.0
 10
73.59668959134567
 20
48.96440507443319
 30
0.0
 10
73.58531332908558
 20
48.95142820871119
 30
0.0
 10
73.57974563463605
 20
48.94507715758379
 30
0.0
  0
LINE
  5
B6
330
1F
100
AcDbEntity
  8
0
  6
Continuous
 62
     7
370
    25
100
AcDbLine
 10
73.7870773654
 20
49.197180523
 30
0.0
 11
73.7870773654
 21
49.0625651384
 31
0.0
  0
SPLINE
  5
B7
330
1F
100
AcDbEntity
  8
0
  6
Continuous
 62
     7
370
    25
100
AcDbSpline
210
0.0
220
0.0
230
1.0
 70
     8
 71
     3
 72
    23
 73
    19
 74
     0
 42
0.000000001
 43
0.00000001
 40
0.0
 40
0.0
 40
0.0
 40
0.0
 40
0.0655411703374033
 40
0.1289631677825933
 40
0.1903771361885609
 40
0.2500923616690527
 40
0.308548432459201
 40
0.3663979630552958
 40
0.42454218926668
 40
0.4831699964229055
 40
0.5422433998311199
 40
0.6017393520173299
 40
0.6625060022496068
 40
0.7248555134488469
 40
0.7891278292811811
 40
0.8563463998785099
 40
0.9262952349869055
 40
1.0
 40
1.0
 40
1.0
 40
1.0
 10
73.3447696730976
 20
48.69688004219918
 30
0.0
 10
73.34514176449409
 20
48.71291688517766
 30
0.0
 10
73.34587391628433
 20
48.74447204449341
 30
0.0
 10
73.35087903108287
 20
48.7908621152304
 30
0.0
 10
73.36002046189905
 20
48.83514284352948
 30
0.0
 10
73.37232187848453
 20
48.87737409975377
 30
0.0
 10
73.38791833937617
 20
48.9175934010653
 30
0.0
 10
73.40734063852817
 20
48.95567801757002
 30
0.0
 10
73.43018842512181
 20
48.99186225765007
 30
0.0
 10
73.45673139132462
 20
49.02580466528346
 30
0.0
 10
73.48642339407752
 20
49.05750119430042
 30
0.0
 10
73.51979154120653
 20
49.08610950468476
 30
0.0
 10
73.55621900002983
 20
49.1121065588028
 30
0.0
 10
73.59612888125785
 20
49.13479626110772
 30
0.0
 10
73.6390054200912
 20
49.15521209794309
 30
0.0
 10
73.68539763368332
 20
49.17200393650623
 30
0.0
 10
73.73489078596432
 20
49.18678346592177
 30
0.0
 10
73.76938124603969
 20
49.19365495059866
 30
0.0
 10
73.78707736540528
 20
49.1971805229684
 30
0.0
  0
SPLINE
  5
B8
330
1F
100
AcDbEntity
  8
0
  6
Continuous
 62
     7
370
    25
100
AcDbSpline
210
0.0
220
0.0
230
1.0
 70
     8
 71
     3
 72
    19
 73
    15
 74
     0
 42
0.000000001
 43
0.00000001
 40
0.0
 40
0.0
 40
0.0
 40
0.0
 40
0.079641704194991
 40
0.1589086132578561
 40
0.2395997983184508
 40
0.3224093988203484
 40
0.405827748173513
 40
0.4876442139503137
 40
0.5697199979738974
 40
0.6530646649976934
 40
0.7374573001733065
 40
0.8224924079539125
 40
0.9097550737466981
 40
1.0
 40
1.0
 40
1.0
 40
1.0
 10
73.82884419232836
 20
48.17794975373764
 30
0.0
 10
73.80784086132503
 20
48.17872052444915
 30
0.0
 10
73.76593304132962
 20
48.18025843861289
 30
0.0
 10
73.70400277528694
 20
48.19394906831594
 30
0.0
 10
73.64356960122467
 20
48.21529567261616
 30
0.0
 10
73.58552894229967
 20
48.24507961631659
 30
0.0
 10
73.53133755194006
 20
48.28193017870623
 30
0.0
 10
73.4830709679035
 20
48.32601432424563
 30
0.0
 10
73.44130286165617
 20
48.37626037438821
 30
0.0
 10
73.40651715539961
 20
48.43233947875906
 30
0.0
 10
73.37869009132231
 20
48.49307005790736
 30
0.0
 10
73.35938114567833
 20
48.55803247702706
 30
0.0
 10
73.3468039108506
 20
48.62628210486356
 30
0.0
 10
73.34545530487864
 20
48.67308528691936
 30
0.0
 10
73.3447696730976
 20
48.69688004219918
 30
0.0
  0
SPLINE
  5
B9
330
1F
100
AcDbEntity
  8
0
  6
Continuous
 62
     7
370
    25
100
AcDbSpline
210
0.0
220
0.0
230
1.0
 70
     8
 71
     3
 72
    15
 73
    11
 74
     0
 42
0.000000001
 43
0.00000001
 40
0.0
 40
0.0
 40
0.0
 40
0.0
 40
0.1281455049994643
 40
0.2541925386280419
 40
0.3781411397135888
 40
0.5013808330744057
 40
0.6239569784447038
 40
0.7470758858273289
 40
0.8728647202442611
 40
1.0
 40
1.0
 40
1.0
 40
1.0
 10
74.09537063463605
 20
48.2674930229684
 30
0.0
 10
74.08548979421104
 20
48.26027236678085
 30
0.0
 10
74.06588991896439
 20
48.24594929765031
 30
0.0
 10
74.03435892239881
 20
48.22831984898639
 30
0.0
 10
74.0025828231633
 20
48.21214364156529
 30
0.0
 10
73.96931222601947
 20
48.20023842115518
 30
0.0
 10
73.93561584139894
 20
48.18996468771713
 30
0.0
 10
73.90077209503302
 20
48.18320491320479
 30
0.0
 10
73.86511203200547
 20
48.1788654083591
 30
0.0
 10
73.84097630119646
 20
48.1782560532485
 30
0.0
 10
73.82884419232836
 20
48.17794975373764
 30
0.0
  0
SPLINE
  5
BA
330
1F
100
AcDbEntity
  8
0
  6
Continuous
 62
     7
370
    25
100
AcDbSpline
210
0.0
220
0.0
230
1.0
 70
     8
 71
     3
 72
    11
 73
     7
 74
     0
 42
0.000000001
 43
0.00000001
 40
0.0
 40
0.0
 40
0.0
 40
0.0
 40
0.253879600326656
 40
0.5030089172783633
 40
0.7502910806899731
 40
1.0
 40
1.0
 40
1.0
 40
1.0
 10
74.22337544232836
 20
48.43005311912225
 30
0.0
 10
74.21567051166772
 20
48.41409665287654
 30
0.0
 10
74.20040481554906
 20
48.38248227819059
 30
0.0
 10
74.17046663375596
 20
48.33938919410505
 30
0.0
 10
74.13589962774715
 20
48.30027010466636
 30
0.0
 10
74.10892420506991
 20
48.27845422509331
 30
0.0
 10
74.09537063463605
 20
48.2674930229684
 30
0.0
  0
SPLINE
  5
BB
330
1F
100
AcDbEntity
  8
0
  6
Continuous
 62
     7
370
    25
100
AcDbSpline
210
0.0
220
0.0
230
1.0
 70
     8
 71
     3
 72
    15
 73
    11
 74
     0
 42
0.000000001
 43
0.00000001
 40
0.0
 40
0.0
 40
0.0
 40
0.0
 40
0.1280675485958904
 40
0.2506083188676684
 40
0.3706301659145029
 40
0.4900722467299488
 40
0.6103747641546199
 40
0.7343130699115256
 40
0.8632165042449895
 40
1.0
 40
1.0
 40
1.0
 40
1.0
 10
74.53196919232836
 20
48.25487283066071
 30
0.0
 10
74.51610913745454
 20
48.25537151253803
 30
0.0
 10
74.48507347125606
 20
48.25634735558565
 30
0.0
 10
74.43976425819685
 20
48.26463322939808
 30
0.0
 10
74.39706071521876
 20
48.27857734205931
 30
0.0
 10
74.3567830743087
 20
48.29789295459268
 30
0.0
 10
74.3191867143845
 20
48.32289647612424
 30
0.0
 10
74.28418704687287
 20
48.35318477479152
 30
0.0
 10
74.25162883624648
 20
48.38897162983816
 30
0.0
 10
74.2329776335427
 20
48.41609117470528
 30
0.0
 10
74.22337544232836
 20
48.43005311912225
 30
0.0
  0
SPLINE
  5
BC
330
1F
100
AcDbEntity
  8
0
  6
Continuous
 62
     7
370
    25
100
AcDbSpline
210
0.0
220
0.0
230
1.0
 70
     8
 71
     3
 72
    19
 73
    15
 74
     0
 42
0.000000001
 43
0.00000001
 40
0.0
 40
0.0
 40
0.0
 40
0.0
 40
0.0902542493426766
 40
0.1785397915286843
 40
0.2660930338538198
 40
0.3546309779571733
 40
0.4418861533505626
 40
0.5257469151636484
 40
0.6081136336036366
 40
0.6901972728278825
 40
0.770821484330335
 40
0.8483261812554109
 40
0.9240117400247433
 40
1.0
 40
1.0
 40
1.0
 40
1.0
 10
74.92169275002067
 20
48.69297379219918
 30
0.0
 10
74.92110165134426
 20
48.673395474167
 30
0.0
 10
74.91993234756934
 20
48.63466589804837
 30
0.0
 10
74.90925473193545
 20
48.5777674493553
 30
0.0
 10
74.8923582466408
 20
48.52289881259725
 30
0.0
 10
74.86901236358209
 20
48.47066056353311
 30
0.0
 10
74.84021780079831
 20
48.4221383781347
 30
0.0
 10
74.805947199272
 20
48.37896572667166
 30
0.0
 10
74.76686178434883
 20
48.34172779346996
 30
0.0
 10
74.72369068535517
 20
48.31048734590134
 30
0.0
 10
74.67755260990363
 20
48.28602663202119
 30
0.0
 10
74.63006682826908
 20
48.2679896148156
 30
0.0
 10
74.5813459833881
 20
48.2570088943876
 30
0.0
 10
74.54845000659876
 20
48.25558579861178
 30
0.0
 10
74.53196919232836
 20
48.25487283066071
 30
0.0
  0
SPLINE
  5
BD
330
1F
100
AcDbEntity
  8
0
  6
Continuous
 62
     7
370
    25
100
AcDbSpline
210
0.0
220
0.0
230
1.0
 70
     8
 71
     3
 72
    23
 73
    19
 74
     0
 42
0.000000001
 43
0.00000001
 40
0.0
 40
0.0
 40
0.0
 40
0.0
 40
0.0726253460834355
 40
0.1419766113262345
 40
0.2089849284189386
 40
0.2739568703644447
 40
0.336889347396841
 40
0.3987449534945902
 40
0.4601158852788617
 40
0.5208249225900291
 40
0.5809944586324857
 40
0.6401519276014648
 40
0.6986224507562546
 40
0.7572710809271643
 40
0.8164266940046602
 40
0.8762540482034705
 40
0.9371652930625374
 40
1.0
 40
1.0
 40
1.0
 40
1.0
 10
74.53707736540528
 20
49.1394882152761
 30
0.0
 10
74.55217700139472
 20
49.13584126498424
 30
0.0
 10
74.58169555470501
 20
49.12871177545976
 30
0.0
 10
74.62387009506816
 20
49.11384138683024
 30
0.0
 10
74.66378017566417
 20
49.09764170603255
 30
0.0
 10
74.7006784929622
 20
49.07818923264765
 30
0.0
 10
74.73530659413335
 20
49.05697119512217
 30
0.0
 10
74.76687907604826
 20
49.03266145732108
 30
0.0
 10
74.79619891839131
 20
49.00638157622141
 30
0.0
 10
74.8222188773444
 20
48.97731374080635
 30
0.0
 10
74.84578076129013
 20
48.94683002867458
 30
0.0
 10
74.86587007157972
 20
48.91450090592427
 30
0.0
 10
74.88315185137878
 20
48.88097680863687
 30
0.0
 10
74.89738909361108
 20
48.84602546594462
 30
0.0
 10
74.90811431803942
 20
48.80954282093376
 30
0.0
 10
74.91589580614975
 20
48.77185869665341
 30
0.0
 10
74.92094914081308
 20
48.73287433946142
 30
0.0
 10
74.92144232499295
 20
48.70641108634788
 30
0.0
 10
74.92169275002067
 20
48.69297379219918
 30
0.0
  0
LINE
  5
BE
330
1F
100
AcDbEntity
  8
0
  6
Continuous
 62
     7
370
    25
100
AcDbLine
 10
74.5370773654
 20
49.0048728307
 30
0.0
 11
74.5370773654
 21
49.1394882153
 31
0.0
  0
SPLINE
  5
BF
330
1F
100
AcDbEntity
  8
0
  6
Continuous
 62
     7
370
    25
100
AcDbSpline
210
0.0
220
0.0
230
1.0
 70
     8
 71
     3
 72
     8
 73
     4
 74
     0
 42
0.000000001
 43
0.00000001
 40
0.0
 40
0.0
 40
0.0
 40
0.0
 40
1.0
 40
1.0
 40
1.0
 40
1.0
 10
74.2802429819783
 20
42.65765152485145
 30
0.0
 10
74.25206167615514
 20
42.55247745969575
 30
0.0
 10
74.22522115016041
 20
42.44723709746009
 30
0.0
 10
74.19985822424896
 20
42.34192367284028
 30
0.0
  0
LINE
  5
C0
330
1F
100
AcDbEntity
  8
0
  6
Continuous
 62
     7
370
    25
100
AcDbLine
 10
74.1998582242
 20
42.3419236728
 30
0.0
 11
74.1998582242
 21
43.2891072289
 31
0.0
  0
LINE
  5
C1
330
1F
100
AcDbEntity
  8
0
  6
Continuous
 62
     7
370
    25
100
AcDbLine
 10
74.1194734665
 20
37.7501742367
 30
0.0
 11
72.0200121828
 21
37.7501742367
 31
0.0
  0
SPLINE
  5
C2
330
1F
100
AcDbEntity
  8
0
  6
Continuous
 62
     7
370
    25
100
AcDbSpline
210
0.0
220
0.0
230
1.0
 70
     8
 71
     3
 72
    10
 73
     6
 74
     0
 42
0.000000001
 43
0.00000001
 40
0.0
 40
0.0
 40
0.0
 40
0.0
 40
0.5
 40
0.5
 40
1.0
 40
1.0
 40
1.0
 40
1.0
 10
72.02001218279105
 20
37.75017423673961
 30
0.0
 10
71.82607708270997
 20
38.086079683451
 30
0.0
 10
71.6597052309146
 20
38.42627024712669
 30
0.0
 10
71.40745844304341
 20
39.10848311375739
 30
0.0
 10
71.32124320990758
 20
39.45164990145086
 30
0.0
 10
71.28323121155914
 20
39.7973052965831
 30
0.0
  0
SPLINE
  5
C3
330
1F
100
AcDbEntity
  8
0
  6
Continuous
 62
     7
370
    25
100
AcDbSpline
210
0.0
220
0.0
230
1.0
 70
     8
 71
     3
 72
    12
 73
     8
 74
     0
 42
0.000000001
 43
0.00000001
 40
0.0
 40
0.0
 40
0.0
 40
0.0
 40
0.2499999999999999
 40
0.2499999999999999
 40
0.4999999999999998
 40
0.4999999999999998
 40
1.0
 40
1.0
 40
1.0
 40
1.0
 10
71.28323121155914
 20
40.61052046500796
 30
0.0
 10
71.30242506543928
 20
40.78505638617258
 30
0.0
 10
71.33414108871516
 20
40.96046376907178
 30
0.0
 10
71.41961880349606
 20
41.30684969283356
 30
0.0
 10
71.4733961210466
 20
41.47855900827413
 30
0.0
 10
71.66344335917759
 20
41.98982741889376
 30
0.0
 10
71.82827212613817
 20
42.32554800488251
 30
0.0
 10
72.02001218279105
 20
42.65765152485144
 30
0.0
  0
SPLINE
  5
C4
330
1F
100
AcDbEntity
  8
0
  6
Continuous
 62
     7
370
    25
100
AcDbSpline
210
0.0
220
0.0
230
1.0
 70
     8
 71
     3
 72
     8
 73
     4
 74
     0
 42
0.000000001
 43
0.00000001
 40
0.0
 40
0.0
 40
0.0
 40
0.0
 40
1.0
 40
1.0
 40
1.0
 40
1.0
 10
74.19985822424896
 20
42.34192367284028
 30
0.0
 10
74.17448359108978
 20
42.44728570897896
 30
0.0
 10
74.14764218988302
 20
42.55252441807495
 30
0.0
 10
74.11947346651964
 20
42.65765152485144
 30
0.0
  0
SPLINE
  5
C5
330
1F
100
AcDbEntity
  8
0
  6
Continuous
 62
     7
370
    25
100
AcDbSpline
210
0.0
220
0.0
230
1.0
 70
     8
 71
     3
 72
    16
 73
    12
 74
     0
 42
0.000000001
 43
0.00000001
 40
0.0
 40
0.0
 40
0.0
 40
0.0
 40
0.2500000000000001
 40
0.2500000000000001
 40
0.5000000000000001
 40
0.5000000000000001
 40
0.6250000000000001
 40
0.6250000000000001
 40
0.7500000000000002
 40
0.7500000000000002
 40
1.0
 40
1.0
 40
1.0
 40
1.0
 10
76.37970426570729
 20
42.65765152485147
 30
0.0
 10
76.61101901938993
 20
42.25700261893288
 30
0.0
 10
76.80166431272036
 20
41.85343262924803
 30
0.0
 10
77.06576996912766
 20
41.03787584290694
 30
0.0
 10
77.13835916044162
 20
40.62582647434363
 30
0.0
 10
77.13915640653258
 20
39.99998910629402
 30
0.0
 10
77.12141114990912
 20
39.7903951228309
 30
0.0
 10
77.05221406637934
 20
39.37579610545467
 30
0.0
 10
77.00083246031706
 20
39.1698865934325
 30
0.0
 10
76.80242446158043
 20
38.55582399537933
 30
0.0
 10
76.61130735987648
 20
38.15132256303115
 30
0.0
 10
76.37970426570709
 20
37.7501742367396
 30
0.0
  0
LINE
  5
C6
330
1F
100
AcDbEntity
  8
0
  6
Continuous
 62
     7
370
    25
100
AcDbLine
 10
76.3797042657
 20
37.7501742367
 30
0.0
 11
74.280242982
 21
37.7501742367
 31
0.0
  0
SPLINE
  5
C7
330
1F
100
AcDbEntity
  8
0
  6
Continuous
 62
     7
370
    25
100
AcDbSpline
210
0.0
220
0.0
230
1.0
 70
     8
 71
     3
 72
     8
 73
     4
 74
     0
 42
0.000000001
 43
0.00000001
 40
0.0
 40
0.0
 40
0.0
 40
0.0
 40
1.0
 40
1.0
 40
1.0
 40
1.0
 10
74.19985822424896
 20
38.06590208875078
 30
0.0
 10
74.22523285740814
 20
37.9605400526121
 30
0.0
 10
74.25207425861493
 20
37.8553013435161
 30
0.0
 10
74.2802429819783
 20
37.75017423673962
 30
0.0
  0
SPLINE
  5
C8
330
1F
100
AcDbEntity
  8
0
  6
Continuous
 62
     7
370
    25
100
AcDbSpline
210
0.0
220
0.0
230
1.0
 70
     8
 71
     3
 72
     8
 73
     4
 74
     0
 42
0.000000001
 43
0.00000001
 40
0.0
 40
0.0
 40
0.0
 40
0.0
 40
1.0
 40
1.0
 40
1.0
 40
1.0
 10
74.11947346651964
 20
37.75017423673961
 30
0.0
 10
74.14765477234279
 20
37.85534830189531
 30
0.0
 10
74.17449529833753
 20
37.96058866413097
 30
0.0
 10
74.19985822424896
 20
38.06590208875078
 30
0.0
  0
SPLINE
  5
C9
330
1F
100
AcDbEntity
  8
0
  6
Continuous
 62
     7
370
    25
100
AcDbSpline
210
0.0
220
0.0
230
1.0
 70
     8
 71
     3
 72
    10
 73
     6
 74
     0
 42
0.000000001
 43
0.00000001
 40
0.0
 40
0.0
 40
0.0
 40
0.0
 40
0.5
 40
0.5
 40
1.0
 40
1.0
 40
1.0
 40
1.0
 10
72.02001218279105
 20
52.47260610107509
 30
0.0
 10
71.82607708270997
 20
52.80851154778647
 30
0.0
 10
71.6597052309146
 20
53.14870211146216
 30
0.0
 10
71.4074584430434
 20
53.83091497809287
 30
0.0
 10
71.32124320990758
 20
54.17408176578635
 30
0.0
 10
71.28323121155914
 20
54.51973716091859
 30
0.0
  0
SPLINE
  5
CA
330
1F
100
AcDbEntity
  8
0
  6
Continuous
 62
     7
370
    25
100
AcDbSpline
210
0.0
220
0.0
230
1.0
 70
     8
 71
     3
 72
    12
 73
     8
 74
     0
 42
0.000000001
 43
0.00000001
 40
0.0
 40
0.0
 40
0.0
 40
0.0
 40
0.2500000000000001
 40
0.2500000000000001
 40
0.5000000000000002
 40
0.5000000000000002
 40
1.0
 40
1.0
 40
1.0
 40
1.0
 10
71.28323121155914
 20
55.3329523293434
 30
0.0
 10
71.30242506543928
 20
55.50748825050802
 30
0.0
 10
71.33414108871516
 20
55.68289563340723
 30
0.0
 10
71.41961880349605
 20
56.02928155716901
 30
0.0
 10
71.4733961210466
 20
56.20099087260957
 30
0.0
 10
71.66344335917759
 20
56.71225928322921
 30
0.0
 10
71.82827212613817
 20
57.04797986921797
 30
0.0
 10
72.02001218279105
 20
57.3800833891869
 30
0.0
  0
LINE
  5
CB
330
1F
100
AcDbEntity
  8
0
  6
Continuous
 62
     7
370
    25
100
AcDbLine
 10
74.1194734665
 20
57.3800833892
 30
0.0
 11
72.0200121828
 21
57.3800833892
 31
0.0
  0
SPLINE
  5
CC
330
1F
100
AcDbEntity
  8
0
  6
Continuous
 62
     7
370
    25
100
AcDbSpline
210
0.0
220
0.0
230
1.0
 70
     8
 71
     3
 72
     8
 73
     4
 74
     0
 42
0.000000001
 43
0.00000001
 40
0.0
 40
0.0
 40
0.0
 40
0.0
 40
1.0
 40
1.0
 40
1.0
 40
1.0
 10
74.19985822424896
 20
57.06435553717573
 30
0.0
 10
74.17448359108978
 20
57.16971757331442
 30
0.0
 10
74.14764218988302
 20
57.27495628241041
 30
0.0
 10
74.11947346651964
 20
57.3800833891869
 30
0.0
  0
SPLINE
  5
CD
330
1F
100
AcDbEntity
  8
0
  6
Continuous
 62
     7
370
    25
100
AcDbSpline
210
0.0
220
0.0
230
1.0
 70
     8
 71
     3
 72
     8
 73
     4
 74
     0
 42
0.000000001
 43
0.00000001
 40
0.0
 40
0.0
 40
0.0
 40
0.0
 40
1.0
 40
1.0
 40
1.0
 40
1.0
 10
74.2802429819783
 20
57.3800833891869
 30
0.0
 10
74.25206167615514
 20
57.27490932403121
 30
0.0
 10
74.22522115016041
 20
57.16966896179554
 30
0.0
 10
74.19985822424896
 20
57.06435553717573
 30
0.0
  0
LINE
  5
CE
330
1F
100
AcDbEntity
  8
0
  6
Continuous
 62
     7
370
    25
100
AcDbLine
 10
76.3797042657
 20
57.3800833892
 30
0.0
 11
74.280242982
 21
57.3800833892
 31
0.0
  0
SPLINE
  5
CF
330
1F
100
AcDbEntity
  8
0
  6
Continuous
 62
     7
370
    25
100
AcDbSpline
210
0.0
220
0.0
230
1.0
 70
     8
 71
     3
 72
    16
 73
    12
 74
     0
 42
0.000000001
 43
0.00000001
 40
0.0
 40
0.0
 40
0.0
 40
0.0
 40
0.2500000000000002
 40
0.2500000000000002
 40
0.5000000000000004
 40
0.5000000000000004
 40
0.6250000000000003
 40
0.6250000000000003
 40
0.7500000000000002
 40
0.7500000000000002
 40
1.0
 40
1.0
 40
1.0
 40
1.0
 10
76.37970426570729
 20
57.38008338918693
 30
0.0
 10
76.61101901938991
 20
56.97943448326834
 30
0.0
 10
76.80166431272036
 20
56.57586449358349
 30
0.0
 10
77.06576996912766
 20
55.7603077072424
 30
0.0
 10
77.13835916044162
 20
55.34825833867908
 30
0.0
 10
77.13915640653258
 20
54.72242097062949
 30
0.0
 10
77.12141114990912
 20
54.51282698716637
 30
0.0
 10
77.05221406637934
 20
54.09822796979014
 30
0.0
 10
77.00083246031706
 20
53.89231845776796
 30
0.0
 10
76.80242446158044
 20
53.2782558597148
 30
0.0
 10
76.61130735987648
 20
52.87375442736661
 30
0.0
 10
76.37970426570709
 20
52.47260610107507
 30
0.0
  0
SPLINE
  5
D0
330
1F
100
AcDbEntity
  8
0
  6
Continuous
 62
     7
370
    25
100
AcDbSpline
210
0.0
220
0.0
230
1.0
 70
     8
 71
     3
 72
     8
 73
     4
 74
     0
 42
0.000000001
 43
0.00000001
 40
0.0
 40
0.0
 40
0.0
 40
0.0
 40
1.0
 40
1.0
 40
1.0
 40
1.0
 10
74.19985822424896
 20
52.78833395308625
 30
0.0
 10
74.22523285740814
 20
52.68297191694756
 30
0.0
 10
74.25207425861493
 20
52.57773320785157
 30
0.0
 10
74.2802429819783
 20
52.47260610107508
 30
0.0
  0
SPLINE
  5
D1
330
1F
100
AcDbEntity
  8
0
  6
Continuous
 62
     7
370
    25
100
AcDbSpline
210
0.0
220
0.0
230
1.0
 70
     8
 71
     3
 72
     8
 73
     4
 74
     0
 42
0.000000001
 43
0.00000001
 40
0.0
 40
0.0
 40
0.0
 40
0.0
 40
1.0
 40
1.0
 40
1.0
 40
1.0
 10
74.11947346651964
 20
52.47260610107509
 30
0.0
 10
74.14765477234279
 20
52.57778016623077
 30
0.0
 10
74.17449529833753
 20
52.68302052846644
 30
0.0
 10
74.19985822424896
 20
52.78833395308625
 30
0.0
  0
LINE
  5
D2
330
1F
100
AcDbEntity
  8
0
  6
Continuous
 62
     7
370
    25
100
AcDbLine
 10
74.1998582242
 20
51.8411503971
 30
0.0
 11
74.1998582242
 21
52.7883339531
 31
0.0
  0
LINE
  5
D3
330
1F
100
AcDbEntity
  8
0
  6
Continuous
 62
     7
370
    25
100
AcDbLine
 10
77.2832312116
 20
55.815128813
 30
0.0
 11
77.2832312116
 21
39.315128813
 31
0.0
  0
SPLINE
  5
D4
330
1F
100
AcDbEntity
  8
0
  6
Continuous
 62
     7
370
    25
100
AcDbSpline
210
0.0
220
0.0
230
1.0
 70
     8
 71
     3
 72
    23
 73
    19
 74
     0
 42
0.000000001
 43
0.00000001
 40
0.0
 40
0.0
 40
0.0
 40
0.0
 40
0.0611415679303346
 40
0.1200010135310723
 40
0.1782359705414083
 40
0.2364955434070171
 40
0.2948872487049731
 40
0.3546771928192958
 40
0.4166948132897783
 40
0.4806333779628393
 40
0.5458046334786407
 40
0.6097347883178743
 40
0.6729516883751544
 40
0.7360010960706834
 40
0.7998274385165249
 40
0.864767276939387
 40
0.9310835057306723
 40
1.0
 40
1.0
 40
1.0
 40
1.0
 10
73.7960917884822
 20
46.346989143314
 30
0.0
 10
73.80633349893236
 20
46.34722223435705
 30
0.0
 10
73.82643464576114
 20
46.34767971626921
 30
0.0
 10
73.85585525936418
 20
46.35295429132541
 30
0.0
 10
73.88438006809771
 20
46.36007848276721
 30
0.0
 10
73.91136650462249
 20
46.37159182910456
 30
0.0
 10
73.93756085245286
 20
46.38530516436821
 30
0.0
 10
73.96221445756393
 20
46.40277505266359
 30
0.0
 10
73.98602576100794
 20
46.42280470720156
 30
0.0
 10
74.00811817473807
 20
46.44600099066643
 30
0.0
 10
74.0283256944026
 20
46.47123647051598
 30
0.0
 10
74.04616221693833
 20
46.49807256426921
 30
0.0
 10
74.06121589158393
 20
46.52614718832325
 30
0.0
 10
74.07377604805261
 20
46.55543322285861
 30
0.0
 10
74.08284011660803
 20
46.5862658707595
 30
0.0
 10
74.08997721852694
 20
46.61814744911093
 30
0.0
 10
74.09377522673722
 20
46.65148569475639
 30
0.0
 10
74.09443396886228
 20
46.67410424134354
 30
0.0
 10
74.0947696730976
 20
46.68563097023709
 30
0.0
  0
SPLINE
  5
D5
330
1F
100
AcDbEntity
  8
0
  6
Continuous
 62
     7
370
    25
100
AcDbSpline
210
0.0
220
0.0
230
1.0
 70
     8
 71
     3
 72
    23
 73
    19
 74
     0
 42
0.000000001
 43
0.00000001
 40
0.0
 40
0.0
 40
0.0
 40
0.0
 40
0.0679503475997537
 40
0.1332598223836998
 40
0.1978002967596474
 40
0.2608458295516822
 40
0.3233192927503671
 40
0.3862817224595722
 40
0.450061516233313
 40
0.5152075844858154
 40
0.5796407692199316
 40
0.6418172023841522
 40
0.7016924412115348
 40
0.7607690981778945
 40
0.8192540511346832
 40
0.8787376269055537
 40
0.9381582970160912
 40
1.0
 40
1.0
 40
1.0
 40
1.0
 10
73.49861582694373
 20
46.67391222023709
 30
0.0
 10
73.49894541598486
 20
46.6627841312137
 30
0.0
 10
73.49959178467365
 20
46.64096044349011
 30
0.0
 10
73.50348343867186
 20
46.60874350540541
 30
0.0
 10
73.5103669297825
 20
46.57785183938569
 30
0.0
 10
73.52014876700272
 20
46.54826396054239
 30
0.0
 10
73.53206780883876
 20
46.51973335108162
 30
0.0
 10
73.54727616886657
 20
46.49266479685718
 30
0.0
 10
73.56505342037417
 20
46.46669285292609
 30
0.0
 10
73.58539197359238
 20
46.44238284022095
 30
0.0
 10
73.60724974706098
 20
46.41973115445761
 30
0.0
 10
73.63125834852951
 20
46.40078110338678
 30
0.0
 10
73.65557347087457
 20
46.38367882159148
 30
0.0
 10
73.68167189288846
 20
46.3707244409494
 30
0.0
 10
73.70860829236732
 20
46.35986427129475
 30
0.0
 10
73.73679325311127
 20
46.35256352172746
 30
0.0
 10
73.76608147292673
 20
46.34778395606949
 30
0.0
 10
73.78595608281806
 20
46.34725758394845
 30
0.0
 10
73.7960917884822
 20
46.346989143314
 30
0.0
  0
SPLINE
  5
D6
330
1F
100
AcDbEntity
  8
0
  6
Continuous
 62
     7
370
    25
100
AcDbSpline
210
0.0
220
0.0
230
1.0
 70
     8
 71
     3
 72
    23
 73
    19
 74
     0
 42
0.000000001
 43
0.00000001
 40
0.0
 40
0.0
 40
0.0
 40
0.0
 40
0.0618526459466917
 40
0.1212838306153701
 40
0.1807779320756125
 40
0.2392732340142805
 40
0.2986414352139417
 40
0.3581858222417117
 40
0.4207600867589709
 40
0.4852046730216432
 40
0.5503622689482871
 40
0.613649924530912
 40
0.6766234955168249
 40
0.7391080134690126
 40
0.8021647022429448
 40
0.8667165971324778
 40
0.9320376285055445
 40
1.0
 40
1.0
 40
1.0
 40
1.0
 10
73.7960917884822
 20
47.00083529716016
 30
0.0
 10
73.7859564686253
 20
47.0005661648527
 30
0.0
 10
73.76608261524451
 20
47.00003843646386
 30
0.0
 10
73.73678888983102
 20
46.99526874121066
 30
0.0
 10
73.70862457958005
 20
46.9879309695574
 30
0.0
 10
73.68156908487914
 20
46.97719041613561
 30
0.0
 10
73.65576998921574
 20
46.96371862167794
 30
0.0
 10
73.63104403407552
 20
46.94714009314603
 30
0.0
 10
73.60737415303544
 20
46.927735545058
 30
0.0
 10
73.58535721648441
 20
46.90517814291266
 30
0.0
 10
73.56516274724501
 20
46.88085217167811
 30
0.0
 10
73.547181553923
 20
46.85512584587298
 30
0.0
 10
73.53208215974904
 20
46.82808096522574
 30
0.0
 10
73.52014489849697
 20
46.79956320905465
 30
0.0
 10
73.51036799695467
 20
46.76997184822829
 30
0.0
 10
73.50348314784084
 20
46.73908114024193
 30
0.0
 10
73.49959186119509
 20
46.70686394300031
 30
0.0
 10
73.49894544182679
 20
46.68504029102971
 30
0.0
 10
73.49861582694373
 20
46.67391222023709
 30
0.0
  0
SPLINE
  5
D7
330
1F
100
AcDbEntity
  8
0
  6
Continuous
 62
     7
370
    25
100
AcDbSpline
210
0.0
220
0.0
230
1.0
 70
     8
 71
     3
 72
    23
 73
    19
 74
     0
 42
0.000000001
 43
0.00000001
 40
0.0
 40
0.0
 40
0.0
 40
0.0
 40
0.0705921865358071
 40
0.1385012886049299
 40
0.2037899961427012
 40
0.266787572669601
 40
0.3290979656467183
 40
0.3911745246039658
 40
0.4531677986176573
 40
0.5157967602265844
 40
0.5779688050530403
 40
0.6389663383752914
 40
0.698381066162843
 40
0.7573204555574266
 40
0.8164122397216688
 40
0.876279358230831
 40
0.936823465650193
 40
1.0
 40
1.0
 40
1.0
 40
1.0
 10
74.0947696730976
 20
46.68563097023709
 30
0.0
 10
74.094431808643
 20
46.69705728807489
 30
0.0
 10
74.09376892136564
 20
46.71947562956859
 30
0.0
 10
74.09002492924668
 20
46.75232508578382
 30
0.0
 10
74.08293109062627
 20
46.78333101946953
 30
0.0
 10
74.07375504707001
 20
46.81284756895366
 30
0.0
 10
74.06126122167319
 20
46.84056709430117
 30
0.0
 10
74.04626508912887
 20
46.86680579292951
 30
0.0
 10
74.02843566785607
 20
46.89130330087643
 30
0.0
 10
74.00797175152002
 20
46.91362939940861
 30
0.0
 10
73.98589399724014
 20
46.93413027184296
 30
0.0
 10
73.96210507350148
 20
46.95176436991793
 30
0.0
 10
73.9373317735207
 20
46.96699213102626
 30
0.0
 10
73.91134125833685
 20
46.97936903172922
 30
0.0
 10
73.88415019986216
 20
46.9890079100271
 30
0.0
 10
73.85588186900608
 20
46.99597994296978
 30
0.0
 10
73.82634718825103
 20
46.99986014216962
 30
0.0
 10
73.80631896977224
 20
47.00050566717839
 30
0.0
 10
73.7960917884822
 20
47.00083529716016
 30
0.0
  0
LINE
  5
D8
330
1F
100
AcDbEntity
  8
0
  6
Continuous
 62
     7
370
    25
100
AcDbLine
 10
58.2832312116
 20
47.565128813
 30
0.0
 11
58.2832312116
 21
54.565128813
 31
0.0
  0
LINE
  5
D9
330
1F
100
AcDbEntity
  8
0
  6
Continuous
 62
     7
370
    25
100
AcDbLine
 10
58.2832312116
 20
40.565128813
 30
0.0
 11
58.2832312116
 21
47.565128813
 31
0.0
  0
LINE
  5
DA
330
1F
100
AcDbEntity
  8
0
  6
Continuous
 62
     7
370
    25
100
AcDbLine
 10
88.2832312116
 20
54.565128813
 30
0.0
 11
88.2832312116
 21
40.565128813
 31
0.0
  0
LINE
  5
DB
330
1F
100
AcDbEntity
  8
0
  6
Continuous
 62
     7
370
    25
100
AcDbLine
 10
93.2832312116
 20
54.565128813
 30
0.0
 11
93.2832312116
 21
40.565128813
 31
0.0
  0
LINE
  5
DC
330
1F
100
AcDbEntity
  8
0
  6
Continuous
 62
     7
370
    25
100
AcDbLine
 10
98.2832312116
 20
54.565128813
 30
0.0
 11
98.2832312116
 21
40.565128813
 31
0.0
  0
LINE
  5
DD
330
1F
100
AcDbEntity
  8
0
  6
Continuous
 62
     7
370
    25
100
AcDbLine
 10
83.2832312116
 20
54.565128813
 30
0.0
 11
83.2832312116
 21
40.565128813
 31
0.0
  0
LINE
  5
DE
330
1F
100
AcDbEntity
  8
0
  6
Continuous
 62
     7
370
    25
100
AcDbLine
 10
104.2832312116
 20
53.3737377037
 30
0.0
 11
104.2832312116
 21
41.7565199232
 31
0.0
  0
LINE
  5
DF
330
1F
100
AcDbEntity
  8
0
  6
Continuous
 62
     7
370
    25
100
AcDbLine
 10
74.1998582242
 20
38.0501742367
 30
0.0
 11
74.1998582242
 21
38.0659020888
 31
0.0
  0
LINE
  5
E0
330
1F
100
AcDbEntity
  8
0
  6
Continuous
 62
     7
370
    25
100
AcDbLine
 10
74.1998582242
 20
57.0643555372
 30
0.0
 11
74.1998582242
 21
57.0800833892
 31
0.0
  0
LINE
  5
E1
330
1F
100
AcDbEntity
  8
0
  6
Continuous
 62
     8
370
    25
100
AcDbLine
 10
103.8452485789
 20
41.2603809839
 30
0.0
 11
103.8452485789
 21
53.8698766421
 31
0.0
  0
LINE
  5
E2
330
1F
100
AcDbEntity
  8
0
  6
Continuous
 62
     7
370
    18
100
AcDbLine
 10
59.153034848
 20
55.0673101766
 30
0.0
 11
70.7832312116
 21
55.430753813
 31
0.0
  0
LINE
  5
E3
330
1F
100
AcDbEntity
  8
0
  6
Continuous
 62
     7
370
    18
100
AcDbLine
 10
59.153034848
 20
40.0629474493
 30
0.0
 11
70.7832312116
 21
39.699503813
 31
0.0
  0
LINE
  5
E4
330
1F
100
AcDbEntity
  8
0
  6
Continuous
 62
     7
370
    18
100
AcDbLine
 10
70.7832312116
 20
39.041941313
 30
0.0
 11
70.7832312116
 21
56.088316313
 31
0.0
  0
LINE
  5
E5
330
1F
100
AcDbEntity
  8
0
  6
CENTERX2
 62
     7
370
    18
100
AcDbLine
 10
105.2832312116
 20
47.565128813
 30
0.0
 11
57.2709883931
 21
47.565128813
 31
0.0
  0
CIRCLE
  5
E6
330
1F
100
AcDbEntity
  8
0
  6
Continuous
 62
     7
370
    25
100
AcDbCircle
 10
125.1224897036
 20
47.565128813
 30
0.0
 40
5.808608890731342
  0
CIRCLE
  5
E7
330
1F
100
AcDbEntity
  8
0
  6
Continuous
 62
     7
370
    25
100
AcDbCircle
 10
125.1224897036
 20
47.565128813
 30
0.0
 40
5.5
  0
CIRCLE
  5
E8
330
1F
100
AcDbEntity
  8
0
  6
Continuous
 62
     7
370
    25
100
AcDbCircle
 10
125.1224897036
 20
47.565128813
 30
0.0
 40
4.999999999999986
  0
CIRCLE
  5
E9
330
1F
100
AcDbEntity
  8
0
  6
Continuous
 62
     7
370
    25
100
AcDbCircle
 10
125.1224897036
 20
47.565128813
 30
0.0
 40
6.304747829088178
  0
CIRCLE
  5
EA
330
1F
100
AcDbEntity
  8
0
  6
Continuous
 62
     7
370
    25
100
AcDbCircle
 10
125.1224897036
 20
47.565128813
 30
0.0
 40
7.0
  0
SPLINE
  5
EB
330
1F
100
AcDbEntity
  8
0
  6
Continuous
 62
     7
370
    25
100
AcDbSpline
210
0.0
220
0.0
230
1.0
 70
    24
 71
     3
 72
    16
 73
    12
 74
     0
 42
0.000000001
 43
0.00000001
 40
0.0
 40
0.0
 40
0.0
 40
0.0
 40
0.25
 40
0.25
 40
0.5000000000000001
 40
0.5000000000000001
 40
0.6250000000000001
 40
0.6250000000000001
 40
0.7500000000000001
 40
0.7500000000000001
 40
1.0
 40
1.0
 40
1.0
 40
1.0
 10
133.62248970363
 20
42.65765152485142
 30
0.0
 10
133.62248970363
 20
43.45732692739421
 30
0.0
 10
133.62248970363
 20
44.27439713133256
 30
0.0
 10
133.62248970363
 20
45.91190455275919
 30
0.0
 10
133.62248970363
 20
46.73622917514594
 30
0.0
 10
133.62248970363
 20
47.98258452949298
 30
0.0
 10
133.62248970363
 20
48.40085306363927
 30
0.0
 10
133.62248970363
 20
49.23531435900566
 30
0.0
 10
133.62248970363
 20
49.64820235428618
 30
0.0
 10
133.62248970363
 20
50.8756572783262
 30
0.0
 10
133.62248970363
 20
51.67909082758232
 30
0.0
 10
133.62248970363
 20
52.47260610107509
 30
0.0
  0
SPLINE
  5
EC
330
1F
100
AcDbEntity
  8
0
  6
Continuous
 62
     7
370
    25
100
AcDbSpline
210
0.0
220
0.0
230
1.0
 70
    24
 71
     3
 72
    16
 73
    12
 74
     0
 42
0.000000001
 43
0.00000001
 40
0.0
 40
0.0
 40
0.0
 40
0.0
 40
0.2499999999999998
 40
0.2499999999999998
 40
0.4999999999999997
 40
0.4999999999999997
 40
0.6249999999999998
 40
0.6249999999999998
 40
0.7499999999999999
 40
0.7499999999999999
 40
1.0
 40
1.0
 40
1.0
 40
1.0
 10
125.12248970363
 20
37.75017423673958
 30
0.0
 10
125.8164339646778
 20
38.15082314265818
 30
0.0
 10
126.5154376912221
 20
38.55439313234302
 30
0.0
 10
127.9280234816224
 20
39.36994991868411
 30
0.0
 10
128.6417139232008
 20
39.78199928724742
 30
0.0
 10
129.7256960419379
 20
40.40783665529703
 30
0.0
 10
130.0887234702567
 20
40.61743063876015
 30
0.0
 10
130.8068300331205
 20
41.03202965613638
 30
0.0
 10
131.1634757697046
 20
41.23793916815855
 30
0.0
 10
132.2270633885604
 20
41.85200176621171
 30
0.0
 10
132.9276804211219
 20
42.2565031985599
 30
0.0
 10
133.6224897036301
 20
42.65765152485145
 30
0.0
  0
SPLINE
  5
ED
330
1F
100
AcDbEntity
  8
0
  6
Continuous
 62
     7
370
    25
100
AcDbSpline
210
0.0
220
0.0
230
1.0
 70
    24
 71
     3
 72
    16
 73
    12
 74
     0
 42
0.000000001
 43
0.00000001
 40
0.0
 40
0.0
 40
0.0
 40
0.0
 40
0.2500000000000001
 40
0.2500000000000001
 40
0.5000000000000001
 40
0.5000000000000001
 40
0.6250000000000001
 40
0.6250000000000001
 40
0.7500000000000002
 40
0.7500000000000002
 40
1.0
 40
1.0
 40
1.0
 40
1.0
 10
116.62248970363
 20
42.65765152485147
 30
0.0
 10
117.3164339646778
 20
42.25700261893288
 30
0.0
 10
118.015437691222
 20
41.85343262924803
 30
0.0
 10
119.4280234816224
 20
41.03787584290694
 30
0.0
 10
120.1417139232008
 20
40.62582647434363
 30
0.0
 10
121.2256960419378
 20
39.99998910629402
 30
0.0
 10
121.5887234702567
 20
39.7903951228309
 30
0.0
 10
122.3068300331205
 20
39.37579610545467
 30
0.0
 10
122.6634757697046
 20
39.1698865934325
 30
0.0
 10
123.7270633885604
 20
38.55582399537933
 30
0.0
 10
124.4276804211219
 20
38.15132256303115
 30
0.0
 10
125.1224897036301
 20
37.7501742367396
 30
0.0
  0
SPLINE
  5
EE
330
1F
100
AcDbEntity
  8
0
  6
Continuous
 62
     7
370
    25
100
AcDbSpline
210
0.0
220
0.0
230
1.0
 70
    24
 71
     3
 72
    16
 73
    12
 74
     0
 42
0.000000001
 43
0.00000001
 40
0.0
 40
0.0
 40
0.0
 40
0.0
 40
0.25
 40
0.25
 40
0.5
 40
0.5
 40
0.625
 40
0.625
 40
0.75
 40
0.75
 40
1.0
 40
1.0
 40
1.0
 40
1.0
 10
116.62248970363
 20
42.65765152485143
 30
0.0
 10
116.62248970363
 20
43.4573269273912
 30
0.0
 10
116.62248970363
 20
44.27439713133155
 30
0.0
 10
116.62248970363
 20
45.91190455278944
 30
0.0
 10
116.62248970363
 20
46.73622917520019
 30
0.0
 10
116.62248970363
 20
47.98258452959868
 30
0.0
 10
116.62248970363
 20
48.40085306379648
 30
0.0
 10
116.62248970363
 20
49.2353143591066
 30
0.0
 10
116.62248970363
 20
49.64820235436461
 30
0.0
 10
116.62248970363
 20
50.87565727835084
 30
0.0
 10
116.62248970363
 20
51.67909082758918
 30
0.0
 10
116.62248970363
 20
52.47260610107509
 30
0.0
  0
SPLINE
  5
EF
330
1F
100
AcDbEntity
  8
0
  6
Continuous
 62
     7
370
    25
100
AcDbSpline
210
0.0
220
0.0
230
1.0
 70
    24
 71
     3
 72
    16
 73
    12
 74
     0
 42
0.000000001
 43
0.00000001
 40
0.0
 40
0.0
 40
0.0
 40
0.0
 40
0.2500000000000002
 40
0.2500000000000002
 40
0.5000000000000004
 40
0.5000000000000004
 40
0.6250000000000003
 40
0.6250000000000003
 40
0.7500000000000002
 40
0.7500000000000002
 40
1.0
 40
1.0
 40
1.0
 40
1.0
 10
125.1224897036301
 20
57.38008338918693
 30
0.0
 10
124.4285454425822
 20
56.97943448326834
 30
0.0
 10
123.729541716038
 20
56.57586449358349
 30
0.0
 10
122.3169559256376
 20
55.7603077072424
 30
0.0
 10
121.6032654840593
 20
55.34825833867908
 30
0.0
 10
120.5192833653222
 20
54.72242097062949
 30
0.0
 10
120.1562559370033
 20
54.51282698716637
 30
0.0
 10
119.4381493741395
 20
54.09822796979014
 30
0.0
 10
119.0815036375554
 20
53.89231845776796
 30
0.0
 10
118.0179160186996
 20
53.2782558597148
 30
0.0
 10
117.3172989861382
 20
52.87375442736661
 30
0.0
 10
116.62248970363
 20
52.47260610107507
 30
0.0
  0
SPLINE
  5
F0
330
1F
100
AcDbEntity
  8
0
  6
Continuous
 62
     7
370
    25
100
AcDbSpline
210
0.0
220
0.0
230
1.0
 70
    24
 71
     3
 72
    16
 73
    12
 74
     0
 42
0.000000001
 43
0.00000001
 40
0.0
 40
0.0
 40
0.0
 40
0.0
 40
0.2499999999999998
 40
0.2499999999999998
 40
0.4999999999999996
 40
0.4999999999999996
 40
0.6249999999999994
 40
0.6249999999999994
 40
0.7499999999999996
 40
0.7499999999999996
 40
1.0
 40
1.0
 40
1.0
 40
1.0
 10
133.6224897036301
 20
52.47260610107506
 30
0.0
 10
132.9285454425822
 20
52.87325500699365
 30
0.0
 10
132.229541716038
 20
53.27682499667849
 30
0.0
 10
130.8169559256376
 20
54.09238178301958
 30
0.0
 10
130.1032654840593
 20
54.5044311515829
 30
0.0
 10
129.0192833653222
 20
55.1302685196325
 30
0.0
 10
128.6562559370033
 20
55.33986250309562
 30
0.0
 10
127.9381493741396
 20
55.75446152047185
 30
0.0
 10
127.5815036375554
 20
55.96037103249402
 30
0.0
 10
126.5179160186996
 20
56.57443363054718
 30
0.0
 10
125.8172989861382
 20
56.97893506289537
 30
0.0
 10
125.12248970363
 20
57.38008338918691
 30
0.0
  0
CIRCLE
  5
F1
330
1F
100
AcDbEntity
  8
0
  6
Continuous
 62
     7
370
    25
100
AcDbCircle
 10
125.1224897036
 20
47.565128813
 30
0.0
 40
8.250000000000014
  0
INSERT
  5
FD
330
1F
100
AcDbEntity
  8
0
  6
Continuous
 62
     7
370
    18
100
AcDbBlockReference
  2
SW_CENTERMARKSYMBOL_0
 10
125.1224897036
 20
47.565128813
 30
0.0
  0
INSERT
  5
109
330
1F
100
AcDbEntity
  8
0
  6
Continuous
 62
     7
370
    18
100
AcDbBlockReference
  2
SW_CENTERMARKSYMBOL_1
 10
125.1224897036
 20
47.565128813
 30
0.0
  0
LINE
  5
10A
330
1F
100
AcDbEntity
  8
0
  6
Continuous
 62
     7
370
    25
100
AcDbLine
 10
77.1388936443
 20
66.9203506267
 30
0.0
 11
77.2832312116
 21
67.1703506267
 31
0.0
  0
LINE
  5
10B
330
1F
100
AcDbEntity
  8
0
  6
Continuous
 62
     7
370
    25
100
AcDbLine
 10
77.2832312116
 20
83.6703506267
 30
0.0
 11
77.1388936443
 21
83.9203506267
 31
0.0
  0
LINE
  5
10C
330
1F
100
AcDbEntity
  8
0
  6
Continuous
 62
     7
370
    25
100
AcDbLine
 10
71.2832312116
 20
83.9591631267
 30
0.0
 11
60.3571406452
 21
83.6177227965
 31
0.0
  0
LINE
  5
10D
330
1F
100
AcDbEntity
  8
0
  6
Continuous
 62
     7
370
    25
100
AcDbLine
 10
60.3571406452
 20
67.2229784569
 30
0.0
 11
71.2832312116
 21
66.8815381267
 31
0.0
  0
LINE
  5
10E
330
1F
100
AcDbEntity
  8
0
  6
Continuous
 62
     7
370
    25
100
AcDbLine
 10
60.3571406452
 20
83.6177227965
 30
0.0
 11
58.2832312116
 21
82.4203506267
 31
0.0
  0
LINE
  5
10F
330
1F
100
AcDbEntity
  8
0
  6
Continuous
 62
     7
370
    25
100
AcDbLine
 10
58.2832312116
 20
68.4203506267
 30
0.0
 11
60.3571406452
 21
67.2229784569
 31
0.0
  0
LINE
  5
110
330
1F
100
AcDbEntity
  8
0
  6
Continuous
 62
     7
370
    25
100
AcDbLine
 10
88.2832312116
 20
68.4203506267
 30
0.0
 11
93.2832312116
 21
69.1703506267
 31
0.0
  0
LINE
  5
111
330
1F
100
AcDbEntity
  8
0
  6
Continuous
 62
     7
370
    25
100
AcDbLine
 10
93.2832312116
 20
81.6703506267
 30
0.0
 11
88.2832312116
 21
82.4203506267
 31
0.0
  0
LINE
  5
112
330
1F
100
AcDbEntity
  8
0
  6
Continuous
 62
     7
370
    25
100
AcDbLine
 10
98.2832312116
 20
68.4203506267
 30
0.0
 11
103.8452485789
 21
69.1156027976
 31
0.0
  0
LINE
  5
113
330
1F
100
AcDbEntity
  8
0
  6
Continuous
 62
     7
370
    25
100
AcDbLine
 10
103.8452485789
 20
81.7250984558
 30
0.0
 11
98.2832312116
 21
82.4203506267
 31
0.0
  0
LINE
  5
114
330
1F
100
AcDbEntity
  8
0
  6
Continuous
 62
     7
370
    25
100
AcDbLine
 10
83.2832312116
 20
68.4203506267
 30
0.0
 11
88.2832312116
 21
69.1703506267
 31
0.0
  0
LINE
  5
115
330
1F
100
AcDbEntity
  8
0
  6
Continuous
 62
     7
370
    25
100
AcDbLine
 10
88.2832312116
 20
81.6703506267
 30
0.0
 11
83.2832312116
 21
82.4203506267
 31
0.0
  0
LINE
  5
116
330
1F
100
AcDbEntity
  8
0
  6
Continuous
 62
     7
370
    25
100
AcDbLine
 10
83.2832312116
 20
82.4203506267
 30
0.0
 11
77.2832312116
 21
82.4203506267
 31
0.0
  0
LINE
  5
117
330
1F
100
AcDbEntity
  8
0
  6
Continuous
 62
     7
370
    25
100
AcDbLine
 10
77.2832312116
 20
68.4203506267
 30
0.0
 11
83.2832312116
 21
68.4203506267
 31
0.0
  0
LINE
  5
118
330
1F
100
AcDbEntity
  8
0
  6
Continuous
 62
     7
370
    25
100
AcDbLine
 10
93.2832312116
 20
68.4203506267
 30
0.0
 11
98.2832312116
 21
69.1703506267
 31
0.0
  0
LINE
  5
119
330
1F
100
AcDbEntity
  8
0
  6
Continuous
 62
     7
370
    25
100
AcDbLine
 10
98.2832312116
 20
81.6703506267
 30
0.0
 11
93.2832312116
 21
82.4203506267
 31
0.0
  0
ARC
  5
11A
330
1F
100
AcDbEntity
  8
0
  6
Continuous
 62
     7
370
    25
100
AcDbCircle
 10
103.7832312116
 20
81.2289595174
 30
0.0
 40
0.5
100
AcDbArc
 50
0.0
 51
82.8749836511
  0
ARC
  5
11B
330
1F
100
AcDbEntity
  8
0
  6
Continuous
 62
     7
370
    25
100
AcDbCircle
 10
103.7832312116
 20
69.611741736
 30
0.0
 40
0.5000000000000017
100
AcDbArc
 50
277.1250163489
 51
0.0
  0
LINE
  5
11C
330
1F
100
AcDbEntity
  8
0
  6
Continuous
 62
     7
370
    25
100
AcDbLine
 10
74.1194734665
 20
75.4203506267
 30
0.0
 11
72.0200121828
 21
75.4203506267
 31
0.0
  0
SPLINE
  5
11D
330
1F
100
AcDbEntity
  8
0
  6
Continuous
 62
     7
370
    25
100
AcDbSpline
210
0.0
220
0.0
230
1.0
 70
     8
 71
     3
 72
    10
 73
     6
 74
     0
 42
0.000000001
 43
0.00000001
 40
0.0
 40
0.0
 40
0.0
 40
0.0
 40
0.5
 40
0.5
 40
1.0
 40
1.0
 40
1.0
 40
1.0
 10
72.02001218279106
 20
75.42035062668845
 30
0.0
 10
71.82607708270999
 20
76.0021559269317
 30
0.0
 10
71.65970523091461
 20
76.5913832674735
 30
0.0
 10
71.40745844304341
 20
77.77301061405508
 30
0.0
 10
71.32124320990759
 20
78.36739292581039
 30
0.0
 10
71.28323121155914
 20
78.96608563208973
 30
0.0
  0
SPLINE
  5
11E
330
1F
100
AcDbEntity
  8
0
  6
Continuous
 62
     7
370
    25
100
AcDbSpline
210
0.0
220
0.0
230
1.0
 70
     8
 71
     3
 72
    12
 73
     8
 74
     0
 42
0.000000001
 43
0.00000001
 40
0.0
 40
0.0
 40
0.0
 40
0.0
 40
0.2499999999999999
 40
0.2499999999999999
 40
0.4999999999999999
 40
0.4999999999999999
 40
1.0
 40
1.0
 40
1.0
 40
1.0
 10
71.28323121155914
 20
80.37461562128718
 30
0.0
 10
71.3024250654393
 20
80.67692070449014
 30
0.0
 10
71.33414108871517
 20
80.98073520369425
 30
0.0
 10
71.41961880349606
 20
81.58069322267633
 30
0.0
 10
71.4733961210466
 20
81.87810248115228
 30
0.0
 10
71.6634433591776
 20
82.76364534465047
 30
0.0
 10
71.82827212613819
 20
83.34513045672979
 30
0.0
 10
72.02001218279106
 20
83.92035062668845
 30
0.0
  0
LINE
  5
11F
330
1F
100
AcDbEntity
  8
0
  6
Continuous
 62
     7
370
    25
100
AcDbLine
 10
74.1194734665
 20
83.9203506267
 30
0.0
 11
72.0200121828
 21
83.9203506267
 31
0.0
  0
SPLINE
  5
120
330
1F
100
AcDbEntity
  8
0
  6
Continuous
 62
     7
370
    25
100
AcDbSpline
210
0.0
220
0.0
230
1.0
 70
     8
 71
     3
 72
     8
 73
     4
 74
     0
 42
0.000000001
 43
0.00000001
 40
0.0
 40
0.0
 40
0.0
 40
0.0
 40
1.0
 40
1.0
 40
1.0
 40
1.0
 10
74.19985822424897
 20
83.37349394564052
 30
0.0
 10
74.1744835910898
 20
83.55598634542163
 30
0.0
 10
74.14764218988303
 20
83.73826513649885
 30
0.0
 10
74.11947346651965
 20
83.92035062668845
 30
0.0
  0
SPLINE
  5
121
330
1F
100
AcDbEntity
  8
0
  6
Continuous
 62
     7
370
    25
100
AcDbSpline
210
0.0
220
0.0
230
1.0
 70
     8
 71
     3
 72
     8
 73
     4
 74
     0
 42
0.000000001
 43
0.00000001
 40
0.0
 40
0.0
 40
0.0
 40
0.0
 40
1.0
 40
1.0
 40
1.0
 40
1.0
 10
74.28024298197832
 20
83.92035062668845
 30
0.0
 10
74.25206167615514
 20
83.73818380220021
 30
0.0
 10
74.22522115016042
 20
83.5559021478011
 30
0.0
 10
74.19985822424897
 20
83.37349394564052
 30
0.0
  0
LINE
  5
122
330
1F
100
AcDbEntity
  8
0
  6
Continuous
 62
     7
370
    25
100
AcDbLine
 10
76.3797042657
 20
83.9203506267
 30
0.0
 11
74.280242982
 21
83.9203506267
 31
0.0
  0
SPLINE
  5
123
330
1F
100
AcDbEntity
  8
0
  6
Continuous
 62
     7
370
    25
100
AcDbSpline
210
0.0
220
0.0
230
1.0
 70
     8
 71
     3
 72
    16
 73
    12
 74
     0
 42
0.000000001
 43
0.00000001
 40
0.0
 40
0.0
 40
0.0
 40
0.0
 40
0.2499999999999998
 40
0.2499999999999998
 40
0.4999999999999996
 40
0.4999999999999996
 40
0.6249999999999994
 40
0.6249999999999994
 40
0.7499999999999996
 40
0.7499999999999996
 40
1.0
 40
1.0
 40
1.0
 40
1.0
 10
76.3797042657073
 20
83.9203506266885
 30
0.0
 10
76.61101901938994
 20
83.22640636564061
 30
0.0
 10
76.80166431272036
 20
82.52740263909641
 30
0.0
 10
77.06576996912767
 20
81.11481684869605
 30
0.0
 10
77.13835916044164
 20
80.40112640711772
 30
0.0
 10
77.13915640653259
 20
79.31714428838062
 30
0.0
 10
77.12141114990914
 20
78.95411686006175
 30
0.0
 10
77.05221406637935
 20
78.23601029719798
 30
0.0
 10
77.00083246031707
 20
77.87936456061387
 30
0.0
 10
76.80242446158044
 20
76.81577694175805
 30
0.0
 10
76.61130735987649
 20
76.1151599091966
 30
0.0
 10
76.3797042657071
 20
75.42035062668842
 30
0.0
  0
LINE
  5
124
330
1F
100
AcDbEntity
  8
0
  6
Continuous
 62
     7
370
    25
100
AcDbLine
 10
76.3797042657
 20
75.4203506267
 30
0.0
 11
74.280242982
 21
75.4203506267
 31
0.0
  0
SPLINE
  5
125
330
1F
100
AcDbEntity
  8
0
  6
Continuous
 62
     7
370
    25
100
AcDbSpline
210
0.0
220
0.0
230
1.0
 70
     8
 71
     3
 72
     8
 73
     4
 74
     0
 42
0.000000001
 43
0.00000001
 40
0.0
 40
0.0
 40
0.0
 40
0.0
 40
1.0
 40
1.0
 40
1.0
 40
1.0
 10
74.19985822424897
 20
75.96720730773637
 30
0.0
 10
74.22523285740816
 20
75.78471490795528
 30
0.0
 10
74.25207425861494
 20
75.60243611687804
 30
0.0
 10
74.28024298197832
 20
75.42035062668845
 30
0.0
  0
SPLINE
  5
126
330
1F
100
AcDbEntity
  8
0
  6
Continuous
 62
     7
370
    25
100
AcDbSpline
210
0.0
220
0.0
230
1.0
 70
     8
 71
     3
 72
     8
 73
     4
 74
     0
 42
0.000000001
 43
0.00000001
 40
0.0
 40
0.0
 40
0.0
 40
0.0
 40
1.0
 40
1.0
 40
1.0
 40
1.0
 10
74.11947346651965
 20
75.42035062668845
 30
0.0
 10
74.1476547723428
 20
75.60251745117667
 30
0.0
 10
74.17449529833753
 20
75.7847991055758
 30
0.0
 10
74.19985822424897
 20
75.96720730773637
 30
0.0
  0
SPLINE
  5
127
330
1F
100
AcDbEntity
  8
0
  6
Continuous
 62
     7
370
    25
100
AcDbSpline
210
0.0
220
0.0
230
1.0
 70
    24
 71
     3
 72
    12
 73
     8
 74
     0
 42
0.000000001
 43
0.00000001
 40
0.0
 40
0.0
 40
0.0
 40
0.0
 40
0.2209517138703545
 40
0.4142476998986578
 40
0.6082245850609483
 40
0.8039007034748112
 40
1.0
 40
1.0
 40
1.0
 40
1.0
 10
77.13165941094331
 20
83.92035062668845
 30
0.0
 10
77.1268485685929
 20
83.92035062668845
 30
0.0
 10
77.11782903965005
 20
83.92035062668845
 30
0.0
 10
77.00522341078654
 20
83.92035062668845
 30
0.0
 10
76.84773395310333
 20
83.92035062668845
 30
0.0
 10
76.64007845383323
 20
83.92035062668845
 30
0.0
 10
76.46655813801875
 20
83.92035062668845
 30
0.0
 10
76.37970426570689
 20
83.92035062668845
 30
0.0
  0
SPLINE
  5
128
330
1F
100
AcDbEntity
  8
0
  6
Continuous
 62
     7
370
    25
100
AcDbSpline
210
0.0
220
0.0
230
1.0
 70
    24
 71
     3
 72
    12
 73
     8
 74
     0
 42
0.000000001
 43
0.00000001
 40
0.0
 40
0.0
 40
0.0
 40
0.0
 40
0.1936013663636587
 40
0.3875698381939612
 40
0.5829791150326125
 40
0.7790445032423136
 40
1.0
 40
1.0
 40
1.0
 40
1.0
 10
76.37970426570689
 20
66.92035062668845
 30
0.0
 10
76.46549602745011
 20
66.92035062668845
 30
0.0
 10
76.63724222863519
 20
66.92035062668845
 30
0.0
 10
76.84468279949822
 20
66.92035062668845
 30
0.0
 10
77.00392266210919
 20
66.92035062668845
 30
0.0
 10
77.11737411087785
 20
66.92035062668845
 30
0.0
 10
77.12772154681242
 20
66.92035062668845
 30
0.0
 10
77.13320406082913
 20
66.92035062668845
 30
0.0
  0
SPLINE
  5
129
330
1F
100
AcDbEntity
  8
0
  6
Continuous
 62
     7
370
    25
100
AcDbSpline
210
0.0
220
0.0
230
1.0
 70
     8
 71
     3
 72
    16
 73
    12
 74
     0
 42
0.000000001
 43
0.00000001
 40
0.0
 40
0.0
 40
0.0
 40
0.0
 40
0.2500000000000002
 40
0.2500000000000002
 40
0.5000000000000004
 40
0.5000000000000004
 40
0.6250000000000003
 40
0.6250000000000003
 40
0.7500000000000002
 40
0.7500000000000002
 40
1.0
 40
1.0
 40
1.0
 40
1.0
 10
76.37970426570729
 20
75.4203506266885
 30
0.0
 10
76.61101901938993
 20
74.72640636564063
 30
0.0
 10
76.80166431272036
 20
74.02740263909641
 30
0.0
 10
77.06576996912767
 20
72.61481684869605
 30
0.0
 10
77.13835916044164
 20
71.90112640711772
 30
0.0
 10
77.13915640653259
 20
70.81714428838062
 30
0.0
 10
77.12141114990914
 20
70.45411686006176
 30
0.0
 10
77.05221406637935
 20
69.73601029719798
 30
0.0
 10
77.00083246031707
 20
69.37936456061388
 30
0.0
 10
76.80242446158044
 20
68.31577694175805
 30
0.0
 10
76.61130735987649
 20
67.6151599091966
 30
0.0
 10
76.3797042657071
 20
66.92035062668842
 30
0.0
  0
LINE
  5
12A
330
1F
100
AcDbEntity
  8
0
  6
Continuous
 62
     7
370
    25
100
AcDbLine
 10
77.2832312116
 20
83.6703506267
 30
0.0
 11
77.2832312116
 21
67.1703506267
 31
0.0
  0
SPLINE
  5
12B
330
1F
100
AcDbEntity
  8
0
  6
Continuous
 62
     7
370
    25
100
AcDbSpline
210
0.0
220
0.0
230
1.0
 70
     8
 71
     3
 72
    12
 73
     8
 74
     0
 42
0.000000001
 43
0.00000001
 40
0.0
 40
0.0
 40
0.0
 40
0.0
 40
0.2500000000000001
 40
0.2500000000000001
 40
0.5000000000000002
 40
0.5000000000000002
 40
1.0
 40
1.0
 40
1.0
 40
1.0
 10
71.28323121155914
 20
71.87461562128718
 30
0.0
 10
71.3024250654393
 20
72.17692070449014
 30
0.0
 10
71.33414108871517
 20
72.48073520369425
 30
0.0
 10
71.41961880349606
 20
73.08069322267633
 30
0.0
 10
71.4733961210466
 20
73.37810248115228
 30
0.0
 10
71.6634433591776
 20
74.26364534465048
 30
0.0
 10
71.82827212613819
 20
74.84513045672979
 30
0.0
 10
72.02001218279106
 20
75.42035062668845
 30
0.0
  0
LINE
  5
12C
330
1F
100
AcDbEntity
  8
0
  6
Continuous
 62
     7
370
    25
100
AcDbLine
 10
71.2832312116
 20
71.8746156213
 30
0.0
 11
71.2832312116
 21
78.9660856321
 31
0.0
  0
SPLINE
  5
12D
330
1F
100
AcDbEntity
  8
0
  6
Continuous
 62
     7
370
    25
100
AcDbSpline
210
0.0
220
0.0
230
1.0
 70
     8
 71
     3
 72
     8
 73
     4
 74
     0
 42
0.000000001
 43
0.00000001
 40
0.0
 40
0.0
 40
0.0
 40
0.0
 40
1.0
 40
1.0
 40
1.0
 40
1.0
 10
74.28024298197832
 20
75.42035062668845
 30
0.0
 10
74.25206167615515
 20
75.23818380220023
 30
0.0
 10
74.22522115016042
 20
75.0559021478011
 30
0.0
 10
74.19985822424897
 20
74.87349394564052
 30
0.0
  0
LINE
  5
12E
330
1F
100
AcDbEntity
  8
0
  6
Continuous
 62
     7
370
    25
100
AcDbLine
 10
74.1998582242
 20
74.8734939456
 30
0.0
 11
74.1998582242
 21
75.9672073077
 31
0.0
  0
SPLINE
  5
12F
330
1F
100
AcDbEntity
  8
0
  6
Continuous
 62
     7
370
    25
100
AcDbSpline
210
0.0
220
0.0
230
1.0
 70
     8
 71
     3
 72
     8
 73
     4
 74
     0
 42
0.000000001
 43
0.00000001
 40
0.0
 40
0.0
 40
0.0
 40
0.0
 40
1.0
 40
1.0
 40
1.0
 40
1.0
 10
74.19985822424897
 20
74.87349394564052
 30
0.0
 10
74.1744835910898
 20
75.05598634542164
 30
0.0
 10
74.14764218988303
 20
75.23826513649885
 30
0.0
 10
74.11947346651965
 20
75.42035062668845
 30
0.0
  0
LINE
  5
130
330
1F
100
AcDbEntity
  8
0
  6
Continuous
 62
     7
370
    25
100
AcDbLine
 10
74.1194734665
 20
66.9203506267
 30
0.0
 11
72.0200121828
 21
66.9203506267
 31
0.0
  0
SPLINE
  5
131
330
1F
100
AcDbEntity
  8
0
  6
Continuous
 62
     7
370
    25
100
AcDbSpline
210
0.0
220
0.0
230
1.0
 70
     8
 71
     3
 72
    10
 73
     6
 74
     0
 42
0.000000001
 43
0.00000001
 40
0.0
 40
0.0
 40
0.0
 40
0.0
 40
0.5
 40
0.5
 40
1.0
 40
1.0
 40
1.0
 40
1.0
 10
72.02001218279106
 20
66.92035062668845
 30
0.0
 10
71.82607708270999
 20
67.50215592693169
 30
0.0
 10
71.65970523091461
 20
68.09138326747349
 30
0.0
 10
71.40745844304341
 20
69.27301061405508
 30
0.0
 10
71.32124320990759
 20
69.86739292581039
 30
0.0
 10
71.28323121155914
 20
70.46608563208973
 30
0.0
  0
LINE
  5
132
330
1F
100
AcDbEntity
  8
0
  6
Continuous
 62
     7
370
    25
100
AcDbLine
 10
76.3797042657
 20
66.9203506267
 30
0.0
 11
74.280242982
 21
66.9203506267
 31
0.0
  0
SPLINE
  5
133
330
1F
100
AcDbEntity
  8
0
  6
Continuous
 62
     7
370
    25
100
AcDbSpline
210
0.0
220
0.0
230
1.0
 70
     8
 71
     3
 72
     8
 73
     4
 74
     0
 42
0.000000001
 43
0.00000001
 40
0.0
 40
0.0
 40
0.0
 40
0.0
 40
1.0
 40
1.0
 40
1.0
 40
1.0
 10
74.19985822424897
 20
67.46720730773637
 30
0.0
 10
74.22523285740816
 20
67.28471490795526
 30
0.0
 10
74.25207425861494
 20
67.10243611687805
 30
0.0
 10
74.28024298197832
 20
66.92035062668845
 30
0.0
  0
SPLINE
  5
134
330
1F
100
AcDbEntity
  8
0
  6
Continuous
 62
     7
370
    25
100
AcDbSpline
210
0.0
220
0.0
230
1.0
 70
     8
 71
     3
 72
     8
 73
     4
 74
     0
 42
0.000000001
 43
0.00000001
 40
0.0
 40
0.0
 40
0.0
 40
0.0
 40
1.0
 40
1.0
 40
1.0
 40
1.0
 10
74.11947346651965
 20
66.92035062668845
 30
0.0
 10
74.1476547723428
 20
67.10251745117667
 30
0.0
 10
74.17449529833753
 20
67.28479910557579
 30
0.0
 10
74.19985822424897
 20
67.46720730773637
 30
0.0
  0
LINE
  5
135
330
1F
100
AcDbEntity
  8
0
  6
Continuous
 62
     7
370
    25
100
AcDbLine
 10
60.3571406452
 20
83.6177227965
 30
0.0
 11
60.3571406452
 21
67.2229784569
 31
0.0
  0
LINE
  5
136
330
1F
100
AcDbEntity
  8
0
  6
Continuous
 62
     7
370
    25
100
AcDbLine
 10
71.2832312116
 20
66.8815381267
 30
0.0
 11
71.2832312116
 21
66.9203506267
 31
0.0
  0
LINE
  5
137
330
1F
100
AcDbEntity
  8
0
  6
Continuous
 62
     7
370
    25
100
AcDbLine
 10
71.2832312116
 20
83.9203506267
 30
0.0
 11
71.2832312116
 21
83.9591631267
 31
0.0
  0
LINE
  5
138
330
1F
100
AcDbEntity
  8
0
  6
Continuous
 62
     7
370
    25
100
AcDbLine
 10
71.2832312116
 20
80.3746156213
 30
0.0
 11
71.2832312116
 21
83.9203506267
 31
0.0
  0
LINE
  5
139
330
1F
100
AcDbEntity
  8
0
  6
Continuous
 62
     7
370
    25
100
AcDbLine
 10
71.2832312116
 20
78.9660856321
 30
0.0
 11
71.2832312116
 21
80.3746156213
 31
0.0
  0
LINE
  5
13A
330
1F
100
AcDbEntity
  8
0
  6
Continuous
 62
     7
370
    25
100
AcDbLine
 10
71.2832312116
 20
70.4660856321
 30
0.0
 11
71.2832312116
 21
71.8746156213
 31
0.0
  0
LINE
  5
13B
330
1F
100
AcDbEntity
  8
0
  6
Continuous
 62
     7
370
    25
100
AcDbLine
 10
71.2832312116
 20
66.9203506267
 30
0.0
 11
71.2832312116
 21
70.4660856321
 31
0.0
  0
LINE
  5
13C
330
1F
100
AcDbEntity
  8
0
  6
Continuous
 62
     7
370
    25
100
AcDbLine
 10
58.2832312116
 20
68.4203506267
 30
0.0
 11
58.2832312116
 21
82.4203506267
 31
0.0
  0
LINE
  5
13D
330
1F
100
AcDbEntity
  8
0
  6
Continuous
 62
     7
370
    25
100
AcDbLine
 10
88.2832312116
 20
75.4203506267
 30
0.0
 11
88.2832312116
 21
68.4203506267
 31
0.0
  0
LINE
  5
13E
330
1F
100
AcDbEntity
  8
0
  6
Continuous
 62
     7
370
    25
100
AcDbLine
 10
88.2832312116
 20
82.4203506267
 30
0.0
 11
88.2832312116
 21
75.4203506267
 31
0.0
  0
LINE
  5
13F
330
1F
100
AcDbEntity
  8
0
  6
Continuous
 62
     7
370
    25
100
AcDbLine
 10
98.2832312116
 20
75.4203506267
 30
0.0
 11
98.2832312116
 21
68.4203506267
 31
0.0
  0
LINE
  5
140
330
1F
100
AcDbEntity
  8
0
  6
Continuous
 62
     7
370
    25
100
AcDbLine
 10
98.2832312116
 20
82.4203506267
 30
0.0
 11
98.2832312116
 21
75.4203506267
 31
0.0
  0
LINE
  5
141
330
1F
100
AcDbEntity
  8
0
  6
Continuous
 62
     7
370
    25
100
AcDbLine
 10
83.2832312116
 20
75.4203506267
 30
0.0
 11
83.2832312116
 21
68.4203506267
 31
0.0
  0
LINE
  5
142
330
1F
100
AcDbEntity
  8
0
  6
Continuous
 62
     7
370
    25
100
AcDbLine
 10
83.2832312116
 20
82.4203506267
 30
0.0
 11
83.2832312116
 21
75.4203506267
 31
0.0
  0
LINE
  5
143
330
1F
100
AcDbEntity
  8
0
  6
Continuous
 62
     7
370
    25
100
AcDbLine
 10
93.2832312116
 20
75.4203506267
 30
0.0
 11
93.2832312116
 21
68.4203506267
 31
0.0
  0
LINE
  5
144
330
1F
100
AcDbEntity
  8
0
  6
Continuous
 62
     7
370
    25
100
AcDbLine
 10
93.2832312116
 20
82.4203506267
 30
0.0
 11
93.2832312116
 21
75.4203506267
 31
0.0
  0
SPLINE
  5
145
330
1F
100
AcDbEntity
  8
0
  6
Continuous
 62
     7
370
    25
100
AcDbSpline
210
0.0
220
0.0
230
1.0
 70
    24
 71
     3
 72
    10
 73
     6
 74
     0
 42
0.000000001
 43
0.00000001
 40
0.0
 40
0.0
 40
0.0
 40
0.0
 40
0.5
 40
0.5
 40
1.0
 40
1.0
 40
1.0
 40
1.0
 10
72.02001218279105
 20
83.92035062668845
 30
0.0
 10
71.82690550748715
 20
83.92035062668845
 30
0.0
 10
71.6597951682769
 20
83.92035062668845
 30
0.0
 10
71.40698642795518
 20
83.92035062668845
 30
0.0
 10
71.32110132866302
 20
83.92035062668845
 30
0.0
 10
71.28323121155914
 20
83.92035062668845
 30
0.0
  0
SPLINE
  5
146
330
1F
100
AcDbEntity
  8
0
  6
Continuous
 62
     7
370
    25
100
AcDbSpline
210
0.0
220
0.0
230
1.0
 70
    24
 71
     3
 72
    10
 73
     6
 74
     0
 42
0.000000001
 43
0.00000001
 40
0.0
 40
0.0
 40
0.0
 40
0.0
 40
0.5
 40
0.5
 40
1.0
 40
1.0
 40
1.0
 40
1.0
 10
71.28323121155914
 20
66.92035062668845
 30
0.0
 10
71.3212734421866
 20
66.92035062668845
 30
0.0
 10
71.40932646795052
 20
66.92035062668845
 30
0.0
 10
71.66338412171076
 20
66.92035062668845
 30
0.0
 10
71.82845070977157
 20
66.92035062668845
 30
0.0
 10
72.02001218279106
 20
66.92035062668845
 30
0.0
  0
LINE
  5
147
330
1F
100
AcDbEntity
  8
0
  6
Continuous
 62
     7
370
    25
100
AcDbLine
 10
104.2832312116
 20
75.4203506267
 30
0.0
 11
104.2832312116
 21
69.611741736
 31
0.0
  0
LINE
  5
148
330
1F
100
AcDbEntity
  8
0
  6
Continuous
 62
     7
370
    25
100
AcDbLine
 10
104.2832312116
 20
81.2289595174
 30
0.0
 11
104.2832312116
 21
75.4203506267
 31
0.0
  0
LINE
  5
149
330
1F
100
AcDbEntity
  8
0
  6
Continuous
 62
     7
370
    25
100
AcDbLine
 10
74.1998582242
 20
83.3734939456
 30
0.0
 11
74.1998582242
 21
83.9203506267
 31
0.0
  0
SPLINE
  5
14A
330
1F
100
AcDbEntity
  8
0
  6
Continuous
 62
     7
370
    25
100
AcDbSpline
210
0.0
220
0.0
230
1.0
 70
    24
 71
     3
 72
     8
 73
     4
 74
     0
 42
0.000000001
 43
0.00000001
 40
0.0
 40
0.0
 40
0.0
 40
0.0
 40
1.0
 40
1.0
 40
1.0
 40
1.0
 10
74.19985822424897
 20
83.92035062668845
 30
0.0
 10
74.22523225483332
 20
83.92035062668845
 30
0.0
 10
74.2520736115503
 20
83.92035062668845
 30
0.0
 10
74.28024298197832
 20
83.92035062668845
 30
0.0
  0
SPLINE
  5
14B
330
1F
100
AcDbEntity
  8
0
  6
Continuous
 62
     7
370
    25
100
AcDbSpline
210
0.0
220
0.0
230
1.0
 70
    24
 71
     3
 72
     8
 73
     4
 74
     0
 42
0.000000001
 43
0.00000001
 40
0.0
 40
0.0
 40
0.0
 40
0.0
 40
1.0
 40
1.0
 40
1.0
 40
1.0
 10
74.11947346651965
 20
83.92035062668845
 30
0.0
 10
74.1476566184118
 20
83.92035062668845
 30
0.0
 10
74.17449701420993
 20
83.92035062668845
 30
0.0
 10
74.19985822424897
 20
83.92035062668845
 30
0.0
  0
SPLINE
  5
14C
330
1F
100
AcDbEntity
  8
0
  6
Continuous
 62
     7
370
    25
100
AcDbSpline
210
0.0
220
0.0
230
1.0
 70
    24
 71
     3
 72
     8
 73
     4
 74
     0
 42
0.000000001
 43
0.00000001
 40
0.0
 40
0.0
 40
0.0
 40
0.0
 40
1.0
 40
1.0
 40
1.0
 40
1.0
 10
74.19985822424897
 20
66.92035062668845
 30
0.0
 10
74.17448419366465
 20
66.92035062668845
 30
0.0
 10
74.14764283694767
 20
66.92035062668845
 30
0.0
 10
74.11947346651965
 20
66.92035062668845
 30
0.0
  0
LINE
  5
14D
330
1F
100
AcDbEntity
  8
0
  6
Continuous
 62
     7
370
    25
100
AcDbLine
 10
74.1998582242
 20
66.9203506267
 30
0.0
 11
74.1998582242
 21
67.4672073077
 31
0.0
  0
SPLINE
  5
14E
330
1F
100
AcDbEntity
  8
0
  6
Continuous
 62
     7
370
    25
100
AcDbSpline
210
0.0
220
0.0
230
1.0
 70
    24
 71
     3
 72
     8
 73
     4
 74
     0
 42
0.000000001
 43
0.00000001
 40
0.0
 40
0.0
 40
0.0
 40
0.0
 40
1.0
 40
1.0
 40
1.0
 40
1.0
 10
74.28024298197832
 20
66.92035062668845
 30
0.0
 10
74.25205983008617
 20
66.92035062668845
 30
0.0
 10
74.22521943428804
 20
66.92035062668845
 30
0.0
 10
74.19985822424897
 20
66.92035062668845
 30
0.0
  0
LINE
  5
14F
330
1F
100
AcDbEntity
  8
0
  6
Continuous
 62
     8
370
    25
100
AcDbLine
 10
103.8452485789
 20
75.4203506267
 30
0.0
 11
103.8452485789
 21
81.7250984558
 31
0.0
  0
LINE
  5
150
330
1F
100
AcDbEntity
  8
0
  6
Continuous
 62
     8
370
    25
100
AcDbLine
 10
103.8452485789
 20
69.1156027976
 30
0.0
 11
103.8452485789
 21
75.4203506267
 31
0.0
  0
LINE
  5
151
330
1F
100
AcDbEntity
  8
0
  6
Continuous
 62
     7
370
    18
100
AcDbLine
 10
59.153034848
 20
82.9225319903
 30
0.0
 11
70.7832312116
 21
83.2859756267
 31
0.0
  0
LINE
  5
152
330
1F
100
AcDbEntity
  8
0
  6
Continuous
 62
     7
370
    18
100
AcDbLine
 10
59.153034848
 20
67.918169263
 30
0.0
 11
70.7832312116
 21
67.5547256267
 31
0.0
  0
LINE
  5
153
330
1F
100
AcDbEntity
  8
0
  6
Continuous
 62
     7
370
    18
100
AcDbLine
 10
70.7832312116
 20
66.8971631267
 30
0.0
 11
70.7832312116
 21
83.9435381267
 31
0.0
  0
LINE
  5
154
330
1F
100
AcDbEntity
  8
0
  6
CENTERX2
 62
     7
370
    18
100
AcDbLine
 10
105.2832312116
 20
75.4203506267
 30
0.0
 11
57.329235169
 21
75.4203506267
 31
0.0
  0
ENDSEC
  0
SECTION
  2
OBJECTS
  0
DICTIONARY
  5
C
330
0
100
AcDbDictionary
281
     1
  3
ACAD_GROUP
350
D
  3
ACAD_LAYOUT
350
1A
  3
ACAD_MLINESTYLE
350
17
  3
ACAD_PLOTSETTINGS
350
19
  3
ACAD_PLOTSTYLENAME
350
E
  3
ACAD_SCALELIST
350
47
  0
DICTIONARY
  5
D
102
{ACAD_REACTORS
330
C
102
}
330
C
100
AcDbDictionary
281
     1
  0
DICTIONARY
  5
1A
102
{ACAD_REACTORS
330
C
102
}
330
C
100
AcDbDictionary
281
     1
  3
Layout1
350
1E
  3
Layout2
350
26
  3
Model
350
22
  0
DICTIONARY
  5
17
102
{ACAD_REACTORS
330
C
102
}
330
C
100
AcDbDictionary
281
     1
  3
Standard
350
18
  0
DICTIONARY
  5
19
102
{ACAD_REACTORS
330
C
102
}
330
C
100
AcDbDictionary
281
     1
  0
ACDBDICTIONARYWDFLT
  5
E
102
{ACAD_REACTORS
330
C
102
}
330
C
100
AcDbDictionary
281
     1
  3
Normal
350
F
100
AcDbDictionaryWithDefault
340
F
  0
DICTIONARY
  5
47
102
{ACAD_REACTORS
330
C
102
}
330
C
100
AcDbDictionary
281
     1
  3
A0
350
48
  3
A1
350
49
  3
A2
350
4A
  3
A3
350
4B
  3
A4
350
4C
  3
A5
350
4D
  3
A6
350
4E
  3
A7
350
4F
  3
A8
350
50
  3
A9
350
51
  3
B0
350
52
  3
B1
350
53
  3
B2
350
54
  3
B3
350
55
  3
B4
350
56
  3
B5
350
57
  3
B6
350
58
  3
B7
350
59
  3
B8
350
5A
  3
B9
350
5B
  3
C0
350
5C
  3
C1
350
5D
  3
C2
350
5E
  3
C3
350
5F
  3
C4
350
60
  3
C5
350
61
  3
C6
350
62
  3
C7
350
63
  3
C8
350
64
  3
C9
350
65
  3
D0
350
66
  3
D1
350
67
  3
D2
350
68
  0
LAYOUT
  5
1E
102
{ACAD_REACTORS
330
1A
102
}
330
1A
100
AcDbPlotSettings
  1

  2
none_device
  4

  6

 40
0.0
 41
0.0
 42
0.0
 43
0.0
 44
0.0
 45
0.0
 46
0.0
 47
0.0
 48
0.0
 49
0.0
140
0.0
141
0.0
142
1.0
143
1.0
 70
   688
 72
     1
 73
     0
 74
     5
  7

 75
    16
147
1.0
148
0.0
149
0.0
100
AcDbLayout
  1
Layout1
 70
     1
 71
     1
 10
0.0
 20
0.0
 11
420.0
 21
297.0
 12
0.0
 22
0.0
 32
0.0
 14
1.0000000000E+20
 24
1.0000000000E+20
 34
1.0000000000E+20
 15
-1.0000000000E+20
 25
-1.0000000000E+20
 35
-1.0000000000E+20
146
0.0
 13
0.0
 23
0.0
 33
0.0
 16
1.0
 26
0.0
 36
0.0
 17
0.0
 27
1.0
 37
0.0
 76
     0
330
1B
  0
LAYOUT
  5
26
102
{ACAD_REACTORS
330
1A
102
}
330
1A
100
AcDbPlotSettings
  1

  2
none_device
  4

  6

 40
0.0
 41
0.0
 42
0.0
 43
0.0
 44
0.0
 45
0.0
 46
0.0
 47
0.0
 48
0.0
 49
0.0
140
0.0
141
0.0
142
1.0
143
1.0
 70
   688
 72
     1
 73
     0
 74
     5
  7

 75
    16
147
1.0
148
0.0
149
0.0
100
AcDbLayout
  1
Layout2
 70
     1
 71
     2
 10
0.0
 20
0.0
 11
0.0
 21
0.0
 12
0.0
 22
0.0
 32
0.0
 14
0.0
 24
0.0
 34
0.0
 15
0.0
 25
0.0
 35
0.0
146
0.0
 13
0.0
 23
0.0
 33
0.0
 16
1.0
 26
0.0
 36
0.0
 17
0.0
 27
1.0
 37
0.0
 76
     0
330
23
  0
LAYOUT
  5
22
102
{ACAD_REACTORS
330
1A
102
}
330
1A
100
AcDbPlotSettings
  1

  2
none_device
  4
Letter_(8.50_x_11.00_Inches)
  6

 40
6.35
 41
6.35
 42
6.35000508
 43
6.35000508
 44
215.9
 45
279.4
 46
0.0
 47
0.0
 48
0.0
 49
0.0
140
0.0
141
0.0
142
1.0
143
1.0
 70
  1712
 72
     1
 73
     0
 74
     0
  7

 75
     0
147
1.0
148
0.0
149
0.0
100
AcDbLayout
  1
Model
 70
     1
 71
     0
 10
0.0
 20
0.0
 11
215.9
 21
139.7
 12
0.0
 22
0.0
 32
0.0
 14
0.0
 24
0.0
 34
0.0
 15
215.9
 25
139.7
 35
0.0
146
0.0
 13
0.0
 23
0.0
 33
0.0
 16
1.0
 26
0.0
 36
0.0
 17
0.0
 27
1.0
 37
0.0
 76
     0
330
1F
331
29
  0
MLINESTYLE
  5
18
102
{ACAD_REACTORS
330
17
102
}
330
17
100
AcDbMlineStyle
  2
Standard
 70
     0
  3

 62
   256
 51
90.0
 52
90.0
 71
     2
 49
0.5
 62
   256
  6
BYLAYER
 49
-0.5
 62
   256
  6
BYLAYER
  0
ACDBPLACEHOLDER
  5
F
102
{ACAD_REACTORS
330
E
102
}
330
E
  0
SCALE
  5
48
102
{ACAD_REACTORS
330
47
102
}
330
47
100
AcDbScale
 70
     0
300
1:1
140
1.0
141
1.0
290
     1
  0
SCALE
  5
49
102
{ACAD_REACTORS
330
47
102
}
330
47
100
AcDbScale
 70
     0
300
1:2
140
1.0
141
2.0
290
     0
  0
SCALE
  5
4A
102
{ACAD_REACTORS
330
47
102
}
330
47
100
AcDbScale
 70
     0
300
1:4
140
1.0
141
4.0
290
     0
  0
SCALE
  5
4B
102
{ACAD_REACTORS
330
47
102
}
330
47
100
AcDbScale
 70
     0
300
1:5
140
1.0
141
5.0
290
     0
  0
SCALE
  5
4C
102
{ACAD_REACTORS
330
47
102
}
330
47
100
AcDbScale
 70
     0
300
1:8
140
1.0
141
8.0
290
     0
  0
SCALE
  5
4D
102
{ACAD_REACTORS
330
47
102
}
330
47
100
AcDbScale
 70
     0
300
1:10
140
1.0
141
10.0
290
     0
  0
SCALE
  5
4E
102
{ACAD_REACTORS
330
47
102
}
330
47
100
AcDbScale
 70
     0
300
1:16
140
1.0
141
16.0
290
     0
  0
SCALE
  5
4F
102
{ACAD_REACTORS
330
47
102
}
330
47
100
AcDbScale
 70
     0
300
1:20
140
1.0
141
20.0
290
     0
  0
SCALE
  5
50
102
{ACAD_REACTORS
330
47
102
}
330
47
100
AcDbScale
 70
     0
300
1:30
140
1.0
141
30.0
290
     0
  0
SCALE
  5
51
102
{ACAD_REACTORS
330
47
102
}
330
47
100
AcDbScale
 70
     0
300
1:40
140
1.0
141
40.0
290
     0
  0
SCALE
  5
52
102
{ACAD_REACTORS
330
47
102
}
330
47
100
AcDbScale
 70
     0
300
1:50
140
1.0
141
50.0
290
     0
  0
SCALE
  5
53
102
{ACAD_REACTORS
330
47
102
}
330
47
100
AcDbScale
 70
     0
300
1:100
140
1.0
141
100.0
290
     0
  0
SCALE
  5
54
102
{ACAD_REACTORS
330
47
102
}
330
47
100
AcDbScale
 70
     0
300
2:1
140
2.0
141
1.0
290
     0
  0
SCALE
  5
55
102
{ACAD_REACTORS
330
47
102
}
330
47
100
AcDbScale
 70
     0
300
4:1
140
4.0
141
1.0
290
     0
  0
SCALE
  5
56
102
{ACAD_REACTORS
330
47
102
}
330
47
100
AcDbScale
 70
     0
300
8:1
140
8.0
141
1.0
290
     0
  0
SCALE
  5
57
102
{ACAD_REACTORS
330
47
102
}
330
47
100
AcDbScale
 70
     0
300
10:1
140
10.0
141
1.0
290
     0
  0
SCALE
  5
58
102
{ACAD_REACTORS
330
47
102
}
330
47
100
AcDbScale
 70
     0
300
100:1
140
100.0
141
1.0
290
     0
  0
SCALE
  5
59
102
{ACAD_REACTORS
330
47
102
}
330
47
100
AcDbScale
 70
     0
300
1/128" = 1'-0"
140
0.0078125
141
12.0
290
     0
  0
SCALE
  5
5A
102
{ACAD_REACTORS
330
47
102
}
330
47
100
AcDbScale
 70
     0
300
1/64" = 1'-0"
140
0.015625
141
12.0
290
     0
  0
SCALE
  5
5B
102
{ACAD_REACTORS
330
47
102
}
330
47
100
AcDbScale
 70
     0
300
1/32" = 1'-0"
140
0.03125
141
12.0
290
     0
  0
SCALE
  5
5C
102
{ACAD_REACTORS
330
47
102
}
330
47
100
AcDbScale
 70
     0
300
1/16" = 1'-0"
140
0.0625
141
12.0
290
     0
  0
SCALE
  5
5D
102
{ACAD_REACTORS
330
47
102
}
330
47
100
AcDbScale
 70
     0
300
3/32" = 1'-0"
140
0.09375
141
12.0
290
     0
  0
SCALE
  5
5E
102
{ACAD_REACTORS
330
47
102
}
330
47
100
AcDbScale
 70
     0
300
1/8" = 1'-0"
140
0.125
141
12.0
290
     0
  0
SCALE
  5
5F
102
{ACAD_REACTORS
330
47
102
}
330
47
100
AcDbScale
 70
     0
300
3/16" = 1'-0"
140
0.1875
141
12.0
290
     0
  0
SCALE
  5
60
102
{ACAD_REACTORS
330
47
102
}
330
47
100
AcDbScale
 70
     0
300
1/4" = 1'-0"
140
0.25
141
12.0
290
     0
  0
SCALE
  5
61
102
{ACAD_REACTORS
330
47
102
}
330
47
100
AcDbScale
 70
     0
300
3/8" = 1'-0"
140
0.375
141
12.0
290
     0
  0
SCALE
  5
62
102
{ACAD_REACTORS
330
47
102
}
330
47
100
AcDbScale
 70
     0
300
1/2" = 1'-0"
140
0.5
141
12.0
290
     0
  0
SCALE
  5
63
102
{ACAD_REACTORS
330
47
102
}
330
47
100
AcDbScale
 70
     0
300
3/4" = 1'-0"
140
0.75
141
12.0
290
     0
  0
SCALE
  5
64
102
{ACAD_REACTORS
330
47
102
}
330
47
100
AcDbScale
 70
     0
300
1" = 1'-0"
140
1.0
141
12.0
290
     0
  0
SCALE
  5
65
102
{ACAD_REACTORS
330
47
102
}
330
47
100
AcDbScale
 70
     0
300
1-1/2" = 1'-0"
140
1.5
141
12.0
290
     0
  0
SCALE
  5
66
102
{ACAD_REACTORS
330
47
102
}
330
47
100
AcDbScale
 70
     0
300
3" = 1'-0"
140
3.0
141
12.0
290
     0
  0
SCALE
  5
67
102
{ACAD_REACTORS
330
47
102
}
330
47
100
AcDbScale
 70
     0
300
6" = 1'-0"
140
6.0
141
12.0
290
     0
  0
SCALE
  5
68
102
{ACAD_REACTORS
330
47
102
}
330
47
100
AcDbScale
 70
     0
300
1'-0" = 1'-0"
140
12.0
141
12.0
290
     0
  0
ENDSEC
  0
EOF
