  0
SECTION
  2
HEADER
  9
$ACADVER
  1
AC1015
  9
$ACADMAINTVER
 70
     6
  9
$DWGCODEPAGE
  3
DOS932
  9
$INSBASE
 10
0.0
 20
0.0
 30
0.0
  9
$EXTMIN
 10
0.0
 20
0.0
 30
0.0
  9
$EXTMAX
 10
215.9
 20
139.7
 30
0.0
  9
$LIMMIN
 10
0.0
 20
0.0
  9
$LIMMAX
 10
215.9
 20
139.7
  9
$ORTHOMODE
 70
     0
  9
$REGENMODE
 70
     1
  9
$FILLMODE
 70
     1
  9
$QTEXTMODE
 70
     0
  9
$MIRRTEXT
 70
     1
  9
$LTSCALE
 40
0.5
  9
$ATTMODE
 70
     1
  9
$TEXTSIZE
 40
1.75
  9
$TRACEWID
 40
1.0
  9
$TEXTSTYLE
  7
Standard
  9
$CLAYER
  8
0
  9
$CELTYPE
  6
ByLayer
  9
$CECOLOR
 62
   256
  9
$CELTSCALE
 40
1.0
  9
$DISPSILH
 70
     0
  9
$DIMSCALE
 40
1.0
  9
$DIMASZ
 40
1.651
  9
$DIMEXO
 40
0.5
  9
$DIMDLI
 40
3.75
  9
$DIMRND
 40
0.0
  9
$DIMDLE
 40
0.0
  9
$DIMEXE
 40
0.5
  9
$DIMTP
 40
0.0
  9
$DIMTM
 40
0.0
  9
$DIMTXT
 40
1.75
  9
$DIMCEN
 40
2.5
  9
$DIMTSZ
 40
0.0
  9
$DIMTOL
 70
     0
  9
$DIMLIM
 70
     0
  9
$DIMTIH
 70
     1
  9
$DIMTOH
 70
     1
  9
$DIMSE1
 70
     0
  9
$DIMSE2
 70
     0
  9
$DIMTAD
 70
     1
  9
$DIMZIN
 70
     1
  9
$DIMBLK
  1

  9
$DIMASO
 70
     1
  9
$DIMSHO
 70
     1
  9
$DIMPOST
  1

  9
$DIMAPOST
  1

  9
$DIMALT
 70
     0
  9
$DIMALTD
 70
     3
  9
$DIMALTF
 40
0.0393700787
  9
$DIMLFAC
 40
1.0
  9
$DIMTOFL
 70
     1
  9
$DIMTVP
 40
0.0
  9
$DIMTIX
 70
     0
  9
$DIMSOXD
 70
     0
  9
$DIMSAH
 70
     0
  9
$DIMBLK1
  1

  9
$DIMBLK2
  1

  9
$DIMSTYLE
  2
ISO-25
  9
$DIMCLRD
 70
     0
  9
$DIMCLRE
 70
     0
  9
$DIMCLRT
 70
     0
  9
$DIMTFAC
 40
1.0
  9
$DIMGAP
 40
0.762
  9
$DIMJUST
 70
     0
  9
$DIMSD1
 70
     0
  9
$DIMSD2
 70
     0
  9
$DIMTOLJ
 70
     0
  9
$DIMTZIN
 70
     1
  9
$DIMALTZ
 70
     0
  9
$DIMALTTZ
 70
     0
  9
$DIMUPT
 70
     0
  9
$DIMDEC
 70
     2
  9
$DIMTDEC
 70
     2
  9
$DIMALTU
 70
     2
  9
$DIMALTTD
 70
     3
  9
$DIMTXSTY
  7
Standard
  9
$DIMAUNIT
 70
     0
  9
$DIMADEC
 70
     2
  9
$DIMALTRND
 40
0.0
  9
$DIMAZIN
 70
     0
  9
$DIMDSEP
 70
    44
  9
$DIMATFIT
 70
     3
  9
$DIMFRAC
 70
     0
  9
$DIMLDRBLK
  1

  9
$DIMLUNIT
 70
     2
  9
$DIMLWD
 70
    -2
  9
$DIMLWE
 70
    -2
  9
$DIMTMOVE
 70
     0
  9
$LUNITS
 70
     2
  9
$LUPREC
 70
     2
  9
$SKETCHINC
 40
1.0
  9
$FILLETRAD
 40
10.0
  9
$AUNITS
 70
     0
  9
$AUPREC
 70
     2
  9
$MENU
  1
.
  9
$ELEVATION
 40
0.0
  9
$PELEVATION
 40
0.0
  9
$THICKNESS
 40
0.0
  9
$LIMCHECK
 70
     0
  9
$CHAMFERA
 40
0.0
  9
$CHAMFERB
 40
0.0
  9
$CHAMFERC
 40
0.0
  9
$CHAMFERD
 40
0.0
  9
$SKPOLY
 70
     0
  9
$TDCREATE
 40
2460082.675947211
  9
$TDUCREATE
 40
2460082.300947211
  9
$TDUPDATE
 40
2460082.67594772
  9
$TDUUPDATE
 40
2460082.30094772
  9
$TDINDWG
 40
0.0000000116
  9
$TDUSRTIMER
 40
0.0000000116
  9
$USRTIMER
 70
     1
  9
$ANGBASE
 50
0.0
  9
$ANGDIR
 70
     0
  9
$PDMODE
 70
     0
  9
$PDSIZE
 40
-1.0
  9
$PLINEWID
 40
0.0
  9
$SPLFRAME
 70
     0
  9
$SPLINETYPE
 70
     6
  9
$SPLINESEGS
 70
     8
  9
$HANDSEED
  5
155
  9
$SURFTAB1
 70
     6
  9
$SURFTAB2
 70
     6
  9
$SURFTYPE
 70
     6
  9
$SURFU
 70
     6
  9
$SURFV
 70
     6
  9
$UCSBASE
  2

  9
$UCSNAME
  2

  9
$UCSORG
 10
0.0
 20
0.0
 30
0.0
  9
$UCSXDIR
 10
1.0
 20
0.0
 30
0.0
  9
$UCSYDIR
 10
0.0
 20
1.0
 30
0.0
  9
$UCSORTHOREF
  2

  9
$UCSORTHOVIEW
 70
     0
  9
$UCSORGTOP
 10
0.0
 20
0.0
 30
0.0
  9
$UCSORGBOTTOM
 10
0.0
 20
0.0
 30
0.0
  9
$UCSORGLEFT
 10
0.0
 20
0.0
 30
0.0
  9
$UCSORGRIGHT
 10
0.0
 20
0.0
 30
0.0
  9
$UCSORGFRONT
 10
0.0
 20
0.0
 30
0.0
  9
$UCSORGBACK
 10
0.0
 20
0.0
 30
0.0
  9
$PUCSBASE
  2

  9
$PUCSNAME
  2

  9
$PUCSORG
 10
0.0
 20
0.0
 30
0.0
  9
$PUCSXDIR
 10
1.0
 20
0.0
 30
0.0
  9
$PUCSYDIR
 10
0.0
 20
1.0
 30
0.0
  9
$PUCSORTHOREF
  2

  9
$PUCSORTHOVIEW
 70
     0
  9
$PUCSORGTOP
 10
0.0
 20
0.0
 30
0.0
  9
$PUCSORGBOTTOM
 10
0.0
 20
0.0
 30
0.0
  9
$PUCSORGLEFT
 10
0.0
 20
0.0
 30
0.0
  9
$PUCSORGRIGHT
 10
0.0
 20
0.0
 30
0.0
  9
$PUCSORGFRONT
 10
0.0
 20
0.0
 30
0.0
  9
$PUCSORGBACK
 10
0.0
 20
0.0
 30
0.0
  9
$USERI1
 70
     0
  9
$USERI2
 70
     0
  9
$USERI3
 70
     0
  9
$USERI4
 70
     0
  9
$USERI5
 70
     0
  9
$USERR1
 40
0.0
  9
$USERR2
 40
0.0
  9
$USERR3
 40
0.0
  9
$USERR4
 40
0.0
  9
$USERR5
 40
0.0
  9
$WORLDVIEW
 70
     1
  9
$SHADEDGE
 70
     3
  9
$SHADEDIF
 70
    70
  9
$TILEMODE
 70
     1
  9
$MAXACTVP
 70
    64
  9
$PINSBASE
 10
0.0
 20
0.0
 30
0.0
  9
$PLIMCHECK
 70
     0
  9
$PEXTMIN
 10
1.0000000000E+20
 20
1.0000000000E+20
 30
1.0000000000E+20
  9
$PEXTMAX
 10
-1.0000000000E+20
 20
-1.0000000000E+20
 30
-1.0000000000E+20
  9
$PLIMMIN
 10
0.0
 20
0.0
  9
$PLIMMAX
 10
420.0
 20
297.0
  9
$UNITMODE
 70
     0
  9
$VISRETAIN
 70
     1
  9
$PLINEGEN
 70
     0
  9
$PSLTSCALE
 70
     1
  9
$TREEDEPTH
 70
  3020
  9
$CMLSTYLE
  2
Standard
  9
$CMLJUST
 70
     0
  9
$CMLSCALE
 40
20.0
  9
$PROXYGRAPHICS
 70
     1
  9
$MEASUREMENT
 70
     1
  9
$CELWEIGHT
370
    -1
  9
$ENDCAPS
280
     0
  9
$JOINSTYLE
280
     0
  9
$LWDISPLAY
290
     1
  9
$INSUNITS
 70
     4
  9
$HYPERLINKBASE
  1

  9
$STYLESHEET
  1

  9
$XEDIT
290
     1
  9
$CEPSNTYPE
380
     0
  9
$PSTYLEMODE
290
     1
  9
$FINGERPRINTGUID
  2
{BCA0DB4D-670B-4C63-8C90-793974A8463E}
  9
$VERSIONGUID
  2
{FAEB1C32-E019-11D5-929B-00C0DF256EC4}
  9
$EXTNAMES
290
     1
  9
$PSVPSCALE
 40
0.0
  9
$OLESTARTUP
290
     0
  0
ENDSEC
  0
SECTION
  2
CLASSES
  0
CLASS
  1
ACDBDICTIONARYWDFLT
  2
AcDbDictionaryWithDefault
  3
ObjectDBX Classes
 90
        0
280
     0
281
     0
  0
CLASS
  1
VISUALSTYLE
  2
AcDbVisualStyle
  3
ObjectDBX Classes
 90
     4095
280
     0
281
     0
  0
CLASS
  1
MATERIAL
  2
AcDbMaterial
  3
ObjectDBX Classes
 90
     1153
280
     0
281
     0
  0
CLASS
  1
SCALE
  2
AcDbScale
  3
ObjectDBX Classes
 90
     1153
280
     0
281
     0
  0
CLASS
  1
TABLESTYLE
  2
AcDbTableStyle
  3
ObjectDBX Classes
 90
     4095
280
     0
281
     0
  0
CLASS
  1
MLEADERSTYLE
  2
AcDbMLeaderStyle
  3
ACDB_MLEADERSTYLE_CLASS
 90
     4095
280
     0
281
     0
  0
CLASS
  1
SUN
  2
AcDbSun
  3
SCENEOE
 90
     1153
280
     0
281
     0
  0
CLASS
  1
ACDBPLACEHOLDER
  2
AcDbPlaceHolder
  3
ObjectDBX Classes
 90
        0
280
     0
281
     0
  0
CLASS
  1
LAYOUT
  2
AcDbLayout
  3
ObjectDBX Classes
 90
        0
280
     0
281
     0
  0
ENDSEC
  0
SECTION
  2
TABLES
  0
TABLE
  2
VPORT
  5
8
330
0
100
AcDbSymbolTable
 70
     1
  0
VPORT
  5
29
330
8
100
AcDbSymbolTableRecord
100
AcDbViewportTableRecord
  2
*Active
 70
     0
 10
0.0
 20
0.0
 11
1.0
 21
1.0
 12
107.95
 22
69.85
 13
0.0
 23
0.0
 14
10.0
 24
10.0
 15
10.0
 25
10.0
 16
0.0
 26
0.0
 36
1.0
 17
0.0
 27
0.0
 37
0.0
 40
139.7
 41
1.5454545455
 42
50.0
 43
0.0
 44
0.0
 50
0.0
 51
0.0
 71
     0
 72
  2000
 73
     1
 74
     3
 75
     0
 76
     0
 77
     0
 78
     0
281
     0
 65
     1
110
0.0
120
0.0
130
0.0
111
1.0
121
0.0
131
0.0
112
0.0
122
1.0
132
0.0
 79
     0
146
0.0
  0
ENDTAB
  0
TABLE
  2
LTYPE
  5
5
330
0
100
AcDbSymbolTable
 70
     6
  0
LTYPE
  5
14
330
5
100
AcDbSymbolTableRecord
100
AcDbLinetypeTableRecord
  2
ByBlock
 70
     0
  3

 72
    65
 73
     0
 40
0.0
  0
LTYPE
  5
15
330
5
100
AcDbSymbolTableRecord
100
AcDbLinetypeTableRecord
  2
ByLayer
 70
     0
  3

 72
    65
 73
     0
 40
0.0
  0
LTYPE
  5
16
330
5
100
AcDbSymbolTableRecord
100
AcDbLinetypeTableRecord
  2
Continuous
 70
     0
  3
Solid line
 72
    65
 73
     0
 40
0.0
  0
LTYPE
  5
6E
330
5
100
AcDbSymbolTableRecord
100
AcDbLinetypeTableRecord
  2
HIDDEN
 70
     0
  3
Hidden __ __ __ __ __ __ __ __ __ __ __ __ __ __
 72
    65
 73
     2
 40
1.905
 49
1.27
 74
     0
 49
-0.635
 74
     0
  0
LTYPE
  5
6F
330
5
100
AcDbSymbolTableRecord
100
AcDbLinetypeTableRecord
  2
PHANTOM
 70
     0
  3
Phantom ______  __  __  ______  __  __  ______
 72
    65
 73
     6
 40
12.7
 49
6.35
 74
     0
 49
-1.27
 74
     0
 49
1.27
 74
     0
 49
-1.27
 74
     0
 49
1.27
 74
     0
 49
-1.27
 74
     0
  0
LTYPE
  5
70
330
5
100
AcDbSymbolTableRecord
100
AcDbLinetypeTableRecord
  2
CENTER
 70
     0
  3
Center ____ _ ____ _ ____ _ ____ _ ____ _ ____
 72
    65
 73
     4
 40
10.16
 49
6.35
 74
     0
 49
-1.27
 74
     0
 49
1.27
 74
     0
 49
-1.27
 74
     0
  0
LTYPE
  5
71
330
5
100
AcDbSymbolTableRecord
100
AcDbLinetypeTableRecord
  2
CENTERX2
 70
     0
  3
Center (2x) ________  __  ________  __  _____
 72
    65
 73
     4
 40
20.32
 49
12.7
 74
     0
 49
-2.54
 74
     0
 49
2.54
 74
     0
 49
-2.54
 74
     0
  0
LTYPE
  5
72
330
5
100
AcDbSymbolTableRecord
100
AcDbLinetypeTableRecord
  2
DOT2
 70
     0
  3
Dot (.5x) ........................................
 72
    65
 73
     2
 40
0.635
 49
0.0
 74
     0
 49
-0.635
 74
     0
  0
ENDTAB
  0
TABLE
  2
LAYER
  5
2
330
0
100
AcDbSymbolTable
 70
     1
  0
LAYER
  5
10
330
2
100
AcDbSymbolTableRecord
100
AcDbLayerTableRecord
  2
0
 70
     0
 62
     7
  6
Continuous
370
    -3
390
F
  0
ENDTAB
  0
TABLE
  2
STYLE
  5
3
330
0
100
AcDbSymbolTable
 70
     2
  0
STYLE
  5
11
330
3
100
AcDbSymbolTableRecord
100
AcDbTextStyleTableRecord
  2
Standard
 70
     0
 40
0.0
 41
1.0
 50
0.0
 71
     0
 42
1.75
  3
txt
  4
bigfont
  0
STYLE
  5
73
330
3
100
AcDbSymbolTableRecord
100
AcDbTextStyleTableRecord
  2
SLDTEXTSTYLE0
 70
     0
 40
0.0
 41
0.7
 50
0.0
 71
     0
 42
1.75
  3
TXT
  4
bigfont
  0
ENDTAB
  0
TABLE
  2
VIEW
  5
6
330
0
100
AcDbSymbolTable
 70
     0
  0
ENDTAB
  0
TABLE
  2
UCS
  5
7
330
0
100
AcDbSymbolTable
 70
     0
  0
ENDTAB
  0
TABLE
  2
APPID
  5
9
330
0
100
AcDbSymbolTable
 70
     1
  0
APPID
  5
12
330
9
100
AcDbSymbolTableRecord
100
AcDbRegAppTableRecord
  2
ACAD
 70
     0
  0
ENDTAB
  0
TABLE
  2
DIMSTYLE
  5
A
330
0
100
AcDbSymbolTable
 70
     1
100
AcDbDimStyleTable
  0
DIMSTYLE
105
27
330
A
100
AcDbSymbolTableRecord
100
AcDbDimStyleTableRecord
  2
ISO-25
 70
     0
 41
2.5
 42
0.625
 43
3.75
 44
1.25
 73
     0
 74
     0
 77
     1
 78
     8
140
2.5
141
2.5
143
0.0393700787
147
0.625
171
     3
172
     1
178
     0
271
     2
272
     2
274
     3
278
    44
283
     0
284
     8
340
11
  0
ENDTAB
  0
TABLE
  2
BLOCK_RECORD
  5
1
330
0
100
AcDbSymbolTable
 70
     3
  0
BLOCK_RECORD
  5
1F
330
1
100
AcDbSymbolTableRecord
100
AcDbBlockTableRecord
  2
*Model_Space
340
22
  0
BLOCK_RECORD
  5
1B
330
1
100
AcDbSymbolTableRecord
100
AcDbBlockTableRecord
  2
*Paper_Space
340
1E
  0
BLOCK_RECORD
  5
23
330
1
100
AcDbSymbolTableRecord
100
AcDbBlockTableRecord
  2
*Paper_Space0
340
26
  0
BLOCK_RECORD
  5
F2
330
1
100
AcDbSymbolTableRecord
100
AcDbBlockTableRecord
  2
SW_CENTERMARKSYMBOL_0
340
0
102
{BLKREFS
331
FD
102
}
  0
BLOCK_RECORD
  5
FE
330
1
100
AcDbSymbolTableRecord
100
AcDbBlockTableRecord
  2
SW_CENTERMARKSYMBOL_1
340
0
102
{BLKREFS
331
109
102
}
  0
ENDTAB
  0
ENDSEC
  0
SECTION
  2
BLOCKS
  0
BLOCK
  5
20
330
1F
100
AcDbEntity
  8
0
100
AcDbBlockBegin
  2
*Model_Space
 70
     0
 10
0.0
 20
0.0
 30
0.0
  3
*Model_Space
  1

  0
ENDBLK
  5
21
330
1F
100
AcDbEntity
  8
0
100
AcDbBlockEnd
  0
BLOCK
  5
1C
330
1B
100
AcDbEntity
 67
     1
  8
0
100
AcDbBlockBegin
  2
*Paper_Space
 70
     0
 10
0.0
 20
0.0
 30
0.0
  3
*Paper_Space
  1

  0
ENDBLK
  5
1D
330
1B
100
AcDbEntity
 67
     1
  8
0
100
AcDbBlockEnd
  0
BLOCK
  5
24
330
23
100
AcDbEntity
  8
0
100
AcDbBlockBegin
  2
*Paper_Space0
 70
     0
 10
0.0
 20
0.0
 30
0.0
  3
*Paper_Space0
  1

  0
ENDBLK
  5
25
330
23
100
AcDbEntity
  8
0
100
AcDbBlockEnd
  0
BLOCK
  5
F3
330
F2
100
AcDbEntity
  8
0
100
AcDbBlockBegin
  2
SW_CENTERMARKSYMBOL_0
 70
     0
 10
0.0
 20
0.0
 30
0.0
  3
SW_CENTERMARKSYMBOL_0
  1

  0
LINE
  5
F5
330
F2
100
AcDbEntity
  8
0
  6
Continuous
 62
     0
370
    18
100
AcDbLine
 10
0.0
 20
0.0
 30
0.0
 11
0.0
 21
2.5
 31
0.0
  0
LINE
  5
F6
330
F2
100
AcDbEntity
  8
0
  6
Continuous
 62
     0
370
    18
100
AcDbLine
 10
0.0
 20
0.0
 30
0.0
 11
-2.5
 21
0.0
 31
0.0
  0
LINE
  5
F7
330
F2
100
AcDbEntity
  8
0
  6
Continuous
 62
     0
370
    18
100
AcDbLine
 10
0.0
 20
0.0
 30
0.0
 11
0.0
 21
-2.5
 31
0.0
  0
LINE
  5
F8
330
F2
100
AcDbEntity
  8
0
  6
Continuous
 62
     0
370
    18
100
AcDbLine
 10
0.0
 20
0.0
 30
0.0
 11
2.5
 21
0.0
 31
0.0
  0
LINE
  5
F9
330
F2
100
AcDbEntity
  8
0
  6
Continuous
 62
     0
370
    18
100
AcDbLine
 10
0.0
 20
5.0
 30
0.0
 11
0.0
 21
6.5
 31
0.0
  0
LINE
  5
FA
330
F2
100
AcDbEntity
  8
0
  6
Continuous
 62
     0
370
    18
100
AcDbLine
 10
-5.0
 20
0.0
 30
0.0
 11
-6.5
 21
0.0
 31
0.0
  0
LINE
  5
FB
330
F2
100
AcDbEntity
  8
0
  6
Continuous
 62
     0
370
    18
100
AcDbLine
 10
0.0
 20
-5.0
 30
0.0
 11
0.0
 21
-6.5
 31
0.0
  0
LINE
  5
FC
330
F2
100
AcDbEntity
  8
0
  6
Continuous
 62
     0
370
    18
100
AcDbLine
 10
5.0
 20
0.0
 30
0.0
 11
6.5
 21
0.0
 31
0.0
  0
ENDBLK
  5
F4
330
F2
100
AcDbEntity
  8
0
100
AcDbBlockEnd
  0
BLOCK
  5
FF
330
FE
100
AcDbEntity
  8
0
100
AcDbBlockBegin
  2
SW_CENTERMARKSYMBOL_1
 70
     0
 10
0.0
 20
0.0
 30
0.0
  3
SW_CENTERMARKSYMBOL_1
  1

  0
LINE
  5
101
330
FE
100
AcDbEntity
  8
0
  6
Continuous
 62
     0
370
    18
100
AcDbLine
 10
0.0
 20
0.0
 30
0.0
 11
0.0
 21
2.5
 31
0.0
  0
LINE
  5
102
330
FE
100
AcDbEntity
  8
0
  6
Continuous
 62
     0
370
    18
100
AcDbLine
 10
0.0
 20
0.0
 30
0.0
 11
-2.5
 21
0.0
 31
0.0
  0
LINE
  5
103
330
FE
100
AcDbEntity
  8
0
  6
Continuous
 62
     0
370
    18
100
AcDbLine
 10
0.0
 20
0.0
 30
0.0
 11
0.0
 21
-2.5
 31
0.0
  0
LINE
  5
104
330
FE
100
AcDbEntity
  8
0
  6
Continuous
 62
     0
370
    18
100
AcDbLine
 10
0.0
 20
0.0
 30
0.0
 11
2.5
 21
0.0
 31
0.0
  0
LINE
  5
105
330
FE
100
AcDbEntity
  8
0
  6
Continuous
 62
     0
370
    18
100
AcDbLine
 10
0.0
 20
5.0
 30
0.0
 11
0.0
 21
10.75
 31
0.0
  0
LINE
  5
106
330
FE
100
AcDbEntity
  8
0
  6
Continuous
 62
     0
370
    18
100
AcDbLine
 10
-5.0
 20
0.0
 30
0.0
 11
-10.75
 21
0.0
 31
0.0
  0
LINE
  5
107
330
FE
100
AcDbEntity
  8
0
  6
Continuous
 62
     0
370
    18
100
AcDbLine
 10
0.0
 20
-5.0
 30
0.0
 11
0.0
 21
-10.75
 31
0.0
  0
LINE
  5
108
330
FE
100
AcDbEntity
  8
0
  6
Continuous
 62
     0
370
    18
100
AcDbLine
 10
5.0
 20
0.0
 30
0.0
 11
10.75
 21
0.0
 31
0.0
  0
ENDBLK
  5
100
330
FE
100
AcDbEntity
  8
0
100
AcDbBlockEnd
  0
ENDSEC
  0
SECTION
  2
ENTITIES
  0
MTEXT
  5
74
330
1F
100
AcDbEntity
  8
0
  6
Continuous
 62
     7
370
     0
100
AcDbMText
 10
100.1571216522
 20
65.1297281097
 30
0.0
 40
2.1166666667
 41
0.0
 71
     1
 72
     1
  1
エースニップル　HN-8312
  7
SLDTEXTSTYLE0
 73
     1
 44
1.0
  0
LINE
  5
75
330
1F
100
AcDbEntity
  8
0
  6
Continuous
 62
     7
370
    25
100
AcDbLine
 10
72.8561424867
 20
56.3351622553
 30
0.0
 11
61.9300519204
 21
55.9937219251
 31
0.0
  0
LINE
  5
76
330
1F
100
AcDbEntity
  8
0
  6
Continuous
 62
     7
370
    25
100
AcDbLine
 10
61.9300519204
 20
39.5989775855
 30
0.0
 11
72.8561424867
 21
39.2575372553
 31
0.0
  0
LINE
  5
77
330
1F
100
AcDbEntity
  8
0
  6
Continuous
 62
     7
370
    25
100
AcDbLine
 10
77.9526155409
 20
37.981395179
 30
0.0
 11
78.8561424867
 21
39.5463497553
 31
0.0
  0
LINE
  5
78
330
1F
100
AcDbEntity
  8
0
  6
Continuous
 62
     7
370
    25
100
AcDbLine
 10
78.8561424867
 20
56.0463497553
 30
0.0
 11
77.9526155409
 21
57.6113043315
 31
0.0
  0
LINE
  5
79
330
1F
100
AcDbEntity
  8
0
  6
Continuous
 62
     7
370
    25
100
AcDbLine
 10
61.9300519204
 20
55.9937219251
 30
0.0
 11
59.8561424867
 21
54.7963497553
 31
0.0
  0
LINE
  5
7A
330
1F
100
AcDbEntity
  8
0
  6
Continuous
 62
     7
370
    25
100
AcDbLine
 10
59.8561424867
 20
40.7963497553
 30
0.0
 11
61.9300519204
 21
39.5989775855
 31
0.0
  0
LINE
  5
7B
330
1F
100
AcDbEntity
  8
0
  6
Continuous
 62
     7
370
    25
100
AcDbLine
 10
84.8561424867
 20
41.7963497553
 30
0.0
 11
89.3561424867
 21
42.5463497553
 31
0.0
  0
LINE
  5
7C
330
1F
100
AcDbEntity
  8
0
  6
Continuous
 62
     7
370
    25
100
AcDbLine
 10
89.3561424867
 20
53.0463497553
 30
0.0
 11
84.8561424867
 21
53.7963497553
 31
0.0
  0
LINE
  5
7D
330
1F
100
AcDbEntity
  8
0
  6
Continuous
 62
     7
370
    25
100
AcDbLine
 10
89.3561424867
 20
41.7963497553
 30
0.0
 11
93.8561424867
 21
42.5463497553
 31
0.0
  0
LINE
  5
7E
330
1F
100
AcDbEntity
  8
0
  6
Continuous
 62
     7
370
    25
100
AcDbLine
 10
93.8561424867
 20
53.0463497553
 30
0.0
 11
89.3561424867
 21
53.7963497553
 31
0.0
  0
LINE
  5
7F
330
1F
100
AcDbEntity
  8
0
  6
Continuous
 62
     7
370
    25
100
AcDbLine
 10
93.8561424867
 20
41.7963497553
 30
0.0
 11
98.3561424867
 21
42.5463497553
 31
0.0
  0
LINE
  5
80
330
1F
100
AcDbEntity
  8
0
  6
Continuous
 62
     7
370
    25
100
AcDbLine
 10
98.3561424867
 20
53.0463497553
 30
0.0
 11
93.8561424867
 21
53.7963497553
 31
0.0
  0
LINE
  5
81
330
1F
100
AcDbEntity
  8
0
  6
Continuous
 62
     7
370
    25
100
AcDbLine
 10
98.3561424867
 20
41.7963497553
 30
0.0
 11
103.4236990891
 21
42.487380201
 31
0.0
  0
LINE
  5
82
330
1F
100
AcDbEntity
  8
0
  6
Continuous
 62
     7
370
    25
100
AcDbLine
 10
103.4236990891
 20
53.1053193095
 30
0.0
 11
98.3561424867
 21
53.7963497553
 31
0.0
  0
LINE
  5
83
330
1F
100
AcDbEntity
  8
0
  6
Continuous
 62
     7
370
    25
100
AcDbLine
 10
84.8561424867
 20
53.7963497553
 30
0.0
 11
78.8561424867
 21
53.7963497553
 31
0.0
  0
LINE
  5
84
330
1F
100
AcDbEntity
  8
0
  6
Continuous
 62
     7
370
    25
100
AcDbLine
 10
78.8561424867
 20
41.7963497553
 30
0.0
 11
84.8561424867
 21
41.7963497553
 31
0.0
  0
ARC
  5
85
330
1F
100
AcDbEntity
  8
0
  6
Continuous
 62
     7
370
    25
100
AcDbCircle
 10
103.3561424867
 20
52.6099042255
 30
0.0
 40
0.5000000000000054
100
AcDbArc
 50
0.0
 51
82.2348339816
  0
ARC
  5
86
330
1F
100
AcDbEntity
  8
0
  6
Continuous
 62
     7
370
    25
100
AcDbCircle
 10
103.3561424867
 20
42.9827952851
 30
0.0
 40
0.5000000000000054
100
AcDbArc
 50
277.7651660184
 51
0.0
  0
LINE
  5
87
330
1F
100
AcDbEntity
  8
0
  6
Continuous
 62
     7
370
    25
100
AcDbLine
 10
73.5929234579
 20
57.6113043315
 30
0.0
 11
72.8561424867
 21
56.3351622553
 31
0.0
  0
LINE
  5
88
330
1F
100
AcDbEntity
  8
0
  6
Continuous
 62
     7
370
    25
100
AcDbLine
 10
72.8561424867
 20
39.2575372553
 30
0.0
 11
73.5929234579
 21
37.981395179
 31
0.0
  0
LINE
  5
89
330
1F
100
AcDbEntity
  8
0
  6
Continuous
 62
     7
370
    25
100
AcDbLine
 10
75.6923847417
 20
37.981395179
 30
0.0
 11
75.7727694994
 21
38.281395179
 31
0.0
  0
LINE
  5
8A
330
1F
100
AcDbEntity
  8
0
  6
Continuous
 62
     7
370
    25
100
AcDbLine
 10
75.7727694994
 20
38.281395179
 30
0.0
 11
75.8531542571
 21
37.981395179
 31
0.0
  0
LINE
  5
8B
330
1F
100
AcDbEntity
  8
0
  6
Continuous
 62
     7
370
    25
100
AcDbLine
 10
75.7727694994
 20
57.3113043315
 30
0.0
 11
75.6923847417
 21
57.6113043315
 31
0.0
  0
LINE
  5
8C
330
1F
100
AcDbEntity
  8
0
  6
Continuous
 62
     7
370
    25
100
AcDbLine
 10
75.8531542571
 20
57.6113043315
 30
0.0
 11
75.7727694994
 21
57.3113043315
 31
0.0
  0
LINE
  5
8D
330
1F
100
AcDbEntity
  8
0
  6
Continuous
 62
     7
370
    25
100
AcDbLine
 10
61.9300519204
 20
55.9937219251
 30
0.0
 11
61.9300519204
 21
39.5989775855
 31
0.0
  0
LINE
  5
8E
330
1F
100
AcDbEntity
  8
0
  6
Continuous
 62
     7
370
    25
100
AcDbLine
 10
72.8561424867
 20
46.9831345868
 30
0.0
 11
72.8561424867
 21
48.6095649237
 31
0.0
  0
LINE
  5
8F
330
1F
100
AcDbEntity
  8
0
  6
Continuous
 62
     7
370
    25
100
AcDbLine
 10
72.8561424867
 20
40.8417414073
 30
0.0
 11
72.8561424867
 21
46.9831345868
 31
0.0
  0
LINE
  5
90
330
1F
100
AcDbEntity
  8
0
  6
Continuous
 62
     7
370
    25
100
AcDbLine
 10
72.8561424867
 20
40.0285262389
 30
0.0
 11
72.8561424867
 21
40.8417414073
 31
0.0
  0
LINE
  5
91
330
1F
100
AcDbEntity
  8
0
  6
Continuous
 62
     7
370
    25
100
AcDbLine
 10
72.8561424867
 20
39.2575372553
 30
0.0
 11
72.8561424867
 21
40.0285262389
 31
0.0
  0
LINE
  5
92
330
1F
100
AcDbEntity
  8
0
  6
Continuous
 62
     7
370
    25
100
AcDbLine
 10
72.8561424867
 20
55.5641732716
 30
0.0
 11
72.8561424867
 21
56.3351622553
 31
0.0
  0
LINE
  5
93
330
1F
100
AcDbEntity
  8
0
  6
Continuous
 62
     7
370
    25
100
AcDbLine
 10
72.8561424867
 20
54.7509581032
 30
0.0
 11
72.8561424867
 21
55.5641732716
 31
0.0
  0
LINE
  5
94
330
1F
100
AcDbEntity
  8
0
  6
Continuous
 62
     7
370
    25
100
AcDbLine
 10
72.8561424867
 20
48.6095649237
 30
0.0
 11
72.8561424867
 21
54.7509581032
 31
0.0
  0
LINE
  5
95
330
1F
100
AcDbEntity
  8
0
  6
Continuous
 62
     7
370
    25
100
AcDbLine
 10
75.6923847417
 20
37.981395179
 30
0.0
 11
73.5929234579
 21
37.981395179
 31
0.0
  0
SPLINE
  5
96
330
1F
100
AcDbEntity
  8
0
  6
Continuous
 62
     7
370
    25
100
AcDbSpline
210
0.0
220
0.0
230
1.0
 70
     8
 71
     3
 72
    10
 73
     6
 74
     0
 42
0.000000001
 43
0.00000001
 40
0.0
 40
0.0
 40
0.0
 40
0.0
 40
0.5
 40
0.5
 40
1.0
 40
1.0
 40
1.0
 40
1.0
 10
73.59292345794715
 20
37.98139517903446
 30
0.0
 10
73.39898835786609
 20
38.31730062574585
 30
0.0
 10
73.23261650607071
 20
38.65749118942153
 30
0.0
 10
72.98036971819951
 20
39.33970405605223
 30
0.0
 10
72.8941544850637
 20
39.6828708437457
 30
0.0
 10
72.85614248671524
 20
40.02852623887794
 30
0.0
  0
SPLINE
  5
97
330
1F
100
AcDbEntity
  8
0
  6
Continuous
 62
     7
370
    25
100
AcDbSpline
210
0.0
220
0.0
230
1.0
 70
     8
 71
     3
 72
    12
 73
     8
 74
     0
 42
0.000000001
 43
0.00000001
 40
0.0
 40
0.0
 40
0.0
 40
0.0
 40
0.2499999999999999
 40
0.2499999999999999
 40
0.4999999999999998
 40
0.4999999999999998
 40
1.0
 40
1.0
 40
1.0
 40
1.0
 10
72.85614248671524
 20
40.84174140730281
 30
0.0
 10
72.8753363405954
 20
41.01627732846742
 30
0.0
 10
72.90705236387127
 20
41.19168471136663
 30
0.0
 10
72.99253007865217
 20
41.53807063512841
 30
0.0
 10
73.04630739620272
 20
41.70977995056897
 30
0.0
 10
73.23635463433371
 20
42.2210483611886
 30
0.0
 10
73.40118340129429
 20
42.55676894717735
 30
0.0
 10
73.59292345794715
 20
42.88887246714628
 30
0.0
  0
LINE
  5
98
330
1F
100
AcDbEntity
  8
0
  6
Continuous
 62
     7
370
    25
100
AcDbLine
 10
75.6923847417
 20
42.8888724671
 30
0.0
 11
73.5929234579
 21
42.8888724671
 31
0.0
  0
SPLINE
  5
99
330
1F
100
AcDbEntity
  8
0
  6
Continuous
 62
     7
370
    25
100
AcDbSpline
210
0.0
220
0.0
230
1.0
 70
     8
 71
     3
 72
     8
 73
     4
 74
     0
 42
0.000000001
 43
0.00000001
 40
0.0
 40
0.0
 40
0.0
 40
0.0
 40
1.0
 40
1.0
 40
1.0
 40
1.0
 10
75.77276949940507
 20
42.57314461513512
 30
0.0
 10
75.7473948662459
 20
42.67850665127381
 30
0.0
 10
75.72055346503913
 20
42.78374536036979
 30
0.0
 10
75.69238474167575
 20
42.88887246714628
 30
0.0
  0
SPLINE
  5
9A
330
1F
100
AcDbEntity
  8
0
  6
Continuous
 62
     7
370
    25
100
AcDbSpline
210
0.0
220
0.0
230
1.0
 70
     8
 71
     3
 72
     8
 73
     4
 74
     0
 42
0.000000001
 43
0.00000001
 40
0.0
 40
0.0
 40
0.0
 40
0.0
 40
1.0
 40
1.0
 40
1.0
 40
1.0
 10
75.85315425713442
 20
42.88887246714629
 30
0.0
 10
75.82497295131124
 20
42.7836984019906
 30
0.0
 10
75.79813242531652
 20
42.67845803975493
 30
0.0
 10
75.77276949940507
 20
42.57314461513512
 30
0.0
  0
LINE
  5
9B
330
1F
100
AcDbEntity
  8
0
  6
Continuous
 62
     7
370
    25
100
AcDbLine
 10
77.9526155409
 20
42.8888724671
 30
0.0
 11
75.8531542571
 21
42.8888724671
 31
0.0
  0
SPLINE
  5
9C
330
1F
100
AcDbEntity
  8
0
  6
Continuous
 62
     7
370
    25
100
AcDbSpline
210
0.0
220
0.0
230
1.0
 70
     8
 71
     3
 72
    16
 73
    12
 74
     0
 42
0.000000001
 43
0.00000001
 40
0.0
 40
0.0
 40
0.0
 40
0.0
 40
0.2500000000000001
 40
0.2500000000000001
 40
0.5000000000000001
 40
0.5000000000000001
 40
0.6250000000000001
 40
0.6250000000000001
 40
0.7500000000000002
 40
0.7500000000000002
 40
1.0
 40
1.0
 40
1.0
 40
1.0
 10
77.9526155408634
 20
42.88887246714631
 30
0.0
 10
78.18393029454603
 20
42.48822356122772
 30
0.0
 10
78.37457558787648
 20
42.08465357154287
 30
0.0
 10
78.63868124428377
 20
41.26909678520178
 30
0.0
 10
78.71127043559774
 20
40.85704741663847
 30
0.0
 10
78.7120676816887
 20
40.23121004858886
 30
0.0
 10
78.69432242506524
 20
40.02161606512575
 30
0.0
 10
78.62512534153545
 20
39.60701704774952
 30
0.0
 10
78.57374373547317
 20
39.40110753572734
 30
0.0
 10
78.37533573673655
 20
38.78704493767417
 30
0.0
 10
78.1842186350326
 20
38.382543505326
 30
0.0
 10
77.9526155408632
 20
37.98139517903444
 30
0.0
  0
LINE
  5
9D
330
1F
100
AcDbEntity
  8
0
  6
Continuous
 62
     7
370
    25
100
AcDbLine
 10
77.9526155409
 20
37.981395179
 30
0.0
 11
75.8531542571
 21
37.981395179
 31
0.0
  0
SPLINE
  5
9E
330
1F
100
AcDbEntity
  8
0
  6
Continuous
 62
     7
370
    25
100
AcDbSpline
210
0.0
220
0.0
230
1.0
 70
     8
 71
     3
 72
     8
 73
     4
 74
     0
 42
0.000000001
 43
0.00000001
 40
0.0
 40
0.0
 40
0.0
 40
0.0
 40
1.0
 40
1.0
 40
1.0
 40
1.0
 10
75.77276949940507
 20
38.29712303104563
 30
0.0
 10
75.79814413256425
 20
38.19176099490694
 30
0.0
 10
75.82498553377104
 20
38.08652228581095
 30
0.0
 10
75.85315425713442
 20
37.98139517903446
 30
0.0
  0
SPLINE
  5
9F
330
1F
100
AcDbEntity
  8
0
  6
Continuous
 62
     7
370
    25
100
AcDbSpline
210
0.0
220
0.0
230
1.0
 70
     8
 71
     3
 72
     8
 73
     4
 74
     0
 42
0.000000001
 43
0.00000001
 40
0.0
 40
0.0
 40
0.0
 40
0.0
 40
1.0
 40
1.0
 40
1.0
 40
1.0
 10
75.69238474167575
 20
37.98139517903446
 30
0.0
 10
75.7205660474989
 20
38.08656924419015
 30
0.0
 10
75.74740657349363
 20
38.19180960642582
 30
0.0
 10
75.77276949940507
 20
38.29712303104563
 30
0.0
  0
SPLINE
  5
A0
330
1F
100
AcDbEntity
  8
0
  6
Continuous
 62
     7
370
    25
100
AcDbSpline
210
0.0
220
0.0
230
1.0
 70
     8
 71
     3
 72
     8
 73
     4
 74
     0
 42
0.000000001
 43
0.00000001
 40
0.0
 40
0.0
 40
0.0
 40
0.0
 40
1.0
 40
1.0
 40
1.0
 40
1.0
 10
75.77276949940507
 20
43.52032817116861
 30
0.0
 10
75.7981435299894
 20
43.30960910298431
 30
0.0
 10
75.8249848867064
 20
43.09913151045546
 30
0.0
 10
75.85315425713442
 20
42.88887246714629
 30
0.0
  0
LINE
  5
A1
330
1F
100
AcDbEntity
  8
0
  6
Continuous
 62
     7
370
    25
100
AcDbLine
 10
75.7727694994
 20
42.5731446151
 30
0.0
 11
75.7727694994
 21
43.5203281712
 31
0.0
  0
SPLINE
  5
A2
330
1F
100
AcDbEntity
  8
0
  6
Continuous
 62
     7
370
    25
100
AcDbSpline
210
0.0
220
0.0
230
1.0
 70
     8
 71
     3
 72
    10
 73
     6
 74
     0
 42
0.000000001
 43
0.00000001
 40
0.0
 40
0.0
 40
0.0
 40
0.0
 40
0.5
 40
0.5
 40
1.0
 40
1.0
 40
1.0
 40
1.0
 10
73.59292345794715
 20
42.88887246714628
 30
0.0
 10
73.39981678264326
 20
43.55781361296039
 30
0.0
 10
73.232706443433
 20
44.24035735583097
 30
0.0
 10
72.97989770311128
 20
45.60826437998487
 30
0.0
 10
72.8940126038191
 20
46.29440414065948
 30
0.0
 10
72.85614248671524
 20
46.98313458683325
 30
0.0
  0
SPLINE
  5
A3
330
1F
100
AcDbEntity
  8
0
  6
Continuous
 62
     7
370
    25
100
AcDbSpline
210
0.0
220
0.0
230
1.0
 70
     8
 71
     3
 72
    10
 73
     6
 74
     0
 42
0.000000001
 43
0.00000001
 40
0.0
 40
0.0
 40
0.0
 40
0.0
 40
0.5
 40
0.5
 40
1.0
 40
1.0
 40
1.0
 40
1.0
 10
72.85614248671524
 20
48.60956492368295
 30
0.0
 10
72.89418471734268
 20
49.30142553772917
 30
0.0
 10
72.98223774310662
 20
50.00047353729438
 30
0.0
 10
73.23629539686686
 20
51.36830460789901
 30
0.0
 10
73.40136198492768
 20
52.04023863528496
 30
0.0
 10
73.59292345794715
 20
52.70382704336993
 30
0.0
  0
LINE
  5
A4
330
1F
100
AcDbEntity
  8
0
  6
Continuous
 62
     7
370
    25
100
AcDbLine
 10
75.6923847417
 20
52.7038270434
 30
0.0
 11
73.5929234579
 21
52.7038270434
 31
0.0
  0
SPLINE
  5
A5
330
1F
100
AcDbEntity
  8
0
  6
Continuous
 62
     7
370
    25
100
AcDbSpline
210
0.0
220
0.0
230
1.0
 70
     8
 71
     3
 72
     8
 73
     4
 74
     0
 42
0.000000001
 43
0.00000001
 40
0.0
 40
0.0
 40
0.0
 40
0.0
 40
1.0
 40
1.0
 40
1.0
 40
1.0
 10
75.77276949940507
 20
52.0723713393476
 30
0.0
 10
75.74739546882076
 20
52.2830904075319
 30
0.0
 10
75.72055411210376
 20
52.49356800006075
 30
0.0
 10
75.69238474167575
 20
52.70382704336993
 30
0.0
  0
SPLINE
  5
A6
330
1F
100
AcDbEntity
  8
0
  6
Continuous
 62
     7
370
    25
100
AcDbSpline
210
0.0
220
0.0
230
1.0
 70
     8
 71
     3
 72
     8
 73
     4
 74
     0
 42
0.000000001
 43
0.00000001
 40
0.0
 40
0.0
 40
0.0
 40
0.0
 40
1.0
 40
1.0
 40
1.0
 40
1.0
 10
75.85315425713442
 20
52.70382704336992
 30
0.0
 10
75.82497110524226
 20
52.493465133812
 30
0.0
 10
75.79813070944414
 20
52.28298393909577
 30
0.0
 10
75.77276949940507
 20
52.07237133934759
 30
0.0
  0
LINE
  5
A7
330
1F
100
AcDbEntity
  8
0
  6
Continuous
 62
     7
370
    25
100
AcDbLine
 10
77.9526155409
 20
52.7038270434
 30
0.0
 11
75.8531542571
 21
52.7038270434
 31
0.0
  0
SPLINE
  5
A8
330
1F
100
AcDbEntity
  8
0
  6
Continuous
 62
     7
370
    25
100
AcDbSpline
210
0.0
220
0.0
230
1.0
 70
     8
 71
     3
 72
    16
 73
    12
 74
     0
 42
0.000000001
 43
0.00000001
 40
0.0
 40
0.0
 40
0.0
 40
0.0
 40
0.25
 40
0.25
 40
0.5
 40
0.5
 40
0.625
 40
0.625
 40
0.75
 40
0.75
 40
1.0
 40
1.0
 40
1.0
 40
1.0
 10
77.95261554086301
 20
42.88887246714627
 30
0.0
 10
78.18346194532333
 20
43.68854786968605
 30
0.0
 10
78.37648293016113
 20
44.50561807362639
 30
0.0
 10
78.64049158321599
 20
46.14312549508428
 30
0.0
 10
78.71191788079632
 20
46.96745011749503
 30
0.0
 10
78.71174823415593
 20
48.21380547189352
 30
0.0
 10
78.69390385574683
 20
48.63207400609133
 30
0.0
 10
78.62364609655747
 20
49.46653530140144
 30
0.0
 10
78.57167410987448
 20
49.87942329665946
 30
0.0
 10
78.37228346873412
 20
51.10687822064568
 30
0.0
 10
78.18168366923958
 20
51.91031176988402
 30
0.0
 10
77.952615540863
 20
52.70382704336993
 30
0.0
  0
SPLINE
  5
A9
330
1F
100
AcDbEntity
  8
0
  6
Continuous
 62
     7
370
    25
100
AcDbSpline
210
0.0
220
0.0
230
1.0
 70
     8
 71
     3
 72
     8
 73
     4
 74
     0
 42
0.000000001
 43
0.00000001
 40
0.0
 40
0.0
 40
0.0
 40
0.0
 40
1.0
 40
1.0
 40
1.0
 40
1.0
 10
75.69238474167575
 20
42.88887246714628
 30
0.0
 10
75.7205678935679
 20
43.0992343767042
 30
0.0
 10
75.74740828936602
 20
43.30971557142043
 30
0.0
 10
75.77276949940507
 20
43.52032817116861
 30
0.0
  0
LINE
  5
AA
330
1F
100
AcDbEntity
  8
0
  6
Continuous
 62
     7
370
    25
100
AcDbLine
 10
75.8101088329
 20
47.1990033548
 30
0.0
 11
76.4946040252
 21
46.7512870087
 31
0.0
  0
SPLINE
  5
AB
330
1F
100
AcDbEntity
  8
0
  6
Continuous
 62
     7
370
    25
100
AcDbSpline
210
0.0
220
0.0
230
1.0
 70
     8
 71
     3
 72
    19
 73
    15
 74
     0
 42
0.000000001
 43
0.00000001
 40
0.0
 40
0.0
 40
0.0
 40
0.0
 40
0.0978059775289525
 40
0.1996122522918966
 40
0.3052960258330041
 40
0.4158173591641854
 40
0.474240566618493
 40
0.5372869128296534
 40
0.6033858352934854
 40
0.6743111580696056
 40
0.749530467357482
 40
0.8286083142695116
 40
0.9120427387714447
 40
0.9999999999999999
 40
0.9999999999999999
 40
0.9999999999999999
 40
0.9999999999999999
 10
75.37441171748448
 20
47.36667162407038
 30
0.0
 10
75.3898537714478
 20
47.36612800336989
 30
0.0
 10
75.42136946455275
 20
47.36501852770019
 30
0.0
 10
75.46923893861515
 20
47.3583973047272
 30
0.0
 10
75.51802775179746
 20
47.34625317282816
 30
0.0
 10
75.55938731744348
 20
47.33311056785861
 30
0.0
 10
75.59364053124867
 20
47.32006913641358
 30
0.0
 10
75.62068938935573
 20
47.30797682109686
 30
0.0
 10
75.64925385203301
 20
47.29445613915738
 30
0.0
 10
75.67879345153861
 20
47.27860801703816
 30
0.0
 10
75.71015219821152
 20
47.26180772863847
 30
0.0
 10
75.74216878192821
 20
47.24218308529012
 30
0.0
 10
75.77601254718785
 20
47.22170446840978
 30
0.0
 10
75.79854520038954
 20
47.20670235574123
 30
0.0
 10
75.81010883286909
 20
47.19900335483962
 30
0.0
  0
SPLINE
  5
AC
330
1F
100
AcDbEntity
  8
0
  6
Continuous
 62
     7
370
    25
100
AcDbSpline
210
0.0
220
0.0
230
1.0
 70
     8
 71
     3
 72
    19
 73
    15
 74
     0
 42
0.000000001
 43
0.00000001
 40
0.0
 40
0.0
 40
0.0
 40
0.0
 40
0.0843261511037433
 40
0.1670353409858406
 40
0.2495407139852792
 40
0.3327066655796642
 40
0.4158726171740492
 40
0.4977774155681174
 40
0.5803136056784763
 40
0.6645325781316563
 40
0.7495711764063215
 40
0.8324741628544073
 40
0.9156738488962566
 40
1.0
 40
1.0
 40
1.0
 40
1.0
 10
74.9176809482537
 20
46.91234470099347
 30
0.0
 10
74.91833589191886
 20
46.9325290051652
 30
0.0
 10
74.91963322064788
 20
46.97251057773502
 30
0.0
 10
74.93119007535073
 20
47.03132457548337
 30
0.0
 10
74.94992159926488
 20
47.08783751270171
 30
0.0
 10
74.97572806331242
 20
47.14165215040714
 30
0.0
 10
75.00832301674392
 20
47.19150685938898
 30
0.0
 10
75.04756872013206
 20
47.23609529281253
 30
0.0
 10
75.09259779838146
 20
47.27526231815408
 30
0.0
 10
75.14354838422264
 20
47.307685685494
 30
0.0
 10
75.19794552546045
 20
47.3341108178779
 30
0.0
 10
75.2551831342051
 20
47.35274884587483
 30
0.0
 10
75.31410928086756
 20
47.36480210723021
 30
0.0
 10
75.35422099984342
 20
47.36604566451116
 30
0.0
 10
75.37441171748448
 20
47.36667162407038
 30
0.0
  0
SPLINE
  5
AD
330
1F
100
AcDbEntity
  8
0
  6
Continuous
 62
     7
370
    25
100
AcDbSpline
210
0.0
220
0.0
230
1.0
 70
     8
 71
     3
 72
    19
 73
    15
 74
     0
 42
0.000000001
 43
0.00000001
 40
0.0
 40
0.0
 40
0.0
 40
0.0
 40
0.0859901205637198
 40
0.1691084375726415
 40
0.2505285789581879
 40
0.332255696176845
 40
0.4135763652356403
 40
0.4941261456201216
 40
0.576305934120417
 40
0.6607126719045473
 40
0.7461272722239103
 40
0.8300149859609743
 40
0.9144197259288509
 40
1.0
 40
1.0
 40
1.0
 40
1.0
 10
75.37711604440756
 20
46.44359470099347
 30
0.0
 10
75.35613722112143
 20
46.44437749899659
 30
0.0
 10
75.31488020223635
 20
46.44591695197535
 30
0.0
 10
75.2545384530946
 20
46.45712351580863
 30
0.0
 10
75.19751355787375
 20
46.47646354110479
 30
0.0
 10
75.14358141815077
 20
46.50233817578514
 30
0.0
 10
75.09431119268505
 20
46.53590847973781
 30
0.0
 10
75.04978412065478
 20
46.57569113559331
 30
0.0
 10
75.01097223625337
 20
46.62206220066778
 30
0.0
 10
74.97767713739562
 20
46.67392359790394
 30
0.0
 10
74.9512242232779
 20
46.73005373570096
 30
0.0
 10
74.93166704393684
 20
46.78890802122682
 30
0.0
 10
74.91998113225696
 20
46.84998339980852
 30
0.0
 10
74.91845120300492
 20
46.89146198532302
 30
0.0
 10
74.9176809482537
 20
46.91234470099347
 30
0.0
  0
SPLINE
  5
AE
330
1F
100
AcDbEntity
  8
0
  6
Continuous
 62
     7
370
    25
100
AcDbSpline
210
0.0
220
0.0
230
1.0
 70
     8
 71
     3
 72
    23
 73
    19
 74
     0
 42
0.000000001
 43
0.00000001
 40
0.0
 40
0.0
 40
0.0
 40
0.0
 40
0.0652308037420294
 40
0.1284048960032227
 40
0.1900670715964781
 40
0.25094336576828
 40
0.3115458328521431
 40
0.3728628021568291
 40
0.4350236738562383
 40
0.4990717247070431
 40
0.563091075049662
 40
0.625510106330375
 40
0.6866800359296492
 40
0.7472825030135124
 40
0.8085634952159588
 40
0.8707421035159856
 40
0.9343409515059125
 40
1.0
 40
1.0
 40
1.0
 40
1.0
 10
75.82152710209985
 20
46.88860672022423
 30
0.0
 10
75.82111733994452
 20
46.87336136465202
 30
0.0
 10
75.82031073533561
 20
46.84335133588519
 30
0.0
 10
75.8141033707534
 20
46.79929127781062
 30
0.0
 10
75.80432117992898
 20
46.75695316239354
 30
0.0
 10
75.79006164166547
 20
46.71651247142693
 30
0.0
 10
75.77184634693877
 20
46.67782405062998
 30
0.0
 10
75.75001540253285
 20
46.64066588086917
 30
0.0
 10
75.72344153952282
 20
46.60573644796651
 30
0.0
 10
75.69375655847259
 20
46.57258594258999
 30
0.0
 10
75.66087785083181
 20
46.54248861513587
 30
0.0
 10
75.62599156367207
 20
46.51584173418264
 30
0.0
 10
75.58913404324427
 20
46.49345882343944
 30
0.0
 10
75.55032395784428
 20
46.47529857131891
 30
0.0
 10
75.50962113231833
 20
46.46119648049125
 30
0.0
 10
75.46707764396616
 20
46.45091606118685
 30
0.0
 10
75.42266415619754
 20
46.44483909283549
 30
0.0
 10
75.39245922394059
 20
46.44401388252901
 30
0.0
 10
75.37711604440756
 20
46.44359470099347
 30
0.0
  0
SPLINE
  5
AF
330
1F
100
AcDbEntity
  8
0
  6
Continuous
 62
     7
370
    25
100
AcDbSpline
210
0.0
220
0.0
230
1.0
 70
     8
 71
     3
 72
     9
 73
     5
 74
     0
 42
0.000000001
 43
0.00000001
 40
0.0
 40
0.0
 40
0.0
 40
0.0
 40
0.5126593363417812
 40
1.0
 40
1.0
 40
1.0
 40
1.0
 10
75.80710402517678
 20
47.04395527791655
 30
0.0
 10
75.81130996545689
 20
47.01756801635226
 30
0.0
 10
75.81951412752312
 20
46.96609667916258
 30
0.0
 10
75.8208675327153
 20
46.91399700836641
 30
0.0
 10
75.82152710209985
 20
46.88860672022423
 30
0.0
  0
LINE
  5
B0
330
1F
100
AcDbEntity
  8
0
  6
Continuous
 62
     7
370
    25
100
AcDbLine
 10
76.4131737367
 20
46.6476211433
 30
0.0
 11
75.8071040252
 21
47.0439552779
 31
0.0
  0
LINE
  5
B1
330
1F
100
AcDbEntity
  8
0
  6
Continuous
 62
     7
370
    25
100
AcDbLine
 10
76.4946040252
 20
46.7512870087
 30
0.0
 11
76.4131737367
 21
46.6476211433
 31
0.0
  0
LINE
  5
B2
330
1F
100
AcDbEntity
  8
0
  6
Continuous
 62
     7
370
    25
100
AcDbLine
 10
76.3022963329
 20
48.095054029
 30
0.0
 11
76.4561424867
 21
48.0070131636
 31
0.0
  0
LINE
  5
B3
330
1F
100
AcDbEntity
  8
0
  6
Continuous
 62
     7
370
    25
100
AcDbLine
 10
76.3022963329
 20
47.8642847982
 30
0.0
 11
76.3022963329
 21
48.095054029
 31
0.0
  0
LINE
  5
B4
330
1F
100
AcDbEntity
  8
0
  6
Continuous
 62
     7
370
    25
100
AcDbLine
 10
74.9561424867
 20
47.8642847982
 30
0.0
 11
76.3022963329
 21
47.8642847982
 31
0.0
  0
LINE
  5
B5
330
1F
100
AcDbEntity
  8
0
  6
Continuous
 62
     7
370
    25
100
AcDbLine
 10
74.9561424867
 20
47.7296694136
 30
0.0
 11
74.9561424867
 21
47.8642847982
 31
0.0
  0
LINE
  5
B6
330
1F
100
AcDbEntity
  8
0
  6
Continuous
 62
     7
370
    25
100
AcDbLine
 10
76.4561424867
 20
47.7296694136
 30
0.0
 11
74.9561424867
 21
47.7296694136
 31
0.0
  0
LINE
  5
B7
330
1F
100
AcDbEntity
  8
0
  6
Continuous
 62
     7
370
    25
100
AcDbLine
 10
76.4561424867
 20
48.0070131636
 30
0.0
 11
76.4561424867
 21
47.7296694136
 31
0.0
  0
SPLINE
  5
B8
330
1F
100
AcDbEntity
  8
0
  6
Continuous
 62
     7
370
    25
100
AcDbSpline
210
0.0
220
0.0
230
1.0
 70
     8
 71
     3
 72
    19
 73
    15
 74
     0
 42
0.000000001
 43
0.00000001
 40
0.0
 40
0.0
 40
0.0
 40
0.0
 40
0.1227280999764553
 40
0.239716523588393
 40
0.3518621792202463
 40
0.4632019818032239
 40
0.5202611541541643
 40
0.5794324380306665
 40
0.6405963441586369
 40
0.70529822908802
 40
0.7732361059084537
 40
0.844648929340316
 40
0.9200459817773698
 40
1.0
 40
1.0
 40
1.0
 40
1.0
 10
76.34075787133062
 20
48.92239184987863
 30
0.0
 10
76.34016272998284
 20
48.9394717005639
 30
0.0
 10
76.33900028051153
 20
48.9728326214163
 30
0.0
 10
76.32878287363137
 20
49.02091686502352
 30
0.0
 10
76.31259444569979
 20
49.06557153405257
 30
0.0
 10
76.29304696698658
 20
49.09958938413085
 30
0.0
 10
76.27381748462379
 20
49.1247519889225
 30
0.0
 10
76.25727436097674
 20
49.14307769090736
 30
0.0
 10
76.23851784710155
 20
49.16074554482979
 30
0.0
 10
76.21703347293179
 20
49.17706224807893
 30
0.0
 10
76.1935599991391
 20
49.19300553206579
 30
0.0
 10
76.16796814257009
 20
49.20842316226006
 30
0.0
 10
76.13989303994022
 20
49.22281992402296
 30
0.0
 10
76.12014981856323
 20
49.23158346863327
 30
0.0
 10
76.1099886405614
 20
49.23609377295556
 30
0.0
  0
SPLINE
  5
B9
330
1F
100
AcDbEntity
  8
0
  6
Continuous
 62
     7
370
    25
100
AcDbSpline
210
0.0
220
0.0
230
1.0
 70
     8
 71
     3
 72
    23
 73
    19
 74
     0
 42
0.000000001
 43
0.00000001
 40
0.0
 40
0.0
 40
0.0
 40
0.0
 40
0.0552698294993248
 40
0.1099567044850938
 40
0.1632335040550556
 40
0.2180575651623568
 40
0.2732775387226747
 40
0.330881045495497
 40
0.3904799376860887
 40
0.4536559730386417
 40
0.5189026226022311
 40
0.5833461108214766
 40
0.6485466930814431
 40
0.7150552190344909
 40
0.7825206438000536
 40
0.852335294426451
 40
0.9249348997257087
 40
0.9999999999999999
 40
0.9999999999999999
 40
0.9999999999999999
 40
0.9999999999999999
 10
76.10548142902293
 20
48.62070915757094
 30
0.0
 10
76.11331476720132
 20
48.62088674159245
 30
0.0
 10
76.12889882199242
 20
48.62124003658089
 30
0.0
 10
76.15166643224781
 20
48.62569631616874
 30
0.0
 10
76.17373929771782
 20
48.63239120118244
 30
0.0
 10
76.19501726485446
 20
48.64160113810441
 30
0.0
 10
76.21537682643888
 20
48.65390600838445
 30
0.0
 10
76.23484295966587
 20
48.66867595184535
 30
0.0
 10
76.25374189676918
 20
48.68591809723067
 30
0.0
 10
76.2711694894728
 20
48.70608306759002
 30
0.0
 10
76.28760817216519
 20
48.72791379864299
 30
0.0
 10
76.30181880184219
 20
48.75161570382694
 30
0.0
 10
76.31386372205965
 20
48.77666600869062
 30
0.0
 10
76.3238153938297
 20
48.80308774877192
 30
0.0
 10
76.33129664019852
 20
48.83098676870568
 30
0.0
 10
76.33666950945221
 20
48.86022645990643
 30
0.0
 10
76.3400284025459
 20
48.89086411148498
 30
0.0
 10
76.34051202346458
 20
48.91176627224239
 30
0.0
 10
76.34075787133062
 20
48.92239184987863
 30
0.0
  0
SPLINE
  5
BA
330
1F
100
AcDbEntity
  8
0
  6
Continuous
 62
     7
370
    25
100
AcDbSpline
210
0.0
220
0.0
230
1.0
 70
     8
 71
     3
 72
    19
 73
    15
 74
     0
 42
0.000000001
 43
0.00000001
 40
0.0
 40
0.0
 40
0.0
 40
0.0
 40
0.1101423815503176
 40
0.2157418685830274
 40
0.3179605426392306
 40
0.4180517606815226
 40
0.5115631470355316
 40
0.5965727584443461
 40
0.6733290469034968
 40
0.7440491927238595
 40
0.8107168223002833
 40
0.8740854521098849
 40
0.9367096168966699
 40
1.0
 40
1.0
 40
1.0
 40
1.0
 10
75.8599886405614
 20
49.00532454218633
 30
0.0
 10
75.86030492953
 20
48.98676741265415
 30
0.0
 10
75.86092446192195
 20
48.95041855452656
 30
0.0
 10
75.86836570903255
 20
48.89731377504795
 30
0.0
 10
75.87877503485244
 20
48.84647222541632
 30
0.0
 10
75.89435120649391
 20
48.79905442134152
 30
0.0
 10
75.91304705819391
 20
48.75597570324326
 30
0.0
 10
75.9341279963165
 20
48.71839626789025
 30
0.0
 10
75.95801175335733
 20
48.68720673319958
 30
0.0
 10
75.98438487790554
 20
48.66232917489813
 30
0.0
 10
76.01300066729706
 20
48.64406993044622
 30
0.0
 10
76.04251359465788
 20
48.63036455899078
 30
0.0
 10
76.07361032785987
 20
48.62232991493798
 30
0.0
 10
76.09482032102778
 20
48.62125131233476
 30
0.0
 10
76.10548142902293
 20
48.62070915757094
 30
0.0
  0
LINE
  5
BB
330
1F
100
AcDbEntity
  8
0
  6
Continuous
 62
     7
370
    25
100
AcDbLine
 10
75.7061424867
 20
49.0053245422
 30
0.0
 11
75.8599886406
 21
49.0053245422
 31
0.0
  0
SPLINE
  5
BC
330
1F
100
AcDbEntity
  8
0
  6
Continuous
 62
     7
370
    25
100
AcDbSpline
210
0.0
220
0.0
230
1.0
 70
     8
 71
     3
 72
    23
 73
    19
 74
     0
 42
0.000000001
 43
0.00000001
 40
0.0
 40
0.0
 40
0.0
 40
0.0
 40
0.0669051223273616
 40
0.1334773340846825
 40
0.2010229080576287
 40
0.2712178684297488
 40
0.3428591616573978
 40
0.4138109980627169
 40
0.4855518488903453
 40
0.5598002749200529
 40
0.5998999649035781
 40
0.6436094423977958
 40
0.6919106424505659
 40
0.7447030291556902
 40
0.8015038302285953
 40
0.8628660266331954
 40
0.9293326711591618
 40
1.0
 40
1.0
 40
1.0
 40
1.0
 10
75.38883479440756
 20
48.54378608064786
 30
0.0
 10
75.4028110982901
 20
48.54444191251288
 30
0.0
 10
75.43069416191369
 20
48.5457503129149
 30
0.0
 10
75.47171574287374
 20
48.55573987853997
 30
0.0
 10
75.51124098524573
 20
48.57217013998973
 30
0.0
 10
75.5485898514498
 20
48.595175310383
 30
0.0
 10
75.58322191946512
 20
48.62316614405081
 30
0.0
 10
75.61400133842167
 20
48.65587169131727
 30
0.0
 10
75.63965420921373
 20
48.69337217880609
 30
0.0
 10
75.65731268344948
 20
48.72810903999081
 30
0.0
 10
75.66908131391514
 20
48.75895204174579
 30
0.0
 10
75.67733325728011
 20
48.7852944157279
 30
0.0
 10
75.68392971458408
 20
48.81481159403505
 30
0.0
 10
75.69031047530774
 20
48.84714922937192
 30
0.0
 10
75.69565970017584
 20
48.88244370556689
 30
0.0
 10
75.70013988566511
 20
48.92072682071693
 30
0.0
 10
75.70371910650915
 20
48.96201397641103
 30
0.0
 10
75.70531836384347
 20
48.9905958472195
 30
0.0
 10
75.70614248671524
 20
49.00532454218633
 30
0.0
  0
SPLINE
  5
BD
330
1F
100
AcDbEntity
  8
0
  6
Continuous
 62
     7
370
    25
100
AcDbSpline
210
0.0
220
0.0
230
1.0
 70
     8
 71
     3
 72
    23
 73
    19
 74
     0
 42
0.000000001
 43
0.00000001
 40
0.0
 40
0.0
 40
0.0
 40
0.0
 40
0.0760618905628339
 40
0.1487324608035359
 40
0.2183745247439722
 40
0.2857225935927383
 40
0.3510576941824569
 40
0.414934915729319
 40
0.4784859417740854
 40
0.542169035281216
 40
0.6047501165431387
 40
0.6641185017301124
 40
0.7214996756099116
 40
0.7776159163852547
 40
0.832666108697549
 40
0.8878580281135741
 40
0.9434676608977686
 40
1.0
 40
1.0
 40
1.0
 40
1.0
 10
75.07152710209985
 20
48.92569713834017
 30
0.0
 10
75.07179063220912
 20
48.91165973290438
 30
0.0
 10
75.07230594258802
 20
48.88421079838128
 30
0.0
 10
75.07705867161103
 20
48.84416137051758
 30
0.0
 10
75.08395027673693
 20
48.80604869340268
 30
0.0
 10
75.09473008709895
 20
48.77026170679103
 30
0.0
 10
75.10766225042333
 20
48.73631343761449
 30
0.0
 10
75.12459282569603
 20
48.70496170932043
 30
0.0
 10
75.14371317333179
 20
48.67528481983132
 30
0.0
 10
75.16595381504776
 20
48.64815216485702
 30
0.0
 10
75.18999354137249
 20
48.62369074968615
 30
0.0
 10
75.21549754863459
 20
48.60255338433335
 30
0.0
 10
75.24167504663754
 20
48.58424600846982
 30
0.0
 10
75.26913670349617
 20
48.5695299334888
 30
0.0
 10
75.29761314243308
 20
48.55788882747201
 30
0.0
 10
75.3272109510114
 20
48.54996883208909
 30
0.0
 10
75.35768089716328
 20
48.54446067349636
 30
0.0
 10
75.37839335449269
 20
48.54401217501542
 30
0.0
 10
75.38883479440756
 20
48.54378608064786
 30
0.0
  0
SPLINE
  5
BE
330
1F
100
AcDbEntity
  8
0
  6
Continuous
 62
     7
370
    25
100
AcDbSpline
210
0.0
220
0.0
230
1.0
 70
     8
 71
     3
 72
    15
 73
    11
 74
     0
 42
0.000000001
 43
0.00000001
 40
0.0
 40
0.0
 40
0.0
 40
0.0
 40
0.1182713048357256
 40
0.2361775330837632
 40
0.355662932948509
 40
0.4759041646706825
 40
0.6001273417110832
 40
0.7286081161551193
 40
0.8613134756739422
 40
1.0
 40
1.0
 40
1.0
 40
1.0
 10
75.15265690979217
 20
49.17629809987864
 30
0.0
 10
75.14618190955552
 20
49.16789956708214
 30
0.0
 10
75.1332518959336
 20
49.15112842584755
 30
0.0
 10
75.11675119798885
 20
49.12379918394822
 30
0.0
 10
75.10245361570252
 20
49.09505708991148
 30
0.0
 10
75.0915320318241
 20
49.06427937238823
 30
0.0
 10
75.08228446291446
 20
49.03213018505079
 30
0.0
 10
75.07623281185768
 20
48.99808988566572
 30
0.0
 10
75.07208073842487
 20
48.96245879261782
 30
0.0
 10
75.07171433921386
 20
48.93812975112509
 30
0.0
 10
75.07152710209985
 20
48.92569713834017
 30
0.0
  0
SPLINE
  5
BF
330
1F
100
AcDbEntity
  8
0
  6
Continuous
 62
     7
370
    25
100
AcDbSpline
210
0.0
220
0.0
230
1.0
 70
     8
 71
     3
 72
    15
 73
    11
 74
     0
 42
0.000000001
 43
0.00000001
 40
0.0
 40
0.0
 40
0.0
 40
0.0
 40
0.1497703860319681
 40
0.2913164099952446
 40
0.4259663731047426
 40
0.5521595739695285
 40
0.6715274135235928
 40
0.7861216286916589
 40
0.8953250730704446
 40
1.0
 40
1.0
 40
1.0
 40
1.0
 10
75.3599886405614
 20
49.29378608064786
 30
0.0
 10
75.34843906344626
 20
49.29027895574489
 30
0.0
 10
75.32597413275279
 20
49.28345729317721
 30
0.0
 10
75.29364257317785
 20
49.27184545116216
 30
0.0
 10
75.26400340751007
 20
49.2586161917034
 30
0.0
 10
75.23683921237665
 20
49.24442423800223
 30
0.0
 10
75.21188246846343
 20
49.22951918970678
 30
0.0
 10
75.18979309602025
 20
49.21284136464831
 30
0.0
 10
75.16960086650178
 20
49.19562601672804
 30
0.0
 10
75.15822460424168
 20
49.18264915100604
 30
0.0
 10
75.15265690979217
 20
49.17629809987864
 30
0.0
  0
LINE
  5
C0
330
1F
100
AcDbEntity
  8
0
  6
Continuous
 62
     7
370
    25
100
AcDbLine
 10
75.3599886406
 20
49.4284014653
 30
0.0
 11
75.3599886406
 21
49.2937860806
 31
0.0
  0
SPLINE
  5
C1
330
1F
100
AcDbEntity
  8
0
  6
Continuous
 62
     7
370
    25
100
AcDbSpline
210
0.0
220
0.0
230
1.0
 70
     8
 71
     3
 72
    23
 73
    19
 74
     0
 42
0.000000001
 43
0.00000001
 40
0.0
 40
0.0
 40
0.0
 40
0.0
 40
0.0655411703374033
 40
0.1289631677825933
 40
0.1903771361885609
 40
0.2500923616690527
 40
0.308548432459201
 40
0.3663979630552958
 40
0.42454218926668
 40
0.4831699964229055
 40
0.5422433998311199
 40
0.6017393520173299
 40
0.6625060022496068
 40
0.7248555134488469
 40
0.7891278292811811
 40
0.8563463998785099
 40
0.9262952349869055
 40
1.0
 40
1.0
 40
1.0
 40
1.0
 10
74.9176809482537
 20
48.92810098449402
 30
0.0
 10
74.9180530396502
 20
48.9441378274725
 30
0.0
 10
74.91878519144043
 20
48.97569298678825
 30
0.0
 10
74.92379030623897
 20
49.02208305752525
 30
0.0
 10
74.93293173705517
 20
49.06636378582432
 30
0.0
 10
74.94523315364064
 20
49.10859504204861
 30
0.0
 10
74.96082961453229
 20
49.14881434336014
 30
0.0
 10
74.98025191368428
 20
49.18689895986487
 30
0.0
 10
75.00309970027793
 20
49.22308319994492
 30
0.0
 10
75.02964266648074
 20
49.25702560757831
 30
0.0
 10
75.05933466923364
 20
49.28872213659526
 30
0.0
 10
75.09270281636265
 20
49.3173304469796
 30
0.0
 10
75.12913027518594
 20
49.34332750109764
 30
0.0
 10
75.16904015641397
 20
49.36601720340257
 30
0.0
 10
75.21191669524731
 20
49.38643304023794
 30
0.0
 10
75.25830890883944
 20
49.40322487880107
 30
0.0
 10
75.30780206112044
 20
49.41800440821662
 30
0.0
 10
75.3422925211958
 20
49.42487589289351
 30
0.0
 10
75.3599886405614
 20
49.42840146526325
 30
0.0
  0
SPLINE
  5
C2
330
1F
100
AcDbEntity
  8
0
  6
Continuous
 62
     7
370
    25
100
AcDbSpline
210
0.0
220
0.0
230
1.0
 70
     8
 71
     3
 72
    19
 73
    15
 74
     0
 42
0.000000001
 43
0.00000001
 40
0.0
 40
0.0
 40
0.0
 40
0.0
 40
0.079641704194991
 40
0.1589086132578561
 40
0.2395997983184508
 40
0.3224093988203484
 40
0.405827748173513
 40
0.4876442139503137
 40
0.5697199979738974
 40
0.6530646649976934
 40
0.7374573001733065
 40
0.8224924079539125
 40
0.9097550737466981
 40
1.0
 40
1.0
 40
1.0
 40
1.0
 10
75.40175546748446
 20
48.40917069603248
 30
0.0
 10
75.38075213648115
 20
48.40994146674399
 30
0.0
 10
75.33884431648573
 20
48.41147938090773
 30
0.0
 10
75.27691405044305
 20
48.42517001061078
 30
0.0
 10
75.21648087638079
 20
48.446516614911
 30
0.0
 10
75.15844021745579
 20
48.47630055861143
 30
0.0
 10
75.10424882709617
 20
48.51315112100107
 30
0.0
 10
75.05598224305962
 20
48.55723526654047
 30
0.0
 10
75.01421413681229
 20
48.60748131668306
 30
0.0
 10
74.97942843055573
 20
48.6635604210539
 30
0.0
 10
74.95160136647841
 20
48.7242910002022
 30
0.0
 10
74.93229242083443
 20
48.7892534193219
 30
0.0
 10
74.91971518600671
 20
48.8575030471584
 30
0.0
 10
74.91836658003476
 20
48.90430622921421
 30
0.0
 10
74.9176809482537
 20
48.92810098449402
 30
0.0
  0
SPLINE
  5
C3
330
1F
100
AcDbEntity
  8
0
  6
Continuous
 62
     7
370
    25
100
AcDbSpline
210
0.0
220
0.0
230
1.0
 70
     8
 71
     3
 72
    15
 73
    11
 74
     0
 42
0.000000001
 43
0.00000001
 40
0.0
 40
0.0
 40
0.0
 40
0.0
 40
0.1281455049994643
 40
0.2541925386280419
 40
0.3781411397135888
 40
0.5013808330744057
 40
0.6239569784447038
 40
0.7470758858273289
 40
0.8728647202442611
 40
1.0
 40
1.0
 40
1.0
 40
1.0
 10
75.66828190979216
 20
48.49871396526324
 30
0.0
 10
75.65840106936716
 20
48.49149330907569
 30
0.0
 10
75.6388011941205
 20
48.47717023994515
 30
0.0
 10
75.60727019755493
 20
48.45954079128123
 30
0.0
 10
75.5754940983194
 20
48.44336458386014
 30
0.0
 10
75.54222350117558
 20
48.43145936345003
 30
0.0
 10
75.50852711655506
 20
48.42118563001197
 30
0.0
 10
75.47368337018915
 20
48.41442585549964
 30
0.0
 10
75.43802330716159
 20
48.41008635065394
 30
0.0
 10
75.41388757635258
 20
48.40947699554334
 30
0.0
 10
75.40175546748446
 20
48.40917069603248
 30
0.0
  0
SPLINE
  5
C4
330
1F
100
AcDbEntity
  8
0
  6
Continuous
 62
     7
370
    25
100
AcDbSpline
210
0.0
220
0.0
230
1.0
 70
     8
 71
     3
 72
    11
 73
     7
 74
     0
 42
0.000000001
 43
0.00000001
 40
0.0
 40
0.0
 40
0.0
 40
0.0
 40
0.253879600326656
 40
0.5030089172783633
 40
0.7502910806899731
 40
1.0
 40
1.0
 40
1.0
 40
1.0
 10
75.79628671748448
 20
48.66127406141709
 30
0.0
 10
75.78858178682384
 20
48.64531759517138
 30
0.0
 10
75.77331609070518
 20
48.61370322048543
 30
0.0
 10
75.74337790891207
 20
48.5706101363999
 30
0.0
 10
75.70881090290327
 20
48.5314910469612
 30
0.0
 10
75.68183548022603
 20
48.50967516738815
 30
0.0
 10
75.66828190979216
 20
48.49871396526324
 30
0.0
  0
SPLINE
  5
C5
330
1F
100
AcDbEntity
  8
0
  6
Continuous
 62
     7
370
    25
100
AcDbSpline
210
0.0
220
0.0
230
1.0
 70
     8
 71
     3
 72
    15
 73
    11
 74
     0
 42
0.000000001
 43
0.00000001
 40
0.0
 40
0.0
 40
0.0
 40
0.0
 40
0.1280675485958904
 40
0.2506083188676684
 40
0.3706301659145029
 40
0.4900722467299488
 40
0.6103747641546199
 40
0.7343130699115256
 40
0.8632165042449895
 40
1.0
 40
1.0
 40
1.0
 40
1.0
 10
76.10488046748446
 20
48.48609377295556
 30
0.0
 10
76.08902041261065
 20
48.48659245483287
 30
0.0
 10
76.05798474641217
 20
48.48756829788049
 30
0.0
 10
76.01267553335296
 20
48.49585417169292
 30
0.0
 10
75.96997199037487
 20
48.50979828435416
 30
0.0
 10
75.92969434946481
 20
48.52911389688753
 30
0.0
 10
75.89209798954062
 20
48.55411741841908
 30
0.0
 10
75.85709832202897
 20
48.58440571708636
 30
0.0
 10
75.82454011140258
 20
48.620192572133
 30
0.0
 10
75.8058889086988
 20
48.64731211700013
 30
0.0
 10
75.79628671748448
 20
48.66127406141709
 30
0.0
  0
SPLINE
  5
C6
330
1F
100
AcDbEntity
  8
0
  6
Continuous
 62
     7
370
    25
100
AcDbSpline
210
0.0
220
0.0
230
1.0
 70
     8
 71
     3
 72
    19
 73
    15
 74
     0
 42
0.000000001
 43
0.00000001
 40
0.0
 40
0.0
 40
0.0
 40
0.0
 40
0.0902542493426766
 40
0.1785397915286843
 40
0.2660930338538198
 40
0.3546309779571733
 40
0.4418861533505626
 40
0.5257469151636484
 40
0.6081136336036366
 40
0.6901972728278825
 40
0.770821484330335
 40
0.8483261812554109
 40
0.9240117400247433
 40
1.0
 40
1.0
 40
1.0
 40
1.0
 10
76.49460402517678
 20
48.92419473449402
 30
0.0
 10
76.49401292650037
 20
48.90461641646184
 30
0.0
 10
76.49284362272545
 20
48.86588684034321
 30
0.0
 10
76.48216600709155
 20
48.80898839165014
 30
0.0
 10
76.4652695217969
 20
48.75411975489209
 30
0.0
 10
76.44192363873819
 20
48.70188150582795
 30
0.0
 10
76.41312907595443
 20
48.65335932042955
 30
0.0
 10
76.3788584744281
 20
48.6101866689665
 30
0.0
 10
76.33977305950495
 20
48.57294873576481
 30
0.0
 10
76.29660196051128
 20
48.54170828819618
 30
0.0
 10
76.25046388505974
 20
48.51724757431603
 30
0.0
 10
76.2029781034252
 20
48.49921055711044
 30
0.0
 10
76.15425725854422
 20
48.48822983668244
 30
0.0
 10
76.12136128175486
 20
48.48680674090663
 30
0.0
 10
76.10488046748446
 20
48.48609377295556
 30
0.0
  0
SPLINE
  5
C7
330
1F
100
AcDbEntity
  8
0
  6
Continuous
 62
     7
370
    25
100
AcDbSpline
210
0.0
220
0.0
230
1.0
 70
     8
 71
     3
 72
    23
 73
    19
 74
     0
 42
0.000000001
 43
0.00000001
 40
0.0
 40
0.0
 40
0.0
 40
0.0
 40
0.0726253460834355
 40
0.1419766113262345
 40
0.2089849284189386
 40
0.2739568703644447
 40
0.336889347396841
 40
0.3987449534945902
 40
0.4601158852788617
 40
0.5208249225900291
 40
0.5809944586324857
 40
0.6401519276014648
 40
0.6986224507562546
 40
0.7572710809271643
 40
0.8164266940046602
 40
0.8762540482034705
 40
0.9371652930625374
 40
1.0
 40
1.0
 40
1.0
 40
1.0
 10
76.1099886405614
 20
49.37070915757094
 30
0.0
 10
76.12508827655084
 20
49.36706220727908
 30
0.0
 10
76.15460682986112
 20
49.35993271775461
 30
0.0
 10
76.19678137022426
 20
49.34506232912508
 30
0.0
 10
76.23669145082027
 20
49.32886264832739
 30
0.0
 10
76.27358976811831
 20
49.3094101749425
 30
0.0
 10
76.30821786928946
 20
49.28819213741701
 30
0.0
 10
76.33979035120437
 20
49.26388239961592
 30
0.0
 10
76.36911019354743
 20
49.23760251851625
 30
0.0
 10
76.39513015250051
 20
49.2085346831012
 30
0.0
 10
76.41869203644625
 20
49.17805097096942
 30
0.0
 10
76.43878134673584
 20
49.14572184821912
 30
0.0
 10
76.4560631265349
 20
49.11219775093171
 30
0.0
 10
76.4703003687672
 20
49.07724640823946
 30
0.0
 10
76.48102559319553
 20
49.0407637632286
 30
0.0
 10
76.48880708130586
 20
49.00307963894825
 30
0.0
 10
76.4938604159692
 20
48.96409528175626
 30
0.0
 10
76.49435360014907
 20
48.93763202864272
 30
0.0
 10
76.49460402517678
 20
48.92419473449402
 30
0.0
  0
LINE
  5
C8
330
1F
100
AcDbEntity
  8
0
  6
Continuous
 62
     7
370
    25
100
AcDbLine
 10
76.1099886406
 20
49.236093773
 30
0.0
 11
76.1099886406
 21
49.3707091576
 31
0.0
  0
SPLINE
  5
C9
330
1F
100
AcDbEntity
  8
0
  6
Continuous
 62
     7
370
    25
100
AcDbSpline
210
0.0
220
0.0
230
1.0
 70
     8
 71
     3
 72
     8
 73
     4
 74
     0
 42
0.000000001
 43
0.00000001
 40
0.0
 40
0.0
 40
0.0
 40
0.0
 40
1.0
 40
1.0
 40
1.0
 40
1.0
 10
75.69238474167575
 20
52.70382704336993
 30
0.0
 10
75.7205660474989
 20
52.80900110852562
 30
0.0
 10
75.74740657349363
 20
52.91424147076128
 30
0.0
 10
75.77276949940507
 20
53.01955489538109
 30
0.0
  0
LINE
  5
CA
330
1F
100
AcDbEntity
  8
0
  6
Continuous
 62
     7
370
    25
100
AcDbLine
 10
75.7727694994
 20
52.0723713393
 30
0.0
 11
75.7727694994
 21
53.0195548954
 31
0.0
  0
SPLINE
  5
CB
330
1F
100
AcDbEntity
  8
0
  6
Continuous
 62
     7
370
    25
100
AcDbSpline
210
0.0
220
0.0
230
1.0
 70
     8
 71
     3
 72
     8
 73
     4
 74
     0
 42
0.000000001
 43
0.00000001
 40
0.0
 40
0.0
 40
0.0
 40
0.0
 40
1.0
 40
1.0
 40
1.0
 40
1.0
 10
75.77276949940507
 20
53.01955489538109
 30
0.0
 10
75.79814413256425
 20
52.91419285924241
 30
0.0
 10
75.82498553377104
 20
52.80895415014641
 30
0.0
 10
75.85315425713442
 20
52.70382704336992
 30
0.0
  0
SPLINE
  5
CC
330
1F
100
AcDbEntity
  8
0
  6
Continuous
 62
     7
370
    25
100
AcDbSpline
210
0.0
220
0.0
230
1.0
 70
     8
 71
     3
 72
    10
 73
     6
 74
     0
 42
0.000000001
 43
0.00000001
 40
0.0
 40
0.0
 40
0.0
 40
0.0
 40
0.5
 40
0.5
 40
1.0
 40
1.0
 40
1.0
 40
1.0
 10
73.59292345794715
 20
52.70382704336993
 30
0.0
 10
73.39898835786609
 20
53.03973249008131
 30
0.0
 10
73.2326165060707
 20
53.37992305375701
 30
0.0
 10
72.98036971819951
 20
54.06213592038772
 30
0.0
 10
72.8941544850637
 20
54.40530270808119
 30
0.0
 10
72.85614248671524
 20
54.75095810321343
 30
0.0
  0
SPLINE
  5
CD
330
1F
100
AcDbEntity
  8
0
  6
Continuous
 62
     7
370
    25
100
AcDbSpline
210
0.0
220
0.0
230
1.0
 70
     8
 71
     3
 72
    12
 73
     8
 74
     0
 42
0.000000001
 43
0.00000001
 40
0.0
 40
0.0
 40
0.0
 40
0.0
 40
0.2500000000000001
 40
0.2500000000000001
 40
0.5000000000000002
 40
0.5000000000000002
 40
1.0
 40
1.0
 40
1.0
 40
1.0
 10
72.85614248671524
 20
55.56417327163824
 30
0.0
 10
72.8753363405954
 20
55.73870919280286
 30
0.0
 10
72.90705236387126
 20
55.91411657570207
 30
0.0
 10
72.99253007865217
 20
56.26050249946385
 30
0.0
 10
73.04630739620272
 20
56.43221181490442
 30
0.0
 10
73.23635463433371
 20
56.94348022552406
 30
0.0
 10
73.40118340129429
 20
57.27920081151281
 30
0.0
 10
73.59292345794715
 20
57.61130433148175
 30
0.0
  0
LINE
  5
CE
330
1F
100
AcDbEntity
  8
0
  6
Continuous
 62
     7
370
    25
100
AcDbLine
 10
75.6923847417
 20
57.6113043315
 30
0.0
 11
73.5929234579
 21
57.6113043315
 31
0.0
  0
SPLINE
  5
CF
330
1F
100
AcDbEntity
  8
0
  6
Continuous
 62
     7
370
    25
100
AcDbSpline
210
0.0
220
0.0
230
1.0
 70
     8
 71
     3
 72
     8
 73
     4
 74
     0
 42
0.000000001
 43
0.00000001
 40
0.0
 40
0.0
 40
0.0
 40
0.0
 40
1.0
 40
1.0
 40
1.0
 40
1.0
 10
75.77276949940507
 20
57.29557647947058
 30
0.0
 10
75.7473948662459
 20
57.40093851560926
 30
0.0
 10
75.72055346503913
 20
57.50617722470525
 30
0.0
 10
75.69238474167575
 20
57.61130433148175
 30
0.0
  0
SPLINE
  5
D0
330
1F
100
AcDbEntity
  8
0
  6
Continuous
 62
     7
370
    25
100
AcDbSpline
210
0.0
220
0.0
230
1.0
 70
     8
 71
     3
 72
     8
 73
     4
 74
     0
 42
0.000000001
 43
0.00000001
 40
0.0
 40
0.0
 40
0.0
 40
0.0
 40
1.0
 40
1.0
 40
1.0
 40
1.0
 10
75.85315425713442
 20
57.61130433148175
 30
0.0
 10
75.82497295131124
 20
57.50613026632605
 30
0.0
 10
75.79813242531652
 20
57.40088990409038
 30
0.0
 10
75.77276949940507
 20
57.29557647947058
 30
0.0
  0
LINE
  5
D1
330
1F
100
AcDbEntity
  8
0
  6
Continuous
 62
     7
370
    25
100
AcDbLine
 10
77.9526155409
 20
57.6113043315
 30
0.0
 11
75.8531542571
 21
57.6113043315
 31
0.0
  0
SPLINE
  5
D2
330
1F
100
AcDbEntity
  8
0
  6
Continuous
 62
     7
370
    25
100
AcDbSpline
210
0.0
220
0.0
230
1.0
 70
     8
 71
     3
 72
    16
 73
    12
 74
     0
 42
0.000000001
 43
0.00000001
 40
0.0
 40
0.0
 40
0.0
 40
0.0
 40
0.2500000000000002
 40
0.2500000000000002
 40
0.5000000000000004
 40
0.5000000000000004
 40
0.6250000000000003
 40
0.6250000000000003
 40
0.7500000000000002
 40
0.7500000000000002
 40
1.0
 40
1.0
 40
1.0
 40
1.0
 10
77.9526155408634
 20
57.61130433148178
 30
0.0
 10
78.18393029454603
 20
57.21065542556319
 30
0.0
 10
78.37457558787648
 20
56.80708543587834
 30
0.0
 10
78.63868124428377
 20
55.99152864953724
 30
0.0
 10
78.71127043559774
 20
55.57947928097393
 30
0.0
 10
78.7120676816887
 20
54.95364191292433
 30
0.0
 10
78.69432242506524
 20
54.74404792946121
 30
0.0
 10
78.62512534153545
 20
54.32944891208498
 30
0.0
 10
78.57374373547317
 20
54.12353940006281
 30
0.0
 10
78.37533573673655
 20
53.50947680200964
 30
0.0
 10
78.1842186350326
 20
53.10497536966146
 30
0.0
 10
77.9526155408632
 20
52.70382704336991
 30
0.0
  0
LINE
  5
D3
330
1F
100
AcDbEntity
  8
0
  6
Continuous
 62
     7
370
    25
100
AcDbLine
 10
78.8561424867
 20
56.0463497553
 30
0.0
 11
78.8561424867
 21
39.5463497553
 31
0.0
  0
SPLINE
  5
D4
330
1F
100
AcDbEntity
  8
0
  6
Continuous
 62
     7
370
    25
100
AcDbSpline
210
0.0
220
0.0
230
1.0
 70
     8
 71
     3
 72
    23
 73
    19
 74
     0
 42
0.000000001
 43
0.00000001
 40
0.0
 40
0.0
 40
0.0
 40
0.0
 40
0.0611415679303346
 40
0.1200010135310723
 40
0.1782359705414083
 40
0.2364955434070171
 40
0.2948872487049731
 40
0.3546771928192958
 40
0.4166948132897783
 40
0.4806333779628393
 40
0.5458046334786407
 40
0.6097347883178743
 40
0.6729516883751544
 40
0.7360010960706834
 40
0.7998274385165249
 40
0.864767276939387
 40
0.9310835057306723
 40
1.0
 40
1.0
 40
1.0
 40
1.0
 10
75.36900306363832
 20
46.57821008560884
 30
0.0
 10
75.37924477408848
 20
46.57844317665189
 30
0.0
 10
75.39934592091726
 20
46.57890065856406
 30
0.0
 10
75.42876653452029
 20
46.58417523362025
 30
0.0
 10
75.45729134325383
 20
46.59129942506205
 30
0.0
 10
75.48427777977861
 20
46.6028127713994
 30
0.0
 10
75.51047212760898
 20
46.61652610666306
 30
0.0
 10
75.53512573272005
 20
46.63399599495843
 30
0.0
 10
75.55893703616404
 20
46.65402564949641
 30
0.0
 10
75.58102944989417
 20
46.67722193296127
 30
0.0
 10
75.60123696955871
 20
46.70245741281082
 30
0.0
 10
75.61907349209443
 20
46.72929350656405
 30
0.0
 10
75.63412716674003
 20
46.75736813061809
 30
0.0
 10
75.64668732320872
 20
46.78665416515346
 30
0.0
 10
75.65575139176414
 20
46.81748681305435
 30
0.0
 10
75.66288849368306
 20
46.84936839140577
 30
0.0
 10
75.66668650189334
 20
46.88270663705124
 30
0.0
 10
75.66734524401839
 20
46.90532518363839
 30
0.0
 10
75.6676809482537
 20
46.91685191253192
 30
0.0
  0
SPLINE
  5
D5
330
1F
100
AcDbEntity
  8
0
  6
Continuous
 62
     7
370
    25
100
AcDbSpline
210
0.0
220
0.0
230
1.0
 70
     8
 71
     3
 72
    23
 73
    19
 74
     0
 42
0.000000001
 43
0.00000001
 40
0.0
 40
0.0
 40
0.0
 40
0.0
 40
0.0679503475997537
 40
0.1332598223836998
 40
0.1978002967596474
 40
0.2608458295516822
 40
0.3233192927503671
 40
0.3862817224595722
 40
0.450061516233313
 40
0.5152075844858154
 40
0.5796407692199316
 40
0.6418172023841522
 40
0.7016924412115348
 40
0.7607690981778945
 40
0.8192540511346832
 40
0.8787376269055537
 40
0.9381582970160912
 40
1.0
 40
1.0
 40
1.0
 40
1.0
 10
75.07152710209985
 20
46.90513316253192
 30
0.0
 10
75.07185669114098
 20
46.89400507350854
 30
0.0
 10
75.07250305982977
 20
46.87218138578495
 30
0.0
 10
75.076394713828
 20
46.83996444770025
 30
0.0
 10
75.08327820493862
 20
46.80907278168053
 30
0.0
 10
75.09306004215883
 20
46.77948490283723
 30
0.0
 10
75.10497908399488
 20
46.75095429337647
 30
0.0
 10
75.12018744402268
 20
46.72388573915203
 30
0.0
 10
75.13796469553027
 20
46.69791379522093
 30
0.0
 10
75.15830324874848
 20
46.6736037825158
 30
0.0
 10
75.18016102221708
 20
46.65095209675245
 30
0.0
 10
75.20416962368563
 20
46.63200204568163
 30
0.0
 10
75.22848474603069
 20
46.61489976388632
 30
0.0
 10
75.25458316804456
 20
46.60194538324424
 30
0.0
 10
75.28151956752343
 20
46.59108521358959
 30
0.0
 10
75.30970452826739
 20
46.5837844640223
 30
0.0
 10
75.33899274808284
 20
46.57900489836433
 30
0.0
 10
75.35886735797418
 20
46.5784785262433
 30
0.0
 10
75.36900306363832
 20
46.57821008560884
 30
0.0
  0
SPLINE
  5
D6
330
1F
100
AcDbEntity
  8
0
  6
Continuous
 62
     7
370
    25
100
AcDbSpline
210
0.0
220
0.0
230
1.0
 70
     8
 71
     3
 72
    23
 73
    19
 74
     0
 42
0.000000001
 43
0.00000001
 40
0.0
 40
0.0
 40
0.0
 40
0.0
 40
0.0618526459466917
 40
0.1212838306153701
 40
0.1807779320756125
 40
0.2392732340142805
 40
0.2986414352139417
 40
0.3581858222417117
 40
0.4207600867589709
 40
0.4852046730216432
 40
0.5503622689482871
 40
0.613649924530912
 40
0.6766234955168249
 40
0.7391080134690126
 40
0.8021647022429448
 40
0.8667165971324778
 40
0.9320376285055445
 40
1.0
 40
1.0
 40
1.0
 40
1.0
 10
75.36900306363832
 20
47.232056239455
 30
0.0
 10
75.3588677437814
 20
47.23178710714755
 30
0.0
 10
75.33899389040063
 20
47.2312593787587
 30
0.0
 10
75.30970016498713
 20
47.2264896835055
 30
0.0
 10
75.28153585473615
 20
47.21915191185224
 30
0.0
 10
75.25448036003526
 20
47.20841135843045
 30
0.0
 10
75.22868126437184
 20
47.19493956397278
 30
0.0
 10
75.20395530923163
 20
47.17836103544087
 30
0.0
 10
75.18028542819155
 20
47.15895648735284
 30
0.0
 10
75.15826849164054
 20
47.1363990852075
 30
0.0
 10
75.13807402240113
 20
47.11207311397295
 30
0.0
 10
75.12009282907911
 20
47.08634678816782
 30
0.0
 10
75.10499343490514
 20
47.05930190752058
 30
0.0
 10
75.09305617365307
 20
47.03078415134949
 30
0.0
 10
75.08327927211079
 20
47.00119279052313
 30
0.0
 10
75.07639442299696
 20
46.97030208253678
 30
0.0
 10
75.0725031363512
 20
46.93808488529515
 30
0.0
 10
75.07185671698291
 20
46.91626123332455
 30
0.0
 10
75.07152710209985
 20
46.90513316253192
 30
0.0
  0
SPLINE
  5
D7
330
1F
100
AcDbEntity
  8
0
  6
Continuous
 62
     7
370
    25
100
AcDbSpline
210
0.0
220
0.0
230
1.0
 70
     8
 71
     3
 72
    23
 73
    19
 74
     0
 42
0.000000001
 43
0.00000001
 40
0.0
 40
0.0
 40
0.0
 40
0.0
 40
0.0705921865358071
 40
0.1385012886049299
 40
0.2037899961427012
 40
0.266787572669601
 40
0.3290979656467183
 40
0.3911745246039658
 40
0.4531677986176573
 40
0.5157967602265844
 40
0.5779688050530403
 40
0.6389663383752914
 40
0.698381066162843
 40
0.7573204555574266
 40
0.8164122397216688
 40
0.876279358230831
 40
0.936823465650193
 40
1.0
 40
1.0
 40
1.0
 40
1.0
 10
75.6676809482537
 20
46.91685191253192
 30
0.0
 10
75.66734308379911
 20
46.92827823036974
 30
0.0
 10
75.66668019652174
 20
46.95069657186344
 30
0.0
 10
75.66293620440278
 20
46.98354602807866
 30
0.0
 10
75.65584236578239
 20
47.01455196176437
 30
0.0
 10
75.64666632222612
 20
47.04406851124851
 30
0.0
 10
75.6341724968293
 20
47.07178803659601
 30
0.0
 10
75.61917636428498
 20
47.09802673522435
 30
0.0
 10
75.6013469430122
 20
47.12252424317128
 30
0.0
 10
75.58088302667613
 20
47.14485034170346
 30
0.0
 10
75.55880527239626
 20
47.16535121413781
 30
0.0
 10
75.53501634865759
 20
47.18298531221277
 30
0.0
 10
75.5102430486768
 20
47.1982130733211
 30
0.0
 10
75.48425253349296
 20
47.21058997402407
 30
0.0
 10
75.45706147501828
 20
47.22022885232194
 30
0.0
 10
75.4287931441622
 20
47.22720088526462
 30
0.0
 10
75.39925846340714
 20
47.23108108446446
 30
0.0
 10
75.37923024492835
 20
47.23172660947323
 30
0.0
 10
75.36900306363832
 20
47.232056239455
 30
0.0
  0
LINE
  5
D8
330
1F
100
AcDbEntity
  8
0
  6
Continuous
 62
     7
370
    25
100
AcDbLine
 10
59.8561424867
 20
47.7963497553
 30
0.0
 11
59.8561424867
 21
54.7963497553
 31
0.0
  0
LINE
  5
D9
330
1F
100
AcDbEntity
  8
0
  6
Continuous
 62
     7
370
    25
100
AcDbLine
 10
59.8561424867
 20
40.7963497553
 30
0.0
 11
59.8561424867
 21
47.7963497553
 31
0.0
  0
LINE
  5
DA
330
1F
100
AcDbEntity
  8
0
  6
Continuous
 62
     7
370
    25
100
AcDbLine
 10
84.8561424867
 20
53.7963497553
 30
0.0
 11
84.8561424867
 21
41.7963497553
 31
0.0
  0
LINE
  5
DB
330
1F
100
AcDbEntity
  8
0
  6
Continuous
 62
     7
370
    25
100
AcDbLine
 10
89.3561424867
 20
53.7963497553
 30
0.0
 11
89.3561424867
 21
41.7963497553
 31
0.0
  0
LINE
  5
DC
330
1F
100
AcDbEntity
  8
0
  6
Continuous
 62
     7
370
    25
100
AcDbLine
 10
93.8561424867
 20
53.7963497553
 30
0.0
 11
93.8561424867
 21
41.7963497553
 31
0.0
  0
LINE
  5
DD
330
1F
100
AcDbEntity
  8
0
  6
Continuous
 62
     7
370
    25
100
AcDbLine
 10
98.3561424867
 20
53.7963497553
 30
0.0
 11
98.3561424867
 21
41.7963497553
 31
0.0
  0
LINE
  5
DE
330
1F
100
AcDbEntity
  8
0
  6
Continuous
 62
     7
370
    25
100
AcDbLine
 10
103.8561424867
 20
52.6099042255
 30
0.0
 11
103.8561424867
 21
42.9827952854
 31
0.0
  0
LINE
  5
DF
330
1F
100
AcDbEntity
  8
0
  6
Continuous
 62
     7
370
    25
100
AcDbLine
 10
75.7727694994
 20
38.281395179
 30
0.0
 11
75.7727694994
 21
38.297123031
 31
0.0
  0
LINE
  5
E0
330
1F
100
AcDbEntity
  8
0
  6
Continuous
 62
     7
370
    25
100
AcDbLine
 10
75.7727694994
 20
57.2955764795
 30
0.0
 11
75.7727694994
 21
57.3113043315
 31
0.0
  0
LINE
  5
E1
330
1F
100
AcDbEntity
  8
0
  6
Continuous
 62
     8
370
    25
100
AcDbLine
 10
103.4236990891
 20
42.487380201
 30
0.0
 11
103.4236990891
 21
53.1053193095
 31
0.0
  0
LINE
  5
E2
330
1F
100
AcDbEntity
  8
0
  6
Continuous
 62
     7
370
    18
100
AcDbLine
 10
60.7259461232
 20
55.2985311189
 30
0.0
 11
72.3561424867
 21
55.6619747553
 31
0.0
  0
LINE
  5
E3
330
1F
100
AcDbEntity
  8
0
  6
Continuous
 62
     7
370
    18
100
AcDbLine
 10
60.7259461232
 20
40.2941683916
 30
0.0
 11
72.3561424867
 21
39.9307247553
 31
0.0
  0
LINE
  5
E4
330
1F
100
AcDbEntity
  8
0
  6
Continuous
 62
     7
370
    18
100
AcDbLine
 10
72.3561424867
 20
39.2731622553
 30
0.0
 11
72.3561424867
 21
56.3195372553
 31
0.0
  0
LINE
  5
E5
330
1F
100
AcDbEntity
  8
0
  6
CENTERX2
 62
     7
370
    18
100
AcDbLine
 10
104.8561424867
 20
47.7963497553
 30
0.0
 11
58.8488585859
 21
47.7963497553
 31
0.0
  0
CIRCLE
  5
E6
330
1F
100
AcDbEntity
  8
0
  6
Continuous
 62
     7
370
    25
100
AcDbCircle
 10
124.0465214057
 20
47.7963497553
 30
0.0
 40
3.999999999999986
  0
CIRCLE
  5
E7
330
1F
100
AcDbEntity
  8
0
  6
Continuous
 62
     7
370
    25
100
AcDbCircle
 10
124.0465214057
 20
47.7963497553
 30
0.0
 40
4.499999999999993
  0
CIRCLE
  5
E8
330
1F
100
AcDbEntity
  8
0
  6
Continuous
 62
     7
370
    25
100
AcDbCircle
 10
124.0465214057
 20
47.7963497553
 30
0.0
 40
4.813554470200579
  0
CIRCLE
  5
E9
330
1F
100
AcDbEntity
  8
0
  6
Continuous
 62
     7
370
    25
100
AcDbCircle
 10
124.0465214057
 20
47.7963497553
 30
0.0
 40
5.308969554222735
  0
CIRCLE
  5
EA
330
1F
100
AcDbEntity
  8
0
  6
Continuous
 62
     7
370
    25
100
AcDbCircle
 10
124.0465214057
 20
47.7963497553
 30
0.0
 40
6.0
  0
SPLINE
  5
EB
330
1F
100
AcDbEntity
  8
0
  6
Continuous
 62
     7
370
    25
100
AcDbSpline
210
0.0
220
0.0
230
1.0
 70
    24
 71
     3
 72
    16
 73
    12
 74
     0
 42
0.000000001
 43
0.00000001
 40
0.0
 40
0.0
 40
0.0
 40
0.0
 40
0.25
 40
0.25
 40
0.5000000000000001
 40
0.5000000000000001
 40
0.6250000000000001
 40
0.6250000000000001
 40
0.7500000000000001
 40
0.7500000000000001
 40
1.0
 40
1.0
 40
1.0
 40
1.0
 10
132.5465214056515
 20
42.88887246714627
 30
0.0
 10
132.5465214056515
 20
43.68854786968905
 30
0.0
 10
132.5465214056515
 20
44.5056180736274
 30
0.0
 10
132.5465214056515
 20
46.14312549505403
 30
0.0
 10
132.5465214056515
 20
46.96745011744078
 30
0.0
 10
132.5465214056515
 20
48.21380547178782
 30
0.0
 10
132.5465214056515
 20
48.63207400593412
 30
0.0
 10
132.5465214056515
 20
49.4665353013005
 30
0.0
 10
132.5465214056515
 20
49.87942329658102
 30
0.0
 10
132.5465214056515
 20
51.10687822062104
 30
0.0
 10
132.5465214056515
 20
51.91031176987716
 30
0.0
 10
132.5465214056515
 20
52.70382704336993
 30
0.0
  0
SPLINE
  5
EC
330
1F
100
AcDbEntity
  8
0
  6
Continuous
 62
     7
370
    25
100
AcDbSpline
210
0.0
220
0.0
230
1.0
 70
    24
 71
     3
 72
    16
 73
    12
 74
     0
 42
0.000000001
 43
0.00000001
 40
0.0
 40
0.0
 40
0.0
 40
0.0
 40
0.2499999999999998
 40
0.2499999999999998
 40
0.4999999999999997
 40
0.4999999999999997
 40
0.6249999999999998
 40
0.6249999999999998
 40
0.7499999999999999
 40
0.7499999999999999
 40
1.0
 40
1.0
 40
1.0
 40
1.0
 10
124.0465214056515
 20
37.98139517903443
 30
0.0
 10
124.7404656666994
 20
38.38204408495302
 30
0.0
 10
125.4394693932435
 20
38.78561407463787
 30
0.0
 10
126.8520551836439
 20
39.60117086097896
 30
0.0
 10
127.5657456252222
 20
40.01322022954227
 30
0.0
 10
128.6497277439593
 20
40.63905759759187
 30
0.0
 10
129.0127551722782
 20
40.84865158105499
 30
0.0
 10
129.730861735142
 20
41.26325059843122
 30
0.0
 10
130.0875074717261
 20
41.46916011045339
 30
0.0
 10
131.1510950905819
 20
42.08322270850655
 30
0.0
 10
131.8517121231434
 20
42.48772414085474
 30
0.0
 10
132.5465214056515
 20
42.88887246714629
 30
0.0
  0
SPLINE
  5
ED
330
1F
100
AcDbEntity
  8
0
  6
Continuous
 62
     7
370
    25
100
AcDbSpline
210
0.0
220
0.0
230
1.0
 70
    24
 71
     3
 72
    16
 73
    12
 74
     0
 42
0.000000001
 43
0.00000001
 40
0.0
 40
0.0
 40
0.0
 40
0.0
 40
0.2500000000000001
 40
0.2500000000000001
 40
0.5000000000000001
 40
0.5000000000000001
 40
0.6250000000000001
 40
0.6250000000000001
 40
0.7500000000000002
 40
0.7500000000000002
 40
1.0
 40
1.0
 40
1.0
 40
1.0
 10
115.5465214056515
 20
42.88887246714631
 30
0.0
 10
116.2404656666993
 20
42.48822356122772
 30
0.0
 10
116.9394693932436
 20
42.08465357154287
 30
0.0
 10
118.3520551836439
 20
41.26909678520178
 30
0.0
 10
119.0657456252222
 20
40.85704741663847
 30
0.0
 10
120.1497277439593
 20
40.23121004858886
 30
0.0
 10
120.5127551722782
 20
40.02161606512575
 30
0.0
 10
121.230861735142
 20
39.60701704774952
 30
0.0
 10
121.5875074717261
 20
39.40110753572734
 30
0.0
 10
122.6510950905819
 20
38.78704493767417
 30
0.0
 10
123.3517121231434
 20
38.382543505326
 30
0.0
 10
124.0465214056515
 20
37.98139517903444
 30
0.0
  0
SPLINE
  5
EE
330
1F
100
AcDbEntity
  8
0
  6
Continuous
 62
     7
370
    25
100
AcDbSpline
210
0.0
220
0.0
230
1.0
 70
    24
 71
     3
 72
    16
 73
    12
 74
     0
 42
0.000000001
 43
0.00000001
 40
0.0
 40
0.0
 40
0.0
 40
0.0
 40
0.25
 40
0.25
 40
0.5
 40
0.5
 40
0.625
 40
0.625
 40
0.75
 40
0.75
 40
1.0
 40
1.0
 40
1.0
 40
1.0
 10
115.5465214056515
 20
42.88887246714627
 30
0.0
 10
115.5465214056515
 20
43.68854786968605
 30
0.0
 10
115.5465214056515
 20
44.50561807362639
 30
0.0
 10
115.5465214056515
 20
46.14312549508428
 30
0.0
 10
115.5465214056515
 20
46.96745011749503
 30
0.0
 10
115.5465214056515
 20
48.21380547189352
 30
0.0
 10
115.5465214056515
 20
48.63207400609133
 30
0.0
 10
115.5465214056515
 20
49.46653530140144
 30
0.0
 10
115.5465214056515
 20
49.87942329665946
 30
0.0
 10
115.5465214056515
 20
51.10687822064568
 30
0.0
 10
115.5465214056515
 20
51.91031176988402
 30
0.0
 10
115.5465214056515
 20
52.70382704336993
 30
0.0
  0
SPLINE
  5
EF
330
1F
100
AcDbEntity
  8
0
  6
Continuous
 62
     7
370
    25
100
AcDbSpline
210
0.0
220
0.0
230
1.0
 70
    24
 71
     3
 72
    16
 73
    12
 74
     0
 42
0.000000001
 43
0.00000001
 40
0.0
 40
0.0
 40
0.0
 40
0.0
 40
0.2500000000000002
 40
0.2500000000000002
 40
0.5000000000000004
 40
0.5000000000000004
 40
0.6250000000000003
 40
0.6250000000000003
 40
0.7500000000000002
 40
0.7500000000000002
 40
1.0
 40
1.0
 40
1.0
 40
1.0
 10
124.0465214056516
 20
57.61130433148178
 30
0.0
 10
123.3525771446037
 20
57.21065542556319
 30
0.0
 10
122.6535734180595
 20
56.80708543587834
 30
0.0
 10
121.2409876276591
 20
55.99152864953724
 30
0.0
 10
120.5272971860808
 20
55.57947928097393
 30
0.0
 10
119.4433150673437
 20
54.95364191292433
 30
0.0
 10
119.0802876390248
 20
54.74404792946121
 30
0.0
 10
118.3621810761611
 20
54.32944891208498
 30
0.0
 10
118.0055353395769
 20
54.12353940006281
 30
0.0
 10
116.9419477207211
 20
53.50947680200964
 30
0.0
 10
116.2413306881597
 20
53.10497536966146
 30
0.0
 10
115.5465214056515
 20
52.70382704336991
 30
0.0
  0
SPLINE
  5
F0
330
1F
100
AcDbEntity
  8
0
  6
Continuous
 62
     7
370
    25
100
AcDbSpline
210
0.0
220
0.0
230
1.0
 70
    24
 71
     3
 72
    16
 73
    12
 74
     0
 42
0.000000001
 43
0.00000001
 40
0.0
 40
0.0
 40
0.0
 40
0.0
 40
0.2499999999999998
 40
0.2499999999999998
 40
0.4999999999999996
 40
0.4999999999999996
 40
0.6249999999999994
 40
0.6249999999999994
 40
0.7499999999999996
 40
0.7499999999999996
 40
1.0
 40
1.0
 40
1.0
 40
1.0
 10
132.5465214056516
 20
52.7038270433699
 30
0.0
 10
131.8525771446037
 20
53.10447594928849
 30
0.0
 10
131.1535734180595
 20
53.50804593897333
 30
0.0
 10
129.7409876276591
 20
54.32360272531442
 30
0.0
 10
129.0272971860808
 20
54.73565209387774
 30
0.0
 10
127.9433150673437
 20
55.36148946192734
 30
0.0
 10
127.5802876390248
 20
55.57108344539046
 30
0.0
 10
126.862181076161
 20
55.9856824627667
 30
0.0
 10
126.5055353395769
 20
56.19159197478886
 30
0.0
 10
125.4419477207211
 20
56.80565457284203
 30
0.0
 10
124.7413306881597
 20
57.21015600519021
 30
0.0
 10
124.0465214056515
 20
57.61130433148176
 30
0.0
  0
CIRCLE
  5
F1
330
1F
100
AcDbEntity
  8
0
  6
Continuous
 62
     7
370
    25
100
AcDbCircle
 10
124.0465214057
 20
47.7963497553
 30
0.0
 40
8.249999999999986
  0
INSERT
  5
FD
330
1F
100
AcDbEntity
  8
0
  6
Continuous
 62
     7
370
    18
100
AcDbBlockReference
  2
SW_CENTERMARKSYMBOL_0
 10
124.0465214057
 20
47.7963497553
 30
0.0
  0
INSERT
  5
109
330
1F
100
AcDbEntity
  8
0
  6
Continuous
 62
     7
370
    18
100
AcDbBlockReference
  2
SW_CENTERMARKSYMBOL_1
 10
124.0465214057
 20
47.7963497553
 30
0.0
  0
LINE
  5
10A
330
1F
100
AcDbEntity
  8
0
  6
Continuous
 62
     7
370
    25
100
AcDbLine
 10
78.7118049194
 20
67.1440936571
 30
0.0
 11
78.8561424867
 21
67.3940936571
 31
0.0
  0
LINE
  5
10B
330
1F
100
AcDbEntity
  8
0
  6
Continuous
 62
     7
370
    25
100
AcDbLine
 10
78.8561424867
 20
83.8940936571
 30
0.0
 11
78.7118049194
 21
84.1440936571
 31
0.0
  0
LINE
  5
10C
330
1F
100
AcDbEntity
  8
0
  6
Continuous
 62
     7
370
    25
100
AcDbLine
 10
72.8561424867
 20
84.1829061571
 30
0.0
 11
61.9300519204
 21
83.8414658269
 31
0.0
  0
LINE
  5
10D
330
1F
100
AcDbEntity
  8
0
  6
Continuous
 62
     7
370
    25
100
AcDbLine
 10
61.9300519204
 20
67.4467214873
 30
0.0
 11
72.8561424867
 21
67.1052811571
 31
0.0
  0
LINE
  5
10E
330
1F
100
AcDbEntity
  8
0
  6
Continuous
 62
     7
370
    25
100
AcDbLine
 10
61.9300519204
 20
83.8414658269
 30
0.0
 11
59.8561424867
 21
82.6440936571
 31
0.0
  0
LINE
  5
10F
330
1F
100
AcDbEntity
  8
0
  6
Continuous
 62
     7
370
    25
100
AcDbLine
 10
59.8561424867
 20
68.6440936571
 30
0.0
 11
61.9300519204
 21
67.4467214873
 31
0.0
  0
LINE
  5
110
330
1F
100
AcDbEntity
  8
0
  6
Continuous
 62
     7
370
    25
100
AcDbLine
 10
89.3561424867
 20
69.6440936571
 30
0.0
 11
93.8561424867
 21
70.3940936571
 31
0.0
  0
LINE
  5
111
330
1F
100
AcDbEntity
  8
0
  6
Continuous
 62
     7
370
    25
100
AcDbLine
 10
93.8561424867
 20
80.8940936571
 30
0.0
 11
89.3561424867
 21
81.6440936571
 31
0.0
  0
LINE
  5
112
330
1F
100
AcDbEntity
  8
0
  6
Continuous
 62
     7
370
    25
100
AcDbLine
 10
98.3561424867
 20
69.6440936571
 30
0.0
 11
103.4236990891
 21
70.3351241029
 31
0.0
  0
LINE
  5
113
330
1F
100
AcDbEntity
  8
0
  6
Continuous
 62
     7
370
    25
100
AcDbLine
 10
103.4236990891
 20
80.9530632113
 30
0.0
 11
98.3561424867
 21
81.6440936571
 31
0.0
  0
LINE
  5
114
330
1F
100
AcDbEntity
  8
0
  6
Continuous
 62
     7
370
    25
100
AcDbLine
 10
84.8561424867
 20
69.6440936571
 30
0.0
 11
89.3561424867
 21
70.3940936571
 31
0.0
  0
LINE
  5
115
330
1F
100
AcDbEntity
  8
0
  6
Continuous
 62
     7
370
    25
100
AcDbLine
 10
89.3561424867
 20
80.8940936571
 30
0.0
 11
84.8561424867
 21
81.6440936571
 31
0.0
  0
LINE
  5
116
330
1F
100
AcDbEntity
  8
0
  6
Continuous
 62
     7
370
    25
100
AcDbLine
 10
93.8561424867
 20
69.6440936571
 30
0.0
 11
98.3561424867
 21
70.3940936571
 31
0.0
  0
LINE
  5
117
330
1F
100
AcDbEntity
  8
0
  6
Continuous
 62
     7
370
    25
100
AcDbLine
 10
98.3561424867
 20
80.8940936571
 30
0.0
 11
93.8561424867
 21
81.6440936571
 31
0.0
  0
LINE
  5
118
330
1F
100
AcDbEntity
  8
0
  6
Continuous
 62
     7
370
    25
100
AcDbLine
 10
84.8561424867
 20
81.6440936571
 30
0.0
 11
78.8561424867
 21
81.6440936571
 31
0.0
  0
LINE
  5
119
330
1F
100
AcDbEntity
  8
0
  6
Continuous
 62
     7
370
    25
100
AcDbLine
 10
78.8561424867
 20
69.6440936571
 30
0.0
 11
84.8561424867
 21
69.6440936571
 31
0.0
  0
ARC
  5
11A
330
1F
100
AcDbEntity
  8
0
  6
Continuous
 62
     7
370
    25
100
AcDbCircle
 10
103.3561424867
 20
80.4576481273
 30
0.0
 40
0.5000000000000054
100
AcDbArc
 50
0.0
 51
82.2348339816
  0
ARC
  5
11B
330
1F
100
AcDbEntity
  8
0
  6
Continuous
 62
     7
370
    25
100
AcDbCircle
 10
103.3561424867
 20
70.8305391869
 30
0.0
 40
0.5000000000000054
100
AcDbArc
 50
277.7651660184
 51
0.0
  0
LINE
  5
11C
330
1F
100
AcDbEntity
  8
0
  6
Continuous
 62
     7
370
    25
100
AcDbLine
 10
75.6923847417
 20
75.6440936571
 30
0.0
 11
73.5929234579
 21
75.6440936571
 31
0.0
  0
SPLINE
  5
11D
330
1F
100
AcDbEntity
  8
0
  6
Continuous
 62
     7
370
    25
100
AcDbSpline
210
0.0
220
0.0
230
1.0
 70
     8
 71
     3
 72
    10
 73
     6
 74
     0
 42
0.000000001
 43
0.00000001
 40
0.0
 40
0.0
 40
0.0
 40
0.0
 40
0.5
 40
0.5
 40
1.0
 40
1.0
 40
1.0
 40
1.0
 10
73.59292345794715
 20
75.644093657087
 30
0.0
 10
73.39898835786609
 20
76.22589895733024
 30
0.0
 10
73.2326165060707
 20
76.81512629787204
 30
0.0
 10
72.98036971819951
 20
77.99675364445363
 30
0.0
 10
72.8941544850637
 20
78.59113595620894
 30
0.0
 10
72.85614248671524
 20
79.18982866248828
 30
0.0
  0
SPLINE
  5
11E
330
1F
100
AcDbEntity
  8
0
  6
Continuous
 62
     7
370
    25
100
AcDbSpline
210
0.0
220
0.0
230
1.0
 70
     8
 71
     3
 72
    12
 73
     8
 74
     0
 42
0.000000001
 43
0.00000001
 40
0.0
 40
0.0
 40
0.0
 40
0.0
 40
0.2499999999999999
 40
0.2499999999999999
 40
0.4999999999999999
 40
0.4999999999999999
 40
1.0
 40
1.0
 40
1.0
 40
1.0
 10
72.85614248671524
 20
80.59835865168571
 30
0.0
 10
72.8753363405954
 20
80.9006637348887
 30
0.0
 10
72.90705236387126
 20
81.2044782340928
 30
0.0
 10
72.99253007865217
 20
81.80443625307487
 30
0.0
 10
73.04630739620272
 20
82.10184551155082
 30
0.0
 10
73.23635463433371
 20
82.98738837504901
 30
0.0
 10
73.40118340129429
 20
83.56887348712834
 30
0.0
 10
73.59292345794715
 20
84.14409365708698
 30
0.0
  0
LINE
  5
11F
330
1F
100
AcDbEntity
  8
0
  6
Continuous
 62
     7
370
    25
100
AcDbLine
 10
75.6923847417
 20
84.1440936571
 30
0.0
 11
73.5929234579
 21
84.1440936571
 31
0.0
  0
SPLINE
  5
120
330
1F
100
AcDbEntity
  8
0
  6
Continuous
 62
     7
370
    25
100
AcDbSpline
210
0.0
220
0.0
230
1.0
 70
     8
 71
     3
 72
     8
 73
     4
 74
     0
 42
0.000000001
 43
0.00000001
 40
0.0
 40
0.0
 40
0.0
 40
0.0
 40
1.0
 40
1.0
 40
1.0
 40
1.0
 10
75.77276949940507
 20
83.59723697603906
 30
0.0
 10
75.7473948662459
 20
83.77972937582018
 30
0.0
 10
75.72055346503913
 20
83.96200816689739
 30
0.0
 10
75.69238474167575
 20
84.14409365708698
 30
0.0
  0
SPLINE
  5
121
330
1F
100
AcDbEntity
  8
0
  6
Continuous
 62
     7
370
    25
100
AcDbSpline
210
0.0
220
0.0
230
1.0
 70
     8
 71
     3
 72
     8
 73
     4
 74
     0
 42
0.000000001
 43
0.00000001
 40
0.0
 40
0.0
 40
0.0
 40
0.0
 40
1.0
 40
1.0
 40
1.0
 40
1.0
 10
75.85315425713442
 20
84.14409365708698
 30
0.0
 10
75.82497295131124
 20
83.96192683259876
 30
0.0
 10
75.79813242531652
 20
83.77964517819964
 30
0.0
 10
75.77276949940507
 20
83.59723697603906
 30
0.0
  0
LINE
  5
122
330
1F
100
AcDbEntity
  8
0
  6
Continuous
 62
     7
370
    25
100
AcDbLine
 10
77.9526155409
 20
84.1440936571
 30
0.0
 11
75.8531542571
 21
84.1440936571
 31
0.0
  0
SPLINE
  5
123
330
1F
100
AcDbEntity
  8
0
  6
Continuous
 62
     7
370
    25
100
AcDbSpline
210
0.0
220
0.0
230
1.0
 70
     8
 71
     3
 72
    16
 73
    12
 74
     0
 42
0.000000001
 43
0.00000001
 40
0.0
 40
0.0
 40
0.0
 40
0.0
 40
0.2499999999999998
 40
0.2499999999999998
 40
0.4999999999999996
 40
0.4999999999999996
 40
0.6249999999999994
 40
0.6249999999999994
 40
0.7499999999999996
 40
0.7499999999999996
 40
1.0
 40
1.0
 40
1.0
 40
1.0
 10
77.9526155408634
 20
84.14409365708704
 30
0.0
 10
78.18393029454603
 20
83.45014939603917
 30
0.0
 10
78.37457558787648
 20
82.75114566949496
 30
0.0
 10
78.63868124428377
 20
81.33855987909459
 30
0.0
 10
78.71127043559774
 20
80.62486943751627
 30
0.0
 10
78.7120676816887
 20
79.54088731877916
 30
0.0
 10
78.69432242506524
 20
79.1778598904603
 30
0.0
 10
78.62512534153544
 20
78.45975332759653
 30
0.0
 10
78.57374373547317
 20
78.10310759101242
 30
0.0
 10
78.37533573673655
 20
77.0395199721566
 30
0.0
 10
78.1842186350326
 20
76.33890293959516
 30
0.0
 10
77.9526155408632
 20
75.64409365708697
 30
0.0
  0
LINE
  5
124
330
1F
100
AcDbEntity
  8
0
  6
Continuous
 62
     7
370
    25
100
AcDbLine
 10
77.9526155409
 20
75.6440936571
 30
0.0
 11
75.8531542571
 21
75.6440936571
 31
0.0
  0
SPLINE
  5
125
330
1F
100
AcDbEntity
  8
0
  6
Continuous
 62
     7
370
    25
100
AcDbSpline
210
0.0
220
0.0
230
1.0
 70
     8
 71
     3
 72
     8
 73
     4
 74
     0
 42
0.000000001
 43
0.00000001
 40
0.0
 40
0.0
 40
0.0
 40
0.0
 40
1.0
 40
1.0
 40
1.0
 40
1.0
 10
75.77276949940507
 20
76.19095033813491
 30
0.0
 10
75.79814413256425
 20
76.00845793835381
 30
0.0
 10
75.82498553377104
 20
75.82617914727659
 30
0.0
 10
75.85315425713442
 20
75.644093657087
 30
0.0
  0
SPLINE
  5
126
330
1F
100
AcDbEntity
  8
0
  6
Continuous
 62
     7
370
    25
100
AcDbSpline
210
0.0
220
0.0
230
1.0
 70
     8
 71
     3
 72
     8
 73
     4
 74
     0
 42
0.000000001
 43
0.00000001
 40
0.0
 40
0.0
 40
0.0
 40
0.0
 40
1.0
 40
1.0
 40
1.0
 40
1.0
 10
75.69238474167575
 20
75.644093657087
 30
0.0
 10
75.7205660474989
 20
75.82626048157522
 30
0.0
 10
75.74740657349363
 20
76.00854213597434
 30
0.0
 10
75.77276949940507
 20
76.19095033813491
 30
0.0
  0
SPLINE
  5
127
330
1F
100
AcDbEntity
  8
0
  6
Continuous
 62
     7
370
    25
100
AcDbSpline
210
0.0
220
0.0
230
1.0
 70
    24
 71
     3
 72
    12
 73
     8
 74
     0
 42
0.000000001
 43
0.00000001
 40
0.0
 40
0.0
 40
0.0
 40
0.0
 40
0.2209509582464313
 40
0.4142471317587119
 40
0.6082242050654059
 40
0.803900513271813
 40
1.0
 40
1.0
 40
1.0
 40
1.0
 10
78.70457053822803
 20
84.144093657087
 30
0.0
 10
78.69975970485028
 20
84.144093657087
 30
0.0
 10
78.69074017425434
 20
84.14409365708698
 30
0.0
 10
78.57813467605092
 20
84.14409365708698
 30
0.0
 10
78.42064523092681
 20
84.14409365708698
 30
0.0
 10
78.21298972831836
 20
84.14409365708698
 30
0.0
 10
78.03946941295105
 20
84.14409365708698
 30
0.0
 10
77.952615540863
 20
84.14409365708698
 30
0.0
  0
SPLINE
  5
128
330
1F
100
AcDbEntity
  8
0
  6
Continuous
 62
     7
370
    25
100
AcDbSpline
210
0.0
220
0.0
230
1.0
 70
    24
 71
     3
 72
    12
 73
     8
 74
     0
 42
0.000000001
 43
0.00000001
 40
0.0
 40
0.0
 40
0.0
 40
0.0
 40
0.1936015576195931
 40
0.3875702210684882
 40
0.5829796909490819
 40
0.7790452728488882
 40
1.0
 40
1.0
 40
1.0
 40
1.0
 10
77.952615540863
 20
67.14409365708698
 30
0.0
 10
78.03840730238784
 20
67.14409365708698
 30
0.0
 10
78.21015350313573
 20
67.14409365708698
 30
0.0
 10
78.4175940772905
 20
67.14409365708698
 30
0.0
 10
78.57683392728408
 20
67.14409365708698
 30
0.0
 10
78.6902852424303
 20
67.14409365708698
 30
0.0
 10
78.70063267680675
 20
67.14409365708698
 30
0.0
 10
78.7061151784733
 20
67.14409365708698
 30
0.0
  0
SPLINE
  5
129
330
1F
100
AcDbEntity
  8
0
  6
Continuous
 62
     7
370
    25
100
AcDbSpline
210
0.0
220
0.0
230
1.0
 70
     8
 71
     3
 72
    16
 73
    12
 74
     0
 42
0.000000001
 43
0.00000001
 40
0.0
 40
0.0
 40
0.0
 40
0.0
 40
0.2500000000000002
 40
0.2500000000000002
 40
0.5000000000000004
 40
0.5000000000000004
 40
0.6250000000000003
 40
0.6250000000000003
 40
0.7500000000000002
 40
0.7500000000000002
 40
1.0
 40
1.0
 40
1.0
 40
1.0
 10
77.9526155408634
 20
75.64409365708704
 30
0.0
 10
78.18393029454603
 20
74.95014939603917
 30
0.0
 10
78.37457558787648
 20
74.25114566949495
 30
0.0
 10
78.63868124428377
 20
72.8385598790946
 30
0.0
 10
78.71127043559774
 20
72.12486943751625
 30
0.0
 10
78.7120676816887
 20
71.04088731877917
 30
0.0
 10
78.69432242506524
 20
70.6778598904603
 30
0.0
 10
78.62512534153545
 20
69.95975332759652
 30
0.0
 10
78.57374373547317
 20
69.60310759101242
 30
0.0
 10
78.37533573673655
 20
68.53951997215658
 30
0.0
 10
78.1842186350326
 20
67.83890293959514
 30
0.0
 10
77.9526155408632
 20
67.14409365708696
 30
0.0
  0
LINE
  5
12A
330
1F
100
AcDbEntity
  8
0
  6
Continuous
 62
     7
370
    25
100
AcDbLine
 10
78.8561424867
 20
83.8940936571
 30
0.0
 11
78.8561424867
 21
67.3940936571
 31
0.0
  0
SPLINE
  5
12B
330
1F
100
AcDbEntity
  8
0
  6
Continuous
 62
     7
370
    25
100
AcDbSpline
210
0.0
220
0.0
230
1.0
 70
     8
 71
     3
 72
    12
 73
     8
 74
     0
 42
0.000000001
 43
0.00000001
 40
0.0
 40
0.0
 40
0.0
 40
0.0
 40
0.2500000000000001
 40
0.2500000000000001
 40
0.5000000000000002
 40
0.5000000000000002
 40
1.0
 40
1.0
 40
1.0
 40
1.0
 10
72.85614248671524
 20
72.09835865168571
 30
0.0
 10
72.8753363405954
 20
72.40066373488868
 30
0.0
 10
72.90705236387126
 20
72.70447823409279
 30
0.0
 10
72.99253007865217
 20
73.30443625307487
 30
0.0
 10
73.04630739620272
 20
73.60184551155083
 30
0.0
 10
73.23635463433371
 20
74.48738837504902
 30
0.0
 10
73.40118340129429
 20
75.06887348712833
 30
0.0
 10
73.59292345794715
 20
75.644093657087
 30
0.0
  0
LINE
  5
12C
330
1F
100
AcDbEntity
  8
0
  6
Continuous
 62
     7
370
    25
100
AcDbLine
 10
72.8561424867
 20
72.0983586517
 30
0.0
 11
72.8561424867
 21
79.1898286625
 31
0.0
  0
LINE
  5
12D
330
1F
100
AcDbEntity
  8
0
  6
Continuous
 62
     7
370
    25
100
AcDbLine
 10
75.7727694994
 20
75.097236976
 30
0.0
 11
75.7727694994
 21
76.1909503381
 31
0.0
  0
SPLINE
  5
12E
330
1F
100
AcDbEntity
  8
0
  6
Continuous
 62
     7
370
    25
100
AcDbSpline
210
0.0
220
0.0
230
1.0
 70
     8
 71
     3
 72
     8
 73
     4
 74
     0
 42
0.000000001
 43
0.00000001
 40
0.0
 40
0.0
 40
0.0
 40
0.0
 40
1.0
 40
1.0
 40
1.0
 40
1.0
 10
75.77276949940507
 20
75.09723697603907
 30
0.0
 10
75.7473948662459
 20
75.27972937582018
 30
0.0
 10
75.72055346503913
 20
75.46200816689739
 30
0.0
 10
75.69238474167575
 20
75.644093657087
 30
0.0
  0
SPLINE
  5
12F
330
1F
100
AcDbEntity
  8
0
  6
Continuous
 62
     7
370
    25
100
AcDbSpline
210
0.0
220
0.0
230
1.0
 70
     8
 71
     3
 72
     8
 73
     4
 74
     0
 42
0.000000001
 43
0.00000001
 40
0.0
 40
0.0
 40
0.0
 40
0.0
 40
1.0
 40
1.0
 40
1.0
 40
1.0
 10
75.85315425713442
 20
75.644093657087
 30
0.0
 10
75.82497295131124
 20
75.46192683259876
 30
0.0
 10
75.79813242531652
 20
75.27964517819966
 30
0.0
 10
75.77276949940507
 20
75.09723697603907
 30
0.0
  0
LINE
  5
130
330
1F
100
AcDbEntity
  8
0
  6
Continuous
 62
     7
370
    25
100
AcDbLine
 10
75.6923847417
 20
67.1440936571
 30
0.0
 11
73.5929234579
 21
67.1440936571
 31
0.0
  0
SPLINE
  5
131
330
1F
100
AcDbEntity
  8
0
  6
Continuous
 62
     7
370
    25
100
AcDbSpline
210
0.0
220
0.0
230
1.0
 70
     8
 71
     3
 72
    10
 73
     6
 74
     0
 42
0.000000001
 43
0.00000001
 40
0.0
 40
0.0
 40
0.0
 40
0.0
 40
0.5
 40
0.5
 40
1.0
 40
1.0
 40
1.0
 40
1.0
 10
73.59292345794715
 20
67.14409365708698
 30
0.0
 10
73.39898835786609
 20
67.72589895733023
 30
0.0
 10
73.2326165060707
 20
68.31512629787204
 30
0.0
 10
72.98036971819951
 20
69.49675364445362
 30
0.0
 10
72.8941544850637
 20
70.09113595620893
 30
0.0
 10
72.85614248671524
 20
70.68982866248827
 30
0.0
  0
LINE
  5
132
330
1F
100
AcDbEntity
  8
0
  6
Continuous
 62
     7
370
    25
100
AcDbLine
 10
77.9526155409
 20
67.1440936571
 30
0.0
 11
75.8531542571
 21
67.1440936571
 31
0.0
  0
SPLINE
  5
133
330
1F
100
AcDbEntity
  8
0
  6
Continuous
 62
     7
370
    25
100
AcDbSpline
210
0.0
220
0.0
230
1.0
 70
     8
 71
     3
 72
     8
 73
     4
 74
     0
 42
0.000000001
 43
0.00000001
 40
0.0
 40
0.0
 40
0.0
 40
0.0
 40
1.0
 40
1.0
 40
1.0
 40
1.0
 10
75.77276949940507
 20
67.69095033813493
 30
0.0
 10
75.79814413256425
 20
67.5084579383538
 30
0.0
 10
75.82498553377104
 20
67.32617914727659
 30
0.0
 10
75.85315425713442
 20
67.14409365708698
 30
0.0
  0
SPLINE
  5
134
330
1F
100
AcDbEntity
  8
0
  6
Continuous
 62
     7
370
    25
100
AcDbSpline
210
0.0
220
0.0
230
1.0
 70
     8
 71
     3
 72
     8
 73
     4
 74
     0
 42
0.000000001
 43
0.00000001
 40
0.0
 40
0.0
 40
0.0
 40
0.0
 40
1.0
 40
1.0
 40
1.0
 40
1.0
 10
75.69238474167575
 20
67.14409365708698
 30
0.0
 10
75.7205660474989
 20
67.3262604815752
 30
0.0
 10
75.74740657349363
 20
67.50854213597434
 30
0.0
 10
75.77276949940507
 20
67.69095033813493
 30
0.0
  0
LINE
  5
135
330
1F
100
AcDbEntity
  8
0
  6
Continuous
 62
     7
370
    25
100
AcDbLine
 10
61.9300519204
 20
83.8414658269
 30
0.0
 11
61.9300519204
 21
67.4467214873
 31
0.0
  0
LINE
  5
136
330
1F
100
AcDbEntity
  8
0
  6
Continuous
 62
     7
370
    25
100
AcDbLine
 10
72.8561424867
 20
67.1052811571
 30
0.0
 11
72.8561424867
 21
67.1440936571
 31
0.0
  0
LINE
  5
137
330
1F
100
AcDbEntity
  8
0
  6
Continuous
 62
     7
370
    25
100
AcDbLine
 10
72.8561424867
 20
84.1440936571
 30
0.0
 11
72.8561424867
 21
84.1829061571
 31
0.0
  0
LINE
  5
138
330
1F
100
AcDbEntity
  8
0
  6
Continuous
 62
     7
370
    25
100
AcDbLine
 10
72.8561424867
 20
80.5983586517
 30
0.0
 11
72.8561424867
 21
84.1440936571
 31
0.0
  0
LINE
  5
139
330
1F
100
AcDbEntity
  8
0
  6
Continuous
 62
     7
370
    25
100
AcDbLine
 10
72.8561424867
 20
79.1898286625
 30
0.0
 11
72.8561424867
 21
80.5983586517
 31
0.0
  0
LINE
  5
13A
330
1F
100
AcDbEntity
  8
0
  6
Continuous
 62
     7
370
    25
100
AcDbLine
 10
72.8561424867
 20
70.6898286625
 30
0.0
 11
72.8561424867
 21
72.0983586517
 31
0.0
  0
LINE
  5
13B
330
1F
100
AcDbEntity
  8
0
  6
Continuous
 62
     7
370
    25
100
AcDbLine
 10
72.8561424867
 20
67.1440936571
 30
0.0
 11
72.8561424867
 21
70.6898286625
 31
0.0
  0
LINE
  5
13C
330
1F
100
AcDbEntity
  8
0
  6
Continuous
 62
     7
370
    25
100
AcDbLine
 10
59.8561424867
 20
68.6440936571
 30
0.0
 11
59.8561424867
 21
82.6440936571
 31
0.0
  0
SPLINE
  5
13D
330
1F
100
AcDbEntity
  8
0
  6
Continuous
 62
     7
370
    25
100
AcDbSpline
210
0.0
220
0.0
230
1.0
 70
    24
 71
     3
 72
    10
 73
     6
 74
     0
 42
0.000000001
 43
0.00000001
 40
0.0
 40
0.0
 40
0.0
 40
0.0
 40
0.5
 40
0.5
 40
1.0
 40
1.0
 40
1.0
 40
1.0
 10
73.59292345794715
 20
84.14409365708698
 30
0.0
 10
73.39981678264326
 20
84.14409365708698
 30
0.0
 10
73.232706443433
 20
84.14409365708698
 30
0.0
 10
72.97989770311128
 20
84.14409365708698
 30
0.0
 10
72.8940126038191
 20
84.14409365708698
 30
0.0
 10
72.85614248671524
 20
84.14409365708698
 30
0.0
  0
SPLINE
  5
13E
330
1F
100
AcDbEntity
  8
0
  6
Continuous
 62
     7
370
    25
100
AcDbSpline
210
0.0
220
0.0
230
1.0
 70
    24
 71
     3
 72
    10
 73
     6
 74
     0
 42
0.000000001
 43
0.00000001
 40
0.0
 40
0.0
 40
0.0
 40
0.0
 40
0.5
 40
0.5
 40
1.0
 40
1.0
 40
1.0
 40
1.0
 10
72.85614248671524
 20
67.14409365708698
 30
0.0
 10
72.89418471734268
 20
67.14409365708698
 30
0.0
 10
72.98223774310662
 20
67.14409365708698
 30
0.0
 10
73.23629539686686
 20
67.14409365708698
 30
0.0
 10
73.40136198492768
 20
67.14409365708698
 30
0.0
 10
73.59292345794715
 20
67.14409365708698
 30
0.0
  0
LINE
  5
13F
330
1F
100
AcDbEntity
  8
0
  6
Continuous
 62
     7
370
    25
100
AcDbLine
 10
89.3561424867
 20
75.6440936571
 30
0.0
 11
89.3561424867
 21
69.6440936571
 31
0.0
  0
LINE
  5
140
330
1F
100
AcDbEntity
  8
0
  6
Continuous
 62
     7
370
    25
100
AcDbLine
 10
89.3561424867
 20
81.6440936571
 30
0.0
 11
89.3561424867
 21
75.6440936571
 31
0.0
  0
LINE
  5
141
330
1F
100
AcDbEntity
  8
0
  6
Continuous
 62
     7
370
    25
100
AcDbLine
 10
98.3561424867
 20
75.6440936571
 30
0.0
 11
98.3561424867
 21
69.6440936571
 31
0.0
  0
LINE
  5
142
330
1F
100
AcDbEntity
  8
0
  6
Continuous
 62
     7
370
    25
100
AcDbLine
 10
98.3561424867
 20
81.6440936571
 30
0.0
 11
98.3561424867
 21
75.6440936571
 31
0.0
  0
LINE
  5
143
330
1F
100
AcDbEntity
  8
0
  6
Continuous
 62
     7
370
    25
100
AcDbLine
 10
84.8561424867
 20
75.6440936571
 30
0.0
 11
84.8561424867
 21
69.6440936571
 31
0.0
  0
LINE
  5
144
330
1F
100
AcDbEntity
  8
0
  6
Continuous
 62
     7
370
    25
100
AcDbLine
 10
84.8561424867
 20
81.6440936571
 30
0.0
 11
84.8561424867
 21
75.6440936571
 31
0.0
  0
LINE
  5
145
330
1F
100
AcDbEntity
  8
0
  6
Continuous
 62
     7
370
    25
100
AcDbLine
 10
93.8561424867
 20
75.6440936571
 30
0.0
 11
93.8561424867
 21
69.6440936571
 31
0.0
  0
LINE
  5
146
330
1F
100
AcDbEntity
  8
0
  6
Continuous
 62
     7
370
    25
100
AcDbLine
 10
93.8561424867
 20
81.6440936571
 30
0.0
 11
93.8561424867
 21
75.6440936571
 31
0.0
  0
LINE
  5
147
330
1F
100
AcDbEntity
  8
0
  6
Continuous
 62
     7
370
    25
100
AcDbLine
 10
103.8561424867
 20
75.6440936571
 30
0.0
 11
103.8561424867
 21
70.8305391869
 31
0.0
  0
LINE
  5
148
330
1F
100
AcDbEntity
  8
0
  6
Continuous
 62
     7
370
    25
100
AcDbLine
 10
103.8561424867
 20
80.4576481273
 30
0.0
 11
103.8561424867
 21
75.6440936571
 31
0.0
  0
LINE
  5
149
330
1F
100
AcDbEntity
  8
0
  6
Continuous
 62
     7
370
    25
100
AcDbLine
 10
75.7727694994
 20
83.597236976
 30
0.0
 11
75.7727694994
 21
84.1440936571
 31
0.0
  0
SPLINE
  5
14A
330
1F
100
AcDbEntity
  8
0
  6
Continuous
 62
     7
370
    25
100
AcDbSpline
210
0.0
220
0.0
230
1.0
 70
    24
 71
     3
 72
     8
 73
     4
 74
     0
 42
0.000000001
 43
0.00000001
 40
0.0
 40
0.0
 40
0.0
 40
0.0
 40
1.0
 40
1.0
 40
1.0
 40
1.0
 10
75.77276949940507
 20
84.14409365708698
 30
0.0
 10
75.7981435299894
 20
84.14409365708698
 30
0.0
 10
75.8249848867064
 20
84.14409365708698
 30
0.0
 10
75.85315425713442
 20
84.14409365708698
 30
0.0
  0
SPLINE
  5
14B
330
1F
100
AcDbEntity
  8
0
  6
Continuous
 62
     7
370
    25
100
AcDbSpline
210
0.0
220
0.0
230
1.0
 70
    24
 71
     3
 72
     8
 73
     4
 74
     0
 42
0.000000001
 43
0.00000001
 40
0.0
 40
0.0
 40
0.0
 40
0.0
 40
1.0
 40
1.0
 40
1.0
 40
1.0
 10
75.69238474167574
 20
84.14409365708698
 30
0.0
 10
75.7205678935679
 20
84.14409365708698
 30
0.0
 10
75.74740828936602
 20
84.14409365708698
 30
0.0
 10
75.77276949940507
 20
84.14409365708698
 30
0.0
  0
SPLINE
  5
14C
330
1F
100
AcDbEntity
  8
0
  6
Continuous
 62
     7
370
    25
100
AcDbSpline
210
0.0
220
0.0
230
1.0
 70
    24
 71
     3
 72
     8
 73
     4
 74
     0
 42
0.000000001
 43
0.00000001
 40
0.0
 40
0.0
 40
0.0
 40
0.0
 40
1.0
 40
1.0
 40
1.0
 40
1.0
 10
75.85315425713442
 20
67.14409365708698
 30
0.0
 10
75.82497110524226
 20
67.14409365708698
 30
0.0
 10
75.79813070944414
 20
67.14409365708698
 30
0.0
 10
75.77276949940507
 20
67.14409365708698
 30
0.0
  0
LINE
  5
14D
330
1F
100
AcDbEntity
  8
0
  6
Continuous
 62
     7
370
    25
100
AcDbLine
 10
75.7727694994
 20
67.1440936571
 30
0.0
 11
75.7727694994
 21
67.6909503381
 31
0.0
  0
SPLINE
  5
14E
330
1F
100
AcDbEntity
  8
0
  6
Continuous
 62
     7
370
    25
100
AcDbSpline
210
0.0
220
0.0
230
1.0
 70
    24
 71
     3
 72
     8
 73
     4
 74
     0
 42
0.000000001
 43
0.00000001
 40
0.0
 40
0.0
 40
0.0
 40
0.0
 40
1.0
 40
1.0
 40
1.0
 40
1.0
 10
75.77276949940507
 20
67.14409365708698
 30
0.0
 10
75.74739546882076
 20
67.14409365708698
 30
0.0
 10
75.72055411210376
 20
67.14409365708698
 30
0.0
 10
75.69238474167575
 20
67.14409365708698
 30
0.0
  0
LINE
  5
14F
330
1F
100
AcDbEntity
  8
0
  6
Continuous
 62
     8
370
    25
100
AcDbLine
 10
103.4236990891
 20
75.6440936571
 30
0.0
 11
103.4236990891
 21
80.9530632113
 31
0.0
  0
LINE
  5
150
330
1F
100
AcDbEntity
  8
0
  6
Continuous
 62
     8
370
    25
100
AcDbLine
 10
103.4236990891
 20
70.3351241029
 30
0.0
 11
103.4236990891
 21
75.6440936571
 31
0.0
  0
LINE
  5
151
330
1F
100
AcDbEntity
  8
0
  6
Continuous
 62
     7
370
    18
100
AcDbLine
 10
60.7259461232
 20
83.1462750207
 30
0.0
 11
72.3561424867
 21
83.5097186571
 31
0.0
  0
LINE
  5
152
330
1F
100
AcDbEntity
  8
0
  6
Continuous
 62
     7
370
    18
100
AcDbLine
 10
60.7259461232
 20
68.1419122934
 30
0.0
 11
72.3561424867
 21
67.7784686571
 31
0.0
  0
LINE
  5
153
330
1F
100
AcDbEntity
  8
0
  6
Continuous
 62
     7
370
    18
100
AcDbLine
 10
72.3561424867
 20
67.1209061571
 30
0.0
 11
72.3561424867
 21
84.1672811571
 31
0.0
  0
LINE
  5
154
330
1F
100
AcDbEntity
  8
0
  6
CENTERX2
 62
     7
370
    18
100
AcDbLine
 10
104.8561424867
 20
75.6440936571
 30
0.0
 11
58.9978922254
 21
75.6440936571
 31
0.0
  0
ENDSEC
  0
SECTION
  2
OBJECTS
  0
DICTIONARY
  5
C
330
0
100
AcDbDictionary
281
     1
  3
ACAD_GROUP
350
D
  3
ACAD_LAYOUT
350
1A
  3
ACAD_MLINESTYLE
350
17
  3
ACAD_PLOTSETTINGS
350
19
  3
ACAD_PLOTSTYLENAME
350
E
  3
ACAD_SCALELIST
350
47
  0
DICTIONARY
  5
D
102
{ACAD_REACTORS
330
C
102
}
330
C
100
AcDbDictionary
281
     1
  0
DICTIONARY
  5
1A
102
{ACAD_REACTORS
330
C
102
}
330
C
100
AcDbDictionary
281
     1
  3
Layout1
350
1E
  3
Layout2
350
26
  3
Model
350
22
  0
DICTIONARY
  5
17
102
{ACAD_REACTORS
330
C
102
}
330
C
100
AcDbDictionary
281
     1
  3
Standard
350
18
  0
DICTIONARY
  5
19
102
{ACAD_REACTORS
330
C
102
}
330
C
100
AcDbDictionary
281
     1
  0
ACDBDICTIONARYWDFLT
  5
E
102
{ACAD_REACTORS
330
C
102
}
330
C
100
AcDbDictionary
281
     1
  3
Normal
350
F
100
AcDbDictionaryWithDefault
340
F
  0
DICTIONARY
  5
47
102
{ACAD_REACTORS
330
C
102
}
330
C
100
AcDbDictionary
281
     1
  3
A0
350
48
  3
A1
350
49
  3
A2
350
4A
  3
A3
350
4B
  3
A4
350
4C
  3
A5
350
4D
  3
A6
350
4E
  3
A7
350
4F
  3
A8
350
50
  3
A9
350
51
  3
B0
350
52
  3
B1
350
53
  3
B2
350
54
  3
B3
350
55
  3
B4
350
56
  3
B5
350
57
  3
B6
350
58
  3
B7
350
59
  3
B8
350
5A
  3
B9
350
5B
  3
C0
350
5C
  3
C1
350
5D
  3
C2
350
5E
  3
C3
350
5F
  3
C4
350
60
  3
C5
350
61
  3
C6
350
62
  3
C7
350
63
  3
C8
350
64
  3
C9
350
65
  3
D0
350
66
  3
D1
350
67
  3
D2
350
68
  0
LAYOUT
  5
1E
102
{ACAD_REACTORS
330
1A
102
}
330
1A
100
AcDbPlotSettings
  1

  2
none_device
  4

  6

 40
0.0
 41
0.0
 42
0.0
 43
0.0
 44
0.0
 45
0.0
 46
0.0
 47
0.0
 48
0.0
 49
0.0
140
0.0
141
0.0
142
1.0
143
1.0
 70
   688
 72
     1
 73
     0
 74
     5
  7

 75
    16
147
1.0
148
0.0
149
0.0
100
AcDbLayout
  1
Layout1
 70
     1
 71
     1
 10
0.0
 20
0.0
 11
420.0
 21
297.0
 12
0.0
 22
0.0
 32
0.0
 14
1.0000000000E+20
 24
1.0000000000E+20
 34
1.0000000000E+20
 15
-1.0000000000E+20
 25
-1.0000000000E+20
 35
-1.0000000000E+20
146
0.0
 13
0.0
 23
0.0
 33
0.0
 16
1.0
 26
0.0
 36
0.0
 17
0.0
 27
1.0
 37
0.0
 76
     0
330
1B
  0
LAYOUT
  5
26
102
{ACAD_REACTORS
330
1A
102
}
330
1A
100
AcDbPlotSettings
  1

  2
none_device
  4

  6

 40
0.0
 41
0.0
 42
0.0
 43
0.0
 44
0.0
 45
0.0
 46
0.0
 47
0.0
 48
0.0
 49
0.0
140
0.0
141
0.0
142
1.0
143
1.0
 70
   688
 72
     1
 73
     0
 74
     5
  7

 75
    16
147
1.0
148
0.0
149
0.0
100
AcDbLayout
  1
Layout2
 70
     1
 71
     2
 10
0.0
 20
0.0
 11
0.0
 21
0.0
 12
0.0
 22
0.0
 32
0.0
 14
0.0
 24
0.0
 34
0.0
 15
0.0
 25
0.0
 35
0.0
146
0.0
 13
0.0
 23
0.0
 33
0.0
 16
1.0
 26
0.0
 36
0.0
 17
0.0
 27
1.0
 37
0.0
 76
     0
330
23
  0
LAYOUT
  5
22
102
{ACAD_REACTORS
330
1A
102
}
330
1A
100
AcDbPlotSettings
  1

  2
none_device
  4
Letter_(8.50_x_11.00_Inches)
  6

 40
6.35
 41
6.35
 42
6.35000508
 43
6.35000508
 44
215.9
 45
279.4
 46
0.0
 47
0.0
 48
0.0
 49
0.0
140
0.0
141
0.0
142
1.0
143
1.0
 70
  1712
 72
     1
 73
     0
 74
     0
  7

 75
     0
147
1.0
148
0.0
149
0.0
100
AcDbLayout
  1
Model
 70
     1
 71
     0
 10
0.0
 20
0.0
 11
215.9
 21
139.7
 12
0.0
 22
0.0
 32
0.0
 14
0.0
 24
0.0
 34
0.0
 15
215.9
 25
139.7
 35
0.0
146
0.0
 13
0.0
 23
0.0
 33
0.0
 16
1.0
 26
0.0
 36
0.0
 17
0.0
 27
1.0
 37
0.0
 76
     0
330
1F
331
29
  0
MLINESTYLE
  5
18
102
{ACAD_REACTORS
330
17
102
}
330
17
100
AcDbMlineStyle
  2
Standard
 70
     0
  3

 62
   256
 51
90.0
 52
90.0
 71
     2
 49
0.5
 62
   256
  6
BYLAYER
 49
-0.5
 62
   256
  6
BYLAYER
  0
ACDBPLACEHOLDER
  5
F
102
{ACAD_REACTORS
330
E
102
}
330
E
  0
SCALE
  5
48
102
{ACAD_REACTORS
330
47
102
}
330
47
100
AcDbScale
 70
     0
300
1:1
140
1.0
141
1.0
290
     1
  0
SCALE
  5
49
102
{ACAD_REACTORS
330
47
102
}
330
47
100
AcDbScale
 70
     0
300
1:2
140
1.0
141
2.0
290
     0
  0
SCALE
  5
4A
102
{ACAD_REACTORS
330
47
102
}
330
47
100
AcDbScale
 70
     0
300
1:4
140
1.0
141
4.0
290
     0
  0
SCALE
  5
4B
102
{ACAD_REACTORS
330
47
102
}
330
47
100
AcDbScale
 70
     0
300
1:5
140
1.0
141
5.0
290
     0
  0
SCALE
  5
4C
102
{ACAD_REACTORS
330
47
102
}
330
47
100
AcDbScale
 70
     0
300
1:8
140
1.0
141
8.0
290
     0
  0
SCALE
  5
4D
102
{ACAD_REACTORS
330
47
102
}
330
47
100
AcDbScale
 70
     0
300
1:10
140
1.0
141
10.0
290
     0
  0
SCALE
  5
4E
102
{ACAD_REACTORS
330
47
102
}
330
47
100
AcDbScale
 70
     0
300
1:16
140
1.0
141
16.0
290
     0
  0
SCALE
  5
4F
102
{ACAD_REACTORS
330
47
102
}
330
47
100
AcDbScale
 70
     0
300
1:20
140
1.0
141
20.0
290
     0
  0
SCALE
  5
50
102
{ACAD_REACTORS
330
47
102
}
330
47
100
AcDbScale
 70
     0
300
1:30
140
1.0
141
30.0
290
     0
  0
SCALE
  5
51
102
{ACAD_REACTORS
330
47
102
}
330
47
100
AcDbScale
 70
     0
300
1:40
140
1.0
141
40.0
290
     0
  0
SCALE
  5
52
102
{ACAD_REACTORS
330
47
102
}
330
47
100
AcDbScale
 70
     0
300
1:50
140
1.0
141
50.0
290
     0
  0
SCALE
  5
53
102
{ACAD_REACTORS
330
47
102
}
330
47
100
AcDbScale
 70
     0
300
1:100
140
1.0
141
100.0
290
     0
  0
SCALE
  5
54
102
{ACAD_REACTORS
330
47
102
}
330
47
100
AcDbScale
 70
     0
300
2:1
140
2.0
141
1.0
290
     0
  0
SCALE
  5
55
102
{ACAD_REACTORS
330
47
102
}
330
47
100
AcDbScale
 70
     0
300
4:1
140
4.0
141
1.0
290
     0
  0
SCALE
  5
56
102
{ACAD_REACTORS
330
47
102
}
330
47
100
AcDbScale
 70
     0
300
8:1
140
8.0
141
1.0
290
     0
  0
SCALE
  5
57
102
{ACAD_REACTORS
330
47
102
}
330
47
100
AcDbScale
 70
     0
300
10:1
140
10.0
141
1.0
290
     0
  0
SCALE
  5
58
102
{ACAD_REACTORS
330
47
102
}
330
47
100
AcDbScale
 70
     0
300
100:1
140
100.0
141
1.0
290
     0
  0
SCALE
  5
59
102
{ACAD_REACTORS
330
47
102
}
330
47
100
AcDbScale
 70
     0
300
1/128" = 1'-0"
140
0.0078125
141
12.0
290
     0
  0
SCALE
  5
5A
102
{ACAD_REACTORS
330
47
102
}
330
47
100
AcDbScale
 70
     0
300
1/64" = 1'-0"
140
0.015625
141
12.0
290
     0
  0
SCALE
  5
5B
102
{ACAD_REACTORS
330
47
102
}
330
47
100
AcDbScale
 70
     0
300
1/32" = 1'-0"
140
0.03125
141
12.0
290
     0
  0
SCALE
  5
5C
102
{ACAD_REACTORS
330
47
102
}
330
47
100
AcDbScale
 70
     0
300
1/16" = 1'-0"
140
0.0625
141
12.0
290
     0
  0
SCALE
  5
5D
102
{ACAD_REACTORS
330
47
102
}
330
47
100
AcDbScale
 70
     0
300
3/32" = 1'-0"
140
0.09375
141
12.0
290
     0
  0
SCALE
  5
5E
102
{ACAD_REACTORS
330
47
102
}
330
47
100
AcDbScale
 70
     0
300
1/8" = 1'-0"
140
0.125
141
12.0
290
     0
  0
SCALE
  5
5F
102
{ACAD_REACTORS
330
47
102
}
330
47
100
AcDbScale
 70
     0
300
3/16" = 1'-0"
140
0.1875
141
12.0
290
     0
  0
SCALE
  5
60
102
{ACAD_REACTORS
330
47
102
}
330
47
100
AcDbScale
 70
     0
300
1/4" = 1'-0"
140
0.25
141
12.0
290
     0
  0
SCALE
  5
61
102
{ACAD_REACTORS
330
47
102
}
330
47
100
AcDbScale
 70
     0
300
3/8" = 1'-0"
140
0.375
141
12.0
290
     0
  0
SCALE
  5
62
102
{ACAD_REACTORS
330
47
102
}
330
47
100
AcDbScale
 70
     0
300
1/2" = 1'-0"
140
0.5
141
12.0
290
     0
  0
SCALE
  5
63
102
{ACAD_REACTORS
330
47
102
}
330
47
100
AcDbScale
 70
     0
300
3/4" = 1'-0"
140
0.75
141
12.0
290
     0
  0
SCALE
  5
64
102
{ACAD_REACTORS
330
47
102
}
330
47
100
AcDbScale
 70
     0
300
1" = 1'-0"
140
1.0
141
12.0
290
     0
  0
SCALE
  5
65
102
{ACAD_REACTORS
330
47
102
}
330
47
100
AcDbScale
 70
     0
300
1-1/2" = 1'-0"
140
1.5
141
12.0
290
     0
  0
SCALE
  5
66
102
{ACAD_REACTORS
330
47
102
}
330
47
100
AcDbScale
 70
     0
300
3" = 1'-0"
140
3.0
141
12.0
290
     0
  0
SCALE
  5
67
102
{ACAD_REACTORS
330
47
102
}
330
47
100
AcDbScale
 70
     0
300
6" = 1'-0"
140
6.0
141
12.0
290
     0
  0
SCALE
  5
68
102
{ACAD_REACTORS
330
47
102
}
330
47
100
AcDbScale
 70
     0
300
1'-0" = 1'-0"
140
12.0
141
12.0
290
     0
  0
ENDSEC
  0
EOF
