  0
SECTION
  2
HEADER
  9
$ACADVER
  1
AC1015
  9
$ACADMAINTVER
 70
     6
  9
$DWGCODEPAGE
  3
DOS932
  9
$INSBASE
 10
0.0
 20
0.0
 30
0.0
  9
$EXTMIN
 10
0.0
 20
0.0
 30
0.0
  9
$EXTMAX
 10
215.9
 20
139.7
 30
0.0
  9
$LIMMIN
 10
0.0
 20
0.0
  9
$LIMMAX
 10
215.9
 20
139.7
  9
$ORTHOMODE
 70
     0
  9
$REGENMODE
 70
     1
  9
$FILLMODE
 70
     1
  9
$QTEXTMODE
 70
     0
  9
$MIRRTEXT
 70
     1
  9
$LTSCALE
 40
0.5
  9
$ATTMODE
 70
     1
  9
$TEXTSIZE
 40
1.75
  9
$TRACEWID
 40
1.0
  9
$TEXTSTYLE
  7
Standard
  9
$CLAYER
  8
0
  9
$CELTYPE
  6
ByLayer
  9
$CECOLOR
 62
   256
  9
$CELTSCALE
 40
1.0
  9
$DISPSILH
 70
     0
  9
$DIMSCALE
 40
1.0
  9
$DIMASZ
 40
1.651
  9
$DIMEXO
 40
0.5
  9
$DIMDLI
 40
3.75
  9
$DIMRND
 40
0.0
  9
$DIMDLE
 40
0.0
  9
$DIMEXE
 40
0.5
  9
$DIMTP
 40
0.0
  9
$DIMTM
 40
0.0
  9
$DIMTXT
 40
1.75
  9
$DIMCEN
 40
2.5
  9
$DIMTSZ
 40
0.0
  9
$DIMTOL
 70
     0
  9
$DIMLIM
 70
     0
  9
$DIMTIH
 70
     1
  9
$DIMTOH
 70
     1
  9
$DIMSE1
 70
     0
  9
$DIMSE2
 70
     0
  9
$DIMTAD
 70
     1
  9
$DIMZIN
 70
     1
  9
$DIMBLK
  1

  9
$DIMASO
 70
     1
  9
$DIMSHO
 70
     1
  9
$DIMPOST
  1

  9
$DIMAPOST
  1

  9
$DIMALT
 70
     0
  9
$DIMALTD
 70
     3
  9
$DIMALTF
 40
0.0393700787
  9
$DIMLFAC
 40
1.0
  9
$DIMTOFL
 70
     1
  9
$DIMTVP
 40
0.0
  9
$DIMTIX
 70
     0
  9
$DIMSOXD
 70
     0
  9
$DIMSAH
 70
     0
  9
$DIMBLK1
  1

  9
$DIMBLK2
  1

  9
$DIMSTYLE
  2
ISO-25
  9
$DIMCLRD
 70
     0
  9
$DIMCLRE
 70
     0
  9
$DIMCLRT
 70
     0
  9
$DIMTFAC
 40
1.0
  9
$DIMGAP
 40
0.762
  9
$DIMJUST
 70
     0
  9
$DIMSD1
 70
     0
  9
$DIMSD2
 70
     0
  9
$DIMTOLJ
 70
     0
  9
$DIMTZIN
 70
     1
  9
$DIMALTZ
 70
     0
  9
$DIMALTTZ
 70
     0
  9
$DIMUPT
 70
     0
  9
$DIMDEC
 70
     2
  9
$DIMTDEC
 70
     2
  9
$DIMALTU
 70
     2
  9
$DIMALTTD
 70
     3
  9
$DIMTXSTY
  7
Standard
  9
$DIMAUNIT
 70
     0
  9
$DIMADEC
 70
     2
  9
$DIMALTRND
 40
0.0
  9
$DIMAZIN
 70
     0
  9
$DIMDSEP
 70
    44
  9
$DIMATFIT
 70
     3
  9
$DIMFRAC
 70
     0
  9
$DIMLDRBLK
  1

  9
$DIMLUNIT
 70
     2
  9
$DIMLWD
 70
    -2
  9
$DIMLWE
 70
    -2
  9
$DIMTMOVE
 70
     0
  9
$LUNITS
 70
     2
  9
$LUPREC
 70
     2
  9
$SKETCHINC
 40
1.0
  9
$FILLETRAD
 40
10.0
  9
$AUNITS
 70
     0
  9
$AUPREC
 70
     2
  9
$MENU
  1
.
  9
$ELEVATION
 40
0.0
  9
$PELEVATION
 40
0.0
  9
$THICKNESS
 40
0.0
  9
$LIMCHECK
 70
     0
  9
$CHAMFERA
 40
0.0
  9
$CHAMFERB
 40
0.0
  9
$CHAMFERC
 40
0.0
  9
$CHAMFERD
 40
0.0
  9
$SKPOLY
 70
     0
  9
$TDCREATE
 40
2460082.675204861
  9
$TDUCREATE
 40
2460082.300204861
  9
$TDUPDATE
 40
2460082.675205648
  9
$TDUUPDATE
 40
2460082.300205648
  9
$TDINDWG
 40
0.0000000116
  9
$TDUSRTIMER
 40
0.0000000116
  9
$USRTIMER
 70
     1
  9
$ANGBASE
 50
0.0
  9
$ANGDIR
 70
     0
  9
$PDMODE
 70
     0
  9
$PDSIZE
 40
-1.0
  9
$PLINEWID
 40
0.0
  9
$SPLFRAME
 70
     0
  9
$SPLINETYPE
 70
     6
  9
$SPLINESEGS
 70
     8
  9
$HANDSEED
  5
155
  9
$SURFTAB1
 70
     6
  9
$SURFTAB2
 70
     6
  9
$SURFTYPE
 70
     6
  9
$SURFU
 70
     6
  9
$SURFV
 70
     6
  9
$UCSBASE
  2

  9
$UCSNAME
  2

  9
$UCSORG
 10
0.0
 20
0.0
 30
0.0
  9
$UCSXDIR
 10
1.0
 20
0.0
 30
0.0
  9
$UCSYDIR
 10
0.0
 20
1.0
 30
0.0
  9
$UCSORTHOREF
  2

  9
$UCSORTHOVIEW
 70
     0
  9
$UCSORGTOP
 10
0.0
 20
0.0
 30
0.0
  9
$UCSORGBOTTOM
 10
0.0
 20
0.0
 30
0.0
  9
$UCSORGLEFT
 10
0.0
 20
0.0
 30
0.0
  9
$UCSORGRIGHT
 10
0.0
 20
0.0
 30
0.0
  9
$UCSORGFRONT
 10
0.0
 20
0.0
 30
0.0
  9
$UCSORGBACK
 10
0.0
 20
0.0
 30
0.0
  9
$PUCSBASE
  2

  9
$PUCSNAME
  2

  9
$PUCSORG
 10
0.0
 20
0.0
 30
0.0
  9
$PUCSXDIR
 10
1.0
 20
0.0
 30
0.0
  9
$PUCSYDIR
 10
0.0
 20
1.0
 30
0.0
  9
$PUCSORTHOREF
  2

  9
$PUCSORTHOVIEW
 70
     0
  9
$PUCSORGTOP
 10
0.0
 20
0.0
 30
0.0
  9
$PUCSORGBOTTOM
 10
0.0
 20
0.0
 30
0.0
  9
$PUCSORGLEFT
 10
0.0
 20
0.0
 30
0.0
  9
$PUCSORGRIGHT
 10
0.0
 20
0.0
 30
0.0
  9
$PUCSORGFRONT
 10
0.0
 20
0.0
 30
0.0
  9
$PUCSORGBACK
 10
0.0
 20
0.0
 30
0.0
  9
$USERI1
 70
     0
  9
$USERI2
 70
     0
  9
$USERI3
 70
     0
  9
$USERI4
 70
     0
  9
$USERI5
 70
     0
  9
$USERR1
 40
0.0
  9
$USERR2
 40
0.0
  9
$USERR3
 40
0.0
  9
$USERR4
 40
0.0
  9
$USERR5
 40
0.0
  9
$WORLDVIEW
 70
     1
  9
$SHADEDGE
 70
     3
  9
$SHADEDIF
 70
    70
  9
$TILEMODE
 70
     1
  9
$MAXACTVP
 70
    64
  9
$PINSBASE
 10
0.0
 20
0.0
 30
0.0
  9
$PLIMCHECK
 70
     0
  9
$PEXTMIN
 10
1.0000000000E+20
 20
1.0000000000E+20
 30
1.0000000000E+20
  9
$PEXTMAX
 10
-1.0000000000E+20
 20
-1.0000000000E+20
 30
-1.0000000000E+20
  9
$PLIMMIN
 10
0.0
 20
0.0
  9
$PLIMMAX
 10
420.0
 20
297.0
  9
$UNITMODE
 70
     0
  9
$VISRETAIN
 70
     1
  9
$PLINEGEN
 70
     0
  9
$PSLTSCALE
 70
     1
  9
$TREEDEPTH
 70
  3020
  9
$CMLSTYLE
  2
Standard
  9
$CMLJUST
 70
     0
  9
$CMLSCALE
 40
20.0
  9
$PROXYGRAPHICS
 70
     1
  9
$MEASUREMENT
 70
     1
  9
$CELWEIGHT
370
    -1
  9
$ENDCAPS
280
     0
  9
$JOINSTYLE
280
     0
  9
$LWDISPLAY
290
     1
  9
$INSUNITS
 70
     4
  9
$HYPERLINKBASE
  1

  9
$STYLESHEET
  1

  9
$XEDIT
290
     1
  9
$CEPSNTYPE
380
     0
  9
$PSTYLEMODE
290
     1
  9
$FINGERPRINTGUID
  2
{E6FE69B8-293A-4877-8DE7-2A3244923A3C}
  9
$VERSIONGUID
  2
{FAEB1C32-E019-11D5-929B-00C0DF256EC4}
  9
$EXTNAMES
290
     1
  9
$PSVPSCALE
 40
0.0
  9
$OLESTARTUP
290
     0
  0
ENDSEC
  0
SECTION
  2
CLASSES
  0
CLASS
  1
ACDBDICTIONARYWDFLT
  2
AcDbDictionaryWithDefault
  3
ObjectDBX Classes
 90
        0
280
     0
281
     0
  0
CLASS
  1
VISUALSTYLE
  2
AcDbVisualStyle
  3
ObjectDBX Classes
 90
     4095
280
     0
281
     0
  0
CLASS
  1
MATERIAL
  2
AcDbMaterial
  3
ObjectDBX Classes
 90
     1153
280
     0
281
     0
  0
CLASS
  1
SCALE
  2
AcDbScale
  3
ObjectDBX Classes
 90
     1153
280
     0
281
     0
  0
CLASS
  1
TABLESTYLE
  2
AcDbTableStyle
  3
ObjectDBX Classes
 90
     4095
280
     0
281
     0
  0
CLASS
  1
MLEADERSTYLE
  2
AcDbMLeaderStyle
  3
ACDB_MLEADERSTYLE_CLASS
 90
     4095
280
     0
281
     0
  0
CLASS
  1
SUN
  2
AcDbSun
  3
SCENEOE
 90
     1153
280
     0
281
     0
  0
CLASS
  1
ACDBPLACEHOLDER
  2
AcDbPlaceHolder
  3
ObjectDBX Classes
 90
        0
280
     0
281
     0
  0
CLASS
  1
LAYOUT
  2
AcDbLayout
  3
ObjectDBX Classes
 90
        0
280
     0
281
     0
  0
ENDSEC
  0
SECTION
  2
TABLES
  0
TABLE
  2
VPORT
  5
8
330
0
100
AcDbSymbolTable
 70
     1
  0
VPORT
  5
29
330
8
100
AcDbSymbolTableRecord
100
AcDbViewportTableRecord
  2
*Active
 70
     0
 10
0.0
 20
0.0
 11
1.0
 21
1.0
 12
107.95
 22
69.85
 13
0.0
 23
0.0
 14
10.0
 24
10.0
 15
10.0
 25
10.0
 16
0.0
 26
0.0
 36
1.0
 17
0.0
 27
0.0
 37
0.0
 40
139.7
 41
1.5454545455
 42
50.0
 43
0.0
 44
0.0
 50
0.0
 51
0.0
 71
     0
 72
  2000
 73
     1
 74
     3
 75
     0
 76
     0
 77
     0
 78
     0
281
     0
 65
     1
110
0.0
120
0.0
130
0.0
111
1.0
121
0.0
131
0.0
112
0.0
122
1.0
132
0.0
 79
     0
146
0.0
  0
ENDTAB
  0
TABLE
  2
LTYPE
  5
5
330
0
100
AcDbSymbolTable
 70
     6
  0
LTYPE
  5
14
330
5
100
AcDbSymbolTableRecord
100
AcDbLinetypeTableRecord
  2
ByBlock
 70
     0
  3

 72
    65
 73
     0
 40
0.0
  0
LTYPE
  5
15
330
5
100
AcDbSymbolTableRecord
100
AcDbLinetypeTableRecord
  2
ByLayer
 70
     0
  3

 72
    65
 73
     0
 40
0.0
  0
LTYPE
  5
16
330
5
100
AcDbSymbolTableRecord
100
AcDbLinetypeTableRecord
  2
Continuous
 70
     0
  3
Solid line
 72
    65
 73
     0
 40
0.0
  0
LTYPE
  5
6E
330
5
100
AcDbSymbolTableRecord
100
AcDbLinetypeTableRecord
  2
HIDDEN
 70
     0
  3
Hidden __ __ __ __ __ __ __ __ __ __ __ __ __ __
 72
    65
 73
     2
 40
1.905
 49
1.27
 74
     0
 49
-0.635
 74
     0
  0
LTYPE
  5
6F
330
5
100
AcDbSymbolTableRecord
100
AcDbLinetypeTableRecord
  2
PHANTOM
 70
     0
  3
Phantom ______  __  __  ______  __  __  ______
 72
    65
 73
     6
 40
12.7
 49
6.35
 74
     0
 49
-1.27
 74
     0
 49
1.27
 74
     0
 49
-1.27
 74
     0
 49
1.27
 74
     0
 49
-1.27
 74
     0
  0
LTYPE
  5
70
330
5
100
AcDbSymbolTableRecord
100
AcDbLinetypeTableRecord
  2
CENTER
 70
     0
  3
Center ____ _ ____ _ ____ _ ____ _ ____ _ ____
 72
    65
 73
     4
 40
10.16
 49
6.35
 74
     0
 49
-1.27
 74
     0
 49
1.27
 74
     0
 49
-1.27
 74
     0
  0
LTYPE
  5
71
330
5
100
AcDbSymbolTableRecord
100
AcDbLinetypeTableRecord
  2
CENTERX2
 70
     0
  3
Center (2x) ________  __  ________  __  _____
 72
    65
 73
     4
 40
20.32
 49
12.7
 74
     0
 49
-2.54
 74
     0
 49
2.54
 74
     0
 49
-2.54
 74
     0
  0
LTYPE
  5
72
330
5
100
AcDbSymbolTableRecord
100
AcDbLinetypeTableRecord
  2
DOT2
 70
     0
  3
Dot (.5x) ........................................
 72
    65
 73
     2
 40
0.635
 49
0.0
 74
     0
 49
-0.635
 74
     0
  0
ENDTAB
  0
TABLE
  2
LAYER
  5
2
330
0
100
AcDbSymbolTable
 70
     1
  0
LAYER
  5
10
330
2
100
AcDbSymbolTableRecord
100
AcDbLayerTableRecord
  2
0
 70
     0
 62
     7
  6
Continuous
370
    -3
390
F
  0
ENDTAB
  0
TABLE
  2
STYLE
  5
3
330
0
100
AcDbSymbolTable
 70
     2
  0
STYLE
  5
11
330
3
100
AcDbSymbolTableRecord
100
AcDbTextStyleTableRecord
  2
Standard
 70
     0
 40
0.0
 41
1.0
 50
0.0
 71
     0
 42
1.75
  3
txt
  4
bigfont
  0
STYLE
  5
73
330
3
100
AcDbSymbolTableRecord
100
AcDbTextStyleTableRecord
  2
SLDTEXTSTYLE0
 70
     0
 40
0.0
 41
0.7
 50
0.0
 71
     0
 42
1.75
  3
TXT
  4
bigfont
  0
ENDTAB
  0
TABLE
  2
VIEW
  5
6
330
0
100
AcDbSymbolTable
 70
     0
  0
ENDTAB
  0
TABLE
  2
UCS
  5
7
330
0
100
AcDbSymbolTable
 70
     0
  0
ENDTAB
  0
TABLE
  2
APPID
  5
9
330
0
100
AcDbSymbolTable
 70
     1
  0
APPID
  5
12
330
9
100
AcDbSymbolTableRecord
100
AcDbRegAppTableRecord
  2
ACAD
 70
     0
  0
ENDTAB
  0
TABLE
  2
DIMSTYLE
  5
A
330
0
100
AcDbSymbolTable
 70
     1
100
AcDbDimStyleTable
  0
DIMSTYLE
105
27
330
A
100
AcDbSymbolTableRecord
100
AcDbDimStyleTableRecord
  2
ISO-25
 70
     0
 41
2.5
 42
0.625
 43
3.75
 44
1.25
 73
     0
 74
     0
 77
     1
 78
     8
140
2.5
141
2.5
143
0.0393700787
147
0.625
171
     3
172
     1
178
     0
271
     2
272
     2
274
     3
278
    44
283
     0
284
     8
340
11
  0
ENDTAB
  0
TABLE
  2
BLOCK_RECORD
  5
1
330
0
100
AcDbSymbolTable
 70
     3
  0
BLOCK_RECORD
  5
1F
330
1
100
AcDbSymbolTableRecord
100
AcDbBlockTableRecord
  2
*Model_Space
340
22
  0
BLOCK_RECORD
  5
1B
330
1
100
AcDbSymbolTableRecord
100
AcDbBlockTableRecord
  2
*Paper_Space
340
1E
  0
BLOCK_RECORD
  5
23
330
1
100
AcDbSymbolTableRecord
100
AcDbBlockTableRecord
  2
*Paper_Space0
340
26
  0
BLOCK_RECORD
  5
F2
330
1
100
AcDbSymbolTableRecord
100
AcDbBlockTableRecord
  2
SW_CENTERMARKSYMBOL_0
340
0
102
{BLKREFS
331
FD
102
}
  0
BLOCK_RECORD
  5
FE
330
1
100
AcDbSymbolTableRecord
100
AcDbBlockTableRecord
  2
SW_CENTERMARKSYMBOL_1
340
0
102
{BLKREFS
331
109
102
}
  0
ENDTAB
  0
ENDSEC
  0
SECTION
  2
BLOCKS
  0
BLOCK
  5
20
330
1F
100
AcDbEntity
  8
0
100
AcDbBlockBegin
  2
*Model_Space
 70
     0
 10
0.0
 20
0.0
 30
0.0
  3
*Model_Space
  1

  0
ENDBLK
  5
21
330
1F
100
AcDbEntity
  8
0
100
AcDbBlockEnd
  0
BLOCK
  5
1C
330
1B
100
AcDbEntity
 67
     1
  8
0
100
AcDbBlockBegin
  2
*Paper_Space
 70
     0
 10
0.0
 20
0.0
 30
0.0
  3
*Paper_Space
  1

  0
ENDBLK
  5
1D
330
1B
100
AcDbEntity
 67
     1
  8
0
100
AcDbBlockEnd
  0
BLOCK
  5
24
330
23
100
AcDbEntity
  8
0
100
AcDbBlockBegin
  2
*Paper_Space0
 70
     0
 10
0.0
 20
0.0
 30
0.0
  3
*Paper_Space0
  1

  0
ENDBLK
  5
25
330
23
100
AcDbEntity
  8
0
100
AcDbBlockEnd
  0
BLOCK
  5
F3
330
F2
100
AcDbEntity
  8
0
100
AcDbBlockBegin
  2
SW_CENTERMARKSYMBOL_0
 70
     0
 10
0.0
 20
0.0
 30
0.0
  3
SW_CENTERMARKSYMBOL_0
  1

  0
LINE
  5
F5
330
F2
100
AcDbEntity
  8
0
  6
Continuous
 62
     0
370
    18
100
AcDbLine
 10
0.0
 20
0.0
 30
0.0
 11
0.0
 21
2.5
 31
0.0
  0
LINE
  5
F6
330
F2
100
AcDbEntity
  8
0
  6
Continuous
 62
     0
370
    18
100
AcDbLine
 10
0.0
 20
0.0
 30
0.0
 11
-2.5
 21
0.0
 31
0.0
  0
LINE
  5
F7
330
F2
100
AcDbEntity
  8
0
  6
Continuous
 62
     0
370
    18
100
AcDbLine
 10
0.0
 20
0.0
 30
0.0
 11
0.0
 21
-2.5
 31
0.0
  0
LINE
  5
F8
330
F2
100
AcDbEntity
  8
0
  6
Continuous
 62
     0
370
    18
100
AcDbLine
 10
0.0
 20
0.0
 30
0.0
 11
2.5
 21
0.0
 31
0.0
  0
LINE
  5
F9
330
F2
100
AcDbEntity
  8
0
  6
Continuous
 62
     0
370
    18
100
AcDbLine
 10
0.0
 20
5.0
 30
0.0
 11
0.0
 21
5.75
 31
0.0
  0
LINE
  5
FA
330
F2
100
AcDbEntity
  8
0
  6
Continuous
 62
     0
370
    18
100
AcDbLine
 10
-5.0
 20
0.0
 30
0.0
 11
-5.75
 21
0.0
 31
0.0
  0
LINE
  5
FB
330
F2
100
AcDbEntity
  8
0
  6
Continuous
 62
     0
370
    18
100
AcDbLine
 10
0.0
 20
-5.0
 30
0.0
 11
0.0
 21
-5.75
 31
0.0
  0
LINE
  5
FC
330
F2
100
AcDbEntity
  8
0
  6
Continuous
 62
     0
370
    18
100
AcDbLine
 10
5.0
 20
0.0
 30
0.0
 11
5.75
 21
0.0
 31
0.0
  0
ENDBLK
  5
F4
330
F2
100
AcDbEntity
  8
0
100
AcDbBlockEnd
  0
BLOCK
  5
FF
330
FE
100
AcDbEntity
  8
0
100
AcDbBlockBegin
  2
SW_CENTERMARKSYMBOL_1
 70
     0
 10
0.0
 20
0.0
 30
0.0
  3
SW_CENTERMARKSYMBOL_1
  1

  0
LINE
  5
101
330
FE
100
AcDbEntity
  8
0
  6
Continuous
 62
     0
370
    18
100
AcDbLine
 10
0.0
 20
0.0
 30
0.0
 11
0.0
 21
2.5
 31
0.0
  0
LINE
  5
102
330
FE
100
AcDbEntity
  8
0
  6
Continuous
 62
     0
370
    18
100
AcDbLine
 10
0.0
 20
0.0
 30
0.0
 11
-2.5
 21
0.0
 31
0.0
  0
LINE
  5
103
330
FE
100
AcDbEntity
  8
0
  6
Continuous
 62
     0
370
    18
100
AcDbLine
 10
0.0
 20
0.0
 30
0.0
 11
0.0
 21
-2.5
 31
0.0
  0
LINE
  5
104
330
FE
100
AcDbEntity
  8
0
  6
Continuous
 62
     0
370
    18
100
AcDbLine
 10
0.0
 20
0.0
 30
0.0
 11
2.5
 21
0.0
 31
0.0
  0
LINE
  5
105
330
FE
100
AcDbEntity
  8
0
  6
Continuous
 62
     0
370
    18
100
AcDbLine
 10
0.0
 20
5.0
 30
0.0
 11
0.0
 21
10.75
 31
0.0
  0
LINE
  5
106
330
FE
100
AcDbEntity
  8
0
  6
Continuous
 62
     0
370
    18
100
AcDbLine
 10
-5.0
 20
0.0
 30
0.0
 11
-10.75
 21
0.0
 31
0.0
  0
LINE
  5
107
330
FE
100
AcDbEntity
  8
0
  6
Continuous
 62
     0
370
    18
100
AcDbLine
 10
0.0
 20
-5.0
 30
0.0
 11
0.0
 21
-10.75
 31
0.0
  0
LINE
  5
108
330
FE
100
AcDbEntity
  8
0
  6
Continuous
 62
     0
370
    18
100
AcDbLine
 10
5.0
 20
0.0
 30
0.0
 11
10.75
 21
0.0
 31
0.0
  0
ENDBLK
  5
100
330
FE
100
AcDbEntity
  8
0
100
AcDbBlockEnd
  0
ENDSEC
  0
SECTION
  2
ENTITIES
  0
MTEXT
  5
74
330
1F
100
AcDbEntity
  8
0
  6
Continuous
 62
     7
370
     0
100
AcDbMText
 10
100.1571216522
 20
65.1297281097
 30
0.0
 40
2.1166666667
 41
0.0
 71
     1
 72
     1
  1
エースニップル　HN-8310
  7
SLDTEXTSTYLE0
 73
     1
 44
1.0
  0
LINE
  5
75
330
1F
100
AcDbEntity
  8
0
  6
Continuous
 62
     7
370
    25
100
AcDbLine
 10
72.7574612717
 20
55.4085662572
 30
0.0
 11
61.8313707053
 21
55.067125927
 31
0.0
  0
LINE
  5
76
330
1F
100
AcDbEntity
  8
0
  6
Continuous
 62
     7
370
    25
100
AcDbLine
 10
61.8313707053
 20
38.6723815874
 30
0.0
 11
72.7574612717
 21
38.3309412572
 31
0.0
  0
LINE
  5
77
330
1F
100
AcDbEntity
  8
0
  6
Continuous
 62
     7
370
    25
100
AcDbLine
 10
77.8539343258
 20
37.054799181
 30
0.0
 11
78.7574612717
 21
38.6197537572
 31
0.0
  0
LINE
  5
78
330
1F
100
AcDbEntity
  8
0
  6
Continuous
 62
     7
370
    25
100
AcDbLine
 10
78.7574612717
 20
55.1197537572
 30
0.0
 11
77.8539343258
 21
56.6847083334
 31
0.0
  0
LINE
  5
79
330
1F
100
AcDbEntity
  8
0
  6
Continuous
 62
     7
370
    25
100
AcDbLine
 10
61.8313707053
 20
55.067125927
 30
0.0
 11
59.7574612717
 21
53.8697537572
 31
0.0
  0
LINE
  5
7A
330
1F
100
AcDbEntity
  8
0
  6
Continuous
 62
     7
370
    25
100
AcDbLine
 10
59.7574612717
 20
39.8697537572
 30
0.0
 11
61.8313707053
 21
38.6723815874
 31
0.0
  0
LINE
  5
7B
330
1F
100
AcDbEntity
  8
0
  6
Continuous
 62
     7
370
    25
100
AcDbLine
 10
89.2574612717
 20
41.6197537572
 30
0.0
 11
93.7574612717
 21
42.3697537572
 31
0.0
  0
LINE
  5
7C
330
1F
100
AcDbEntity
  8
0
  6
Continuous
 62
     7
370
    25
100
AcDbLine
 10
93.7574612717
 20
51.3697537572
 30
0.0
 11
89.2574612717
 21
52.1197537572
 31
0.0
  0
LINE
  5
7D
330
1F
100
AcDbEntity
  8
0
  6
Continuous
 62
     7
370
    25
100
AcDbLine
 10
93.7574612717
 20
41.6197537572
 30
0.0
 11
98.2574612717
 21
42.3697537572
 31
0.0
  0
LINE
  5
7E
330
1F
100
AcDbEntity
  8
0
  6
Continuous
 62
     7
370
    25
100
AcDbLine
 10
98.2574612717
 20
51.3697537572
 30
0.0
 11
93.7574612717
 21
52.1197537572
 31
0.0
  0
LINE
  5
7F
330
1F
100
AcDbEntity
  8
0
  6
Continuous
 62
     7
370
    25
100
AcDbLine
 10
98.2574612717
 20
41.6197537572
 30
0.0
 11
103.325017874
 21
42.310784203
 31
0.0
  0
LINE
  5
80
330
1F
100
AcDbEntity
  8
0
  6
Continuous
 62
     7
370
    25
100
AcDbLine
 10
103.325017874
 20
51.4287233114
 30
0.0
 11
98.2574612717
 21
52.1197537572
 31
0.0
  0
LINE
  5
81
330
1F
100
AcDbEntity
  8
0
  6
Continuous
 62
     7
370
    25
100
AcDbLine
 10
84.7574612717
 20
52.1197537572
 30
0.0
 11
78.7574612717
 21
52.1197537572
 31
0.0
  0
LINE
  5
82
330
1F
100
AcDbEntity
  8
0
  6
Continuous
 62
     7
370
    25
100
AcDbLine
 10
78.7574612717
 20
41.6197537572
 30
0.0
 11
84.7574612717
 21
41.6197537572
 31
0.0
  0
LINE
  5
83
330
1F
100
AcDbEntity
  8
0
  6
Continuous
 62
     7
370
    25
100
AcDbLine
 10
84.7574612717
 20
41.6197537572
 30
0.0
 11
89.2574612717
 21
42.3697537572
 31
0.0
  0
LINE
  5
84
330
1F
100
AcDbEntity
  8
0
  6
Continuous
 62
     7
370
    25
100
AcDbLine
 10
89.2574612717
 20
51.3697537572
 30
0.0
 11
84.7574612717
 21
52.1197537572
 31
0.0
  0
ARC
  5
85
330
1F
100
AcDbEntity
  8
0
  6
Continuous
 62
     7
370
    25
100
AcDbCircle
 10
103.2574612717
 20
50.9333082274
 30
0.0
 40
0.5000000000000003
100
AcDbArc
 50
0.0
 51
82.2348339816
  0
ARC
  5
86
330
1F
100
AcDbEntity
  8
0
  6
Continuous
 62
     7
370
    25
100
AcDbCircle
 10
103.2574612717
 20
42.806199287
 30
0.0
 40
0.5000000000000003
100
AcDbArc
 50
277.7651660184
 51
0.0
  0
LINE
  5
87
330
1F
100
AcDbEntity
  8
0
  6
Continuous
 62
     7
370
    25
100
AcDbLine
 10
73.4942422429
 20
56.6847083334
 30
0.0
 11
72.7574612717
 21
55.4085662572
 31
0.0
  0
LINE
  5
88
330
1F
100
AcDbEntity
  8
0
  6
Continuous
 62
     7
370
    25
100
AcDbLine
 10
72.7574612717
 20
38.3309412572
 30
0.0
 11
73.4942422429
 21
37.054799181
 31
0.0
  0
LINE
  5
89
330
1F
100
AcDbEntity
  8
0
  6
Continuous
 62
     7
370
    25
100
AcDbLine
 10
75.7574612717
 20
37.354799181
 30
0.0
 11
75.8378460294
 21
37.054799181
 31
0.0
  0
LINE
  5
8A
330
1F
100
AcDbEntity
  8
0
  6
Continuous
 62
     7
370
    25
100
AcDbLine
 10
75.6770765139
 20
37.054799181
 30
0.0
 11
75.7574612717
 21
37.354799181
 31
0.0
  0
LINE
  5
8B
330
1F
100
AcDbEntity
  8
0
  6
Continuous
 62
     7
370
    25
100
AcDbLine
 10
75.8378460294
 20
56.6847083334
 30
0.0
 11
75.7574612717
 21
56.3847083334
 31
0.0
  0
LINE
  5
8C
330
1F
100
AcDbEntity
  8
0
  6
Continuous
 62
     7
370
    25
100
AcDbLine
 10
75.7574612717
 20
56.3847083334
 30
0.0
 11
75.6770765139
 21
56.6847083334
 31
0.0
  0
LINE
  5
8D
330
1F
100
AcDbEntity
  8
0
  6
Continuous
 62
     7
370
    25
100
AcDbLine
 10
61.8313707053
 20
55.067125927
 30
0.0
 11
61.8313707053
 21
38.6723815874
 31
0.0
  0
LINE
  5
8E
330
1F
100
AcDbEntity
  8
0
  6
Continuous
 62
     7
370
    25
100
AcDbLine
 10
72.7574612717
 20
39.9151454093
 30
0.0
 11
72.7574612717
 21
46.0565385888
 31
0.0
  0
LINE
  5
8F
330
1F
100
AcDbEntity
  8
0
  6
Continuous
 62
     7
370
    25
100
AcDbLine
 10
72.7574612717
 20
39.1019302408
 30
0.0
 11
72.7574612717
 21
39.9151454093
 31
0.0
  0
LINE
  5
90
330
1F
100
AcDbEntity
  8
0
  6
Continuous
 62
     7
370
    25
100
AcDbLine
 10
72.7574612717
 20
38.3309412572
 30
0.0
 11
72.7574612717
 21
39.1019302408
 31
0.0
  0
LINE
  5
91
330
1F
100
AcDbEntity
  8
0
  6
Continuous
 62
     7
370
    25
100
AcDbLine
 10
72.7574612717
 20
54.6375772736
 30
0.0
 11
72.7574612717
 21
55.4085662572
 31
0.0
  0
LINE
  5
92
330
1F
100
AcDbEntity
  8
0
  6
Continuous
 62
     7
370
    25
100
AcDbLine
 10
72.7574612717
 20
53.8243621052
 30
0.0
 11
72.7574612717
 21
54.6375772736
 31
0.0
  0
LINE
  5
93
330
1F
100
AcDbEntity
  8
0
  6
Continuous
 62
     7
370
    25
100
AcDbLine
 10
72.7574612717
 20
47.6829689257
 30
0.0
 11
72.7574612717
 21
53.8243621052
 31
0.0
  0
LINE
  5
94
330
1F
100
AcDbEntity
  8
0
  6
Continuous
 62
     7
370
    25
100
AcDbLine
 10
72.7574612717
 20
46.0565385888
 30
0.0
 11
72.7574612717
 21
47.6829689257
 31
0.0
  0
LINE
  5
95
330
1F
100
AcDbEntity
  8
0
  6
Continuous
 62
     7
370
    25
100
AcDbLine
 10
75.6770765139
 20
37.054799181
 30
0.0
 11
73.4942422429
 21
37.054799181
 31
0.0
  0
SPLINE
  5
96
330
1F
100
AcDbEntity
  8
0
  6
Continuous
 62
     7
370
    25
100
AcDbSpline
210
0.0
220
0.0
230
1.0
 70
     8
 71
     3
 72
    10
 73
     6
 74
     0
 42
0.000000001
 43
0.00000001
 40
0.0
 40
0.0
 40
0.0
 40
0.0
 40
0.5
 40
0.5
 40
1.0
 40
1.0
 40
1.0
 40
1.0
 10
73.49424224290821
 20
37.05479918100181
 30
0.0
 10
73.30030714282714
 20
37.3907046277132
 30
0.0
 10
73.13393529103176
 20
37.73089519138889
 30
0.0
 10
72.88168850316058
 20
38.41310805801958
 30
0.0
 10
72.79547327002476
 20
38.75627484571306
 30
0.0
 10
72.75746127167629
 20
39.10193024084529
 30
0.0
  0
SPLINE
  5
97
330
1F
100
AcDbEntity
  8
0
  6
Continuous
 62
     7
370
    25
100
AcDbSpline
210
0.0
220
0.0
230
1.0
 70
     8
 71
     3
 72
    12
 73
     8
 74
     0
 42
0.000000001
 43
0.00000001
 40
0.0
 40
0.0
 40
0.0
 40
0.0
 40
0.2499999999999999
 40
0.2499999999999999
 40
0.4999999999999998
 40
0.4999999999999998
 40
1.0
 40
1.0
 40
1.0
 40
1.0
 10
72.75746127167629
 20
39.91514540927015
 30
0.0
 10
72.77665512555645
 20
40.08968133043477
 30
0.0
 10
72.80837114883232
 20
40.26508871333397
 30
0.0
 10
72.89384886361321
 20
40.61147463709575
 30
0.0
 10
72.94762618116377
 20
40.78318395253632
 30
0.0
 10
73.13767341929477
 20
41.29445236315595
 30
0.0
 10
73.30250218625534
 20
41.6301729491447
 30
0.0
 10
73.49424224290821
 20
41.96227646911363
 30
0.0
  0
LINE
  5
98
330
1F
100
AcDbEntity
  8
0
  6
Continuous
 62
     7
370
    25
100
AcDbLine
 10
75.6770765139
 20
41.9622764691
 30
0.0
 11
73.4942422429
 21
41.9622764691
 31
0.0
  0
SPLINE
  5
99
330
1F
100
AcDbEntity
  8
0
  6
Continuous
 62
     7
370
    25
100
AcDbSpline
210
0.0
220
0.0
230
1.0
 70
     8
 71
     3
 72
     8
 73
     4
 74
     0
 42
0.000000001
 43
0.00000001
 40
0.0
 40
0.0
 40
0.0
 40
0.0
 40
1.0
 40
1.0
 40
1.0
 40
1.0
 10
75.75746127167629
 20
41.64654861710248
 30
0.0
 10
75.73208663851712
 20
41.75191065324115
 30
0.0
 10
75.70524523731034
 20
41.85714936233714
 30
0.0
 10
75.67707651394696
 20
41.96227646911363
 30
0.0
  0
SPLINE
  5
9A
330
1F
100
AcDbEntity
  8
0
  6
Continuous
 62
     7
370
    25
100
AcDbSpline
210
0.0
220
0.0
230
1.0
 70
     8
 71
     3
 72
     8
 73
     4
 74
     0
 42
0.000000001
 43
0.00000001
 40
0.0
 40
0.0
 40
0.0
 40
0.0
 40
1.0
 40
1.0
 40
1.0
 40
1.0
 10
75.83784602940563
 20
41.96227646911364
 30
0.0
 10
75.80966472358247
 20
41.85710240395795
 30
0.0
 10
75.78282419758774
 20
41.75186204172228
 30
0.0
 10
75.75746127167629
 20
41.64654861710248
 30
0.0
  0
LINE
  5
9B
330
1F
100
AcDbEntity
  8
0
  6
Continuous
 62
     7
370
    25
100
AcDbLine
 10
77.8539343258
 20
41.9622764691
 30
0.0
 11
75.8378460294
 21
41.9622764691
 31
0.0
  0
SPLINE
  5
9C
330
1F
100
AcDbEntity
  8
0
  6
Continuous
 62
     7
370
    25
100
AcDbSpline
210
0.0
220
0.0
230
1.0
 70
     8
 71
     3
 72
    16
 73
    12
 74
     0
 42
0.000000001
 43
0.00000001
 40
0.0
 40
0.0
 40
0.0
 40
0.0
 40
0.2500000000000001
 40
0.2500000000000001
 40
0.5000000000000001
 40
0.5000000000000001
 40
0.6250000000000001
 40
0.6250000000000001
 40
0.7500000000000002
 40
0.7500000000000002
 40
1.0
 40
1.0
 40
1.0
 40
1.0
 10
77.85393432582445
 20
41.96227646911366
 30
0.0
 10
78.08524907950708
 20
41.56162756319507
 30
0.0
 10
78.27589437283753
 20
41.15805757351021
 30
0.0
 10
78.54000002924482
 20
40.34250078716913
 30
0.0
 10
78.61258922055879
 20
39.93045141860581
 30
0.0
 10
78.61338646664974
 20
39.30461405055621
 30
0.0
 10
78.5956412100263
 20
39.0950200670931
 30
0.0
 10
78.52644412649651
 20
38.68042104971686
 30
0.0
 10
78.47506252043422
 20
38.47451153769469
 30
0.0
 10
78.27665452169761
 20
37.86044893964152
 30
0.0
 10
78.08553741999364
 20
37.45594750729335
 30
0.0
 10
77.85393432582426
 20
37.05479918100179
 30
0.0
  0
LINE
  5
9D
330
1F
100
AcDbEntity
  8
0
  6
Continuous
 62
     7
370
    25
100
AcDbLine
 10
77.8539343258
 20
37.054799181
 30
0.0
 11
75.8378460294
 21
37.054799181
 31
0.0
  0
SPLINE
  5
9E
330
1F
100
AcDbEntity
  8
0
  6
Continuous
 62
     7
370
    25
100
AcDbSpline
210
0.0
220
0.0
230
1.0
 70
     8
 71
     3
 72
     8
 73
     4
 74
     0
 42
0.000000001
 43
0.00000001
 40
0.0
 40
0.0
 40
0.0
 40
0.0
 40
1.0
 40
1.0
 40
1.0
 40
1.0
 10
75.75746127167629
 20
37.37052703301298
 30
0.0
 10
75.78283590483548
 20
37.26516499687429
 30
0.0
 10
75.80967730604225
 20
37.1599262877783
 30
0.0
 10
75.83784602940563
 20
37.05479918100181
 30
0.0
  0
SPLINE
  5
9F
330
1F
100
AcDbEntity
  8
0
  6
Continuous
 62
     7
370
    25
100
AcDbSpline
210
0.0
220
0.0
230
1.0
 70
     8
 71
     3
 72
     8
 73
     4
 74
     0
 42
0.000000001
 43
0.00000001
 40
0.0
 40
0.0
 40
0.0
 40
0.0
 40
1.0
 40
1.0
 40
1.0
 40
1.0
 10
75.67707651394696
 20
37.05479918100181
 30
0.0
 10
75.70525781977013
 20
37.15997324615751
 30
0.0
 10
75.73209834576485
 20
37.26521360839316
 30
0.0
 10
75.75746127167629
 20
37.37052703301298
 30
0.0
  0
SPLINE
  5
A0
330
1F
100
AcDbEntity
  8
0
  6
Continuous
 62
     7
370
    25
100
AcDbSpline
210
0.0
220
0.0
230
1.0
 70
     8
 71
     3
 72
    10
 73
     6
 74
     0
 42
0.000000001
 43
0.00000001
 40
0.0
 40
0.0
 40
0.0
 40
0.0
 40
0.5
 40
0.5
 40
1.0
 40
1.0
 40
1.0
 40
1.0
 10
73.49424224290821
 20
41.96227646911363
 30
0.0
 10
73.30113556760432
 20
42.63121761492773
 30
0.0
 10
73.13402522839407
 20
43.31376135779832
 30
0.0
 10
72.88121648807233
 20
44.68166838195221
 30
0.0
 10
72.79533138878017
 20
45.36780814262683
 30
0.0
 10
72.75746127167629
 20
46.0565385888006
 30
0.0
  0
SPLINE
  5
A1
330
1F
100
AcDbEntity
  8
0
  6
Continuous
 62
     7
370
    25
100
AcDbSpline
210
0.0
220
0.0
230
1.0
 70
     8
 71
     3
 72
    10
 73
     6
 74
     0
 42
0.000000001
 43
0.00000001
 40
0.0
 40
0.0
 40
0.0
 40
0.0
 40
0.5
 40
0.5
 40
1.0
 40
1.0
 40
1.0
 40
1.0
 10
72.75746127167629
 20
47.6829689256503
 30
0.0
 10
72.79550350230373
 20
48.37482953969652
 30
0.0
 10
72.88355652806767
 20
49.07387753926173
 30
0.0
 10
73.13761418182791
 20
50.44170860986636
 30
0.0
 10
73.30268076988874
 20
51.1136426372523
 30
0.0
 10
73.49424224290821
 20
51.77723104533727
 30
0.0
  0
LINE
  5
A2
330
1F
100
AcDbEntity
  8
0
  6
Continuous
 62
     7
370
    25
100
AcDbLine
 10
75.6770765139
 20
51.7772310453
 30
0.0
 11
73.4942422429
 21
51.7772310453
 31
0.0
  0
SPLINE
  5
A3
330
1F
100
AcDbEntity
  8
0
  6
Continuous
 62
     7
370
    25
100
AcDbSpline
210
0.0
220
0.0
230
1.0
 70
     8
 71
     3
 72
     8
 73
     4
 74
     0
 42
0.000000001
 43
0.00000001
 40
0.0
 40
0.0
 40
0.0
 40
0.0
 40
1.0
 40
1.0
 40
1.0
 40
1.0
 10
75.75746127167629
 20
51.14577534131494
 30
0.0
 10
75.73208724109197
 20
51.35649440949924
 30
0.0
 10
75.70524588437497
 20
51.5669720020281
 30
0.0
 10
75.67707651394696
 20
51.77723104533727
 30
0.0
  0
SPLINE
  5
A4
330
1F
100
AcDbEntity
  8
0
  6
Continuous
 62
     7
370
    25
100
AcDbSpline
210
0.0
220
0.0
230
1.0
 70
     8
 71
     3
 72
     8
 73
     4
 74
     0
 42
0.000000001
 43
0.00000001
 40
0.0
 40
0.0
 40
0.0
 40
0.0
 40
1.0
 40
1.0
 40
1.0
 40
1.0
 10
75.83784602940563
 20
51.77723104533727
 30
0.0
 10
75.80966287751347
 20
51.56686913577935
 30
0.0
 10
75.78282248171534
 20
51.35638794106312
 30
0.0
 10
75.75746127167629
 20
51.14577534131494
 30
0.0
  0
LINE
  5
A5
330
1F
100
AcDbEntity
  8
0
  6
Continuous
 62
     7
370
    25
100
AcDbLine
 10
77.8539343258
 20
51.7772310453
 30
0.0
 11
75.8378460294
 21
51.7772310453
 31
0.0
  0
SPLINE
  5
A6
330
1F
100
AcDbEntity
  8
0
  6
Continuous
 62
     7
370
    25
100
AcDbSpline
210
0.0
220
0.0
230
1.0
 70
     8
 71
     3
 72
    16
 73
    12
 74
     0
 42
0.000000001
 43
0.00000001
 40
0.0
 40
0.0
 40
0.0
 40
0.0
 40
0.25
 40
0.25
 40
0.5
 40
0.5
 40
0.625
 40
0.625
 40
0.75
 40
0.75
 40
1.0
 40
1.0
 40
1.0
 40
1.0
 10
77.85393432582406
 20
41.96227646911363
 30
0.0
 10
78.08478073028438
 20
42.76195187165339
 30
0.0
 10
78.27780171512218
 20
43.57902207559374
 30
0.0
 10
78.54181036817705
 20
45.21652949705163
 30
0.0
 10
78.61323666575737
 20
46.04085411946237
 30
0.0
 10
78.61306701911698
 20
47.28720947386086
 30
0.0
 10
78.59522264070789
 20
47.70547800805868
 30
0.0
 10
78.52496488151851
 20
48.53993930336879
 30
0.0
 10
78.47299289483553
 20
48.95282729862681
 30
0.0
 10
78.27360225369517
 20
50.18028222261303
 30
0.0
 10
78.08300245420062
 20
50.98371577185137
 30
0.0
 10
77.85393432582404
 20
51.77723104533727
 30
0.0
  0
SPLINE
  5
A7
330
1F
100
AcDbEntity
  8
0
  6
Continuous
 62
     7
370
    25
100
AcDbSpline
210
0.0
220
0.0
230
1.0
 70
     8
 71
     3
 72
     8
 73
     4
 74
     0
 42
0.000000001
 43
0.00000001
 40
0.0
 40
0.0
 40
0.0
 40
0.0
 40
1.0
 40
1.0
 40
1.0
 40
1.0
 10
75.75746127167629
 20
42.59373217313595
 30
0.0
 10
75.78283530226062
 20
42.38301310495166
 30
0.0
 10
75.80967665897761
 20
42.17253551242281
 30
0.0
 10
75.83784602940563
 20
41.96227646911364
 30
0.0
  0
SPLINE
  5
A8
330
1F
100
AcDbEntity
  8
0
  6
Continuous
 62
     7
370
    25
100
AcDbSpline
210
0.0
220
0.0
230
1.0
 70
     8
 71
     3
 72
     8
 73
     4
 74
     0
 42
0.000000001
 43
0.00000001
 40
0.0
 40
0.0
 40
0.0
 40
0.0
 40
1.0
 40
1.0
 40
1.0
 40
1.0
 10
75.67707651394696
 20
41.96227646911363
 30
0.0
 10
75.70525966583912
 20
42.17263837867155
 30
0.0
 10
75.73210006163725
 20
42.38311957338778
 30
0.0
 10
75.75746127167629
 20
42.59373217313595
 30
0.0
  0
LINE
  5
A9
330
1F
100
AcDbEntity
  8
0
  6
Continuous
 62
     7
370
    25
100
AcDbLine
 10
75.7114276178
 20
46.2724073568
 30
0.0
 11
76.3959228101
 21
45.8246910107
 31
0.0
  0
SPLINE
  5
AA
330
1F
100
AcDbEntity
  8
0
  6
Continuous
 62
     7
370
    25
100
AcDbSpline
210
0.0
220
0.0
230
1.0
 70
     8
 71
     3
 72
    19
 73
    15
 74
     0
 42
0.000000001
 43
0.00000001
 40
0.0
 40
0.0
 40
0.0
 40
0.0
 40
0.0978059775289525
 40
0.1996122522918966
 40
0.3052960258330041
 40
0.4158173591641854
 40
0.474240566618493
 40
0.5372869128296534
 40
0.6033858352934854
 40
0.6743111580696056
 40
0.749530467357482
 40
0.8286083142695116
 40
0.9120427387714447
 40
0.9999999999999999
 40
0.9999999999999999
 40
0.9999999999999999
 40
0.9999999999999999
 10
75.27573050244553
 20
46.44007562603773
 30
0.0
 10
75.29117255640885
 20
46.43953200533723
 30
0.0
 10
75.32268824951382
 20
46.43842252966754
 30
0.0
 10
75.3705577235762
 20
46.43180130669455
 30
0.0
 10
75.41934653675851
 20
46.41965717479551
 30
0.0
 10
75.46070610240453
 20
46.40651456982596
 30
0.0
 10
75.49495931620973
 20
46.39347313838093
 30
0.0
 10
75.52200817431678
 20
46.38138082306421
 30
0.0
 10
75.55057263699406
 20
46.36786014112474
 30
0.0
 10
75.58011223649966
 20
46.35201201900551
 30
0.0
 10
75.61147098317257
 20
46.33521173060581
 30
0.0
 10
75.64348756688926
 20
46.31558708725746
 30
0.0
 10
75.6773313321489
 20
46.29510847037713
 30
0.0
 10
75.6998639853506
 20
46.28010635770858
 30
0.0
 10
75.71142761783014
 20
46.27240735680697
 30
0.0
  0
SPLINE
  5
AB
330
1F
100
AcDbEntity
  8
0
  6
Continuous
 62
     7
370
    25
100
AcDbSpline
210
0.0
220
0.0
230
1.0
 70
     8
 71
     3
 72
    19
 73
    15
 74
     0
 42
0.000000001
 43
0.00000001
 40
0.0
 40
0.0
 40
0.0
 40
0.0
 40
0.0843261511037433
 40
0.1670353409858406
 40
0.2495407139852792
 40
0.3327066655796642
 40
0.4158726171740492
 40
0.4977774155681174
 40
0.5803136056784763
 40
0.6645325781316563
 40
0.7495711764063215
 40
0.8324741628544073
 40
0.9156738488962566
 40
1.0
 40
1.0
 40
1.0
 40
1.0
 10
74.81899973321475
 20
45.98574870296081
 30
0.0
 10
74.8196546768799
 20
46.00593300713255
 30
0.0
 10
74.82095200560894
 20
46.04591457970237
 30
0.0
 10
74.83250886031178
 20
46.10472857745071
 30
0.0
 10
74.85124038422593
 20
46.16124151466906
 30
0.0
 10
74.87704684827347
 20
46.21505615237449
 30
0.0
 10
74.90964180170496
 20
46.26491086135633
 30
0.0
 10
74.94888750509311
 20
46.30949929477988
 30
0.0
 10
74.99391658334251
 20
46.34866632012143
 30
0.0
 10
75.04486716918369
 20
46.38108968746135
 30
0.0
 10
75.0992643104215
 20
46.40751481984525
 30
0.0
 10
75.15650191916615
 20
46.42615284784218
 30
0.0
 10
75.2154280658286
 20
46.43820610919756
 30
0.0
 10
75.25553978480447
 20
46.4394496664785
 30
0.0
 10
75.27573050244553
 20
46.44007562603773
 30
0.0
  0
SPLINE
  5
AC
330
1F
100
AcDbEntity
  8
0
  6
Continuous
 62
     7
370
    25
100
AcDbSpline
210
0.0
220
0.0
230
1.0
 70
     8
 71
     3
 72
    19
 73
    15
 74
     0
 42
0.000000001
 43
0.00000001
 40
0.0
 40
0.0
 40
0.0
 40
0.0
 40
0.0859901205637198
 40
0.1691084375726415
 40
0.2505285789581879
 40
0.332255696176845
 40
0.4135763652356403
 40
0.4941261456201216
 40
0.576305934120417
 40
0.6607126719045473
 40
0.7461272722239103
 40
0.8300149859609743
 40
0.9144197259288509
 40
1.0
 40
1.0
 40
1.0
 40
1.0
 10
75.2784348293686
 20
45.51699870296081
 30
0.0
 10
75.25745600608248
 20
45.51778150096394
 30
0.0
 10
75.2161989871974
 20
45.5193209539427
 30
0.0
 10
75.15585723805565
 20
45.53052751777598
 30
0.0
 10
75.09883234283481
 20
45.54986754307215
 30
0.0
 10
75.04490020311184
 20
45.57574217775249
 30
0.0
 10
74.99562997764612
 20
45.60931248170516
 30
0.0
 10
74.95110290561583
 20
45.64909513756066
 30
0.0
 10
74.91229102121441
 20
45.69546620263513
 30
0.0
 10
74.87899592235667
 20
45.74732759987129
 30
0.0
 10
74.85254300823895
 20
45.80345773766831
 30
0.0
 10
74.8329858288979
 20
45.86231202319416
 30
0.0
 10
74.82129991721801
 20
45.92338740177587
 30
0.0
 10
74.81976998796597
 20
45.96486598729037
 30
0.0
 10
74.81899973321475
 20
45.98574870296081
 30
0.0
  0
SPLINE
  5
AD
330
1F
100
AcDbEntity
  8
0
  6
Continuous
 62
     7
370
    25
100
AcDbSpline
210
0.0
220
0.0
230
1.0
 70
     8
 71
     3
 72
    23
 73
    19
 74
     0
 42
0.000000001
 43
0.00000001
 40
0.0
 40
0.0
 40
0.0
 40
0.0
 40
0.0652308037420294
 40
0.1284048960032227
 40
0.1900670715964781
 40
0.25094336576828
 40
0.3115458328521431
 40
0.3728628021568291
 40
0.4350236738562383
 40
0.4990717247070431
 40
0.563091075049662
 40
0.625510106330375
 40
0.6866800359296492
 40
0.7472825030135124
 40
0.8085634952159588
 40
0.8707421035159856
 40
0.9343409515059125
 40
1.0
 40
1.0
 40
1.0
 40
1.0
 10
75.72284588706091
 20
45.96201072219158
 30
0.0
 10
75.72243612490557
 20
45.94676536661937
 30
0.0
 10
75.72162952029666
 20
45.91675533785254
 30
0.0
 10
75.71542215571445
 20
45.87269527977796
 30
0.0
 10
75.70563996489004
 20
45.83035716436089
 30
0.0
 10
75.69138042662652
 20
45.78991647339429
 30
0.0
 10
75.67316513189982
 20
45.75122805259733
 30
0.0
 10
75.65133418749392
 20
45.71406988283652
 30
0.0
 10
75.62476032448387
 20
45.67914044993386
 30
0.0
 10
75.59507534343363
 20
45.64598994455734
 30
0.0
 10
75.56219663579286
 20
45.61589261710321
 30
0.0
 10
75.52731034863312
 20
45.58924573614999
 30
0.0
 10
75.49045282820532
 20
45.5668628254068
 30
0.0
 10
75.45164274280533
 20
45.54870257328626
 30
0.0
 10
75.41093991727939
 20
45.53460048245859
 30
0.0
 10
75.36839642892721
 20
45.52432006315419
 30
0.0
 10
75.32398294115859
 20
45.51824309480283
 30
0.0
 10
75.29377800890165
 20
45.51741788449636
 30
0.0
 10
75.2784348293686
 20
45.51699870296081
 30
0.0
  0
SPLINE
  5
AE
330
1F
100
AcDbEntity
  8
0
  6
Continuous
 62
     7
370
    25
100
AcDbSpline
210
0.0
220
0.0
230
1.0
 70
     8
 71
     3
 72
     9
 73
     5
 74
     0
 42
0.000000001
 43
0.00000001
 40
0.0
 40
0.0
 40
0.0
 40
0.0
 40
0.5126593363417812
 40
1.0
 40
1.0
 40
1.0
 40
1.0
 10
75.70842281013783
 20
46.11735927988389
 30
0.0
 10
75.71262875041793
 20
46.0909720183196
 30
0.0
 10
75.72083291248417
 20
46.03950068112993
 30
0.0
 10
75.72218631767636
 20
45.98740101033376
 30
0.0
 10
75.72284588706091
 20
45.96201072219158
 30
0.0
  0
LINE
  5
AF
330
1F
100
AcDbEntity
  8
0
  6
Continuous
 62
     7
370
    25
100
AcDbLine
 10
76.3144925217
 20
45.7210251453
 30
0.0
 11
75.7084228101
 21
46.1173592799
 31
0.0
  0
LINE
  5
B0
330
1F
100
AcDbEntity
  8
0
  6
Continuous
 62
     7
370
    25
100
AcDbLine
 10
76.3959228101
 20
45.8246910107
 30
0.0
 11
76.3144925217
 21
45.7210251453
 31
0.0
  0
LINE
  5
B1
330
1F
100
AcDbEntity
  8
0
  6
Continuous
 62
     7
370
    25
100
AcDbLine
 10
76.2036151178
 20
47.168458031
 30
0.0
 11
76.3574612717
 21
47.0804171656
 31
0.0
  0
LINE
  5
B2
330
1F
100
AcDbEntity
  8
0
  6
Continuous
 62
     7
370
    25
100
AcDbLine
 10
76.2036151178
 20
46.9376888002
 30
0.0
 11
76.2036151178
 21
47.168458031
 31
0.0
  0
LINE
  5
B3
330
1F
100
AcDbEntity
  8
0
  6
Continuous
 62
     7
370
    25
100
AcDbLine
 10
74.8574612717
 20
46.9376888002
 30
0.0
 11
76.2036151178
 21
46.9376888002
 31
0.0
  0
LINE
  5
B4
330
1F
100
AcDbEntity
  8
0
  6
Continuous
 62
     7
370
    25
100
AcDbLine
 10
74.8574612717
 20
46.8030734156
 30
0.0
 11
74.8574612717
 21
46.9376888002
 31
0.0
  0
LINE
  5
B5
330
1F
100
AcDbEntity
  8
0
  6
Continuous
 62
     7
370
    25
100
AcDbLine
 10
76.3574612717
 20
46.8030734156
 30
0.0
 11
74.8574612717
 21
46.8030734156
 31
0.0
  0
LINE
  5
B6
330
1F
100
AcDbEntity
  8
0
  6
Continuous
 62
     7
370
    25
100
AcDbLine
 10
76.3574612717
 20
47.0804171656
 30
0.0
 11
76.3574612717
 21
46.8030734156
 31
0.0
  0
SPLINE
  5
B7
330
1F
100
AcDbEntity
  8
0
  6
Continuous
 62
     7
370
    25
100
AcDbSpline
210
0.0
220
0.0
230
1.0
 70
     8
 71
     3
 72
    19
 73
    15
 74
     0
 42
0.000000001
 43
0.00000001
 40
0.0
 40
0.0
 40
0.0
 40
0.0
 40
0.1227280999764553
 40
0.239716523588393
 40
0.3518621792202463
 40
0.4632019818032239
 40
0.5202611541541643
 40
0.5794324380306665
 40
0.6405963441586369
 40
0.70529822908802
 40
0.7732361059084537
 40
0.844648929340316
 40
0.9200459817773698
 40
1.0
 40
1.0
 40
1.0
 40
1.0
 10
76.24207665629169
 20
47.99579585184598
 30
0.0
 10
76.2414815149439
 20
48.01287570253125
 30
0.0
 10
76.24031906547258
 20
48.04623662338365
 30
0.0
 10
76.23010165859243
 20
48.09432086699088
 30
0.0
 10
76.21391323066085
 20
48.13897553601992
 30
0.0
 10
76.19436575194763
 20
48.17299338609821
 30
0.0
 10
76.17513626958484
 20
48.19815599088985
 30
0.0
 10
76.15859314593779
 20
48.21648169287471
 30
0.0
 10
76.1398366320626
 20
48.23414954679713
 30
0.0
 10
76.11835225789285
 20
48.25046625004628
 30
0.0
 10
76.09487878410015
 20
48.26640953403314
 30
0.0
 10
76.06928692753114
 20
48.28182716422741
 30
0.0
 10
76.04121182490127
 20
48.2962239259903
 30
0.0
 10
76.02146860352428
 20
48.30498747060062
 30
0.0
 10
76.01130742552245
 20
48.3094977749229
 30
0.0
  0
SPLINE
  5
B8
330
1F
100
AcDbEntity
  8
0
  6
Continuous
 62
     7
370
    25
100
AcDbSpline
210
0.0
220
0.0
230
1.0
 70
     8
 71
     3
 72
    23
 73
    19
 74
     0
 42
0.000000001
 43
0.00000001
 40
0.0
 40
0.0
 40
0.0
 40
0.0
 40
0.0552698294993248
 40
0.1099567044850938
 40
0.1632335040550556
 40
0.2180575651623568
 40
0.2732775387226747
 40
0.330881045495497
 40
0.3904799376860887
 40
0.4536559730386417
 40
0.5189026226022311
 40
0.5833461108214766
 40
0.6485466930814431
 40
0.7150552190344909
 40
0.7825206438000536
 40
0.852335294426451
 40
0.9249348997257087
 40
0.9999999999999999
 40
0.9999999999999999
 40
0.9999999999999999
 40
0.9999999999999999
 10
76.00680021398398
 20
47.69411315953829
 30
0.0
 10
76.01463355216237
 20
47.6942907435598
 30
0.0
 10
76.03021760695347
 20
47.69464403854824
 30
0.0
 10
76.05298521720887
 20
47.69910031813609
 30
0.0
 10
76.07505808267886
 20
47.70579520314978
 30
0.0
 10
76.09633604981552
 20
47.71500514007177
 30
0.0
 10
76.11669561139995
 20
47.72731001035179
 30
0.0
 10
76.13616174462692
 20
47.74207995381271
 30
0.0
 10
76.15506068173023
 20
47.75932209919802
 30
0.0
 10
76.17248827443385
 20
47.77948706955737
 30
0.0
 10
76.18892695712624
 20
47.80131780061034
 30
0.0
 10
76.20313758680324
 20
47.82501970579429
 30
0.0
 10
76.2151825070207
 20
47.85007001065797
 30
0.0
 10
76.22513417879075
 20
47.87649175073927
 30
0.0
 10
76.23261542515957
 20
47.90439077067302
 30
0.0
 10
76.23798829441327
 20
47.93363046187378
 30
0.0
 10
76.24134718750696
 20
47.96426811345233
 30
0.0
 10
76.24183080842563
 20
47.98517027420974
 30
0.0
 10
76.24207665629169
 20
47.99579585184598
 30
0.0
  0
SPLINE
  5
B9
330
1F
100
AcDbEntity
  8
0
  6
Continuous
 62
     7
370
    25
100
AcDbSpline
210
0.0
220
0.0
230
1.0
 70
     8
 71
     3
 72
    19
 73
    15
 74
     0
 42
0.000000001
 43
0.00000001
 40
0.0
 40
0.0
 40
0.0
 40
0.0
 40
0.1101423815503176
 40
0.2157418685830274
 40
0.3179605426392306
 40
0.4180517606815226
 40
0.5115631470355316
 40
0.5965727584443461
 40
0.6733290469034968
 40
0.7440491927238595
 40
0.8107168223002833
 40
0.8740854521098849
 40
0.9367096168966699
 40
1.0
 40
1.0
 40
1.0
 40
1.0
 10
75.76130742552245
 20
48.07872854415368
 30
0.0
 10
75.76162371449105
 20
48.0601714146215
 30
0.0
 10
75.762243246883
 20
48.02382255649391
 30
0.0
 10
75.7696844939936
 20
47.9707177770153
 30
0.0
 10
75.78009381981349
 20
47.91987622738367
 30
0.0
 10
75.79566999145496
 20
47.87245842330886
 30
0.0
 10
75.81436584315496
 20
47.82937970521061
 30
0.0
 10
75.83544678127755
 20
47.7918002698576
 30
0.0
 10
75.85933053831837
 20
47.76061073516693
 30
0.0
 10
75.88570366286659
 20
47.73573317686548
 30
0.0
 10
75.91431945225811
 20
47.71747393241357
 30
0.0
 10
75.94383237961893
 20
47.70376856095813
 30
0.0
 10
75.97492911282092
 20
47.69573391690533
 30
0.0
 10
75.99613910598883
 20
47.69465531430212
 30
0.0
 10
76.00680021398398
 20
47.69411315953829
 30
0.0
  0
LINE
  5
BA
330
1F
100
AcDbEntity
  8
0
  6
Continuous
 62
     7
370
    25
100
AcDbLine
 10
75.6074612717
 20
48.0787285442
 30
0.0
 11
75.7613074255
 21
48.0787285442
 31
0.0
  0
SPLINE
  5
BB
330
1F
100
AcDbEntity
  8
0
  6
Continuous
 62
     7
370
    25
100
AcDbSpline
210
0.0
220
0.0
230
1.0
 70
     8
 71
     3
 72
    23
 73
    19
 74
     0
 42
0.000000001
 43
0.00000001
 40
0.0
 40
0.0
 40
0.0
 40
0.0
 40
0.0669051223273616
 40
0.1334773340846825
 40
0.2010229080576287
 40
0.2712178684297488
 40
0.3428591616573978
 40
0.4138109980627169
 40
0.4855518488903453
 40
0.5598002749200529
 40
0.5998999649035781
 40
0.6436094423977958
 40
0.6919106424505659
 40
0.7447030291556902
 40
0.8015038302285953
 40
0.8628660266331954
 40
0.9293326711591618
 40
1.0
 40
1.0
 40
1.0
 40
1.0
 10
75.2901535793686
 20
47.61719008261521
 30
0.0
 10
75.30412988325115
 20
47.61784591448023
 30
0.0
 10
75.33201294687476
 20
47.61915431488226
 30
0.0
 10
75.37303452783479
 20
47.62914388050733
 30
0.0
 10
75.4125597702068
 20
47.64557414195708
 30
0.0
 10
75.44990863641085
 20
47.66857931235035
 30
0.0
 10
75.48454070442617
 20
47.69657014601816
 30
0.0
 10
75.51532012338272
 20
47.72927569328461
 30
0.0
 10
75.54097299417478
 20
47.76677618077344
 30
0.0
 10
75.55863146841054
 20
47.80151304195816
 30
0.0
 10
75.57040009887619
 20
47.83235604371313
 30
0.0
 10
75.57865204224116
 20
47.85869841769525
 30
0.0
 10
75.58524849954513
 20
47.8882155960024
 30
0.0
 10
75.59162926026879
 20
47.92055323133926
 30
0.0
 10
75.59697848513689
 20
47.95584770753423
 30
0.0
 10
75.60145867062616
 20
47.99413082268428
 30
0.0
 10
75.6050378914702
 20
48.03541797837838
 30
0.0
 10
75.60663714880452
 20
48.06399984918685
 30
0.0
 10
75.6074612716763
 20
48.07872854415368
 30
0.0
  0
SPLINE
  5
BC
330
1F
100
AcDbEntity
  8
0
  6
Continuous
 62
     7
370
    25
100
AcDbSpline
210
0.0
220
0.0
230
1.0
 70
     8
 71
     3
 72
    23
 73
    19
 74
     0
 42
0.000000001
 43
0.00000001
 40
0.0
 40
0.0
 40
0.0
 40
0.0
 40
0.0760618905628339
 40
0.1487324608035359
 40
0.2183745247439722
 40
0.2857225935927383
 40
0.3510576941824569
 40
0.414934915729319
 40
0.4784859417740854
 40
0.542169035281216
 40
0.6047501165431387
 40
0.6641185017301124
 40
0.7214996756099116
 40
0.7776159163852547
 40
0.832666108697549
 40
0.8878580281135741
 40
0.9434676608977686
 40
1.0
 40
1.0
 40
1.0
 40
1.0
 10
74.97284588706091
 20
47.99910114030752
 30
0.0
 10
74.97310941717016
 20
47.98506373487173
 30
0.0
 10
74.97362472754907
 20
47.95761480034863
 30
0.0
 10
74.97837745657209
 20
47.91756537248494
 30
0.0
 10
74.98526906169798
 20
47.87945269537003
 30
0.0
 10
74.99604887206
 20
47.84366570875837
 30
0.0
 10
75.00898103538438
 20
47.80971743958184
 30
0.0
 10
75.02591161065708
 20
47.77836571128778
 30
0.0
 10
75.04503195829285
 20
47.74868882179867
 30
0.0
 10
75.0672726000088
 20
47.72155616682437
 30
0.0
 10
75.09131232633354
 20
47.6970947516535
 30
0.0
 10
75.11681633359564
 20
47.6759573863007
 30
0.0
 10
75.14299383159859
 20
47.65765001043717
 30
0.0
 10
75.17045548845724
 20
47.64293393545615
 30
0.0
 10
75.19893192739413
 20
47.63129282943935
 30
0.0
 10
75.22852973597246
 20
47.62337283405644
 30
0.0
 10
75.25899968212433
 20
47.61786467546371
 30
0.0
 10
75.27971213945374
 20
47.61741617698277
 30
0.0
 10
75.2901535793686
 20
47.61719008261521
 30
0.0
  0
SPLINE
  5
BD
330
1F
100
AcDbEntity
  8
0
  6
Continuous
 62
     7
370
    25
100
AcDbSpline
210
0.0
220
0.0
230
1.0
 70
     8
 71
     3
 72
    15
 73
    11
 74
     0
 42
0.000000001
 43
0.00000001
 40
0.0
 40
0.0
 40
0.0
 40
0.0
 40
0.1182713048357256
 40
0.2361775330837632
 40
0.355662932948509
 40
0.4759041646706825
 40
0.6001273417110832
 40
0.7286081161551193
 40
0.8613134756739422
 40
1.0
 40
1.0
 40
1.0
 40
1.0
 10
75.05397569475322
 20
48.24970210184598
 30
0.0
 10
75.04750069451657
 20
48.24130356904949
 30
0.0
 10
75.03457068089466
 20
48.22453242781489
 30
0.0
 10
75.0180699829499
 20
48.19720318591557
 30
0.0
 10
75.00377240066356
 20
48.16846109187883
 30
0.0
 10
74.99285081678515
 20
48.13768337435558
 30
0.0
 10
74.98360324787551
 20
48.10553418701814
 30
0.0
 10
74.97755159681874
 20
48.07149388763307
 30
0.0
 10
74.97339952338592
 20
48.03586279458517
 30
0.0
 10
74.9730331241749
 20
48.01153375309244
 30
0.0
 10
74.97284588706091
 20
47.99910114030752
 30
0.0
  0
SPLINE
  5
BE
330
1F
100
AcDbEntity
  8
0
  6
Continuous
 62
     7
370
    25
100
AcDbSpline
210
0.0
220
0.0
230
1.0
 70
     8
 71
     3
 72
    15
 73
    11
 74
     0
 42
0.000000001
 43
0.00000001
 40
0.0
 40
0.0
 40
0.0
 40
0.0
 40
0.1497703860319681
 40
0.2913164099952446
 40
0.4259663731047426
 40
0.5521595739695285
 40
0.6715274135235928
 40
0.7861216286916589
 40
0.8953250730704446
 40
1.0
 40
1.0
 40
1.0
 40
1.0
 10
75.26130742552245
 20
48.36719008261521
 30
0.0
 10
75.24975784840731
 20
48.36368295771224
 30
0.0
 10
75.22729291771384
 20
48.35686129514456
 30
0.0
 10
75.1949613581389
 20
48.34524945312951
 30
0.0
 10
75.16532219247112
 20
48.33202019367075
 30
0.0
 10
75.13815799733771
 20
48.31782823996958
 30
0.0
 10
75.11320125342448
 20
48.30292319167412
 30
0.0
 10
75.0911118809813
 20
48.28624536661566
 30
0.0
 10
75.07091965146283
 20
48.26903001869539
 30
0.0
 10
75.05954338920273
 20
48.25605315297339
 30
0.0
 10
75.05397569475322
 20
48.24970210184598
 30
0.0
  0
LINE
  5
BF
330
1F
100
AcDbEntity
  8
0
  6
Continuous
 62
     7
370
    25
100
AcDbLine
 10
75.2613074255
 20
48.5018054672
 30
0.0
 11
75.2613074255
 21
48.3671900826
 31
0.0
  0
SPLINE
  5
C0
330
1F
100
AcDbEntity
  8
0
  6
Continuous
 62
     7
370
    25
100
AcDbSpline
210
0.0
220
0.0
230
1.0
 70
     8
 71
     3
 72
    23
 73
    19
 74
     0
 42
0.000000001
 43
0.00000001
 40
0.0
 40
0.0
 40
0.0
 40
0.0
 40
0.0655411703374033
 40
0.1289631677825933
 40
0.1903771361885609
 40
0.2500923616690527
 40
0.308548432459201
 40
0.3663979630552958
 40
0.42454218926668
 40
0.4831699964229055
 40
0.5422433998311199
 40
0.6017393520173299
 40
0.6625060022496068
 40
0.7248555134488469
 40
0.7891278292811811
 40
0.8563463998785099
 40
0.9262952349869055
 40
1.0
 40
1.0
 40
1.0
 40
1.0
 10
74.81899973321475
 20
48.00150498646136
 30
0.0
 10
74.81937182461125
 20
48.01754182943985
 30
0.0
 10
74.82010397640148
 20
48.0490969887556
 30
0.0
 10
74.82510909120002
 20
48.0954870594926
 30
0.0
 10
74.83425052201623
 20
48.13976778779167
 30
0.0
 10
74.84655193860169
 20
48.18199904401596
 30
0.0
 10
74.86214839949335
 20
48.22221834532748
 30
0.0
 10
74.88157069864533
 20
48.26030296183222
 30
0.0
 10
74.90441848523898
 20
48.29648720191226
 30
0.0
 10
74.93096145144179
 20
48.33042960954565
 30
0.0
 10
74.96065345419468
 20
48.36212613856261
 30
0.0
 10
74.9940216013237
 20
48.39073444894695
 30
0.0
 10
75.03044906014699
 20
48.41673150306499
 30
0.0
 10
75.07035894137502
 20
48.43942120536992
 30
0.0
 10
75.11323548020836
 20
48.45983704220529
 30
0.0
 10
75.1596276938005
 20
48.47662888076841
 30
0.0
 10
75.20912084608149
 20
48.49140841018397
 30
0.0
 10
75.24361130615685
 20
48.49827989486086
 30
0.0
 10
75.26130742552245
 20
48.5018054672306
 30
0.0
  0
SPLINE
  5
C1
330
1F
100
AcDbEntity
  8
0
  6
Continuous
 62
     7
370
    25
100
AcDbSpline
210
0.0
220
0.0
230
1.0
 70
     8
 71
     3
 72
    19
 73
    15
 74
     0
 42
0.000000001
 43
0.00000001
 40
0.0
 40
0.0
 40
0.0
 40
0.0
 40
0.079641704194991
 40
0.1589086132578561
 40
0.2395997983184508
 40
0.3224093988203484
 40
0.405827748173513
 40
0.4876442139503137
 40
0.5697199979738974
 40
0.6530646649976934
 40
0.7374573001733065
 40
0.8224924079539125
 40
0.9097550737466981
 40
1.0
 40
1.0
 40
1.0
 40
1.0
 10
75.30307425244553
 20
47.48257469799982
 30
0.0
 10
75.28207092144221
 20
47.48334546871133
 30
0.0
 10
75.24016310144678
 20
47.48488338287508
 30
0.0
 10
75.1782328354041
 20
47.49857401257812
 30
0.0
 10
75.11779966134183
 20
47.51992061687835
 30
0.0
 10
75.05975900241685
 20
47.54970456057877
 30
0.0
 10
75.00556761205722
 20
47.58655512296842
 30
0.0
 10
74.95730102802068
 20
47.63063926850782
 30
0.0
 10
74.91553292177333
 20
47.6808853186504
 30
0.0
 10
74.88074721551678
 20
47.73696442302125
 30
0.0
 10
74.85292015143946
 20
47.79769500216955
 30
0.0
 10
74.83361120579549
 20
47.86265742128925
 30
0.0
 10
74.82103397096776
 20
47.93090704912575
 30
0.0
 10
74.8196853649958
 20
47.97771023118155
 30
0.0
 10
74.81899973321475
 20
48.00150498646136
 30
0.0
  0
SPLINE
  5
C2
330
1F
100
AcDbEntity
  8
0
  6
Continuous
 62
     7
370
    25
100
AcDbSpline
210
0.0
220
0.0
230
1.0
 70
     8
 71
     3
 72
    15
 73
    11
 74
     0
 42
0.000000001
 43
0.00000001
 40
0.0
 40
0.0
 40
0.0
 40
0.0
 40
0.1281455049994643
 40
0.2541925386280419
 40
0.3781411397135888
 40
0.5013808330744057
 40
0.6239569784447038
 40
0.7470758858273289
 40
0.8728647202442611
 40
1.0
 40
1.0
 40
1.0
 40
1.0
 10
75.56960069475322
 20
47.57211796723059
 30
0.0
 10
75.55971985432822
 20
47.56489731104304
 30
0.0
 10
75.54011997908155
 20
47.5505742419125
 30
0.0
 10
75.50858898251597
 20
47.53294479324858
 30
0.0
 10
75.47681288328046
 20
47.51676858582749
 30
0.0
 10
75.44354228613663
 20
47.50486336541738
 30
0.0
 10
75.40984590151612
 20
47.49458963197932
 30
0.0
 10
75.3750021551502
 20
47.48782985746698
 30
0.0
 10
75.33934209212264
 20
47.48349035262129
 30
0.0
 10
75.31520636131363
 20
47.48288099751069
 30
0.0
 10
75.30307425244553
 20
47.48257469799982
 30
0.0
  0
SPLINE
  5
C3
330
1F
100
AcDbEntity
  8
0
  6
Continuous
 62
     7
370
    25
100
AcDbSpline
210
0.0
220
0.0
230
1.0
 70
     8
 71
     3
 72
    11
 73
     7
 74
     0
 42
0.000000001
 43
0.00000001
 40
0.0
 40
0.0
 40
0.0
 40
0.0
 40
0.253879600326656
 40
0.5030089172783633
 40
0.7502910806899731
 40
1.0
 40
1.0
 40
1.0
 40
1.0
 10
75.69760550244553
 20
47.73467806338444
 30
0.0
 10
75.68990057178489
 20
47.71872159713872
 30
0.0
 10
75.67463487566624
 20
47.68710722245278
 30
0.0
 10
75.64469669387313
 20
47.64401413836725
 30
0.0
 10
75.61012968786432
 20
47.60489504892855
 30
0.0
 10
75.58315426518708
 20
47.58307916935549
 30
0.0
 10
75.56960069475322
 20
47.57211796723059
 30
0.0
  0
SPLINE
  5
C4
330
1F
100
AcDbEntity
  8
0
  6
Continuous
 62
     7
370
    25
100
AcDbSpline
210
0.0
220
0.0
230
1.0
 70
     8
 71
     3
 72
    15
 73
    11
 74
     0
 42
0.000000001
 43
0.00000001
 40
0.0
 40
0.0
 40
0.0
 40
0.0
 40
0.1280675485958904
 40
0.2506083188676684
 40
0.3706301659145029
 40
0.4900722467299488
 40
0.6103747641546199
 40
0.7343130699115256
 40
0.8632165042449895
 40
1.0
 40
1.0
 40
1.0
 40
1.0
 10
76.00619925244553
 20
47.5594977749229
 30
0.0
 10
75.9903391975717
 20
47.55999645680021
 30
0.0
 10
75.95930353137322
 20
47.56097229984784
 30
0.0
 10
75.91399431831401
 20
47.56925817366027
 30
0.0
 10
75.87129077533592
 20
47.58320228632151
 30
0.0
 10
75.83101313442586
 20
47.60251789885488
 30
0.0
 10
75.79341677450168
 20
47.62752142038643
 30
0.0
 10
75.75841710699002
 20
47.65780971905371
 30
0.0
 10
75.72585889636363
 20
47.69359657410035
 30
0.0
 10
75.70720769365985
 20
47.72071611896747
 30
0.0
 10
75.69760550244553
 20
47.73467806338444
 30
0.0
  0
SPLINE
  5
C5
330
1F
100
AcDbEntity
  8
0
  6
Continuous
 62
     7
370
    25
100
AcDbSpline
210
0.0
220
0.0
230
1.0
 70
     8
 71
     3
 72
    19
 73
    15
 74
     0
 42
0.000000001
 43
0.00000001
 40
0.0
 40
0.0
 40
0.0
 40
0.0
 40
0.0902542493426766
 40
0.1785397915286843
 40
0.2660930338538198
 40
0.3546309779571733
 40
0.4418861533505626
 40
0.5257469151636484
 40
0.6081136336036366
 40
0.6901972728278825
 40
0.770821484330335
 40
0.8483261812554109
 40
0.9240117400247433
 40
1.0
 40
1.0
 40
1.0
 40
1.0
 10
76.39592281013783
 20
47.99759873646137
 30
0.0
 10
76.39533171146142
 20
47.97802041842919
 30
0.0
 10
76.3941624076865
 20
47.93929084231056
 30
0.0
 10
76.3834847920526
 20
47.88239239361749
 30
0.0
 10
76.36658830675795
 20
47.82752375685944
 30
0.0
 10
76.34324242369924
 20
47.7752855077953
 30
0.0
 10
76.31444786091548
 20
47.7267633223969
 30
0.0
 10
76.28017725938915
 20
47.68359067093385
 30
0.0
 10
76.24109184446601
 20
47.64635273773216
 30
0.0
 10
76.19792074547235
 20
47.61511229016353
 30
0.0
 10
76.1517826700208
 20
47.59065157628338
 30
0.0
 10
76.10429688838624
 20
47.57261455907779
 30
0.0
 10
76.05557604350527
 20
47.5616338386498
 30
0.0
 10
76.0226800667159
 20
47.56021074287398
 30
0.0
 10
76.00619925244553
 20
47.5594977749229
 30
0.0
  0
SPLINE
  5
C6
330
1F
100
AcDbEntity
  8
0
  6
Continuous
 62
     7
370
    25
100
AcDbSpline
210
0.0
220
0.0
230
1.0
 70
     8
 71
     3
 72
    23
 73
    19
 74
     0
 42
0.000000001
 43
0.00000001
 40
0.0
 40
0.0
 40
0.0
 40
0.0
 40
0.0726253460834355
 40
0.1419766113262345
 40
0.2089849284189386
 40
0.2739568703644447
 40
0.336889347396841
 40
0.3987449534945902
 40
0.4601158852788617
 40
0.5208249225900291
 40
0.5809944586324857
 40
0.6401519276014648
 40
0.6986224507562546
 40
0.7572710809271643
 40
0.8164266940046602
 40
0.8762540482034705
 40
0.9371652930625374
 40
1.0
 40
1.0
 40
1.0
 40
1.0
 10
76.01130742552245
 20
48.44411315953829
 30
0.0
 10
76.0264070615119
 20
48.44046620924643
 30
0.0
 10
76.05592561482217
 20
48.43333671972196
 30
0.0
 10
76.0981001551853
 20
48.41846633109243
 30
0.0
 10
76.13801023578134
 20
48.40226665029474
 30
0.0
 10
76.17490855307936
 20
48.38281417690985
 30
0.0
 10
76.20953665425051
 20
48.36159613938437
 30
0.0
 10
76.24110913616543
 20
48.33728640158327
 30
0.0
 10
76.27042897850848
 20
48.31100652048359
 30
0.0
 10
76.29644893746158
 20
48.28193868506855
 30
0.0
 10
76.3200108214073
 20
48.25145497293677
 30
0.0
 10
76.34010013169689
 20
48.21912585018647
 30
0.0
 10
76.35738191149595
 20
48.18560175289906
 30
0.0
 10
76.37161915372826
 20
48.15065041020681
 30
0.0
 10
76.38234437815657
 20
48.11416776519594
 30
0.0
 10
76.39012586626693
 20
48.0764836409156
 30
0.0
 10
76.39517920093026
 20
48.03749928372361
 30
0.0
 10
76.39567238511012
 20
48.01103603061007
 30
0.0
 10
76.39592281013783
 20
47.99759873646137
 30
0.0
  0
LINE
  5
C7
330
1F
100
AcDbEntity
  8
0
  6
Continuous
 62
     7
370
    25
100
AcDbLine
 10
76.0113074255
 20
48.3094977749
 30
0.0
 11
76.0113074255
 21
48.4441131595
 31
0.0
  0
LINE
  5
C8
330
1F
100
AcDbEntity
  8
0
  6
Continuous
 62
     7
370
    25
100
AcDbLine
 10
75.7574612717
 20
41.6465486171
 30
0.0
 11
75.7574612717
 21
42.5937321731
 31
0.0
  0
SPLINE
  5
C9
330
1F
100
AcDbEntity
  8
0
  6
Continuous
 62
     7
370
    25
100
AcDbSpline
210
0.0
220
0.0
230
1.0
 70
     8
 71
     3
 72
    10
 73
     6
 74
     0
 42
0.000000001
 43
0.00000001
 40
0.0
 40
0.0
 40
0.0
 40
0.0
 40
0.5
 40
0.5
 40
1.0
 40
1.0
 40
1.0
 40
1.0
 10
73.49424224290821
 20
51.77723104533727
 30
0.0
 10
73.30030714282714
 20
52.11313649204866
 30
0.0
 10
73.13393529103175
 20
52.45332705572436
 30
0.0
 10
72.88168850316058
 20
53.13553992235506
 30
0.0
 10
72.79547327002476
 20
53.47870671004853
 30
0.0
 10
72.75746127167629
 20
53.82436210518078
 30
0.0
  0
SPLINE
  5
CA
330
1F
100
AcDbEntity
  8
0
  6
Continuous
 62
     7
370
    25
100
AcDbSpline
210
0.0
220
0.0
230
1.0
 70
     8
 71
     3
 72
    12
 73
     8
 74
     0
 42
0.000000001
 43
0.00000001
 40
0.0
 40
0.0
 40
0.0
 40
0.0
 40
0.2500000000000001
 40
0.2500000000000001
 40
0.5000000000000002
 40
0.5000000000000002
 40
1.0
 40
1.0
 40
1.0
 40
1.0
 10
72.75746127167629
 20
54.63757727360559
 30
0.0
 10
72.77665512555645
 20
54.81211319477021
 30
0.0
 10
72.80837114883231
 20
54.98752057766941
 30
0.0
 10
72.89384886361321
 20
55.33390650143119
 30
0.0
 10
72.94762618116377
 20
55.50561581687177
 30
0.0
 10
73.13767341929477
 20
56.0168842274914
 30
0.0
 10
73.30250218625534
 20
56.35260481348016
 30
0.0
 10
73.49424224290821
 20
56.68470833344909
 30
0.0
  0
LINE
  5
CB
330
1F
100
AcDbEntity
  8
0
  6
Continuous
 62
     7
370
    25
100
AcDbLine
 10
75.6770765139
 20
56.6847083334
 30
0.0
 11
73.4942422429
 21
56.6847083334
 31
0.0
  0
SPLINE
  5
CC
330
1F
100
AcDbEntity
  8
0
  6
Continuous
 62
     7
370
    25
100
AcDbSpline
210
0.0
220
0.0
230
1.0
 70
     8
 71
     3
 72
     8
 73
     4
 74
     0
 42
0.000000001
 43
0.00000001
 40
0.0
 40
0.0
 40
0.0
 40
0.0
 40
1.0
 40
1.0
 40
1.0
 40
1.0
 10
75.75746127167629
 20
56.36898048143792
 30
0.0
 10
75.73208663851712
 20
56.47434251757661
 30
0.0
 10
75.70524523731034
 20
56.5795812266726
 30
0.0
 10
75.67707651394696
 20
56.68470833344909
 30
0.0
  0
SPLINE
  5
CD
330
1F
100
AcDbEntity
  8
0
  6
Continuous
 62
     7
370
    25
100
AcDbSpline
210
0.0
220
0.0
230
1.0
 70
     8
 71
     3
 72
     8
 73
     4
 74
     0
 42
0.000000001
 43
0.00000001
 40
0.0
 40
0.0
 40
0.0
 40
0.0
 40
1.0
 40
1.0
 40
1.0
 40
1.0
 10
75.83784602940563
 20
56.68470833344909
 30
0.0
 10
75.80966472358247
 20
56.5795342682934
 30
0.0
 10
75.78282419758774
 20
56.47429390605774
 30
0.0
 10
75.75746127167629
 20
56.36898048143792
 30
0.0
  0
LINE
  5
CE
330
1F
100
AcDbEntity
  8
0
  6
Continuous
 62
     7
370
    25
100
AcDbLine
 10
77.8539343258
 20
56.6847083334
 30
0.0
 11
75.8378460294
 21
56.6847083334
 31
0.0
  0
SPLINE
  5
CF
330
1F
100
AcDbEntity
  8
0
  6
Continuous
 62
     7
370
    25
100
AcDbSpline
210
0.0
220
0.0
230
1.0
 70
     8
 71
     3
 72
    16
 73
    12
 74
     0
 42
0.000000001
 43
0.00000001
 40
0.0
 40
0.0
 40
0.0
 40
0.0
 40
0.2500000000000002
 40
0.2500000000000002
 40
0.5000000000000004
 40
0.5000000000000004
 40
0.6250000000000003
 40
0.6250000000000003
 40
0.7500000000000002
 40
0.7500000000000002
 40
1.0
 40
1.0
 40
1.0
 40
1.0
 10
77.85393432582445
 20
56.68470833344912
 30
0.0
 10
78.08524907950708
 20
56.28405942753054
 30
0.0
 10
78.27589437283753
 20
55.88048943784568
 30
0.0
 10
78.54000002924482
 20
55.0649326515046
 30
0.0
 10
78.61258922055879
 20
54.65288328294128
 30
0.0
 10
78.61338646664974
 20
54.02704591489168
 30
0.0
 10
78.5956412100263
 20
53.81745193142856
 30
0.0
 10
78.52644412649651
 20
53.40285291405232
 30
0.0
 10
78.47506252043422
 20
53.19694340203016
 30
0.0
 10
78.27665452169761
 20
52.58288080397699
 30
0.0
 10
78.08553741999364
 20
52.17837937162881
 30
0.0
 10
77.85393432582426
 20
51.77723104533725
 30
0.0
  0
SPLINE
  5
D0
330
1F
100
AcDbEntity
  8
0
  6
Continuous
 62
     7
370
    25
100
AcDbSpline
210
0.0
220
0.0
230
1.0
 70
     8
 71
     3
 72
     8
 73
     4
 74
     0
 42
0.000000001
 43
0.00000001
 40
0.0
 40
0.0
 40
0.0
 40
0.0
 40
1.0
 40
1.0
 40
1.0
 40
1.0
 10
75.75746127167629
 20
52.09295889734844
 30
0.0
 10
75.78283590483548
 20
51.98759686120975
 30
0.0
 10
75.80967730604225
 20
51.88235815211376
 30
0.0
 10
75.83784602940563
 20
51.77723104533727
 30
0.0
  0
SPLINE
  5
D1
330
1F
100
AcDbEntity
  8
0
  6
Continuous
 62
     7
370
    25
100
AcDbSpline
210
0.0
220
0.0
230
1.0
 70
     8
 71
     3
 72
     8
 73
     4
 74
     0
 42
0.000000001
 43
0.00000001
 40
0.0
 40
0.0
 40
0.0
 40
0.0
 40
1.0
 40
1.0
 40
1.0
 40
1.0
 10
75.67707651394696
 20
51.77723104533727
 30
0.0
 10
75.70525781977013
 20
51.88240511049297
 30
0.0
 10
75.73209834576485
 20
51.98764547272863
 30
0.0
 10
75.75746127167629
 20
52.09295889734844
 30
0.0
  0
LINE
  5
D2
330
1F
100
AcDbEntity
  8
0
  6
Continuous
 62
     7
370
    25
100
AcDbLine
 10
75.7574612717
 20
51.1457753413
 30
0.0
 11
75.7574612717
 21
52.0929588973
 31
0.0
  0
LINE
  5
D3
330
1F
100
AcDbEntity
  8
0
  6
Continuous
 62
     7
370
    25
100
AcDbLine
 10
78.7574612717
 20
55.1197537572
 30
0.0
 11
78.7574612717
 21
38.6197537572
 31
0.0
  0
SPLINE
  5
D4
330
1F
100
AcDbEntity
  8
0
  6
Continuous
 62
     7
370
    25
100
AcDbSpline
210
0.0
220
0.0
230
1.0
 70
     8
 71
     3
 72
    23
 73
    19
 74
     0
 42
0.000000001
 43
0.00000001
 40
0.0
 40
0.0
 40
0.0
 40
0.0
 40
0.0611415679303346
 40
0.1200010135310723
 40
0.1782359705414083
 40
0.2364955434070171
 40
0.2948872487049731
 40
0.3546771928192958
 40
0.4166948132897783
 40
0.4806333779628393
 40
0.5458046334786407
 40
0.6097347883178743
 40
0.6729516883751544
 40
0.7360010960706834
 40
0.7998274385165249
 40
0.864767276939387
 40
0.9310835057306723
 40
1.0
 40
1.0
 40
1.0
 40
1.0
 10
75.27032184859937
 20
45.6516140875762
 30
0.0
 10
75.28056355904953
 20
45.65184717861924
 30
0.0
 10
75.3006647058783
 20
45.65230466053141
 30
0.0
 10
75.33008531948136
 20
45.6575792355876
 30
0.0
 10
75.35861012821488
 20
45.66470342702941
 30
0.0
 10
75.38559656473966
 20
45.67621677336675
 30
0.0
 10
75.41179091257003
 20
45.68993010863041
 30
0.0
 10
75.4364445176811
 20
45.70739999692578
 30
0.0
 10
75.46025582112509
 20
45.72742965146376
 30
0.0
 10
75.48234823485522
 20
45.75062593492861
 30
0.0
 10
75.50255575451976
 20
45.77586141477817
 30
0.0
 10
75.52039227705548
 20
45.8026975085314
 30
0.0
 10
75.53544595170109
 20
45.83077213258544
 30
0.0
 10
75.54800610816977
 20
45.8600581671208
 30
0.0
 10
75.55707017672519
 20
45.8908908150217
 30
0.0
 10
75.5642072786441
 20
45.92277239337312
 30
0.0
 10
75.5680052868544
 20
45.95611063901858
 30
0.0
 10
75.56866402897944
 20
45.97872918560574
 30
0.0
 10
75.56899973321475
 20
45.99025591449927
 30
0.0
  0
SPLINE
  5
D5
330
1F
100
AcDbEntity
  8
0
  6
Continuous
 62
     7
370
    25
100
AcDbSpline
210
0.0
220
0.0
230
1.0
 70
     8
 71
     3
 72
    23
 73
    19
 74
     0
 42
0.000000001
 43
0.00000001
 40
0.0
 40
0.0
 40
0.0
 40
0.0
 40
0.0679503475997537
 40
0.1332598223836998
 40
0.1978002967596474
 40
0.2608458295516822
 40
0.3233192927503671
 40
0.3862817224595722
 40
0.450061516233313
 40
0.5152075844858154
 40
0.5796407692199316
 40
0.6418172023841522
 40
0.7016924412115348
 40
0.7607690981778945
 40
0.8192540511346832
 40
0.8787376269055537
 40
0.9381582970160912
 40
1.0
 40
1.0
 40
1.0
 40
1.0
 10
74.97284588706091
 20
45.97853716449927
 30
0.0
 10
74.97317547610204
 20
45.96740907547589
 30
0.0
 10
74.97382184479082
 20
45.9455853877523
 30
0.0
 10
74.97771349878904
 20
45.9133684496676
 30
0.0
 10
74.98459698989967
 20
45.88247678364788
 30
0.0
 10
74.99437882711987
 20
45.85288890480458
 30
0.0
 10
75.00629786895594
 20
45.82435829534381
 30
0.0
 10
75.02150622898372
 20
45.79728974111938
 30
0.0
 10
75.03928348049132
 20
45.77131779718828
 30
0.0
 10
75.05962203370953
 20
45.74700778448315
 30
0.0
 10
75.08147980717814
 20
45.7243560987198
 30
0.0
 10
75.10548840864668
 20
45.70540604764898
 30
0.0
 10
75.12980353099175
 20
45.68830376585368
 30
0.0
 10
75.15590195300561
 20
45.67534938521159
 30
0.0
 10
75.18283835248448
 20
45.66448921555694
 30
0.0
 10
75.21102331322845
 20
45.65718846598965
 30
0.0
 10
75.2403115330439
 20
45.65240890033169
 30
0.0
 10
75.26018614293523
 20
45.65188252821065
 30
0.0
 10
75.27032184859937
 20
45.6516140875762
 30
0.0
  0
SPLINE
  5
D6
330
1F
100
AcDbEntity
  8
0
  6
Continuous
 62
     7
370
    25
100
AcDbSpline
210
0.0
220
0.0
230
1.0
 70
     8
 71
     3
 72
    23
 73
    19
 74
     0
 42
0.000000001
 43
0.00000001
 40
0.0
 40
0.0
 40
0.0
 40
0.0
 40
0.0618526459466917
 40
0.1212838306153701
 40
0.1807779320756125
 40
0.2392732340142805
 40
0.2986414352139417
 40
0.3581858222417117
 40
0.4207600867589709
 40
0.4852046730216432
 40
0.5503622689482871
 40
0.613649924530912
 40
0.6766234955168249
 40
0.7391080134690126
 40
0.8021647022429448
 40
0.8667165971324778
 40
0.9320376285055445
 40
1.0
 40
1.0
 40
1.0
 40
1.0
 10
75.27032184859937
 20
46.30546024142235
 30
0.0
 10
75.26018652874247
 20
46.30519110911489
 30
0.0
 10
75.2403126753617
 20
46.30466338072605
 30
0.0
 10
75.21101894994818
 20
46.29989368547285
 30
0.0
 10
75.18285463969721
 20
46.29255591381959
 30
0.0
 10
75.15579914499632
 20
46.2818153603978
 30
0.0
 10
75.1300000493329
 20
46.26834356594013
 30
0.0
 10
75.10527409419268
 20
46.25176503740822
 30
0.0
 10
75.0816042131526
 20
46.23236048932019
 30
0.0
 10
75.05958727660159
 20
46.20980308717485
 30
0.0
 10
75.03939280736218
 20
46.1854771159403
 30
0.0
 10
75.02141161404016
 20
46.15975079013517
 30
0.0
 10
75.00631221986619
 20
46.13270590948793
 30
0.0
 10
74.99437495861412
 20
46.10418815331683
 30
0.0
 10
74.98459805707184
 20
46.07459679249048
 30
0.0
 10
74.97771320795802
 20
46.04370608450412
 30
0.0
 10
74.97382192131226
 20
46.0114888872625
 30
0.0
 10
74.97317550194396
 20
45.98966523529189
 30
0.0
 10
74.97284588706091
 20
45.97853716449927
 30
0.0
  0
SPLINE
  5
D7
330
1F
100
AcDbEntity
  8
0
  6
Continuous
 62
     7
370
    25
100
AcDbSpline
210
0.0
220
0.0
230
1.0
 70
     8
 71
     3
 72
    23
 73
    19
 74
     0
 42
0.000000001
 43
0.00000001
 40
0.0
 40
0.0
 40
0.0
 40
0.0
 40
0.0705921865358071
 40
0.1385012886049299
 40
0.2037899961427012
 40
0.266787572669601
 40
0.3290979656467183
 40
0.3911745246039658
 40
0.4531677986176573
 40
0.5157967602265844
 40
0.5779688050530403
 40
0.6389663383752914
 40
0.698381066162843
 40
0.7573204555574266
 40
0.8164122397216688
 40
0.876279358230831
 40
0.936823465650193
 40
1.0
 40
1.0
 40
1.0
 40
1.0
 10
75.56899973321475
 20
45.99025591449927
 30
0.0
 10
75.56866186876016
 20
46.00168223233709
 30
0.0
 10
75.5679989814828
 20
46.02410057383079
 30
0.0
 10
75.56425498936383
 20
46.05695003004601
 30
0.0
 10
75.55716115074344
 20
46.08795596373172
 30
0.0
 10
75.54798510718717
 20
46.11747251321586
 30
0.0
 10
75.53549128179036
 20
46.14519203856337
 30
0.0
 10
75.52049514924605
 20
46.17143073719171
 30
0.0
 10
75.50266572797325
 20
46.19592824513862
 30
0.0
 10
75.48220181163718
 20
46.21825434367081
 30
0.0
 10
75.4601240573573
 20
46.23875521610515
 30
0.0
 10
75.43633513361866
 20
46.25638931418012
 30
0.0
 10
75.41156183363786
 20
46.27161707528845
 30
0.0
 10
75.38557131845401
 20
46.28399397599141
 30
0.0
 10
75.35838025997933
 20
46.29363285428929
 30
0.0
 10
75.33011192912326
 20
46.30060488723196
 30
0.0
 10
75.3005772483682
 20
46.30448508643181
 30
0.0
 10
75.2805490298894
 20
46.30513061144059
 30
0.0
 10
75.27032184859937
 20
46.30546024142235
 30
0.0
  0
LINE
  5
D8
330
1F
100
AcDbEntity
  8
0
  6
Continuous
 62
     7
370
    25
100
AcDbLine
 10
59.7574612717
 20
46.8697537572
 30
0.0
 11
59.7574612717
 21
53.8697537572
 31
0.0
  0
LINE
  5
D9
330
1F
100
AcDbEntity
  8
0
  6
Continuous
 62
     7
370
    25
100
AcDbLine
 10
59.7574612717
 20
39.8697537572
 30
0.0
 11
59.7574612717
 21
46.8697537572
 31
0.0
  0
LINE
  5
DA
330
1F
100
AcDbEntity
  8
0
  6
Continuous
 62
     7
370
    25
100
AcDbLine
 10
89.2574612717
 20
52.1197537572
 30
0.0
 11
89.2574612717
 21
41.6197537572
 31
0.0
  0
LINE
  5
DB
330
1F
100
AcDbEntity
  8
0
  6
Continuous
 62
     7
370
    25
100
AcDbLine
 10
93.7574612717
 20
52.1197537572
 30
0.0
 11
93.7574612717
 21
41.6197537572
 31
0.0
  0
LINE
  5
DC
330
1F
100
AcDbEntity
  8
0
  6
Continuous
 62
     7
370
    25
100
AcDbLine
 10
98.2574612717
 20
52.1197537572
 30
0.0
 11
98.2574612717
 21
41.6197537572
 31
0.0
  0
LINE
  5
DD
330
1F
100
AcDbEntity
  8
0
  6
Continuous
 62
     7
370
    25
100
AcDbLine
 10
84.7574612717
 20
52.1197537572
 30
0.0
 11
84.7574612717
 21
41.6197537572
 31
0.0
  0
LINE
  5
DE
330
1F
100
AcDbEntity
  8
0
  6
Continuous
 62
     7
370
    25
100
AcDbLine
 10
103.7574612717
 20
50.9333082274
 30
0.0
 11
103.7574612717
 21
42.8061992882
 31
0.0
  0
LINE
  5
DF
330
1F
100
AcDbEntity
  8
0
  6
Continuous
 62
     7
370
    25
100
AcDbLine
 10
75.7574612717
 20
37.354799181
 30
0.0
 11
75.7574612717
 21
37.370527033
 31
0.0
  0
LINE
  5
E0
330
1F
100
AcDbEntity
  8
0
  6
Continuous
 62
     7
370
    25
100
AcDbLine
 10
75.7574612717
 20
56.3689804814
 30
0.0
 11
75.7574612717
 21
56.3847083334
 31
0.0
  0
LINE
  5
E1
330
1F
100
AcDbEntity
  8
0
  6
Continuous
 62
     8
370
    25
100
AcDbLine
 10
103.325017874
 20
42.310784203
 30
0.0
 11
103.325017874
 21
51.4287233114
 31
0.0
  0
LINE
  5
E2
330
1F
100
AcDbEntity
  8
0
  6
Continuous
 62
     7
370
    18
100
AcDbLine
 10
60.6272649081
 20
54.3719351209
 30
0.0
 11
72.2574612717
 21
54.7353787572
 31
0.0
  0
LINE
  5
E3
330
1F
100
AcDbEntity
  8
0
  6
Continuous
 62
     7
370
    18
100
AcDbLine
 10
60.6272649081
 20
39.3675723936
 30
0.0
 11
72.2574612717
 21
39.0041287572
 31
0.0
  0
LINE
  5
E4
330
1F
100
AcDbEntity
  8
0
  6
Continuous
 62
     7
370
    18
100
AcDbLine
 10
72.2574612717
 20
38.3465662572
 30
0.0
 11
72.2574612717
 21
55.3929412572
 31
0.0
  0
LINE
  5
E5
330
1F
100
AcDbEntity
  8
0
  6
CENTERX2
 62
     7
370
    18
100
AcDbLine
 10
104.7574612717
 20
46.8697537572
 30
0.0
 11
58.623234723
 21
46.8697537572
 31
0.0
  0
CIRCLE
  5
E6
330
1F
100
AcDbEntity
  8
0
  6
Continuous
 62
     7
370
    25
100
AcDbCircle
 10
123.1054312139
 20
46.8697537572
 30
0.0
 40
4.063554470200579
  0
CIRCLE
  5
E7
330
1F
100
AcDbEntity
  8
0
  6
Continuous
 62
     7
370
    25
100
AcDbCircle
 10
123.1054312139
 20
46.8697537572
 30
0.0
 40
4.558969554222728
  0
CIRCLE
  5
E8
330
1F
100
AcDbEntity
  8
0
  6
Continuous
 62
     7
370
    25
100
AcDbCircle
 10
123.1054312139
 20
46.8697537572
 30
0.0
 40
3.249999999999986
  0
CIRCLE
  5
E9
330
1F
100
AcDbEntity
  8
0
  6
Continuous
 62
     7
370
    25
100
AcDbCircle
 10
123.1054312139
 20
46.8697537572
 30
0.0
 40
3.75
  0
CIRCLE
  5
EA
330
1F
100
AcDbEntity
  8
0
  6
Continuous
 62
     7
370
    25
100
AcDbCircle
 10
123.1054312139
 20
46.8697537572
 30
0.0
 40
5.25
  0
SPLINE
  5
EB
330
1F
100
AcDbEntity
  8
0
  6
Continuous
 62
     7
370
    25
100
AcDbSpline
210
0.0
220
0.0
230
1.0
 70
    24
 71
     3
 72
    16
 73
    12
 74
     0
 42
0.000000001
 43
0.00000001
 40
0.0
 40
0.0
 40
0.0
 40
0.0
 40
0.25
 40
0.25
 40
0.5000000000000001
 40
0.5000000000000001
 40
0.6250000000000001
 40
0.6250000000000001
 40
0.7500000000000001
 40
0.7500000000000001
 40
1.0
 40
1.0
 40
1.0
 40
1.0
 10
131.6054312138728
 20
41.96227646911362
 30
0.0
 10
131.6054312138728
 20
42.7619518716564
 30
0.0
 10
131.6054312138728
 20
43.57902207559476
 30
0.0
 10
131.6054312138729
 20
45.21652949702139
 30
0.0
 10
131.6054312138728
 20
46.04085411940813
 30
0.0
 10
131.6054312138728
 20
47.28720947375517
 30
0.0
 10
131.6054312138728
 20
47.70547800790147
 30
0.0
 10
131.6054312138728
 20
48.53993930326784
 30
0.0
 10
131.6054312138728
 20
48.95282729854837
 30
0.0
 10
131.6054312138728
 20
50.18028222258839
 30
0.0
 10
131.6054312138728
 20
50.98371577184451
 30
0.0
 10
131.6054312138728
 20
51.77723104533727
 30
0.0
  0
SPLINE
  5
EC
330
1F
100
AcDbEntity
  8
0
  6
Continuous
 62
     7
370
    25
100
AcDbSpline
210
0.0
220
0.0
230
1.0
 70
    24
 71
     3
 72
    16
 73
    12
 74
     0
 42
0.000000001
 43
0.00000001
 40
0.0
 40
0.0
 40
0.0
 40
0.0
 40
0.2499999999999998
 40
0.2499999999999998
 40
0.4999999999999997
 40
0.4999999999999997
 40
0.6249999999999998
 40
0.6249999999999998
 40
0.7499999999999999
 40
0.7499999999999999
 40
1.0
 40
1.0
 40
1.0
 40
1.0
 10
123.1054312138728
 20
37.05479918100178
 30
0.0
 10
123.7993754749207
 20
37.45544808692037
 30
0.0
 10
124.4983792014649
 20
37.85901807660522
 30
0.0
 10
125.9109649918652
 20
38.6745748629463
 30
0.0
 10
126.6246554334436
 20
39.08662423150962
 30
0.0
 10
127.7086375521807
 20
39.71246159955922
 30
0.0
 10
128.0716649804995
 20
39.92205558302233
 30
0.0
 10
128.7897715433633
 20
40.33665460039857
 30
0.0
 10
129.1464172799474
 20
40.54256411242074
 30
0.0
 10
130.2100048988032
 20
41.1566267104739
 30
0.0
 10
130.9106219313647
 20
41.56112814282209
 30
0.0
 10
131.6054312138729
 20
41.96227646911365
 30
0.0
  0
SPLINE
  5
ED
330
1F
100
AcDbEntity
  8
0
  6
Continuous
 62
     7
370
    25
100
AcDbSpline
210
0.0
220
0.0
230
1.0
 70
    24
 71
     3
 72
    16
 73
    12
 74
     0
 42
0.000000001
 43
0.00000001
 40
0.0
 40
0.0
 40
0.0
 40
0.0
 40
0.2500000000000001
 40
0.2500000000000001
 40
0.5000000000000001
 40
0.5000000000000001
 40
0.6250000000000001
 40
0.6250000000000001
 40
0.7500000000000002
 40
0.7500000000000002
 40
1.0
 40
1.0
 40
1.0
 40
1.0
 10
114.6054312138728
 20
41.96227646911366
 30
0.0
 10
115.2993754749207
 20
41.56162756319507
 30
0.0
 10
115.9983792014649
 20
41.15805757351021
 30
0.0
 10
117.4109649918652
 20
40.34250078716913
 30
0.0
 10
118.1246554334436
 20
39.93045141860581
 30
0.0
 10
119.2086375521807
 20
39.30461405055621
 30
0.0
 10
119.5716649804995
 20
39.0950200670931
 30
0.0
 10
120.2897715433633
 20
38.68042104971686
 30
0.0
 10
120.6464172799474
 20
38.47451153769469
 30
0.0
 10
121.7100048988032
 20
37.86044893964152
 30
0.0
 10
122.4106219313647
 20
37.45594750729335
 30
0.0
 10
123.1054312138729
 20
37.05479918100179
 30
0.0
  0
SPLINE
  5
EE
330
1F
100
AcDbEntity
  8
0
  6
Continuous
 62
     7
370
    25
100
AcDbSpline
210
0.0
220
0.0
230
1.0
 70
    24
 71
     3
 72
    16
 73
    12
 74
     0
 42
0.000000001
 43
0.00000001
 40
0.0
 40
0.0
 40
0.0
 40
0.0
 40
0.25
 40
0.25
 40
0.5
 40
0.5
 40
0.625
 40
0.625
 40
0.75
 40
0.75
 40
1.0
 40
1.0
 40
1.0
 40
1.0
 10
114.6054312138728
 20
41.96227646911363
 30
0.0
 10
114.6054312138728
 20
42.76195187165339
 30
0.0
 10
114.6054312138728
 20
43.57902207559374
 30
0.0
 10
114.6054312138728
 20
45.21652949705163
 30
0.0
 10
114.6054312138728
 20
46.04085411946237
 30
0.0
 10
114.6054312138728
 20
47.28720947386086
 30
0.0
 10
114.6054312138728
 20
47.70547800805868
 30
0.0
 10
114.6054312138728
 20
48.53993930336879
 30
0.0
 10
114.6054312138728
 20
48.95282729862681
 30
0.0
 10
114.6054312138728
 20
50.18028222261303
 30
0.0
 10
114.6054312138728
 20
50.98371577185137
 30
0.0
 10
114.6054312138728
 20
51.77723104533727
 30
0.0
  0
SPLINE
  5
EF
330
1F
100
AcDbEntity
  8
0
  6
Continuous
 62
     7
370
    25
100
AcDbSpline
210
0.0
220
0.0
230
1.0
 70
    24
 71
     3
 72
    16
 73
    12
 74
     0
 42
0.000000001
 43
0.00000001
 40
0.0
 40
0.0
 40
0.0
 40
0.0
 40
0.2500000000000002
 40
0.2500000000000002
 40
0.5000000000000004
 40
0.5000000000000004
 40
0.6250000000000003
 40
0.6250000000000003
 40
0.7500000000000002
 40
0.7500000000000002
 40
1.0
 40
1.0
 40
1.0
 40
1.0
 10
123.1054312138729
 20
56.68470833344912
 30
0.0
 10
122.411486952825
 20
56.28405942753054
 30
0.0
 10
121.7124832262808
 20
55.88048943784568
 30
0.0
 10
120.2998974358804
 20
55.0649326515046
 30
0.0
 10
119.5862069943021
 20
54.65288328294128
 30
0.0
 10
118.502224875565
 20
54.02704591489168
 30
0.0
 10
118.1391974472461
 20
53.81745193142856
 30
0.0
 10
117.4210908843824
 20
53.40285291405232
 30
0.0
 10
117.0644451477983
 20
53.19694340203016
 30
0.0
 10
116.0008575289424
 20
52.58288080397699
 30
0.0
 10
115.300240496381
 20
52.17837937162881
 30
0.0
 10
114.6054312138728
 20
51.77723104533725
 30
0.0
  0
SPLINE
  5
F0
330
1F
100
AcDbEntity
  8
0
  6
Continuous
 62
     7
370
    25
100
AcDbSpline
210
0.0
220
0.0
230
1.0
 70
    24
 71
     3
 72
    16
 73
    12
 74
     0
 42
0.000000001
 43
0.00000001
 40
0.0
 40
0.0
 40
0.0
 40
0.0
 40
0.2499999999999998
 40
0.2499999999999998
 40
0.4999999999999996
 40
0.4999999999999996
 40
0.6249999999999994
 40
0.6249999999999994
 40
0.7499999999999996
 40
0.7499999999999996
 40
1.0
 40
1.0
 40
1.0
 40
1.0
 10
131.6054312138729
 20
51.77723104533724
 30
0.0
 10
130.911486952825
 20
52.17787995125583
 30
0.0
 10
130.2124832262808
 20
52.58144994094069
 30
0.0
 10
128.7998974358804
 20
53.39700672728177
 30
0.0
 10
128.0862069943021
 20
53.80905609584509
 30
0.0
 10
127.002224875565
 20
54.43489346389469
 30
0.0
 10
126.6391974472461
 20
54.64448744735781
 30
0.0
 10
125.9210908843824
 20
55.05908646473404
 30
0.0
 10
125.5644451477983
 20
55.26499597675622
 30
0.0
 10
124.5008575289424
 20
55.87905857480938
 30
0.0
 10
123.800240496381
 20
56.28356000715755
 30
0.0
 10
123.1054312138728
 20
56.68470833344911
 30
0.0
  0
CIRCLE
  5
F1
330
1F
100
AcDbEntity
  8
0
  6
Continuous
 62
     7
370
    25
100
AcDbCircle
 10
123.1054312139
 20
46.8697537572
 30
0.0
 40
8.249999999999986
  0
INSERT
  5
FD
330
1F
100
AcDbEntity
  8
0
  6
Continuous
 62
     7
370
    18
100
AcDbBlockReference
  2
SW_CENTERMARKSYMBOL_0
 10
123.1054312139
 20
46.8697537572
 30
0.0
  0
INSERT
  5
109
330
1F
100
AcDbEntity
  8
0
  6
Continuous
 62
     7
370
    18
100
AcDbBlockReference
  2
SW_CENTERMARKSYMBOL_1
 10
123.1054312139
 20
46.8697537572
 30
0.0
  0
LINE
  5
10A
330
1F
100
AcDbEntity
  8
0
  6
Continuous
 62
     7
370
    25
100
AcDbLine
 10
78.6131237044
 20
67.8569514451
 30
0.0
 11
78.7574612717
 21
68.1069514451
 31
0.0
  0
LINE
  5
10B
330
1F
100
AcDbEntity
  8
0
  6
Continuous
 62
     7
370
    25
100
AcDbLine
 10
78.7574612717
 20
84.6069514451
 30
0.0
 11
78.6131237044
 21
84.8569514451
 31
0.0
  0
LINE
  5
10C
330
1F
100
AcDbEntity
  8
0
  6
Continuous
 62
     7
370
    25
100
AcDbLine
 10
72.7574612717
 20
84.8957639451
 30
0.0
 11
61.8313707053
 21
84.5543236149
 31
0.0
  0
LINE
  5
10D
330
1F
100
AcDbEntity
  8
0
  6
Continuous
 62
     7
370
    25
100
AcDbLine
 10
61.8313707053
 20
68.1595792753
 30
0.0
 11
72.7574612717
 21
67.8181389451
 31
0.0
  0
LINE
  5
10E
330
1F
100
AcDbEntity
  8
0
  6
Continuous
 62
     7
370
    25
100
AcDbLine
 10
61.8313707053
 20
84.5543236149
 30
0.0
 11
59.7574612717
 21
83.3569514451
 31
0.0
  0
LINE
  5
10F
330
1F
100
AcDbEntity
  8
0
  6
Continuous
 62
     7
370
    25
100
AcDbLine
 10
59.7574612717
 20
69.3569514451
 30
0.0
 11
61.8313707053
 21
68.1595792753
 31
0.0
  0
LINE
  5
110
330
1F
100
AcDbEntity
  8
0
  6
Continuous
 62
     7
370
    25
100
AcDbLine
 10
89.2574612717
 20
71.1069514451
 30
0.0
 11
93.7574612717
 21
71.8569514451
 31
0.0
  0
LINE
  5
111
330
1F
100
AcDbEntity
  8
0
  6
Continuous
 62
     7
370
    25
100
AcDbLine
 10
93.7574612717
 20
80.8569514451
 30
0.0
 11
89.2574612717
 21
81.6069514451
 31
0.0
  0
LINE
  5
112
330
1F
100
AcDbEntity
  8
0
  6
Continuous
 62
     7
370
    25
100
AcDbLine
 10
84.7574612717
 20
71.1069514451
 30
0.0
 11
89.2574612717
 21
71.8569514451
 31
0.0
  0
LINE
  5
113
330
1F
100
AcDbEntity
  8
0
  6
Continuous
 62
     7
370
    25
100
AcDbLine
 10
89.2574612717
 20
80.8569514451
 30
0.0
 11
84.7574612717
 21
81.6069514451
 31
0.0
  0
LINE
  5
114
330
1F
100
AcDbEntity
  8
0
  6
Continuous
 62
     7
370
    25
100
AcDbLine
 10
98.2574612717
 20
71.1069514451
 30
0.0
 11
103.325017874
 21
71.7979818909
 31
0.0
  0
LINE
  5
115
330
1F
100
AcDbEntity
  8
0
  6
Continuous
 62
     7
370
    25
100
AcDbLine
 10
103.325017874
 20
80.9159209993
 30
0.0
 11
98.2574612717
 21
81.6069514451
 31
0.0
  0
LINE
  5
116
330
1F
100
AcDbEntity
  8
0
  6
Continuous
 62
     7
370
    25
100
AcDbLine
 10
84.7574612717
 20
81.6069514451
 30
0.0
 11
78.7574612717
 21
81.6069514451
 31
0.0
  0
LINE
  5
117
330
1F
100
AcDbEntity
  8
0
  6
Continuous
 62
     7
370
    25
100
AcDbLine
 10
78.7574612717
 20
71.1069514451
 30
0.0
 11
84.7574612717
 21
71.1069514451
 31
0.0
  0
LINE
  5
118
330
1F
100
AcDbEntity
  8
0
  6
Continuous
 62
     7
370
    25
100
AcDbLine
 10
93.7574612717
 20
71.1069514451
 30
0.0
 11
98.2574612717
 21
71.8569514451
 31
0.0
  0
LINE
  5
119
330
1F
100
AcDbEntity
  8
0
  6
Continuous
 62
     7
370
    25
100
AcDbLine
 10
98.2574612717
 20
80.8569514451
 30
0.0
 11
93.7574612717
 21
81.6069514451
 31
0.0
  0
ARC
  5
11A
330
1F
100
AcDbEntity
  8
0
  6
Continuous
 62
     7
370
    25
100
AcDbCircle
 10
103.2574612717
 20
80.4205059153
 30
0.0
 40
0.5000000000000073
100
AcDbArc
 50
0.0
 51
82.2348339816
  0
ARC
  5
11B
330
1F
100
AcDbEntity
  8
0
  6
Continuous
 62
     7
370
    25
100
AcDbCircle
 10
103.2574612717
 20
72.2933969749
 30
0.0
 40
0.5
100
AcDbArc
 50
277.7651660184
 51
0.0
  0
LINE
  5
11C
330
1F
100
AcDbEntity
  8
0
  6
Continuous
 62
     7
370
    25
100
AcDbLine
 10
75.6770765139
 20
76.3569514451
 30
0.0
 11
73.4942422429
 21
76.3569514451
 31
0.0
  0
SPLINE
  5
11D
330
1F
100
AcDbEntity
  8
0
  6
Continuous
 62
     7
370
    25
100
AcDbSpline
210
0.0
220
0.0
230
1.0
 70
     8
 71
     3
 72
    10
 73
     6
 74
     0
 42
0.000000001
 43
0.00000001
 40
0.0
 40
0.0
 40
0.0
 40
0.0
 40
0.5
 40
0.5
 40
1.0
 40
1.0
 40
1.0
 40
1.0
 10
73.49424224290821
 20
76.35695144508671
 30
0.0
 10
73.30030714282714
 20
76.93875674532997
 30
0.0
 10
73.13393529103175
 20
77.52798408587176
 30
0.0
 10
72.88168850316058
 20
78.70961143245334
 30
0.0
 10
72.79547327002476
 20
79.30399374420865
 30
0.0
 10
72.75746127167629
 20
79.90268645048799
 30
0.0
  0
SPLINE
  5
11E
330
1F
100
AcDbEntity
  8
0
  6
Continuous
 62
     7
370
    25
100
AcDbSpline
210
0.0
220
0.0
230
1.0
 70
     8
 71
     3
 72
    12
 73
     8
 74
     0
 42
0.000000001
 43
0.00000001
 40
0.0
 40
0.0
 40
0.0
 40
0.0
 40
0.2499999999999999
 40
0.2499999999999999
 40
0.4999999999999999
 40
0.4999999999999999
 40
1.0
 40
1.0
 40
1.0
 40
1.0
 10
72.75746127167629
 20
81.31121643968544
 30
0.0
 10
72.77665512555645
 20
81.6135215228884
 30
0.0
 10
72.80837114883231
 20
81.91733602209251
 30
0.0
 10
72.89384886361321
 20
82.51729404107459
 30
0.0
 10
72.94762618116377
 20
82.81470329955054
 30
0.0
 10
73.13767341929477
 20
83.70024616304873
 30
0.0
 10
73.30250218625534
 20
84.28173127512805
 30
0.0
 10
73.49424224290821
 20
84.85695144508671
 30
0.0
  0
LINE
  5
11F
330
1F
100
AcDbEntity
  8
0
  6
Continuous
 62
     7
370
    25
100
AcDbLine
 10
75.6770765139
 20
84.8569514451
 30
0.0
 11
73.4942422429
 21
84.8569514451
 31
0.0
  0
SPLINE
  5
120
330
1F
100
AcDbEntity
  8
0
  6
Continuous
 62
     7
370
    25
100
AcDbSpline
210
0.0
220
0.0
230
1.0
 70
     8
 71
     3
 72
     8
 73
     4
 74
     0
 42
0.000000001
 43
0.00000001
 40
0.0
 40
0.0
 40
0.0
 40
0.0
 40
1.0
 40
1.0
 40
1.0
 40
1.0
 10
75.75746127167629
 20
84.31009476403878
 30
0.0
 10
75.73208663851712
 20
84.49258716381989
 30
0.0
 10
75.70524523731034
 20
84.67486595489711
 30
0.0
 10
75.67707651394696
 20
84.85695144508671
 30
0.0
  0
SPLINE
  5
121
330
1F
100
AcDbEntity
  8
0
  6
Continuous
 62
     7
370
    25
100
AcDbSpline
210
0.0
220
0.0
230
1.0
 70
     8
 71
     3
 72
     8
 73
     4
 74
     0
 42
0.000000001
 43
0.00000001
 40
0.0
 40
0.0
 40
0.0
 40
0.0
 40
1.0
 40
1.0
 40
1.0
 40
1.0
 10
75.83784602940563
 20
84.85695144508671
 30
0.0
 10
75.80966472358247
 20
84.67478462059849
 30
0.0
 10
75.78282419758774
 20
84.49250296619937
 30
0.0
 10
75.75746127167629
 20
84.31009476403878
 30
0.0
  0
LINE
  5
122
330
1F
100
AcDbEntity
  8
0
  6
Continuous
 62
     7
370
    25
100
AcDbLine
 10
77.8539343258
 20
84.8569514451
 30
0.0
 11
75.8378460294
 21
84.8569514451
 31
0.0
  0
SPLINE
  5
123
330
1F
100
AcDbEntity
  8
0
  6
Continuous
 62
     7
370
    25
100
AcDbSpline
210
0.0
220
0.0
230
1.0
 70
     8
 71
     3
 72
    16
 73
    12
 74
     0
 42
0.000000001
 43
0.00000001
 40
0.0
 40
0.0
 40
0.0
 40
0.0
 40
0.2499999999999998
 40
0.2499999999999998
 40
0.4999999999999996
 40
0.4999999999999996
 40
0.6249999999999994
 40
0.6249999999999994
 40
0.7499999999999996
 40
0.7499999999999996
 40
1.0
 40
1.0
 40
1.0
 40
1.0
 10
77.85393432582445
 20
84.85695144508676
 30
0.0
 10
78.08524907950708
 20
84.16300718403888
 30
0.0
 10
78.27589437283753
 20
83.46400345749467
 30
0.0
 10
78.54000002924482
 20
82.05141766709431
 30
0.0
 10
78.61258922055879
 20
81.33772722551598
 30
0.0
 10
78.61338646664974
 20
80.25374510677888
 30
0.0
 10
78.5956412100263
 20
79.89071767846
 30
0.0
 10
78.5264441264965
 20
79.17261111559624
 30
0.0
 10
78.47506252043422
 20
78.81596537901213
 30
0.0
 10
78.27665452169761
 20
77.7523777601563
 30
0.0
 10
78.08553741999364
 20
77.05176072759487
 30
0.0
 10
77.85393432582426
 20
76.35695144508668
 30
0.0
  0
LINE
  5
124
330
1F
100
AcDbEntity
  8
0
  6
Continuous
 62
     7
370
    25
100
AcDbLine
 10
77.8539343258
 20
76.3569514451
 30
0.0
 11
75.8378460294
 21
76.3569514451
 31
0.0
  0
SPLINE
  5
125
330
1F
100
AcDbEntity
  8
0
  6
Continuous
 62
     7
370
    25
100
AcDbSpline
210
0.0
220
0.0
230
1.0
 70
     8
 71
     3
 72
     8
 73
     4
 74
     0
 42
0.000000001
 43
0.00000001
 40
0.0
 40
0.0
 40
0.0
 40
0.0
 40
1.0
 40
1.0
 40
1.0
 40
1.0
 10
75.75746127167629
 20
76.90380812613463
 30
0.0
 10
75.78283590483548
 20
76.72131572635354
 30
0.0
 10
75.80967730604225
 20
76.5390369352763
 30
0.0
 10
75.83784602940563
 20
76.35695144508671
 30
0.0
  0
SPLINE
  5
126
330
1F
100
AcDbEntity
  8
0
  6
Continuous
 62
     7
370
    25
100
AcDbSpline
210
0.0
220
0.0
230
1.0
 70
     8
 71
     3
 72
     8
 73
     4
 74
     0
 42
0.000000001
 43
0.00000001
 40
0.0
 40
0.0
 40
0.0
 40
0.0
 40
1.0
 40
1.0
 40
1.0
 40
1.0
 10
75.67707651394696
 20
76.35695144508671
 30
0.0
 10
75.70525781977013
 20
76.53911826957494
 30
0.0
 10
75.73209834576485
 20
76.72139992397406
 30
0.0
 10
75.75746127167629
 20
76.90380812613463
 30
0.0
  0
SPLINE
  5
127
330
1F
100
AcDbEntity
  8
0
  6
Continuous
 62
     7
370
    25
100
AcDbSpline
210
0.0
220
0.0
230
1.0
 70
    24
 71
     3
 72
    12
 73
     8
 74
     0
 42
0.000000001
 43
0.00000001
 40
0.0
 40
0.0
 40
0.0
 40
0.0
 40
0.2209509582464313
 40
0.4142471317587119
 40
0.6082242050654059
 40
0.803900513271813
 40
1.0
 40
1.0
 40
1.0
 40
1.0
 10
78.60588932318909
 20
84.85695144508671
 30
0.0
 10
78.60107848981133
 20
84.85695144508671
 30
0.0
 10
78.5920589592154
 20
84.85695144508671
 30
0.0
 10
78.47945346101197
 20
84.85695144508671
 30
0.0
 10
78.32196401588786
 20
84.85695144508671
 30
0.0
 10
78.11430851327941
 20
84.85695144508671
 30
0.0
 10
77.9407881979121
 20
84.85695144508671
 30
0.0
 10
77.85393432582404
 20
84.85695144508671
 30
0.0
  0
SPLINE
  5
128
330
1F
100
AcDbEntity
  8
0
  6
Continuous
 62
     7
370
    25
100
AcDbSpline
210
0.0
220
0.0
230
1.0
 70
    24
 71
     3
 72
    12
 73
     8
 74
     0
 42
0.000000001
 43
0.00000001
 40
0.0
 40
0.0
 40
0.0
 40
0.0
 40
0.1936015576195931
 40
0.3875702210684882
 40
0.5829796909490819
 40
0.7790452728488882
 40
1.0
 40
1.0
 40
1.0
 40
1.0
 10
77.85393432582404
 20
67.85695144508671
 30
0.0
 10
77.93972608734889
 20
67.85695144508672
 30
0.0
 10
78.11147228809678
 20
67.85695144508671
 30
0.0
 10
78.31891286225155
 20
67.85695144508671
 30
0.0
 10
78.47815271224513
 20
67.85695144508672
 30
0.0
 10
78.59160402739137
 20
67.85695144508671
 30
0.0
 10
78.6019514617678
 20
67.85695144508671
 30
0.0
 10
78.60743396343435
 20
67.85695144508672
 30
0.0
  0
SPLINE
  5
129
330
1F
100
AcDbEntity
  8
0
  6
Continuous
 62
     7
370
    25
100
AcDbSpline
210
0.0
220
0.0
230
1.0
 70
     8
 71
     3
 72
    16
 73
    12
 74
     0
 42
0.000000001
 43
0.00000001
 40
0.0
 40
0.0
 40
0.0
 40
0.0
 40
0.2500000000000002
 40
0.2500000000000002
 40
0.5000000000000004
 40
0.5000000000000004
 40
0.6250000000000003
 40
0.6250000000000003
 40
0.7500000000000002
 40
0.7500000000000002
 40
1.0
 40
1.0
 40
1.0
 40
1.0
 10
77.85393432582445
 20
76.35695144508676
 30
0.0
 10
78.08524907950708
 20
75.66300718403889
 30
0.0
 10
78.27589437283753
 20
74.96400345749467
 30
0.0
 10
78.54000002924482
 20
73.55141766709431
 30
0.0
 10
78.61258922055879
 20
72.83772722551598
 30
0.0
 10
78.61338646664974
 20
71.75374510677888
 30
0.0
 10
78.5956412100263
 20
71.39071767846
 30
0.0
 10
78.52644412649651
 20
70.67261111559624
 30
0.0
 10
78.47506252043422
 20
70.31596537901214
 30
0.0
 10
78.27665452169761
 20
69.2523777601563
 30
0.0
 10
78.08553741999364
 20
68.55176072759487
 30
0.0
 10
77.85393432582426
 20
67.85695144508668
 30
0.0
  0
LINE
  5
12A
330
1F
100
AcDbEntity
  8
0
  6
Continuous
 62
     7
370
    25
100
AcDbLine
 10
78.7574612717
 20
84.6069514451
 30
0.0
 11
78.7574612717
 21
68.1069514451
 31
0.0
  0
SPLINE
  5
12B
330
1F
100
AcDbEntity
  8
0
  6
Continuous
 62
     7
370
    25
100
AcDbSpline
210
0.0
220
0.0
230
1.0
 70
     8
 71
     3
 72
    12
 73
     8
 74
     0
 42
0.000000001
 43
0.00000001
 40
0.0
 40
0.0
 40
0.0
 40
0.0
 40
0.2500000000000001
 40
0.2500000000000001
 40
0.5000000000000002
 40
0.5000000000000002
 40
1.0
 40
1.0
 40
1.0
 40
1.0
 10
72.75746127167629
 20
72.81121643968544
 30
0.0
 10
72.77665512555645
 20
73.1135215228884
 30
0.0
 10
72.80837114883231
 20
73.41733602209251
 30
0.0
 10
72.89384886361321
 20
74.01729404107459
 30
0.0
 10
72.94762618116377
 20
74.31470329955054
 30
0.0
 10
73.13767341929477
 20
75.20024616304875
 30
0.0
 10
73.30250218625534
 20
75.78173127512805
 30
0.0
 10
73.49424224290821
 20
76.35695144508671
 30
0.0
  0
LINE
  5
12C
330
1F
100
AcDbEntity
  8
0
  6
Continuous
 62
     7
370
    25
100
AcDbLine
 10
72.7574612717
 20
72.8112164397
 30
0.0
 11
72.7574612717
 21
79.9026864505
 31
0.0
  0
LINE
  5
12D
330
1F
100
AcDbEntity
  8
0
  6
Continuous
 62
     7
370
    25
100
AcDbLine
 10
75.7574612717
 20
75.810094764
 30
0.0
 11
75.7574612717
 21
76.9038081261
 31
0.0
  0
SPLINE
  5
12E
330
1F
100
AcDbEntity
  8
0
  6
Continuous
 62
     7
370
    25
100
AcDbSpline
210
0.0
220
0.0
230
1.0
 70
     8
 71
     3
 72
     8
 73
     4
 74
     0
 42
0.000000001
 43
0.00000001
 40
0.0
 40
0.0
 40
0.0
 40
0.0
 40
1.0
 40
1.0
 40
1.0
 40
1.0
 10
75.75746127167629
 20
75.81009476403878
 30
0.0
 10
75.73208663851712
 20
75.9925871638199
 30
0.0
 10
75.70524523731034
 20
76.17486595489711
 30
0.0
 10
75.67707651394696
 20
76.35695144508671
 30
0.0
  0
SPLINE
  5
12F
330
1F
100
AcDbEntity
  8
0
  6
Continuous
 62
     7
370
    25
100
AcDbSpline
210
0.0
220
0.0
230
1.0
 70
     8
 71
     3
 72
     8
 73
     4
 74
     0
 42
0.000000001
 43
0.00000001
 40
0.0
 40
0.0
 40
0.0
 40
0.0
 40
1.0
 40
1.0
 40
1.0
 40
1.0
 10
75.83784602940563
 20
76.35695144508671
 30
0.0
 10
75.80966472358247
 20
76.17478462059849
 30
0.0
 10
75.78282419758774
 20
75.99250296619937
 30
0.0
 10
75.75746127167629
 20
75.81009476403878
 30
0.0
  0
LINE
  5
130
330
1F
100
AcDbEntity
  8
0
  6
Continuous
 62
     7
370
    25
100
AcDbLine
 10
75.6770765139
 20
67.8569514451
 30
0.0
 11
73.4942422429
 21
67.8569514451
 31
0.0
  0
SPLINE
  5
131
330
1F
100
AcDbEntity
  8
0
  6
Continuous
 62
     7
370
    25
100
AcDbSpline
210
0.0
220
0.0
230
1.0
 70
     8
 71
     3
 72
    10
 73
     6
 74
     0
 42
0.000000001
 43
0.00000001
 40
0.0
 40
0.0
 40
0.0
 40
0.0
 40
0.5
 40
0.5
 40
1.0
 40
1.0
 40
1.0
 40
1.0
 10
73.49424224290821
 20
67.85695144508672
 30
0.0
 10
73.30030714282714
 20
68.43875674532995
 30
0.0
 10
73.13393529103175
 20
69.02798408587175
 30
0.0
 10
72.88168850316058
 20
70.20961143245334
 30
0.0
 10
72.79547327002476
 20
70.80399374420865
 30
0.0
 10
72.75746127167629
 20
71.40268645048799
 30
0.0
  0
LINE
  5
132
330
1F
100
AcDbEntity
  8
0
  6
Continuous
 62
     7
370
    25
100
AcDbLine
 10
77.8539343258
 20
67.8569514451
 30
0.0
 11
75.8378460294
 21
67.8569514451
 31
0.0
  0
SPLINE
  5
133
330
1F
100
AcDbEntity
  8
0
  6
Continuous
 62
     7
370
    25
100
AcDbSpline
210
0.0
220
0.0
230
1.0
 70
     8
 71
     3
 72
     8
 73
     4
 74
     0
 42
0.000000001
 43
0.00000001
 40
0.0
 40
0.0
 40
0.0
 40
0.0
 40
1.0
 40
1.0
 40
1.0
 40
1.0
 10
75.75746127167629
 20
68.40380812613463
 30
0.0
 10
75.78283590483548
 20
68.22131572635352
 30
0.0
 10
75.80967730604225
 20
68.0390369352763
 30
0.0
 10
75.83784602940563
 20
67.85695144508671
 30
0.0
  0
SPLINE
  5
134
330
1F
100
AcDbEntity
  8
0
  6
Continuous
 62
     7
370
    25
100
AcDbSpline
210
0.0
220
0.0
230
1.0
 70
     8
 71
     3
 72
     8
 73
     4
 74
     0
 42
0.000000001
 43
0.00000001
 40
0.0
 40
0.0
 40
0.0
 40
0.0
 40
1.0
 40
1.0
 40
1.0
 40
1.0
 10
75.67707651394696
 20
67.85695144508671
 30
0.0
 10
75.70525781977013
 20
68.03911826957493
 30
0.0
 10
75.73209834576485
 20
68.22139992397405
 30
0.0
 10
75.75746127167629
 20
68.40380812613463
 30
0.0
  0
LINE
  5
135
330
1F
100
AcDbEntity
  8
0
  6
Continuous
 62
     7
370
    25
100
AcDbLine
 10
61.8313707053
 20
84.5543236149
 30
0.0
 11
61.8313707053
 21
68.1595792753
 31
0.0
  0
LINE
  5
136
330
1F
100
AcDbEntity
  8
0
  6
Continuous
 62
     7
370
    25
100
AcDbLine
 10
72.7574612717
 20
67.8181389451
 30
0.0
 11
72.7574612717
 21
67.8569514451
 31
0.0
  0
LINE
  5
137
330
1F
100
AcDbEntity
  8
0
  6
Continuous
 62
     7
370
    25
100
AcDbLine
 10
72.7574612717
 20
84.8569514451
 30
0.0
 11
72.7574612717
 21
84.8957639451
 31
0.0
  0
LINE
  5
138
330
1F
100
AcDbEntity
  8
0
  6
Continuous
 62
     7
370
    25
100
AcDbLine
 10
72.7574612717
 20
81.3112164397
 30
0.0
 11
72.7574612717
 21
84.8569514451
 31
0.0
  0
LINE
  5
139
330
1F
100
AcDbEntity
  8
0
  6
Continuous
 62
     7
370
    25
100
AcDbLine
 10
72.7574612717
 20
79.9026864505
 30
0.0
 11
72.7574612717
 21
81.3112164397
 31
0.0
  0
LINE
  5
13A
330
1F
100
AcDbEntity
  8
0
  6
Continuous
 62
     7
370
    25
100
AcDbLine
 10
72.7574612717
 20
71.4026864505
 30
0.0
 11
72.7574612717
 21
72.8112164397
 31
0.0
  0
LINE
  5
13B
330
1F
100
AcDbEntity
  8
0
  6
Continuous
 62
     7
370
    25
100
AcDbLine
 10
72.7574612717
 20
67.8569514451
 30
0.0
 11
72.7574612717
 21
71.4026864505
 31
0.0
  0
LINE
  5
13C
330
1F
100
AcDbEntity
  8
0
  6
Continuous
 62
     7
370
    25
100
AcDbLine
 10
59.7574612717
 20
69.3569514451
 30
0.0
 11
59.7574612717
 21
83.3569514451
 31
0.0
  0
SPLINE
  5
13D
330
1F
100
AcDbEntity
  8
0
  6
Continuous
 62
     7
370
    25
100
AcDbSpline
210
0.0
220
0.0
230
1.0
 70
    24
 71
     3
 72
    10
 73
     6
 74
     0
 42
0.000000001
 43
0.00000001
 40
0.0
 40
0.0
 40
0.0
 40
0.0
 40
0.5
 40
0.5
 40
1.0
 40
1.0
 40
1.0
 40
1.0
 10
73.49424224290821
 20
84.85695144508671
 30
0.0
 10
73.30113556760432
 20
84.85695144508671
 30
0.0
 10
73.13402522839407
 20
84.85695144508671
 30
0.0
 10
72.88121648807233
 20
84.85695144508671
 30
0.0
 10
72.79533138878017
 20
84.85695144508671
 30
0.0
 10
72.75746127167629
 20
84.85695144508671
 30
0.0
  0
SPLINE
  5
13E
330
1F
100
AcDbEntity
  8
0
  6
Continuous
 62
     7
370
    25
100
AcDbSpline
210
0.0
220
0.0
230
1.0
 70
    24
 71
     3
 72
    10
 73
     6
 74
     0
 42
0.000000001
 43
0.00000001
 40
0.0
 40
0.0
 40
0.0
 40
0.0
 40
0.5
 40
0.5
 40
1.0
 40
1.0
 40
1.0
 40
1.0
 10
72.75746127167629
 20
67.85695144508671
 30
0.0
 10
72.79550350230373
 20
67.85695144508671
 30
0.0
 10
72.88355652806767
 20
67.85695144508671
 30
0.0
 10
73.13761418182791
 20
67.85695144508671
 30
0.0
 10
73.30268076988874
 20
67.85695144508671
 30
0.0
 10
73.49424224290821
 20
67.85695144508671
 30
0.0
  0
LINE
  5
13F
330
1F
100
AcDbEntity
  8
0
  6
Continuous
 62
     7
370
    25
100
AcDbLine
 10
89.2574612717
 20
76.3569514451
 30
0.0
 11
89.2574612717
 21
71.1069514451
 31
0.0
  0
LINE
  5
140
330
1F
100
AcDbEntity
  8
0
  6
Continuous
 62
     7
370
    25
100
AcDbLine
 10
89.2574612717
 20
81.6069514451
 30
0.0
 11
89.2574612717
 21
76.3569514451
 31
0.0
  0
LINE
  5
141
330
1F
100
AcDbEntity
  8
0
  6
Continuous
 62
     7
370
    25
100
AcDbLine
 10
84.7574612717
 20
76.3569514451
 30
0.0
 11
84.7574612717
 21
71.1069514451
 31
0.0
  0
LINE
  5
142
330
1F
100
AcDbEntity
  8
0
  6
Continuous
 62
     7
370
    25
100
AcDbLine
 10
84.7574612717
 20
81.6069514451
 30
0.0
 11
84.7574612717
 21
76.3569514451
 31
0.0
  0
LINE
  5
143
330
1F
100
AcDbEntity
  8
0
  6
Continuous
 62
     7
370
    25
100
AcDbLine
 10
98.2574612717
 20
76.3569514451
 30
0.0
 11
98.2574612717
 21
71.1069514451
 31
0.0
  0
LINE
  5
144
330
1F
100
AcDbEntity
  8
0
  6
Continuous
 62
     7
370
    25
100
AcDbLine
 10
98.2574612717
 20
81.6069514451
 30
0.0
 11
98.2574612717
 21
76.3569514451
 31
0.0
  0
LINE
  5
145
330
1F
100
AcDbEntity
  8
0
  6
Continuous
 62
     7
370
    25
100
AcDbLine
 10
93.7574612717
 20
76.3569514451
 30
0.0
 11
93.7574612717
 21
71.1069514451
 31
0.0
  0
LINE
  5
146
330
1F
100
AcDbEntity
  8
0
  6
Continuous
 62
     7
370
    25
100
AcDbLine
 10
93.7574612717
 20
81.6069514451
 30
0.0
 11
93.7574612717
 21
76.3569514451
 31
0.0
  0
SPLINE
  5
147
330
1F
100
AcDbEntity
  8
0
  6
Continuous
 62
     7
370
    25
100
AcDbSpline
210
0.0
220
0.0
230
1.0
 70
    24
 71
     3
 72
     8
 73
     4
 74
     0
 42
0.000000001
 43
0.00000001
 40
0.0
 40
0.0
 40
0.0
 40
0.0
 40
1.0
 40
1.0
 40
1.0
 40
1.0
 10
75.67707651394696
 20
84.85695144508671
 30
0.0
 10
75.70525966583912
 20
84.85695144508671
 30
0.0
 10
75.73210006163725
 20
84.85695144508671
 30
0.0
 10
75.75746127167629
 20
84.85695144508671
 30
0.0
  0
LINE
  5
148
330
1F
100
AcDbEntity
  8
0
  6
Continuous
 62
     7
370
    25
100
AcDbLine
 10
75.7574612717
 20
84.310094764
 30
0.0
 11
75.7574612717
 21
84.8569514451
 31
0.0
  0
SPLINE
  5
149
330
1F
100
AcDbEntity
  8
0
  6
Continuous
 62
     7
370
    25
100
AcDbSpline
210
0.0
220
0.0
230
1.0
 70
    24
 71
     3
 72
     8
 73
     4
 74
     0
 42
0.000000001
 43
0.00000001
 40
0.0
 40
0.0
 40
0.0
 40
0.0
 40
1.0
 40
1.0
 40
1.0
 40
1.0
 10
75.75746127167629
 20
84.85695144508671
 30
0.0
 10
75.78283530226062
 20
84.85695144508671
 30
0.0
 10
75.80967665897761
 20
84.85695144508671
 30
0.0
 10
75.83784602940563
 20
84.85695144508671
 30
0.0
  0
SPLINE
  5
14A
330
1F
100
AcDbEntity
  8
0
  6
Continuous
 62
     7
370
    25
100
AcDbSpline
210
0.0
220
0.0
230
1.0
 70
    24
 71
     3
 72
     8
 73
     4
 74
     0
 42
0.000000001
 43
0.00000001
 40
0.0
 40
0.0
 40
0.0
 40
0.0
 40
1.0
 40
1.0
 40
1.0
 40
1.0
 10
75.83784602940563
 20
67.85695144508671
 30
0.0
 10
75.80966287751347
 20
67.85695144508671
 30
0.0
 10
75.78282248171534
 20
67.85695144508671
 30
0.0
 10
75.75746127167629
 20
67.85695144508671
 30
0.0
  0
LINE
  5
14B
330
1F
100
AcDbEntity
  8
0
  6
Continuous
 62
     7
370
    25
100
AcDbLine
 10
75.7574612717
 20
67.8569514451
 30
0.0
 11
75.7574612717
 21
68.4038081261
 31
0.0
  0
SPLINE
  5
14C
330
1F
100
AcDbEntity
  8
0
  6
Continuous
 62
     7
370
    25
100
AcDbSpline
210
0.0
220
0.0
230
1.0
 70
    24
 71
     3
 72
     8
 73
     4
 74
     0
 42
0.000000001
 43
0.00000001
 40
0.0
 40
0.0
 40
0.0
 40
0.0
 40
1.0
 40
1.0
 40
1.0
 40
1.0
 10
75.75746127167629
 20
67.85695144508671
 30
0.0
 10
75.73208724109197
 20
67.85695144508671
 30
0.0
 10
75.70524588437497
 20
67.85695144508671
 30
0.0
 10
75.67707651394696
 20
67.85695144508671
 30
0.0
  0
LINE
  5
14D
330
1F
100
AcDbEntity
  8
0
  6
Continuous
 62
     7
370
    25
100
AcDbLine
 10
103.7574612717
 20
76.3569514451
 30
0.0
 11
103.7574612717
 21
72.2933969749
 31
0.0
  0
LINE
  5
14E
330
1F
100
AcDbEntity
  8
0
  6
Continuous
 62
     7
370
    25
100
AcDbLine
 10
103.7574612717
 20
80.4205059153
 30
0.0
 11
103.7574612717
 21
76.3569514451
 31
0.0
  0
LINE
  5
14F
330
1F
100
AcDbEntity
  8
0
  6
Continuous
 62
     8
370
    25
100
AcDbLine
 10
103.325017874
 20
76.3569514451
 30
0.0
 11
103.325017874
 21
80.9159209993
 31
0.0
  0
LINE
  5
150
330
1F
100
AcDbEntity
  8
0
  6
Continuous
 62
     8
370
    25
100
AcDbLine
 10
103.325017874
 20
71.7979818909
 30
0.0
 11
103.325017874
 21
76.3569514451
 31
0.0
  0
LINE
  5
151
330
1F
100
AcDbEntity
  8
0
  6
Continuous
 62
     7
370
    18
100
AcDbLine
 10
60.6272649081
 20
83.8591328087
 30
0.0
 11
72.2574612717
 21
84.2225764451
 31
0.0
  0
LINE
  5
152
330
1F
100
AcDbEntity
  8
0
  6
Continuous
 62
     7
370
    18
100
AcDbLine
 10
60.6272649081
 20
68.8547700814
 30
0.0
 11
72.2574612717
 21
68.4913264451
 31
0.0
  0
LINE
  5
153
330
1F
100
AcDbEntity
  8
0
  6
Continuous
 62
     7
370
    18
100
AcDbLine
 10
72.2574612717
 20
67.8337639451
 30
0.0
 11
72.2574612717
 21
84.8801389451
 31
0.0
  0
LINE
  5
154
330
1F
100
AcDbEntity
  8
0
  6
CENTERX2
 62
     7
370
    18
100
AcDbLine
 10
104.7574612717
 20
76.3569514451
 30
0.0
 11
58.8467851823
 21
76.3569514451
 31
0.0
  0
ENDSEC
  0
SECTION
  2
OBJECTS
  0
DICTIONARY
  5
C
330
0
100
AcDbDictionary
281
     1
  3
ACAD_GROUP
350
D
  3
ACAD_LAYOUT
350
1A
  3
ACAD_MLINESTYLE
350
17
  3
ACAD_PLOTSETTINGS
350
19
  3
ACAD_PLOTSTYLENAME
350
E
  3
ACAD_SCALELIST
350
47
  0
DICTIONARY
  5
D
102
{ACAD_REACTORS
330
C
102
}
330
C
100
AcDbDictionary
281
     1
  0
DICTIONARY
  5
1A
102
{ACAD_REACTORS
330
C
102
}
330
C
100
AcDbDictionary
281
     1
  3
Layout1
350
1E
  3
Layout2
350
26
  3
Model
350
22
  0
DICTIONARY
  5
17
102
{ACAD_REACTORS
330
C
102
}
330
C
100
AcDbDictionary
281
     1
  3
Standard
350
18
  0
DICTIONARY
  5
19
102
{ACAD_REACTORS
330
C
102
}
330
C
100
AcDbDictionary
281
     1
  0
ACDBDICTIONARYWDFLT
  5
E
102
{ACAD_REACTORS
330
C
102
}
330
C
100
AcDbDictionary
281
     1
  3
Normal
350
F
100
AcDbDictionaryWithDefault
340
F
  0
DICTIONARY
  5
47
102
{ACAD_REACTORS
330
C
102
}
330
C
100
AcDbDictionary
281
     1
  3
A0
350
48
  3
A1
350
49
  3
A2
350
4A
  3
A3
350
4B
  3
A4
350
4C
  3
A5
350
4D
  3
A6
350
4E
  3
A7
350
4F
  3
A8
350
50
  3
A9
350
51
  3
B0
350
52
  3
B1
350
53
  3
B2
350
54
  3
B3
350
55
  3
B4
350
56
  3
B5
350
57
  3
B6
350
58
  3
B7
350
59
  3
B8
350
5A
  3
B9
350
5B
  3
C0
350
5C
  3
C1
350
5D
  3
C2
350
5E
  3
C3
350
5F
  3
C4
350
60
  3
C5
350
61
  3
C6
350
62
  3
C7
350
63
  3
C8
350
64
  3
C9
350
65
  3
D0
350
66
  3
D1
350
67
  3
D2
350
68
  0
LAYOUT
  5
1E
102
{ACAD_REACTORS
330
1A
102
}
330
1A
100
AcDbPlotSettings
  1

  2
none_device
  4

  6

 40
0.0
 41
0.0
 42
0.0
 43
0.0
 44
0.0
 45
0.0
 46
0.0
 47
0.0
 48
0.0
 49
0.0
140
0.0
141
0.0
142
1.0
143
1.0
 70
   688
 72
     1
 73
     0
 74
     5
  7

 75
    16
147
1.0
148
0.0
149
0.0
100
AcDbLayout
  1
Layout1
 70
     1
 71
     1
 10
0.0
 20
0.0
 11
420.0
 21
297.0
 12
0.0
 22
0.0
 32
0.0
 14
1.0000000000E+20
 24
1.0000000000E+20
 34
1.0000000000E+20
 15
-1.0000000000E+20
 25
-1.0000000000E+20
 35
-1.0000000000E+20
146
0.0
 13
0.0
 23
0.0
 33
0.0
 16
1.0
 26
0.0
 36
0.0
 17
0.0
 27
1.0
 37
0.0
 76
     0
330
1B
  0
LAYOUT
  5
26
102
{ACAD_REACTORS
330
1A
102
}
330
1A
100
AcDbPlotSettings
  1

  2
none_device
  4

  6

 40
0.0
 41
0.0
 42
0.0
 43
0.0
 44
0.0
 45
0.0
 46
0.0
 47
0.0
 48
0.0
 49
0.0
140
0.0
141
0.0
142
1.0
143
1.0
 70
   688
 72
     1
 73
     0
 74
     5
  7

 75
    16
147
1.0
148
0.0
149
0.0
100
AcDbLayout
  1
Layout2
 70
     1
 71
     2
 10
0.0
 20
0.0
 11
0.0
 21
0.0
 12
0.0
 22
0.0
 32
0.0
 14
0.0
 24
0.0
 34
0.0
 15
0.0
 25
0.0
 35
0.0
146
0.0
 13
0.0
 23
0.0
 33
0.0
 16
1.0
 26
0.0
 36
0.0
 17
0.0
 27
1.0
 37
0.0
 76
     0
330
23
  0
LAYOUT
  5
22
102
{ACAD_REACTORS
330
1A
102
}
330
1A
100
AcDbPlotSettings
  1

  2
none_device
  4
Letter_(8.50_x_11.00_Inches)
  6

 40
6.35
 41
6.35
 42
6.35000508
 43
6.35000508
 44
215.9
 45
279.4
 46
0.0
 47
0.0
 48
0.0
 49
0.0
140
0.0
141
0.0
142
1.0
143
1.0
 70
  1712
 72
     1
 73
     0
 74
     0
  7

 75
     0
147
1.0
148
0.0
149
0.0
100
AcDbLayout
  1
Model
 70
     1
 71
     0
 10
0.0
 20
0.0
 11
215.9
 21
139.7
 12
0.0
 22
0.0
 32
0.0
 14
0.0
 24
0.0
 34
0.0
 15
215.9
 25
139.7
 35
0.0
146
0.0
 13
0.0
 23
0.0
 33
0.0
 16
1.0
 26
0.0
 36
0.0
 17
0.0
 27
1.0
 37
0.0
 76
     0
330
1F
331
29
  0
MLINESTYLE
  5
18
102
{ACAD_REACTORS
330
17
102
}
330
17
100
AcDbMlineStyle
  2
Standard
 70
     0
  3

 62
   256
 51
90.0
 52
90.0
 71
     2
 49
0.5
 62
   256
  6
BYLAYER
 49
-0.5
 62
   256
  6
BYLAYER
  0
ACDBPLACEHOLDER
  5
F
102
{ACAD_REACTORS
330
E
102
}
330
E
  0
SCALE
  5
48
102
{ACAD_REACTORS
330
47
102
}
330
47
100
AcDbScale
 70
     0
300
1:1
140
1.0
141
1.0
290
     1
  0
SCALE
  5
49
102
{ACAD_REACTORS
330
47
102
}
330
47
100
AcDbScale
 70
     0
300
1:2
140
1.0
141
2.0
290
     0
  0
SCALE
  5
4A
102
{ACAD_REACTORS
330
47
102
}
330
47
100
AcDbScale
 70
     0
300
1:4
140
1.0
141
4.0
290
     0
  0
SCALE
  5
4B
102
{ACAD_REACTORS
330
47
102
}
330
47
100
AcDbScale
 70
     0
300
1:5
140
1.0
141
5.0
290
     0
  0
SCALE
  5
4C
102
{ACAD_REACTORS
330
47
102
}
330
47
100
AcDbScale
 70
     0
300
1:8
140
1.0
141
8.0
290
     0
  0
SCALE
  5
4D
102
{ACAD_REACTORS
330
47
102
}
330
47
100
AcDbScale
 70
     0
300
1:10
140
1.0
141
10.0
290
     0
  0
SCALE
  5
4E
102
{ACAD_REACTORS
330
47
102
}
330
47
100
AcDbScale
 70
     0
300
1:16
140
1.0
141
16.0
290
     0
  0
SCALE
  5
4F
102
{ACAD_REACTORS
330
47
102
}
330
47
100
AcDbScale
 70
     0
300
1:20
140
1.0
141
20.0
290
     0
  0
SCALE
  5
50
102
{ACAD_REACTORS
330
47
102
}
330
47
100
AcDbScale
 70
     0
300
1:30
140
1.0
141
30.0
290
     0
  0
SCALE
  5
51
102
{ACAD_REACTORS
330
47
102
}
330
47
100
AcDbScale
 70
     0
300
1:40
140
1.0
141
40.0
290
     0
  0
SCALE
  5
52
102
{ACAD_REACTORS
330
47
102
}
330
47
100
AcDbScale
 70
     0
300
1:50
140
1.0
141
50.0
290
     0
  0
SCALE
  5
53
102
{ACAD_REACTORS
330
47
102
}
330
47
100
AcDbScale
 70
     0
300
1:100
140
1.0
141
100.0
290
     0
  0
SCALE
  5
54
102
{ACAD_REACTORS
330
47
102
}
330
47
100
AcDbScale
 70
     0
300
2:1
140
2.0
141
1.0
290
     0
  0
SCALE
  5
55
102
{ACAD_REACTORS
330
47
102
}
330
47
100
AcDbScale
 70
     0
300
4:1
140
4.0
141
1.0
290
     0
  0
SCALE
  5
56
102
{ACAD_REACTORS
330
47
102
}
330
47
100
AcDbScale
 70
     0
300
8:1
140
8.0
141
1.0
290
     0
  0
SCALE
  5
57
102
{ACAD_REACTORS
330
47
102
}
330
47
100
AcDbScale
 70
     0
300
10:1
140
10.0
141
1.0
290
     0
  0
SCALE
  5
58
102
{ACAD_REACTORS
330
47
102
}
330
47
100
AcDbScale
 70
     0
300
100:1
140
100.0
141
1.0
290
     0
  0
SCALE
  5
59
102
{ACAD_REACTORS
330
47
102
}
330
47
100
AcDbScale
 70
     0
300
1/128" = 1'-0"
140
0.0078125
141
12.0
290
     0
  0
SCALE
  5
5A
102
{ACAD_REACTORS
330
47
102
}
330
47
100
AcDbScale
 70
     0
300
1/64" = 1'-0"
140
0.015625
141
12.0
290
     0
  0
SCALE
  5
5B
102
{ACAD_REACTORS
330
47
102
}
330
47
100
AcDbScale
 70
     0
300
1/32" = 1'-0"
140
0.03125
141
12.0
290
     0
  0
SCALE
  5
5C
102
{ACAD_REACTORS
330
47
102
}
330
47
100
AcDbScale
 70
     0
300
1/16" = 1'-0"
140
0.0625
141
12.0
290
     0
  0
SCALE
  5
5D
102
{ACAD_REACTORS
330
47
102
}
330
47
100
AcDbScale
 70
     0
300
3/32" = 1'-0"
140
0.09375
141
12.0
290
     0
  0
SCALE
  5
5E
102
{ACAD_REACTORS
330
47
102
}
330
47
100
AcDbScale
 70
     0
300
1/8" = 1'-0"
140
0.125
141
12.0
290
     0
  0
SCALE
  5
5F
102
{ACAD_REACTORS
330
47
102
}
330
47
100
AcDbScale
 70
     0
300
3/16" = 1'-0"
140
0.1875
141
12.0
290
     0
  0
SCALE
  5
60
102
{ACAD_REACTORS
330
47
102
}
330
47
100
AcDbScale
 70
     0
300
1/4" = 1'-0"
140
0.25
141
12.0
290
     0
  0
SCALE
  5
61
102
{ACAD_REACTORS
330
47
102
}
330
47
100
AcDbScale
 70
     0
300
3/8" = 1'-0"
140
0.375
141
12.0
290
     0
  0
SCALE
  5
62
102
{ACAD_REACTORS
330
47
102
}
330
47
100
AcDbScale
 70
     0
300
1/2" = 1'-0"
140
0.5
141
12.0
290
     0
  0
SCALE
  5
63
102
{ACAD_REACTORS
330
47
102
}
330
47
100
AcDbScale
 70
     0
300
3/4" = 1'-0"
140
0.75
141
12.0
290
     0
  0
SCALE
  5
64
102
{ACAD_REACTORS
330
47
102
}
330
47
100
AcDbScale
 70
     0
300
1" = 1'-0"
140
1.0
141
12.0
290
     0
  0
SCALE
  5
65
102
{ACAD_REACTORS
330
47
102
}
330
47
100
AcDbScale
 70
     0
300
1-1/2" = 1'-0"
140
1.5
141
12.0
290
     0
  0
SCALE
  5
66
102
{ACAD_REACTORS
330
47
102
}
330
47
100
AcDbScale
 70
     0
300
3" = 1'-0"
140
3.0
141
12.0
290
     0
  0
SCALE
  5
67
102
{ACAD_REACTORS
330
47
102
}
330
47
100
AcDbScale
 70
     0
300
6" = 1'-0"
140
6.0
141
12.0
290
     0
  0
SCALE
  5
68
102
{ACAD_REACTORS
330
47
102
}
330
47
100
AcDbScale
 70
     0
300
1'-0" = 1'-0"
140
12.0
141
12.0
290
     0
  0
ENDSEC
  0
EOF
