  0
SECTION
  2
HEADER
  9
$ACADVER
  1
AC1015
  9
$ACADMAINTVER
 70
     6
  9
$DWGCODEPAGE
  3
DOS932
  9
$INSBASE
 10
0.0
 20
0.0
 30
0.0
  9
$EXTMIN
 10
0.0
 20
0.0
 30
0.0
  9
$EXTMAX
 10
215.9
 20
139.7
 30
0.0
  9
$LIMMIN
 10
0.0
 20
0.0
  9
$LIMMAX
 10
215.9
 20
139.7
  9
$ORTHOMODE
 70
     0
  9
$REGENMODE
 70
     1
  9
$FILLMODE
 70
     1
  9
$QTEXTMODE
 70
     0
  9
$MIRRTEXT
 70
     1
  9
$LTSCALE
 40
0.5
  9
$ATTMODE
 70
     1
  9
$TEXTSIZE
 40
1.75
  9
$TRACEWID
 40
1.0
  9
$TEXTSTYLE
  7
Standard
  9
$CLAYER
  8
0
  9
$CELTYPE
  6
ByLayer
  9
$CECOLOR
 62
   256
  9
$CELTSCALE
 40
1.0
  9
$DISPSILH
 70
     0
  9
$DIMSCALE
 40
1.0
  9
$DIMASZ
 40
1.651
  9
$DIMEXO
 40
0.5
  9
$DIMDLI
 40
3.75
  9
$DIMRND
 40
0.0
  9
$DIMDLE
 40
0.0
  9
$DIMEXE
 40
0.5
  9
$DIMTP
 40
0.0
  9
$DIMTM
 40
0.0
  9
$DIMTXT
 40
1.75
  9
$DIMCEN
 40
2.5
  9
$DIMTSZ
 40
0.0
  9
$DIMTOL
 70
     0
  9
$DIMLIM
 70
     0
  9
$DIMTIH
 70
     1
  9
$DIMTOH
 70
     1
  9
$DIMSE1
 70
     0
  9
$DIMSE2
 70
     0
  9
$DIMTAD
 70
     1
  9
$DIMZIN
 70
     1
  9
$DIMBLK
  1

  9
$DIMASO
 70
     1
  9
$DIMSHO
 70
     1
  9
$DIMPOST
  1

  9
$DIMAPOST
  1

  9
$DIMALT
 70
     0
  9
$DIMALTD
 70
     3
  9
$DIMALTF
 40
0.0393700787
  9
$DIMLFAC
 40
1.0
  9
$DIMTOFL
 70
     1
  9
$DIMTVP
 40
0.0
  9
$DIMTIX
 70
     0
  9
$DIMSOXD
 70
     0
  9
$DIMSAH
 70
     0
  9
$DIMBLK1
  1

  9
$DIMBLK2
  1

  9
$DIMSTYLE
  2
ISO-25
  9
$DIMCLRD
 70
     0
  9
$DIMCLRE
 70
     0
  9
$DIMCLRT
 70
     0
  9
$DIMTFAC
 40
1.0
  9
$DIMGAP
 40
0.762
  9
$DIMJUST
 70
     0
  9
$DIMSD1
 70
     0
  9
$DIMSD2
 70
     0
  9
$DIMTOLJ
 70
     0
  9
$DIMTZIN
 70
     1
  9
$DIMALTZ
 70
     0
  9
$DIMALTTZ
 70
     0
  9
$DIMUPT
 70
     0
  9
$DIMDEC
 70
     2
  9
$DIMTDEC
 70
     2
  9
$DIMALTU
 70
     2
  9
$DIMALTTD
 70
     3
  9
$DIMTXSTY
  7
Standard
  9
$DIMAUNIT
 70
     0
  9
$DIMADEC
 70
     2
  9
$DIMALTRND
 40
0.0
  9
$DIMAZIN
 70
     0
  9
$DIMDSEP
 70
    44
  9
$DIMATFIT
 70
     3
  9
$DIMFRAC
 70
     0
  9
$DIMLDRBLK
  1

  9
$DIMLUNIT
 70
     2
  9
$DIMLWD
 70
    -2
  9
$DIMLWE
 70
    -2
  9
$DIMTMOVE
 70
     0
  9
$LUNITS
 70
     2
  9
$LUPREC
 70
     2
  9
$SKETCHINC
 40
1.0
  9
$FILLETRAD
 40
10.0
  9
$AUNITS
 70
     0
  9
$AUPREC
 70
     2
  9
$MENU
  1
.
  9
$ELEVATION
 40
0.0
  9
$PELEVATION
 40
0.0
  9
$THICKNESS
 40
0.0
  9
$LIMCHECK
 70
     0
  9
$CHAMFERA
 40
0.0
  9
$CHAMFERB
 40
0.0
  9
$CHAMFERC
 40
0.0
  9
$CHAMFERD
 40
0.0
  9
$SKPOLY
 70
     0
  9
$TDCREATE
 40
2460081.713379977
  9
$TDUCREATE
 40
2460081.338379977
  9
$TDUPDATE
 40
2460081.713380833
  9
$TDUUPDATE
 40
2460081.338380833
  9
$TDINDWG
 40
0.0000000116
  9
$TDUSRTIMER
 40
0.0000000116
  9
$USRTIMER
 70
     1
  9
$ANGBASE
 50
0.0
  9
$ANGDIR
 70
     0
  9
$PDMODE
 70
     0
  9
$PDSIZE
 40
-1.0
  9
$PLINEWID
 40
0.0
  9
$SPLFRAME
 70
     0
  9
$SPLINETYPE
 70
     6
  9
$SPLINESEGS
 70
     8
  9
$HANDSEED
  5
155
  9
$SURFTAB1
 70
     6
  9
$SURFTAB2
 70
     6
  9
$SURFTYPE
 70
     6
  9
$SURFU
 70
     6
  9
$SURFV
 70
     6
  9
$UCSBASE
  2

  9
$UCSNAME
  2

  9
$UCSORG
 10
0.0
 20
0.0
 30
0.0
  9
$UCSXDIR
 10
1.0
 20
0.0
 30
0.0
  9
$UCSYDIR
 10
0.0
 20
1.0
 30
0.0
  9
$UCSORTHOREF
  2

  9
$UCSORTHOVIEW
 70
     0
  9
$UCSORGTOP
 10
0.0
 20
0.0
 30
0.0
  9
$UCSORGBOTTOM
 10
0.0
 20
0.0
 30
0.0
  9
$UCSORGLEFT
 10
0.0
 20
0.0
 30
0.0
  9
$UCSORGRIGHT
 10
0.0
 20
0.0
 30
0.0
  9
$UCSORGFRONT
 10
0.0
 20
0.0
 30
0.0
  9
$UCSORGBACK
 10
0.0
 20
0.0
 30
0.0
  9
$PUCSBASE
  2

  9
$PUCSNAME
  2

  9
$PUCSORG
 10
0.0
 20
0.0
 30
0.0
  9
$PUCSXDIR
 10
1.0
 20
0.0
 30
0.0
  9
$PUCSYDIR
 10
0.0
 20
1.0
 30
0.0
  9
$PUCSORTHOREF
  2

  9
$PUCSORTHOVIEW
 70
     0
  9
$PUCSORGTOP
 10
0.0
 20
0.0
 30
0.0
  9
$PUCSORGBOTTOM
 10
0.0
 20
0.0
 30
0.0
  9
$PUCSORGLEFT
 10
0.0
 20
0.0
 30
0.0
  9
$PUCSORGRIGHT
 10
0.0
 20
0.0
 30
0.0
  9
$PUCSORGFRONT
 10
0.0
 20
0.0
 30
0.0
  9
$PUCSORGBACK
 10
0.0
 20
0.0
 30
0.0
  9
$USERI1
 70
     0
  9
$USERI2
 70
     0
  9
$USERI3
 70
     0
  9
$USERI4
 70
     0
  9
$USERI5
 70
     0
  9
$USERR1
 40
0.0
  9
$USERR2
 40
0.0
  9
$USERR3
 40
0.0
  9
$USERR4
 40
0.0
  9
$USERR5
 40
0.0
  9
$WORLDVIEW
 70
     1
  9
$SHADEDGE
 70
     3
  9
$SHADEDIF
 70
    70
  9
$TILEMODE
 70
     1
  9
$MAXACTVP
 70
    64
  9
$PINSBASE
 10
0.0
 20
0.0
 30
0.0
  9
$PLIMCHECK
 70
     0
  9
$PEXTMIN
 10
1.0000000000E+20
 20
1.0000000000E+20
 30
1.0000000000E+20
  9
$PEXTMAX
 10
-1.0000000000E+20
 20
-1.0000000000E+20
 30
-1.0000000000E+20
  9
$PLIMMIN
 10
0.0
 20
0.0
  9
$PLIMMAX
 10
420.0
 20
297.0
  9
$UNITMODE
 70
     0
  9
$VISRETAIN
 70
     1
  9
$PLINEGEN
 70
     0
  9
$PSLTSCALE
 70
     1
  9
$TREEDEPTH
 70
  3020
  9
$CMLSTYLE
  2
Standard
  9
$CMLJUST
 70
     0
  9
$CMLSCALE
 40
20.0
  9
$PROXYGRAPHICS
 70
     1
  9
$MEASUREMENT
 70
     1
  9
$CELWEIGHT
370
    -1
  9
$ENDCAPS
280
     0
  9
$JOINSTYLE
280
     0
  9
$LWDISPLAY
290
     1
  9
$INSUNITS
 70
     4
  9
$HYPERLINKBASE
  1

  9
$STYLESHEET
  1

  9
$XEDIT
290
     1
  9
$CEPSNTYPE
380
     0
  9
$PSTYLEMODE
290
     1
  9
$FINGERPRINTGUID
  2
{EF0F714E-0564-4401-9B23-FDF969840402}
  9
$VERSIONGUID
  2
{FAEB1C32-E019-11D5-929B-00C0DF256EC4}
  9
$EXTNAMES
290
     1
  9
$PSVPSCALE
 40
0.0
  9
$OLESTARTUP
290
     0
  0
ENDSEC
  0
SECTION
  2
CLASSES
  0
CLASS
  1
ACDBDICTIONARYWDFLT
  2
AcDbDictionaryWithDefault
  3
ObjectDBX Classes
 90
        0
280
     0
281
     0
  0
CLASS
  1
VISUALSTYLE
  2
AcDbVisualStyle
  3
ObjectDBX Classes
 90
     4095
280
     0
281
     0
  0
CLASS
  1
MATERIAL
  2
AcDbMaterial
  3
ObjectDBX Classes
 90
     1153
280
     0
281
     0
  0
CLASS
  1
SCALE
  2
AcDbScale
  3
ObjectDBX Classes
 90
     1153
280
     0
281
     0
  0
CLASS
  1
TABLESTYLE
  2
AcDbTableStyle
  3
ObjectDBX Classes
 90
     4095
280
     0
281
     0
  0
CLASS
  1
MLEADERSTYLE
  2
AcDbMLeaderStyle
  3
ACDB_MLEADERSTYLE_CLASS
 90
     4095
280
     0
281
     0
  0
CLASS
  1
SUN
  2
AcDbSun
  3
SCENEOE
 90
     1153
280
     0
281
     0
  0
CLASS
  1
ACDBPLACEHOLDER
  2
AcDbPlaceHolder
  3
ObjectDBX Classes
 90
        0
280
     0
281
     0
  0
CLASS
  1
LAYOUT
  2
AcDbLayout
  3
ObjectDBX Classes
 90
        0
280
     0
281
     0
  0
ENDSEC
  0
SECTION
  2
TABLES
  0
TABLE
  2
VPORT
  5
8
330
0
100
AcDbSymbolTable
 70
     1
  0
VPORT
  5
29
330
8
100
AcDbSymbolTableRecord
100
AcDbViewportTableRecord
  2
*Active
 70
     0
 10
0.0
 20
0.0
 11
1.0
 21
1.0
 12
107.95
 22
69.85
 13
0.0
 23
0.0
 14
10.0
 24
10.0
 15
10.0
 25
10.0
 16
0.0
 26
0.0
 36
1.0
 17
0.0
 27
0.0
 37
0.0
 40
139.7
 41
1.5454545455
 42
50.0
 43
0.0
 44
0.0
 50
0.0
 51
0.0
 71
     0
 72
  2000
 73
     1
 74
     3
 75
     0
 76
     0
 77
     0
 78
     0
281
     0
 65
     1
110
0.0
120
0.0
130
0.0
111
1.0
121
0.0
131
0.0
112
0.0
122
1.0
132
0.0
 79
     0
146
0.0
  0
ENDTAB
  0
TABLE
  2
LTYPE
  5
5
330
0
100
AcDbSymbolTable
 70
     6
  0
LTYPE
  5
14
330
5
100
AcDbSymbolTableRecord
100
AcDbLinetypeTableRecord
  2
ByBlock
 70
     0
  3

 72
    65
 73
     0
 40
0.0
  0
LTYPE
  5
15
330
5
100
AcDbSymbolTableRecord
100
AcDbLinetypeTableRecord
  2
ByLayer
 70
     0
  3

 72
    65
 73
     0
 40
0.0
  0
LTYPE
  5
16
330
5
100
AcDbSymbolTableRecord
100
AcDbLinetypeTableRecord
  2
Continuous
 70
     0
  3
Solid line
 72
    65
 73
     0
 40
0.0
  0
LTYPE
  5
6E
330
5
100
AcDbSymbolTableRecord
100
AcDbLinetypeTableRecord
  2
HIDDEN
 70
     0
  3
Hidden __ __ __ __ __ __ __ __ __ __ __ __ __ __
 72
    65
 73
     2
 40
1.905
 49
1.27
 74
     0
 49
-0.635
 74
     0
  0
LTYPE
  5
6F
330
5
100
AcDbSymbolTableRecord
100
AcDbLinetypeTableRecord
  2
PHANTOM
 70
     0
  3
Phantom ______  __  __  ______  __  __  ______
 72
    65
 73
     6
 40
12.7
 49
6.35
 74
     0
 49
-1.27
 74
     0
 49
1.27
 74
     0
 49
-1.27
 74
     0
 49
1.27
 74
     0
 49
-1.27
 74
     0
  0
LTYPE
  5
70
330
5
100
AcDbSymbolTableRecord
100
AcDbLinetypeTableRecord
  2
CENTER
 70
     0
  3
Center ____ _ ____ _ ____ _ ____ _ ____ _ ____
 72
    65
 73
     4
 40
10.16
 49
6.35
 74
     0
 49
-1.27
 74
     0
 49
1.27
 74
     0
 49
-1.27
 74
     0
  0
LTYPE
  5
71
330
5
100
AcDbSymbolTableRecord
100
AcDbLinetypeTableRecord
  2
CENTERX2
 70
     0
  3
Center (2x) ________  __  ________  __  _____
 72
    65
 73
     4
 40
20.32
 49
12.7
 74
     0
 49
-2.54
 74
     0
 49
2.54
 74
     0
 49
-2.54
 74
     0
  0
LTYPE
  5
72
330
5
100
AcDbSymbolTableRecord
100
AcDbLinetypeTableRecord
  2
DOT2
 70
     0
  3
Dot (.5x) ........................................
 72
    65
 73
     2
 40
0.635
 49
0.0
 74
     0
 49
-0.635
 74
     0
  0
ENDTAB
  0
TABLE
  2
LAYER
  5
2
330
0
100
AcDbSymbolTable
 70
     1
  0
LAYER
  5
10
330
2
100
AcDbSymbolTableRecord
100
AcDbLayerTableRecord
  2
0
 70
     0
 62
     7
  6
Continuous
370
    -3
390
F
  0
ENDTAB
  0
TABLE
  2
STYLE
  5
3
330
0
100
AcDbSymbolTable
 70
     2
  0
STYLE
  5
11
330
3
100
AcDbSymbolTableRecord
100
AcDbTextStyleTableRecord
  2
Standard
 70
     0
 40
0.0
 41
1.0
 50
0.0
 71
     0
 42
1.75
  3
txt
  4
bigfont
  0
STYLE
  5
73
330
3
100
AcDbSymbolTableRecord
100
AcDbTextStyleTableRecord
  2
SLDTEXTSTYLE0
 70
     0
 40
0.0
 41
0.7
 50
0.0
 71
     0
 42
1.75
  3
TXT
  4
bigfont
  0
ENDTAB
  0
TABLE
  2
VIEW
  5
6
330
0
100
AcDbSymbolTable
 70
     0
  0
ENDTAB
  0
TABLE
  2
UCS
  5
7
330
0
100
AcDbSymbolTable
 70
     0
  0
ENDTAB
  0
TABLE
  2
APPID
  5
9
330
0
100
AcDbSymbolTable
 70
     1
  0
APPID
  5
12
330
9
100
AcDbSymbolTableRecord
100
AcDbRegAppTableRecord
  2
ACAD
 70
     0
  0
ENDTAB
  0
TABLE
  2
DIMSTYLE
  5
A
330
0
100
AcDbSymbolTable
 70
     1
100
AcDbDimStyleTable
  0
DIMSTYLE
105
27
330
A
100
AcDbSymbolTableRecord
100
AcDbDimStyleTableRecord
  2
ISO-25
 70
     0
 41
2.5
 42
0.625
 43
3.75
 44
1.25
 73
     0
 74
     0
 77
     1
 78
     8
140
2.5
141
2.5
143
0.0393700787
147
0.625
171
     3
172
     1
178
     0
271
     2
272
     2
274
     3
278
    44
283
     0
284
     8
340
11
  0
ENDTAB
  0
TABLE
  2
BLOCK_RECORD
  5
1
330
0
100
AcDbSymbolTable
 70
     3
  0
BLOCK_RECORD
  5
1F
330
1
100
AcDbSymbolTableRecord
100
AcDbBlockTableRecord
  2
*Model_Space
340
22
  0
BLOCK_RECORD
  5
1B
330
1
100
AcDbSymbolTableRecord
100
AcDbBlockTableRecord
  2
*Paper_Space
340
1E
  0
BLOCK_RECORD
  5
23
330
1
100
AcDbSymbolTableRecord
100
AcDbBlockTableRecord
  2
*Paper_Space0
340
26
  0
BLOCK_RECORD
  5
F2
330
1
100
AcDbSymbolTableRecord
100
AcDbBlockTableRecord
  2
SW_CENTERMARKSYMBOL_0
340
0
102
{BLKREFS
331
FD
102
}
  0
BLOCK_RECORD
  5
FE
330
1
100
AcDbSymbolTableRecord
100
AcDbBlockTableRecord
  2
SW_CENTERMARKSYMBOL_1
340
0
102
{BLKREFS
331
109
102
}
  0
ENDTAB
  0
ENDSEC
  0
SECTION
  2
BLOCKS
  0
BLOCK
  5
20
330
1F
100
AcDbEntity
  8
0
100
AcDbBlockBegin
  2
*Model_Space
 70
     0
 10
0.0
 20
0.0
 30
0.0
  3
*Model_Space
  1

  0
ENDBLK
  5
21
330
1F
100
AcDbEntity
  8
0
100
AcDbBlockEnd
  0
BLOCK
  5
1C
330
1B
100
AcDbEntity
 67
     1
  8
0
100
AcDbBlockBegin
  2
*Paper_Space
 70
     0
 10
0.0
 20
0.0
 30
0.0
  3
*Paper_Space
  1

  0
ENDBLK
  5
1D
330
1B
100
AcDbEntity
 67
     1
  8
0
100
AcDbBlockEnd
  0
BLOCK
  5
24
330
23
100
AcDbEntity
  8
0
100
AcDbBlockBegin
  2
*Paper_Space0
 70
     0
 10
0.0
 20
0.0
 30
0.0
  3
*Paper_Space0
  1

  0
ENDBLK
  5
25
330
23
100
AcDbEntity
  8
0
100
AcDbBlockEnd
  0
BLOCK
  5
F3
330
F2
100
AcDbEntity
  8
0
100
AcDbBlockBegin
  2
SW_CENTERMARKSYMBOL_0
 70
     0
 10
0.0
 20
0.0
 30
0.0
  3
SW_CENTERMARKSYMBOL_0
  1

  0
LINE
  5
F5
330
F2
100
AcDbEntity
  8
0
  6
Continuous
 62
     0
370
    18
100
AcDbLine
 10
0.0
 20
0.0
 30
0.0
 11
0.0
 21
2.5
 31
0.0
  0
LINE
  5
F6
330
F2
100
AcDbEntity
  8
0
  6
Continuous
 62
     0
370
    18
100
AcDbLine
 10
0.0
 20
0.0
 30
0.0
 11
-2.5
 21
0.0
 31
0.0
  0
LINE
  5
F7
330
F2
100
AcDbEntity
  8
0
  6
Continuous
 62
     0
370
    18
100
AcDbLine
 10
0.0
 20
0.0
 30
0.0
 11
0.0
 21
-2.5
 31
0.0
  0
LINE
  5
F8
330
F2
100
AcDbEntity
  8
0
  6
Continuous
 62
     0
370
    18
100
AcDbLine
 10
0.0
 20
0.0
 30
0.0
 11
2.5
 21
0.0
 31
0.0
  0
LINE
  5
F9
330
F2
100
AcDbEntity
  8
0
  6
Continuous
 62
     0
370
    18
100
AcDbLine
 10
0.0
 20
5.0
 30
0.0
 11
0.0
 21
5.25
 31
0.0
  0
LINE
  5
FA
330
F2
100
AcDbEntity
  8
0
  6
Continuous
 62
     0
370
    18
100
AcDbLine
 10
-5.0
 20
0.0
 30
0.0
 11
-5.25
 21
0.0
 31
0.0
  0
LINE
  5
FB
330
F2
100
AcDbEntity
  8
0
  6
Continuous
 62
     0
370
    18
100
AcDbLine
 10
0.0
 20
-5.0
 30
0.0
 11
0.0
 21
-5.25
 31
0.0
  0
LINE
  5
FC
330
F2
100
AcDbEntity
  8
0
  6
Continuous
 62
     0
370
    18
100
AcDbLine
 10
5.0
 20
0.0
 30
0.0
 11
5.25
 21
0.0
 31
0.0
  0
ENDBLK
  5
F4
330
F2
100
AcDbEntity
  8
0
100
AcDbBlockEnd
  0
BLOCK
  5
FF
330
FE
100
AcDbEntity
  8
0
100
AcDbBlockBegin
  2
SW_CENTERMARKSYMBOL_1
 70
     0
 10
0.0
 20
0.0
 30
0.0
  3
SW_CENTERMARKSYMBOL_1
  1

  0
LINE
  5
101
330
FE
100
AcDbEntity
  8
0
  6
Continuous
 62
     0
370
    18
100
AcDbLine
 10
0.0
 20
0.0
 30
0.0
 11
0.0
 21
2.5
 31
0.0
  0
LINE
  5
102
330
FE
100
AcDbEntity
  8
0
  6
Continuous
 62
     0
370
    18
100
AcDbLine
 10
0.0
 20
0.0
 30
0.0
 11
-2.5
 21
0.0
 31
0.0
  0
LINE
  5
103
330
FE
100
AcDbEntity
  8
0
  6
Continuous
 62
     0
370
    18
100
AcDbLine
 10
0.0
 20
0.0
 30
0.0
 11
0.0
 21
-2.5
 31
0.0
  0
LINE
  5
104
330
FE
100
AcDbEntity
  8
0
  6
Continuous
 62
     0
370
    18
100
AcDbLine
 10
0.0
 20
0.0
 30
0.0
 11
2.5
 21
0.0
 31
0.0
  0
LINE
  5
105
330
FE
100
AcDbEntity
  8
0
  6
Continuous
 62
     0
370
    18
100
AcDbLine
 10
0.0
 20
5.0
 30
0.0
 11
0.0
 21
10.75
 31
0.0
  0
LINE
  5
106
330
FE
100
AcDbEntity
  8
0
  6
Continuous
 62
     0
370
    18
100
AcDbLine
 10
-5.0
 20
0.0
 30
0.0
 11
-10.75
 21
0.0
 31
0.0
  0
LINE
  5
107
330
FE
100
AcDbEntity
  8
0
  6
Continuous
 62
     0
370
    18
100
AcDbLine
 10
0.0
 20
-5.0
 30
0.0
 11
0.0
 21
-10.75
 31
0.0
  0
LINE
  5
108
330
FE
100
AcDbEntity
  8
0
  6
Continuous
 62
     0
370
    18
100
AcDbLine
 10
5.0
 20
0.0
 30
0.0
 11
10.75
 21
0.0
 31
0.0
  0
ENDBLK
  5
100
330
FE
100
AcDbEntity
  8
0
100
AcDbBlockEnd
  0
ENDSEC
  0
SECTION
  2
ENTITIES
  0
MTEXT
  5
74
330
1F
100
AcDbEntity
  8
0
  6
Continuous
 62
     7
370
     0
100
AcDbMText
 10
77.3835097328
 20
57.4851419746
 30
0.0
 40
2.1166666667
 41
0.0
 71
     1
 72
     1
  1
エースニップル　HN-8309
  7
SLDTEXTSTYLE0
 73
     1
 44
1.0
  0
LINE
  5
75
330
1F
100
AcDbEntity
  8
0
  6
Continuous
 62
     7
370
    25
100
AcDbLine
 10
52.8179121147
 20
49.8780291318
 30
0.0
 11
41.8918215483
 21
49.5365888016
 31
0.0
  0
LINE
  5
76
330
1F
100
AcDbEntity
  8
0
  6
Continuous
 62
     7
370
    25
100
AcDbLine
 10
41.8918215483
 20
33.141844462
 30
0.0
 11
52.8179121147
 21
32.8004041318
 31
0.0
  0
LINE
  5
77
330
1F
100
AcDbEntity
  8
0
  6
Continuous
 62
     7
370
    25
100
AcDbLine
 10
57.9143851688
 20
31.5242620556
 30
0.0
 11
58.8179121147
 21
33.0892166318
 31
0.0
  0
LINE
  5
78
330
1F
100
AcDbEntity
  8
0
  6
Continuous
 62
     7
370
    25
100
AcDbLine
 10
58.8179121147
 20
49.5892166318
 30
0.0
 11
57.9143851688
 21
51.1541712081
 31
0.0
  0
LINE
  5
79
330
1F
100
AcDbEntity
  8
0
  6
Continuous
 62
     7
370
    25
100
AcDbLine
 10
41.8918215483
 20
49.5365888016
 30
0.0
 11
39.8179121147
 21
48.3392166318
 31
0.0
  0
LINE
  5
7A
330
1F
100
AcDbEntity
  8
0
  6
Continuous
 62
     7
370
    25
100
AcDbLine
 10
39.8179121147
 20
34.3392166318
 30
0.0
 11
41.8918215483
 21
33.141844462
 31
0.0
  0
LINE
  5
7B
330
1F
100
AcDbEntity
  8
0
  6
Continuous
 62
     7
370
    25
100
AcDbLine
 10
71.8179121147
 20
36.8392166318
 30
0.0
 11
76.3179121147
 21
37.5892166318
 31
0.0
  0
LINE
  5
7C
330
1F
100
AcDbEntity
  8
0
  6
Continuous
 62
     7
370
    25
100
AcDbLine
 10
76.3179121147
 20
45.0892166318
 30
0.0
 11
71.8179121147
 21
45.8392166318
 31
0.0
  0
LINE
  5
7D
330
1F
100
AcDbEntity
  8
0
  6
Continuous
 62
     7
370
    25
100
AcDbLine
 10
67.3179121147
 20
36.8392166318
 30
0.0
 11
71.8179121147
 21
37.5892166318
 31
0.0
  0
LINE
  5
7E
330
1F
100
AcDbEntity
  8
0
  6
Continuous
 62
     7
370
    25
100
AcDbLine
 10
71.8179121147
 20
45.0892166318
 30
0.0
 11
67.3179121147
 21
45.8392166318
 31
0.0
  0
LINE
  5
7F
330
1F
100
AcDbEntity
  8
0
  6
Continuous
 62
     7
370
    25
100
AcDbLine
 10
76.3179121147
 20
36.8392166318
 30
0.0
 11
81.385468717
 21
37.5302470776
 31
0.0
  0
LINE
  5
80
330
1F
100
AcDbEntity
  8
0
  6
Continuous
 62
     7
370
    25
100
AcDbLine
 10
81.385468717
 20
45.1481861861
 30
0.0
 11
76.3179121147
 21
45.8392166318
 31
0.0
  0
LINE
  5
81
330
1F
100
AcDbEntity
  8
0
  6
Continuous
 62
     7
370
    25
100
AcDbLine
 10
62.8179121147
 20
45.8392166318
 30
0.0
 11
58.8179121147
 21
45.8392166318
 31
0.0
  0
LINE
  5
82
330
1F
100
AcDbEntity
  8
0
  6
Continuous
 62
     7
370
    25
100
AcDbLine
 10
58.8179121147
 20
36.8392166318
 30
0.0
 11
62.8179121147
 21
36.8392166318
 31
0.0
  0
LINE
  5
83
330
1F
100
AcDbEntity
  8
0
  6
Continuous
 62
     7
370
    25
100
AcDbLine
 10
62.8179121147
 20
36.8392166318
 30
0.0
 11
67.3179121147
 21
37.5892166318
 31
0.0
  0
LINE
  5
84
330
1F
100
AcDbEntity
  8
0
  6
Continuous
 62
     7
370
    25
100
AcDbLine
 10
67.3179121147
 20
45.0892166318
 30
0.0
 11
62.8179121147
 21
45.8392166318
 31
0.0
  0
ARC
  5
85
330
1F
100
AcDbEntity
  8
0
  6
Continuous
 62
     7
370
    25
100
AcDbCircle
 10
81.3179121147
 20
44.652771102
 30
0.0
 40
0.5000000000000003
100
AcDbArc
 50
0.0
 51
82.2348339816
  0
ARC
  5
86
330
1F
100
AcDbEntity
  8
0
  6
Continuous
 62
     7
370
    25
100
AcDbCircle
 10
81.3179121147
 20
38.0256621616
 30
0.0
 40
0.5000000000000003
100
AcDbArc
 50
277.7651660184
 51
0.0
  0
LINE
  5
87
330
1F
100
AcDbEntity
  8
0
  6
Continuous
 62
     7
370
    25
100
AcDbLine
 10
53.5546930859
 20
51.1541712081
 30
0.0
 11
52.8179121147
 21
49.8780291318
 31
0.0
  0
LINE
  5
88
330
1F
100
AcDbEntity
  8
0
  6
Continuous
 62
     7
370
    25
100
AcDbLine
 10
52.8179121147
 20
32.8004041318
 30
0.0
 11
53.5546930859
 21
31.5242620556
 31
0.0
  0
LINE
  5
89
330
1F
100
AcDbEntity
  8
0
  6
Continuous
 62
     7
370
    25
100
AcDbLine
 10
55.7345391273
 20
31.8242620556
 30
0.0
 11
55.8149238851
 21
31.5242620556
 31
0.0
  0
LINE
  5
8A
330
1F
100
AcDbEntity
  8
0
  6
Continuous
 62
     7
370
    25
100
AcDbLine
 10
55.6541543696
 20
31.5242620556
 30
0.0
 11
55.7345391273
 21
31.8242620556
 31
0.0
  0
LINE
  5
8B
330
1F
100
AcDbEntity
  8
0
  6
Continuous
 62
     7
370
    25
100
AcDbLine
 10
55.8149238851
 20
51.1541712081
 30
0.0
 11
55.7345391273
 21
50.8541712081
 31
0.0
  0
LINE
  5
8C
330
1F
100
AcDbEntity
  8
0
  6
Continuous
 62
     7
370
    25
100
AcDbLine
 10
55.7345391273
 20
50.8541712081
 30
0.0
 11
55.6541543696
 21
51.1541712081
 31
0.0
  0
LINE
  5
8D
330
1F
100
AcDbEntity
  8
0
  6
Continuous
 62
     7
370
    25
100
AcDbLine
 10
41.8918215483
 20
49.5365888016
 30
0.0
 11
41.8918215483
 21
33.141844462
 31
0.0
  0
LINE
  5
8E
330
1F
100
AcDbEntity
  8
0
  6
Continuous
 62
     7
370
    25
100
AcDbLine
 10
52.8179121147
 20
34.3846082839
 30
0.0
 11
52.8179121147
 21
40.5260014634
 31
0.0
  0
LINE
  5
8F
330
1F
100
AcDbEntity
  8
0
  6
Continuous
 62
     7
370
    25
100
AcDbLine
 10
52.8179121147
 20
33.5713931154
 30
0.0
 11
52.8179121147
 21
34.3846082839
 31
0.0
  0
LINE
  5
90
330
1F
100
AcDbEntity
  8
0
  6
Continuous
 62
     7
370
    25
100
AcDbLine
 10
52.8179121147
 20
32.8004041318
 30
0.0
 11
52.8179121147
 21
33.5713931154
 31
0.0
  0
LINE
  5
91
330
1F
100
AcDbEntity
  8
0
  6
Continuous
 62
     7
370
    25
100
AcDbLine
 10
52.8179121147
 20
49.1070401482
 30
0.0
 11
52.8179121147
 21
49.8780291318
 31
0.0
  0
LINE
  5
92
330
1F
100
AcDbEntity
  8
0
  6
Continuous
 62
     7
370
    25
100
AcDbLine
 10
52.8179121147
 20
48.2938249798
 30
0.0
 11
52.8179121147
 21
49.1070401482
 31
0.0
  0
LINE
  5
93
330
1F
100
AcDbEntity
  8
0
  6
Continuous
 62
     7
370
    25
100
AcDbLine
 10
52.8179121147
 20
42.1524318003
 30
0.0
 11
52.8179121147
 21
48.2938249798
 31
0.0
  0
LINE
  5
94
330
1F
100
AcDbEntity
  8
0
  6
Continuous
 62
     7
370
    25
100
AcDbLine
 10
52.8179121147
 20
40.5260014634
 30
0.0
 11
52.8179121147
 21
42.1524318003
 31
0.0
  0
LINE
  5
95
330
1F
100
AcDbEntity
  8
0
  6
Continuous
 62
     7
370
    25
100
AcDbLine
 10
55.6541543696
 20
36.4317393437
 30
0.0
 11
53.5546930859
 21
36.4317393437
 31
0.0
  0
SPLINE
  5
96
330
1F
100
AcDbEntity
  8
0
  6
Continuous
 62
     7
370
    25
100
AcDbSpline
210
0.0
220
0.0
230
1.0
 70
     8
 71
     3
 72
    12
 73
     8
 74
     0
 42
0.000000001
 43
0.00000001
 40
0.0
 40
0.0
 40
0.0
 40
0.0
 40
0.2500000000000002
 40
0.2500000000000002
 40
0.5
 40
0.5
 40
1.0
 40
1.0
 40
1.0
 40
1.0
 10
53.55469308588792
 20
36.43173934371679
 30
0.0
 10
53.45829419293798
 20
36.76567490448216
 30
0.0
 10
53.36856008827912
 20
37.10201837602418
 30
0.0
 10
53.20526324427946
 20
37.78054784600057
 30
0.0
 10
53.13161470556531
 20
38.12347710517824
 30
0.0
 10
52.94160750196266
 20
39.15121510249723
 30
0.0
 10
52.85575420143469
 20
39.83778079485558
 30
0.0
 10
52.81791211465601
 20
40.52600146340375
 30
0.0
  0
SPLINE
  5
97
330
1F
100
AcDbEntity
  8
0
  6
Continuous
 62
     7
370
    25
100
AcDbSpline
210
0.0
220
0.0
230
1.0
 70
     8
 71
     3
 72
    12
 73
     8
 74
     0
 42
0.000000001
 43
0.00000001
 40
0.0
 40
0.0
 40
0.0
 40
0.0
 40
0.2499999999999999
 40
0.2499999999999999
 40
0.5000000000000001
 40
0.5000000000000001
 40
1.0
 40
1.0
 40
1.0
 40
1.0
 10
52.81791211465601
 20
42.15243180025344
 30
0.0
 10
52.8368930553146
 20
42.49763146501106
 30
0.0
 10
52.86791252371935
 20
42.84324610525513
 30
0.0
 10
52.95288325801383
 20
43.53526585896532
 30
0.0
 10
53.00702713207135
 20
43.88240787957939
 30
0.0
 10
53.19786895867674
 20
44.91056801387727
 30
0.0
 10
53.36312890680525
 20
45.58309613777759
 30
0.0
 10
53.55469308588793
 20
46.24669391994042
 30
0.0
  0
LINE
  5
98
330
1F
100
AcDbEntity
  8
0
  6
Continuous
 62
     7
370
    25
100
AcDbLine
 10
55.6541543696
 20
46.2466939199
 30
0.0
 11
53.5546930859
 21
46.2466939199
 31
0.0
  0
SPLINE
  5
99
330
1F
100
AcDbEntity
  8
0
  6
Continuous
 62
     7
370
    25
100
AcDbSpline
210
0.0
220
0.0
230
1.0
 70
     8
 71
     3
 72
     8
 73
     4
 74
     0
 42
0.000000001
 43
0.00000001
 40
0.0
 40
0.0
 40
0.0
 40
0.0
 40
1.0
 40
1.0
 40
1.0
 40
1.0
 10
55.73453912734584
 20
45.61523821591809
 30
0.0
 10
55.70916509676152
 20
45.82595728410239
 30
0.0
 10
55.68232374004452
 20
46.03643487663125
 30
0.0
 10
55.65415436961651
 20
46.24669391994043
 30
0.0
  0
SPLINE
  5
9A
330
1F
100
AcDbEntity
  8
0
  6
Continuous
 62
     7
370
    25
100
AcDbSpline
210
0.0
220
0.0
230
1.0
 70
     8
 71
     3
 72
     8
 73
     4
 74
     0
 42
0.000000001
 43
0.00000001
 40
0.0
 40
0.0
 40
0.0
 40
0.0
 40
1.0
 40
1.0
 40
1.0
 40
1.0
 10
55.81492388507517
 20
46.24669391994042
 30
0.0
 10
55.78674073318302
 20
46.0363320103825
 30
0.0
 10
55.75990033738489
 20
45.82585081566627
 30
0.0
 10
55.73453912734584
 20
45.61523821591809
 30
0.0
  0
LINE
  5
9B
330
1F
100
AcDbEntity
  8
0
  6
Continuous
 62
     7
370
    25
100
AcDbLine
 10
57.9143851688
 20
46.2466939199
 30
0.0
 11
55.8149238851
 21
46.2466939199
 31
0.0
  0
SPLINE
  5
9C
330
1F
100
AcDbEntity
  8
0
  6
Continuous
 62
     7
370
    25
100
AcDbSpline
210
0.0
220
0.0
230
1.0
 70
     8
 71
     3
 72
    16
 73
    12
 74
     0
 42
0.000000001
 43
0.00000001
 40
0.0
 40
0.0
 40
0.0
 40
0.0
 40
0.25
 40
0.25
 40
0.5
 40
0.5
 40
0.625
 40
0.625
 40
0.75
 40
0.75
 40
1.0
 40
1.0
 40
1.0
 40
1.0
 10
57.91438516880378
 20
36.43173934371679
 30
0.0
 10
58.1452315732641
 20
37.23141474625655
 30
0.0
 10
58.33825255810189
 20
38.04848495019689
 30
0.0
 10
58.60226121115676
 20
39.68599237165478
 30
0.0
 10
58.67368750873709
 20
40.51031699406553
 30
0.0
 10
58.6735178620967
 20
41.75667234846401
 30
0.0
 10
58.65567348368759
 20
42.17494088266183
 30
0.0
 10
58.58541572449823
 20
43.00940217797194
 30
0.0
 10
58.53344373781524
 20
43.42229017322996
 30
0.0
 10
58.33405309667488
 20
44.64974509721618
 30
0.0
 10
58.14345329718034
 20
45.45317864645452
 30
0.0
 10
57.91438516880375
 20
46.24669391994043
 30
0.0
  0
LINE
  5
9D
330
1F
100
AcDbEntity
  8
0
  6
Continuous
 62
     7
370
    25
100
AcDbLine
 10
57.9143851688
 20
36.4317393437
 30
0.0
 11
55.8149238851
 21
36.4317393437
 31
0.0
  0
SPLINE
  5
9E
330
1F
100
AcDbEntity
  8
0
  6
Continuous
 62
     7
370
    25
100
AcDbSpline
210
0.0
220
0.0
230
1.0
 70
     8
 71
     3
 72
     8
 73
     4
 74
     0
 42
0.000000001
 43
0.00000001
 40
0.0
 40
0.0
 40
0.0
 40
0.0
 40
1.0
 40
1.0
 40
1.0
 40
1.0
 10
55.73453912734584
 20
37.06319504773911
 30
0.0
 10
55.75991315793017
 20
36.85247597955481
 30
0.0
 10
55.78675451464716
 20
36.64199838702596
 30
0.0
 10
55.81492388507517
 20
36.43173934371679
 30
0.0
  0
SPLINE
  5
9F
330
1F
100
AcDbEntity
  8
0
  6
Continuous
 62
     7
370
    25
100
AcDbSpline
210
0.0
220
0.0
230
1.0
 70
     8
 71
     3
 72
     8
 73
     4
 74
     0
 42
0.000000001
 43
0.00000001
 40
0.0
 40
0.0
 40
0.0
 40
0.0
 40
1.0
 40
1.0
 40
1.0
 40
1.0
 10
55.65415436961651
 20
36.43173934371679
 30
0.0
 10
55.68233752150867
 20
36.6421012532747
 30
0.0
 10
55.70917791730679
 20
36.85258244799093
 30
0.0
 10
55.73453912734584
 20
37.06319504773911
 30
0.0
  0
LINE
  5
A0
330
1F
100
AcDbEntity
  8
0
  6
Continuous
 62
     7
370
    25
100
AcDbLine
 10
55.7718784608
 20
40.7418702314
 30
0.0
 11
56.4563736531
 21
40.2941538853
 31
0.0
  0
SPLINE
  5
A1
330
1F
100
AcDbEntity
  8
0
  6
Continuous
 62
     7
370
    25
100
AcDbSpline
210
0.0
220
0.0
230
1.0
 70
     8
 71
     3
 72
    19
 73
    15
 74
     0
 42
0.000000001
 43
0.00000001
 40
0.0
 40
0.0
 40
0.0
 40
0.0
 40
0.0978059775289525
 40
0.1996122522918966
 40
0.3052960258330041
 40
0.4158173591641854
 40
0.474240566618493
 40
0.5372869128296534
 40
0.6033858352934854
 40
0.6743111580696056
 40
0.749530467357482
 40
0.8286083142695116
 40
0.9120427387714447
 40
0.9999999999999999
 40
0.9999999999999999
 40
0.9999999999999999
 40
0.9999999999999999
 10
55.33618134542525
 20
40.90953850064088
 30
0.0
 10
55.35162339938856
 20
40.90899487994039
 30
0.0
 10
55.38313909249352
 20
40.90788540427069
 30
0.0
 10
55.43100856655592
 20
40.9012641812977
 30
0.0
 10
55.47979737973822
 20
40.88912004939866
 30
0.0
 10
55.52115694538425
 20
40.87597744442911
 30
0.0
 10
55.55541015918945
 20
40.86293601298408
 30
0.0
 10
55.58245901729651
 20
40.85084369766736
 30
0.0
 10
55.61102347997378
 20
40.83732301572788
 30
0.0
 10
55.64056307947937
 20
40.82147489360866
 30
0.0
 10
55.67192182615229
 20
40.80467460520897
 30
0.0
 10
55.70393840986898
 20
40.78504996186062
 30
0.0
 10
55.73778217512861
 20
40.76457134498028
 30
0.0
 10
55.76031482833032
 20
40.74956923231173
 30
0.0
 10
55.77187846080985
 20
40.74187023141012
 30
0.0
  0
SPLINE
  5
A2
330
1F
100
AcDbEntity
  8
0
  6
Continuous
 62
     7
370
    25
100
AcDbSpline
210
0.0
220
0.0
230
1.0
 70
     8
 71
     3
 72
    19
 73
    15
 74
     0
 42
0.000000001
 43
0.00000001
 40
0.0
 40
0.0
 40
0.0
 40
0.0
 40
0.0843261511037433
 40
0.1670353409858406
 40
0.2495407139852792
 40
0.3327066655796642
 40
0.4158726171740492
 40
0.4977774155681174
 40
0.5803136056784763
 40
0.6645325781316563
 40
0.7495711764063215
 40
0.8324741628544073
 40
0.9156738488962566
 40
1.0
 40
1.0
 40
1.0
 40
1.0
 10
54.87945057619447
 20
40.45521157756396
 30
0.0
 10
54.88010551985962
 20
40.4753958817357
 30
0.0
 10
54.88140284858865
 20
40.51537745430552
 30
0.0
 10
54.89295970329149
 20
40.57419145205387
 30
0.0
 10
54.91169122720564
 20
40.63070438927221
 30
0.0
 10
54.93749769125318
 20
40.68451902697764
 30
0.0
 10
54.97009264468468
 20
40.73437373595948
 30
0.0
 10
55.00933834807283
 20
40.77896216938303
 30
0.0
 10
55.05436742632222
 20
40.81812919472458
 30
0.0
 10
55.10531801216341
 20
40.85055256206451
 30
0.0
 10
55.15971515340122
 20
40.8769776944484
 30
0.0
 10
55.21695276214586
 20
40.89561572244533
 30
0.0
 10
55.27587890880833
 20
40.90766898380071
 30
0.0
 10
55.31599062778418
 20
40.90891254108165
 30
0.0
 10
55.33618134542525
 20
40.90953850064088
 30
0.0
  0
SPLINE
  5
A3
330
1F
100
AcDbEntity
  8
0
  6
Continuous
 62
     7
370
    25
100
AcDbSpline
210
0.0
220
0.0
230
1.0
 70
     8
 71
     3
 72
    19
 73
    15
 74
     0
 42
0.000000001
 43
0.00000001
 40
0.0
 40
0.0
 40
0.0
 40
0.0
 40
0.0859901205637198
 40
0.1691084375726415
 40
0.2505285789581879
 40
0.332255696176845
 40
0.4135763652356403
 40
0.4941261456201216
 40
0.576305934120417
 40
0.6607126719045473
 40
0.7461272722239103
 40
0.8300149859609743
 40
0.9144197259288509
 40
1.0
 40
1.0
 40
1.0
 40
1.0
 10
55.33888567234831
 20
39.98646157756396
 30
0.0
 10
55.3179068490622
 20
39.98724437556709
 30
0.0
 10
55.27664983017711
 20
39.98878382854585
 30
0.0
 10
55.21630808103536
 20
39.99999039237913
 30
0.0
 10
55.15928318581452
 20
40.0193304176753
 30
0.0
 10
55.10535104609153
 20
40.04520505235564
 30
0.0
 10
55.05608082062582
 20
40.07877535630831
 30
0.0
 10
55.01155374859553
 20
40.11855801216381
 30
0.0
 10
54.97274186419413
 20
40.16492907723828
 30
0.0
 10
54.93944676533637
 20
40.21679047447444
 30
0.0
 10
54.91299385121867
 20
40.27292061227146
 30
0.0
 10
54.89343667187762
 20
40.33177489779732
 30
0.0
 10
54.88175076019773
 20
40.39285027637902
 30
0.0
 10
54.88022083094569
 20
40.43432886189352
 30
0.0
 10
54.87945057619447
 20
40.45521157756396
 30
0.0
  0
SPLINE
  5
A4
330
1F
100
AcDbEntity
  8
0
  6
Continuous
 62
     7
370
    25
100
AcDbSpline
210
0.0
220
0.0
230
1.0
 70
     8
 71
     3
 72
    23
 73
    19
 74
     0
 42
0.000000001
 43
0.00000001
 40
0.0
 40
0.0
 40
0.0
 40
0.0
 40
0.0652308037420294
 40
0.1284048960032227
 40
0.1900670715964781
 40
0.25094336576828
 40
0.3115458328521431
 40
0.3728628021568291
 40
0.4350236738562383
 40
0.4990717247070431
 40
0.563091075049662
 40
0.625510106330375
 40
0.6866800359296492
 40
0.7472825030135124
 40
0.8085634952159588
 40
0.8707421035159856
 40
0.9343409515059125
 40
1.0
 40
1.0
 40
1.0
 40
1.0
 10
55.78329673004062
 20
40.43147359679473
 30
0.0
 10
55.78288696788529
 20
40.41622824122252
 30
0.0
 10
55.78208036327638
 20
40.38621821245569
 30
0.0
 10
55.77587299869416
 20
40.34215815438112
 30
0.0
 10
55.76609080786975
 20
40.29982003896404
 30
0.0
 10
55.75183126960624
 20
40.25937934799743
 30
0.0
 10
55.73361597487954
 20
40.22069092720048
 30
0.0
 10
55.71178503047361
 20
40.18353275743967
 30
0.0
 10
55.68521116746358
 20
40.14860332453701
 30
0.0
 10
55.65552618641335
 20
40.11545281916049
 30
0.0
 10
55.62264747877258
 20
40.08535549170637
 30
0.0
 10
55.58776119161283
 20
40.05870861075314
 30
0.0
 10
55.55090367118504
 20
40.03632570000995
 30
0.0
 10
55.51209358578505
 20
40.01816544788942
 30
0.0
 10
55.47139076025909
 20
40.00406335706175
 30
0.0
 10
55.42884727190692
 20
39.99378293775735
 30
0.0
 10
55.3844337841383
 20
39.98770596940599
 30
0.0
 10
55.35422885188137
 20
39.98688075909951
 30
0.0
 10
55.33888567234831
 20
39.98646157756396
 30
0.0
  0
SPLINE
  5
A5
330
1F
100
AcDbEntity
  8
0
  6
Continuous
 62
     7
370
    25
100
AcDbSpline
210
0.0
220
0.0
230
1.0
 70
     8
 71
     3
 72
     9
 73
     5
 74
     0
 42
0.000000001
 43
0.00000001
 40
0.0
 40
0.0
 40
0.0
 40
0.0
 40
0.5126593363417812
 40
1.0
 40
1.0
 40
1.0
 40
1.0
 10
55.76887365311755
 20
40.58682215448705
 30
0.0
 10
55.77307959339766
 20
40.56043489292276
 30
0.0
 10
55.78128375546389
 20
40.50896355573308
 30
0.0
 10
55.78263716065607
 20
40.45686388493691
 30
0.0
 10
55.78329673004062
 20
40.43147359679473
 30
0.0
  0
LINE
  5
A6
330
1F
100
AcDbEntity
  8
0
  6
Continuous
 62
     7
370
    25
100
AcDbLine
 10
56.3749433647
 20
40.1904880199
 30
0.0
 11
55.7688736531
 21
40.5868221545
 31
0.0
  0
LINE
  5
A7
330
1F
100
AcDbEntity
  8
0
  6
Continuous
 62
     7
370
    25
100
AcDbLine
 10
56.4563736531
 20
40.2941538853
 30
0.0
 11
56.3749433647
 21
40.1904880199
 31
0.0
  0
LINE
  5
A8
330
1F
100
AcDbEntity
  8
0
  6
Continuous
 62
     7
370
    25
100
AcDbLine
 10
56.2640659608
 20
41.6379209056
 30
0.0
 11
56.4179121147
 21
41.5498800402
 31
0.0
  0
LINE
  5
A9
330
1F
100
AcDbEntity
  8
0
  6
Continuous
 62
     7
370
    25
100
AcDbLine
 10
56.2640659608
 20
41.4071516748
 30
0.0
 11
56.2640659608
 21
41.6379209056
 31
0.0
  0
LINE
  5
AA
330
1F
100
AcDbEntity
  8
0
  6
Continuous
 62
     7
370
    25
100
AcDbLine
 10
54.9179121147
 20
41.4071516748
 30
0.0
 11
56.2640659608
 21
41.4071516748
 31
0.0
  0
LINE
  5
AB
330
1F
100
AcDbEntity
  8
0
  6
Continuous
 62
     7
370
    25
100
AcDbLine
 10
54.9179121147
 20
41.2725362902
 30
0.0
 11
54.9179121147
 21
41.4071516748
 31
0.0
  0
LINE
  5
AC
330
1F
100
AcDbEntity
  8
0
  6
Continuous
 62
     7
370
    25
100
AcDbLine
 10
56.4179121147
 20
41.2725362902
 30
0.0
 11
54.9179121147
 21
41.2725362902
 31
0.0
  0
LINE
  5
AD
330
1F
100
AcDbEntity
  8
0
  6
Continuous
 62
     7
370
    25
100
AcDbLine
 10
56.4179121147
 20
41.5498800402
 30
0.0
 11
56.4179121147
 21
41.2725362902
 31
0.0
  0
SPLINE
  5
AE
330
1F
100
AcDbEntity
  8
0
  6
Continuous
 62
     7
370
    25
100
AcDbSpline
210
0.0
220
0.0
230
1.0
 70
     8
 71
     3
 72
    19
 73
    15
 74
     0
 42
0.000000001
 43
0.00000001
 40
0.0
 40
0.0
 40
0.0
 40
0.0
 40
0.1227280999764553
 40
0.239716523588393
 40
0.3518621792202463
 40
0.4632019818032239
 40
0.5202611541541643
 40
0.5794324380306665
 40
0.6405963441586369
 40
0.70529822908802
 40
0.7732361059084537
 40
0.844648929340316
 40
0.9200459817773698
 40
1.0
 40
1.0
 40
1.0
 40
1.0
 10
56.30252749927139
 20
42.46525872644913
 30
0.0
 10
56.30193235792361
 20
42.4823385771344
 30
0.0
 10
56.30076990845229
 20
42.5156994979868
 30
0.0
 10
56.29055250157213
 20
42.56378374159403
 30
0.0
 10
56.27436407364056
 20
42.60843841062307
 30
0.0
 10
56.25481659492734
 20
42.64245626070136
 30
0.0
 10
56.23558711256456
 20
42.667618865493
 30
0.0
 10
56.2190439889175
 20
42.68594456747786
 30
0.0
 10
56.20028747504232
 20
42.70361242140029
 30
0.0
 10
56.17880310087255
 20
42.71992912464943
 30
0.0
 10
56.15532962707987
 20
42.73587240863629
 30
0.0
 10
56.12973777051085
 20
42.75129003883056
 30
0.0
 10
56.10166266788098
 20
42.76568680059346
 30
0.0
 10
56.081919446504
 20
42.77445034520377
 30
0.0
 10
56.07175826850217
 20
42.77896064952606
 30
0.0
  0
SPLINE
  5
AF
330
1F
100
AcDbEntity
  8
0
  6
Continuous
 62
     7
370
    25
100
AcDbSpline
210
0.0
220
0.0
230
1.0
 70
     8
 71
     3
 72
    23
 73
    19
 74
     0
 42
0.000000001
 43
0.00000001
 40
0.0
 40
0.0
 40
0.0
 40
0.0
 40
0.0552698294993248
 40
0.1099567044850938
 40
0.1632335040550556
 40
0.2180575651623568
 40
0.2732775387226747
 40
0.330881045495497
 40
0.3904799376860887
 40
0.4536559730386417
 40
0.5189026226022311
 40
0.5833461108214766
 40
0.6485466930814431
 40
0.7150552190344909
 40
0.7825206438000536
 40
0.852335294426451
 40
0.9249348997257087
 40
0.9999999999999999
 40
0.9999999999999999
 40
0.9999999999999999
 40
0.9999999999999999
 10
56.06725105696371
 20
42.16357603414144
 30
0.0
 10
56.07508439514208
 20
42.16375361816295
 30
0.0
 10
56.09066844993318
 20
42.16410691315139
 30
0.0
 10
56.11343606018857
 20
42.16856319273924
 30
0.0
 10
56.13550892565858
 20
42.17525807775294
 30
0.0
 10
56.15678689279522
 20
42.18446801467492
 30
0.0
 10
56.17714645437966
 20
42.19677288495495
 30
0.0
 10
56.19661258760664
 20
42.21154282841585
 30
0.0
 10
56.21551152470995
 20
42.22878497380117
 30
0.0
 10
56.23293911741357
 20
42.24894994416052
 30
0.0
 10
56.24937780010595
 20
42.27078067521349
 30
0.0
 10
56.26358842978295
 20
42.29448258039744
 30
0.0
 10
56.27563335000041
 20
42.31953288526112
 30
0.0
 10
56.28558502177047
 20
42.34595462534242
 30
0.0
 10
56.29306626813928
 20
42.37385364527617
 30
0.0
 10
56.29843913739298
 20
42.40309333647693
 30
0.0
 10
56.30179803048667
 20
42.43373098805548
 30
0.0
 10
56.30228165140535
 20
42.45463314881289
 30
0.0
 10
56.30252749927139
 20
42.46525872644913
 30
0.0
  0
SPLINE
  5
B0
330
1F
100
AcDbEntity
  8
0
  6
Continuous
 62
     7
370
    25
100
AcDbSpline
210
0.0
220
0.0
230
1.0
 70
     8
 71
     3
 72
    19
 73
    15
 74
     0
 42
0.000000001
 43
0.00000001
 40
0.0
 40
0.0
 40
0.0
 40
0.0
 40
0.1101423815503176
 40
0.2157418685830274
 40
0.3179605426392306
 40
0.4180517606815226
 40
0.5115631470355316
 40
0.5965727584443461
 40
0.6733290469034968
 40
0.7440491927238595
 40
0.8107168223002833
 40
0.8740854521098849
 40
0.9367096168966699
 40
1.0
 40
1.0
 40
1.0
 40
1.0
 10
55.82175826850217
 20
42.54819141875683
 30
0.0
 10
55.82207455747076
 20
42.52963428922465
 30
0.0
 10
55.82269408986272
 20
42.49328543109706
 30
0.0
 10
55.83013533697332
 20
42.44018065161845
 30
0.0
 10
55.84054466279319
 20
42.38933910198682
 30
0.0
 10
55.85612083443468
 20
42.34192129791202
 30
0.0
 10
55.87481668613467
 20
42.29884257981376
 30
0.0
 10
55.89589762425728
 20
42.26126314446075
 30
0.0
 10
55.9197813812981
 20
42.23007360977008
 30
0.0
 10
55.94615450584632
 20
42.20519605146863
 30
0.0
 10
55.97477029523782
 20
42.18693680701672
 30
0.0
 10
56.00428322259864
 20
42.17323143556128
 30
0.0
 10
56.03537995580063
 20
42.16519679150848
 30
0.0
 10
56.05658994896855
 20
42.16411818890527
 30
0.0
 10
56.0672510569637
 20
42.16357603414144
 30
0.0
  0
LINE
  5
B1
330
1F
100
AcDbEntity
  8
0
  6
Continuous
 62
     7
370
    25
100
AcDbLine
 10
55.6679121147
 20
42.5481914188
 30
0.0
 11
55.8217582685
 21
42.5481914188
 31
0.0
  0
SPLINE
  5
B2
330
1F
100
AcDbEntity
  8
0
  6
Continuous
 62
     7
370
    25
100
AcDbSpline
210
0.0
220
0.0
230
1.0
 70
     8
 71
     3
 72
    23
 73
    19
 74
     0
 42
0.000000001
 43
0.00000001
 40
0.0
 40
0.0
 40
0.0
 40
0.0
 40
0.0669051223273616
 40
0.1334773340846825
 40
0.2010229080576287
 40
0.2712178684297488
 40
0.3428591616573978
 40
0.4138109980627169
 40
0.4855518488903453
 40
0.5598002749200529
 40
0.5998999649035781
 40
0.6436094423977958
 40
0.6919106424505659
 40
0.7447030291556902
 40
0.8015038302285953
 40
0.8628660266331954
 40
0.9293326711591618
 40
1.0
 40
1.0
 40
1.0
 40
1.0
 10
55.35060442234831
 20
42.08665295721836
 30
0.0
 10
55.36458072623086
 20
42.08730878908339
 30
0.0
 10
55.39246378985447
 20
42.08861718948541
 30
0.0
 10
55.4334853708145
 20
42.09860675511048
 30
0.0
 10
55.47301061318651
 20
42.11503701656024
 30
0.0
 10
55.51035947939057
 20
42.1380421869535
 30
0.0
 10
55.54499154740589
 20
42.16603302062131
 30
0.0
 10
55.57577096636243
 20
42.19873856788777
 30
0.0
 10
55.60142383715449
 20
42.23623905537659
 30
0.0
 10
55.61908231139024
 20
42.27097591656131
 30
0.0
 10
55.63085094185591
 20
42.30181891831629
 30
0.0
 10
55.63910288522088
 20
42.3281612922984
 30
0.0
 10
55.64569934252485
 20
42.35767847060555
 30
0.0
 10
55.65208010324849
 20
42.39001610594241
 30
0.0
 10
55.6574293281166
 20
42.42531058213739
 30
0.0
 10
55.66190951360587
 20
42.46359369728743
 30
0.0
 10
55.66548873444991
 20
42.50488085298153
 30
0.0
 10
55.66708799178425
 20
42.53346272379
 30
0.0
 10
55.667912114656
 20
42.54819141875683
 30
0.0
  0
SPLINE
  5
B3
330
1F
100
AcDbEntity
  8
0
  6
Continuous
 62
     7
370
    25
100
AcDbSpline
210
0.0
220
0.0
230
1.0
 70
     8
 71
     3
 72
    23
 73
    19
 74
     0
 42
0.000000001
 43
0.00000001
 40
0.0
 40
0.0
 40
0.0
 40
0.0
 40
0.0760618905628339
 40
0.1487324608035359
 40
0.2183745247439722
 40
0.2857225935927383
 40
0.3510576941824569
 40
0.414934915729319
 40
0.4784859417740854
 40
0.542169035281216
 40
0.6047501165431387
 40
0.6641185017301124
 40
0.7214996756099116
 40
0.7776159163852547
 40
0.832666108697549
 40
0.8878580281135741
 40
0.9434676608977686
 40
1.0
 40
1.0
 40
1.0
 40
1.0
 10
55.03329673004062
 20
42.46856401491067
 30
0.0
 10
55.03356026014988
 20
42.45452660947488
 30
0.0
 10
55.03407557052878
 20
42.42707767495178
 30
0.0
 10
55.0388282995518
 20
42.38702824708809
 30
0.0
 10
55.04571990467768
 20
42.34891556997318
 30
0.0
 10
55.05649971503971
 20
42.31312858336153
 30
0.0
 10
55.06943187836409
 20
42.27918031418499
 30
0.0
 10
55.0863624536368
 20
42.24782858589093
 30
0.0
 10
55.10548280127257
 20
42.21815169640182
 30
0.0
 10
55.12772344298853
 20
42.19101904142752
 30
0.0
 10
55.15176316931324
 20
42.16655762625665
 30
0.0
 10
55.17726717657536
 20
42.14542026090385
 30
0.0
 10
55.20344467457829
 20
42.12711288504032
 30
0.0
 10
55.23090633143693
 20
42.1123968100593
 30
0.0
 10
55.25938277037385
 20
42.10075570404251
 30
0.0
 10
55.28898057895216
 20
42.09283570865959
 30
0.0
 10
55.31945052510404
 20
42.08732755006686
 30
0.0
 10
55.34016298243345
 20
42.08687905158592
 30
0.0
 10
55.35060442234831
 20
42.08665295721836
 30
0.0
  0
SPLINE
  5
B4
330
1F
100
AcDbEntity
  8
0
  6
Continuous
 62
     7
370
    25
100
AcDbSpline
210
0.0
220
0.0
230
1.0
 70
     8
 71
     3
 72
    15
 73
    11
 74
     0
 42
0.000000001
 43
0.00000001
 40
0.0
 40
0.0
 40
0.0
 40
0.0
 40
0.1182713048357256
 40
0.2361775330837632
 40
0.355662932948509
 40
0.4759041646706825
 40
0.6001273417110832
 40
0.7286081161551193
 40
0.8613134756739422
 40
1.0
 40
1.0
 40
1.0
 40
1.0
 10
55.11442653773293
 20
42.71916497644914
 30
0.0
 10
55.10795153749628
 20
42.71076644365264
 30
0.0
 10
55.09502152387436
 20
42.69399530241805
 30
0.0
 10
55.07852082592961
 20
42.66666606051872
 30
0.0
 10
55.06422324364328
 20
42.63792396648198
 30
0.0
 10
55.05330165976487
 20
42.60714624895873
 30
0.0
 10
55.04405409085522
 20
42.57499706162129
 30
0.0
 10
55.03800243979844
 20
42.54095676223622
 30
0.0
 10
55.03385036636564
 20
42.50532566918832
 30
0.0
 10
55.03348396715462
 20
42.48099662769559
 30
0.0
 10
55.03329673004062
 20
42.46856401491067
 30
0.0
  0
SPLINE
  5
B5
330
1F
100
AcDbEntity
  8
0
  6
Continuous
 62
     7
370
    25
100
AcDbSpline
210
0.0
220
0.0
230
1.0
 70
     8
 71
     3
 72
    15
 73
    11
 74
     0
 42
0.000000001
 43
0.00000001
 40
0.0
 40
0.0
 40
0.0
 40
0.0
 40
0.1497703860319681
 40
0.2913164099952446
 40
0.4259663731047426
 40
0.5521595739695285
 40
0.6715274135235928
 40
0.7861216286916589
 40
0.8953250730704446
 40
1.0
 40
1.0
 40
1.0
 40
1.0
 10
55.32175826850217
 20
42.83665295721836
 30
0.0
 10
55.31020869138703
 20
42.83314583231539
 30
0.0
 10
55.28774376069356
 20
42.82632416974771
 30
0.0
 10
55.25541220111861
 20
42.81471232773266
 30
0.0
 10
55.22577303545084
 20
42.8014830682739
 30
0.0
 10
55.19860884031743
 20
42.78729111457273
 30
0.0
 10
55.1736520964042
 20
42.77238606627727
 30
0.0
 10
55.15156272396102
 20
42.75570824121881
 30
0.0
 10
55.13137049444254
 20
42.73849289329854
 30
0.0
 10
55.11999423218245
 20
42.72551602757654
 30
0.0
 10
55.11442653773293
 20
42.71916497644914
 30
0.0
  0
LINE
  5
B6
330
1F
100
AcDbEntity
  8
0
  6
Continuous
 62
     7
370
    25
100
AcDbLine
 10
55.3217582685
 20
42.9712683418
 30
0.0
 11
55.3217582685
 21
42.8366529572
 31
0.0
  0
SPLINE
  5
B7
330
1F
100
AcDbEntity
  8
0
  6
Continuous
 62
     7
370
    25
100
AcDbSpline
210
0.0
220
0.0
230
1.0
 70
     8
 71
     3
 72
    23
 73
    19
 74
     0
 42
0.000000001
 43
0.00000001
 40
0.0
 40
0.0
 40
0.0
 40
0.0
 40
0.0655411703374033
 40
0.1289631677825933
 40
0.1903771361885609
 40
0.2500923616690527
 40
0.308548432459201
 40
0.3663979630552958
 40
0.42454218926668
 40
0.4831699964229055
 40
0.5422433998311199
 40
0.6017393520173299
 40
0.6625060022496068
 40
0.7248555134488469
 40
0.7891278292811811
 40
0.8563463998785099
 40
0.9262952349869055
 40
1.0
 40
1.0
 40
1.0
 40
1.0
 10
54.87945057619447
 20
42.47096786106452
 30
0.0
 10
54.87982266759096
 20
42.487004704043
 30
0.0
 10
54.88055481938121
 20
42.51855986335875
 30
0.0
 10
54.88555993417974
 20
42.56494993409575
 30
0.0
 10
54.89470136499594
 20
42.60923066239482
 30
0.0
 10
54.9070027815814
 20
42.65146191861911
 30
0.0
 10
54.92259924247305
 20
42.69168121993064
 30
0.0
 10
54.94202154162505
 20
42.72976583643537
 30
0.0
 10
54.96486932821869
 20
42.76595007651542
 30
0.0
 10
54.99141229442151
 20
42.79989248414881
 30
0.0
 10
55.0211042971744
 20
42.83158901316576
 30
0.0
 10
55.05447244430341
 20
42.8601973235501
 30
0.0
 10
55.09089990312671
 20
42.88619437766814
 30
0.0
 10
55.13080978435474
 20
42.90888407997307
 30
0.0
 10
55.17368632318806
 20
42.92929991680844
 30
0.0
 10
55.2200785367802
 20
42.94609175537156
 30
0.0
 10
55.2695716890612
 20
42.96087128478712
 30
0.0
 10
55.30406214913656
 20
42.96774276946401
 30
0.0
 10
55.32175826850217
 20
42.97126834183375
 30
0.0
  0
SPLINE
  5
B8
330
1F
100
AcDbEntity
  8
0
  6
Continuous
 62
     7
370
    25
100
AcDbSpline
210
0.0
220
0.0
230
1.0
 70
     8
 71
     3
 72
    19
 73
    15
 74
     0
 42
0.000000001
 43
0.00000001
 40
0.0
 40
0.0
 40
0.0
 40
0.0
 40
0.079641704194991
 40
0.1589086132578561
 40
0.2395997983184508
 40
0.3224093988203484
 40
0.405827748173513
 40
0.4876442139503137
 40
0.5697199979738974
 40
0.6530646649976934
 40
0.7374573001733065
 40
0.8224924079539125
 40
0.9097550737466981
 40
1.0
 40
1.0
 40
1.0
 40
1.0
 10
55.36352509542524
 20
41.95203757260298
 30
0.0
 10
55.34252176442192
 20
41.95280834331449
 30
0.0
 10
55.30061394442649
 20
41.95434625747823
 30
0.0
 10
55.23868367838381
 20
41.96803688718128
 30
0.0
 10
55.17825050432155
 20
41.9893834914815
 30
0.0
 10
55.12020984539656
 20
42.01916743518193
 30
0.0
 10
55.06601845503693
 20
42.05601799757157
 30
0.0
 10
55.01775187100039
 20
42.10010214311097
 30
0.0
 10
54.97598376475305
 20
42.15034819325356
 30
0.0
 10
54.9411980584965
 20
42.2064272976244
 30
0.0
 10
54.91337099441918
 20
42.2671578767727
 30
0.0
 10
54.8940620487752
 20
42.3321202958924
 30
0.0
 10
54.88148481394747
 20
42.4003699237289
 30
0.0
 10
54.88013620797552
 20
42.44717310578471
 30
0.0
 10
54.87945057619447
 20
42.47096786106452
 30
0.0
  0
SPLINE
  5
B9
330
1F
100
AcDbEntity
  8
0
  6
Continuous
 62
     7
370
    25
100
AcDbSpline
210
0.0
220
0.0
230
1.0
 70
     8
 71
     3
 72
    15
 73
    11
 74
     0
 42
0.000000001
 43
0.00000001
 40
0.0
 40
0.0
 40
0.0
 40
0.0
 40
0.1281455049994643
 40
0.2541925386280419
 40
0.3781411397135888
 40
0.5013808330744057
 40
0.6239569784447038
 40
0.7470758858273289
 40
0.8728647202442611
 40
1.0
 40
1.0
 40
1.0
 40
1.0
 10
55.63005153773292
 20
42.04158084183374
 30
0.0
 10
55.62017069730793
 20
42.03436018564619
 30
0.0
 10
55.60057082206127
 20
42.02003711651565
 30
0.0
 10
55.56903982549568
 20
42.00240766785173
 30
0.0
 10
55.53726372626017
 20
41.98623146043064
 30
0.0
 10
55.50399312911635
 20
41.97432624002053
 30
0.0
 10
55.47029674449582
 20
41.96405250658247
 30
0.0
 10
55.43545299812991
 20
41.95729273207014
 30
0.0
 10
55.39979293510234
 20
41.95295322722444
 30
0.0
 10
55.37565720429334
 20
41.95234387211384
 30
0.0
 10
55.36352509542524
 20
41.95203757260298
 30
0.0
  0
SPLINE
  5
BA
330
1F
100
AcDbEntity
  8
0
  6
Continuous
 62
     7
370
    25
100
AcDbSpline
210
0.0
220
0.0
230
1.0
 70
     8
 71
     3
 72
    11
 73
     7
 74
     0
 42
0.000000001
 43
0.00000001
 40
0.0
 40
0.0
 40
0.0
 40
0.0
 40
0.253879600326656
 40
0.5030089172783633
 40
0.7502910806899731
 40
1.0
 40
1.0
 40
1.0
 40
1.0
 10
55.75805634542524
 20
42.20414093798759
 30
0.0
 10
55.7503514147646
 20
42.18818447174188
 30
0.0
 10
55.73508571864595
 20
42.15657009705593
 30
0.0
 10
55.70514753685284
 20
42.1134770129704
 30
0.0
 10
55.67058053084403
 20
42.0743579235317
 30
0.0
 10
55.64360510816679
 20
42.05254204395865
 30
0.0
 10
55.63005153773292
 20
42.04158084183374
 30
0.0
  0
SPLINE
  5
BB
330
1F
100
AcDbEntity
  8
0
  6
Continuous
 62
     7
370
    25
100
AcDbSpline
210
0.0
220
0.0
230
1.0
 70
     8
 71
     3
 72
    15
 73
    11
 74
     0
 42
0.000000001
 43
0.00000001
 40
0.0
 40
0.0
 40
0.0
 40
0.0
 40
0.1280675485958904
 40
0.2506083188676684
 40
0.3706301659145029
 40
0.4900722467299488
 40
0.6103747641546199
 40
0.7343130699115256
 40
0.8632165042449895
 40
1.0
 40
1.0
 40
1.0
 40
1.0
 10
56.06665009542524
 20
42.02896064952606
 30
0.0
 10
56.05079004055141
 20
42.02945933140337
 30
0.0
 10
56.01975437435294
 20
42.03043517445099
 30
0.0
 10
55.97444516129372
 20
42.03872104826342
 30
0.0
 10
55.93174161831563
 20
42.05266516092466
 30
0.0
 10
55.89146397740558
 20
42.07198077345803
 30
0.0
 10
55.85386761748138
 20
42.09698429498957
 30
0.0
 10
55.81886794996974
 20
42.12727259365686
 30
0.0
 10
55.78630973934335
 20
42.1630594487035
 30
0.0
 10
55.76765853663957
 20
42.19017899357063
 30
0.0
 10
55.75805634542524
 20
42.20414093798759
 30
0.0
  0
SPLINE
  5
BC
330
1F
100
AcDbEntity
  8
0
  6
Continuous
 62
     7
370
    25
100
AcDbSpline
210
0.0
220
0.0
230
1.0
 70
     8
 71
     3
 72
    19
 73
    15
 74
     0
 42
0.000000001
 43
0.00000001
 40
0.0
 40
0.0
 40
0.0
 40
0.0
 40
0.0902542493426766
 40
0.1785397915286843
 40
0.2660930338538198
 40
0.3546309779571733
 40
0.4418861533505626
 40
0.5257469151636484
 40
0.6081136336036366
 40
0.6901972728278825
 40
0.770821484330335
 40
0.8483261812554109
 40
0.9240117400247433
 40
1.0
 40
1.0
 40
1.0
 40
1.0
 10
56.45637365311755
 20
42.46706161106452
 30
0.0
 10
56.45578255444114
 20
42.44748329303234
 30
0.0
 10
56.45461325066622
 20
42.40875371691371
 30
0.0
 10
56.44393563503233
 20
42.35185526822064
 30
0.0
 10
56.42703914973767
 20
42.29698663146259
 30
0.0
 10
56.40369326667896
 20
42.24474838239845
 30
0.0
 10
56.3748987038952
 20
42.19622619700005
 30
0.0
 10
56.34062810236887
 20
42.153053545537
 30
0.0
 10
56.30154268744572
 20
42.11581561233531
 30
0.0
 10
56.25837158845204
 20
42.08457516476668
 30
0.0
 10
56.21223351300051
 20
42.06011445088653
 30
0.0
 10
56.16474773136595
 20
42.04207743368094
 30
0.0
 10
56.11602688648498
 20
42.03109671325295
 30
0.0
 10
56.08313090969563
 20
42.02967361747713
 30
0.0
 10
56.06665009542524
 20
42.02896064952606
 30
0.0
  0
SPLINE
  5
BD
330
1F
100
AcDbEntity
  8
0
  6
Continuous
 62
     7
370
    25
100
AcDbSpline
210
0.0
220
0.0
230
1.0
 70
     8
 71
     3
 72
    23
 73
    19
 74
     0
 42
0.000000001
 43
0.00000001
 40
0.0
 40
0.0
 40
0.0
 40
0.0
 40
0.0726253460834355
 40
0.1419766113262345
 40
0.2089849284189386
 40
0.2739568703644447
 40
0.336889347396841
 40
0.3987449534945902
 40
0.4601158852788617
 40
0.5208249225900291
 40
0.5809944586324857
 40
0.6401519276014648
 40
0.6986224507562546
 40
0.7572710809271643
 40
0.8164266940046602
 40
0.8762540482034705
 40
0.9371652930625374
 40
1.0
 40
1.0
 40
1.0
 40
1.0
 10
56.07175826850217
 20
42.91357603414144
 30
0.0
 10
56.08685790449161
 20
42.90992908384958
 30
0.0
 10
56.11637645780189
 20
42.90279959432511
 30
0.0
 10
56.15855099816503
 20
42.88792920569558
 30
0.0
 10
56.19846107876105
 20
42.87172952489789
 30
0.0
 10
56.23535939605907
 20
42.852277051513
 30
0.0
 10
56.26998749723023
 20
42.83105901398752
 30
0.0
 10
56.30155997914514
 20
42.80674927618642
 30
0.0
 10
56.3308798214882
 20
42.78046939508674
 30
0.0
 10
56.35689978044128
 20
42.7514015596717
 30
0.0
 10
56.38046166438701
 20
42.72091784753992
 30
0.0
 10
56.4005509746766
 20
42.68858872478962
 30
0.0
 10
56.41783275447566
 20
42.65506462750221
 30
0.0
 10
56.43206999670797
 20
42.62011328480996
 30
0.0
 10
56.44279522113629
 20
42.5836306397991
 30
0.0
 10
56.45057670924663
 20
42.54594651551876
 30
0.0
 10
56.45563004390996
 20
42.50696215832676
 30
0.0
 10
56.45612322808983
 20
42.48049890521322
 30
0.0
 10
56.45637365311755
 20
42.46706161106452
 30
0.0
  0
LINE
  5
BE
330
1F
100
AcDbEntity
  8
0
  6
Continuous
 62
     7
370
    25
100
AcDbLine
 10
56.0717582685
 20
42.7789606495
 30
0.0
 11
56.0717582685
 21
42.9135760341
 31
0.0
  0
LINE
  5
BF
330
1F
100
AcDbEntity
  8
0
  6
Continuous
 62
     7
370
    25
100
AcDbLine
 10
55.6541543696
 20
31.5242620556
 30
0.0
 11
53.5546930859
 21
31.5242620556
 31
0.0
  0
SPLINE
  5
C0
330
1F
100
AcDbEntity
  8
0
  6
Continuous
 62
     7
370
    25
100
AcDbSpline
210
0.0
220
0.0
230
1.0
 70
     8
 71
     3
 72
    10
 73
     6
 74
     0
 42
0.000000001
 43
0.00000001
 40
0.0
 40
0.0
 40
0.0
 40
0.0
 40
0.5
 40
0.5
 40
1.0
 40
1.0
 40
1.0
 40
1.0
 10
53.55469308588793
 20
31.52426205560496
 30
0.0
 10
53.3610429992783
 20
31.85967384450294
 30
0.0
 10
53.19425575116247
 20
32.20061419079399
 30
0.0
 10
52.94193489124015
 20
32.88322051980956
 30
0.0
 10
52.85586633797458
 20
33.22626308734903
 30
0.0
 10
52.81791211465601
 20
33.57139311544844
 30
0.0
  0
SPLINE
  5
C1
330
1F
100
AcDbEntity
  8
0
  6
Continuous
 62
     7
370
    25
100
AcDbSpline
210
0.0
220
0.0
230
1.0
 70
     8
 71
     3
 72
    12
 73
     8
 74
     0
 42
0.000000001
 43
0.00000001
 40
0.0
 40
0.0
 40
0.0
 40
0.0
 40
0.2500000000000001
 40
0.2500000000000001
 40
0.5000000000000001
 40
0.5000000000000001
 40
1.0
 40
1.0
 40
1.0
 40
1.0
 10
52.81791211465601
 20
34.38460828387329
 30
0.0
 10
52.83703959736226
 20
34.55854067048728
 30
0.0
 10
52.86863785070301
 20
34.7337045706005
 30
0.0
 10
52.95420496920801
 20
35.08065408683998
 30
0.0
 10
53.00804246885185
 20
35.25255723256049
 30
0.0
 10
53.19822886607174
 20
35.76418991044085
 30
0.0
 10
53.36308605373556
 20
36.09986622894146
 30
0.0
 10
53.55469308588789
 20
36.43173934371679
 30
0.0
  0
SPLINE
  5
C2
330
1F
100
AcDbEntity
  8
0
  6
Continuous
 62
     7
370
    25
100
AcDbSpline
210
0.0
220
0.0
230
1.0
 70
     8
 71
     3
 72
     8
 73
     4
 74
     0
 42
0.000000001
 43
0.00000001
 40
0.0
 40
0.0
 40
0.0
 40
0.0
 40
1.0
 40
1.0
 40
1.0
 40
1.0
 10
55.73453912734584
 20
36.11601149170562
 30
0.0
 10
55.70916449418667
 20
36.22137352784431
 30
0.0
 10
55.68232309297989
 20
36.32661223694029
 30
0.0
 10
55.65415436961651
 20
36.43173934371679
 30
0.0
  0
SPLINE
  5
C3
330
1F
100
AcDbEntity
  8
0
  6
Continuous
 62
     7
370
    25
100
AcDbSpline
210
0.0
220
0.0
230
1.0
 70
     8
 71
     3
 72
     8
 73
     4
 74
     0
 42
0.000000001
 43
0.00000001
 40
0.0
 40
0.0
 40
0.0
 40
0.0
 40
1.0
 40
1.0
 40
1.0
 40
1.0
 10
55.81492388507518
 20
36.43173934371679
 30
0.0
 10
55.78674257925201
 20
36.3265652785611
 30
0.0
 10
55.75990205325729
 20
36.22132491632543
 30
0.0
 10
55.73453912734584
 20
36.11601149170562
 30
0.0
  0
SPLINE
  5
C4
330
1F
100
AcDbEntity
  8
0
  6
Continuous
 62
     7
370
    25
100
AcDbSpline
210
0.0
220
0.0
230
1.0
 70
     8
 71
     3
 72
    16
 73
    12
 74
     0
 42
0.000000001
 43
0.00000001
 40
0.0
 40
0.0
 40
0.0
 40
0.0
 40
0.2500000000000001
 40
0.2500000000000001
 40
0.5000000000000001
 40
0.5000000000000001
 40
0.6250000000000001
 40
0.6250000000000001
 40
0.7500000000000002
 40
0.7500000000000002
 40
1.0
 40
1.0
 40
1.0
 40
1.0
 10
57.91438516880417
 20
36.43173934371681
 30
0.0
 10
58.1456999224868
 20
36.03109043779822
 30
0.0
 10
58.33634521581724
 20
35.62752044811337
 30
0.0
 10
58.60045087222454
 20
34.81196366177228
 30
0.0
 10
58.6730400635385
 20
34.39991429320897
 30
0.0
 10
58.67383730962946
 20
33.77407692515936
 30
0.0
 10
58.65609205300601
 20
33.56448294169625
 30
0.0
 10
58.58689496947621
 20
33.14988392432002
 30
0.0
 10
58.53551336341393
 20
32.94397441229784
 30
0.0
 10
58.33710536467731
 20
32.32991181424467
 30
0.0
 10
58.14598826297336
 20
31.92541038189649
 30
0.0
 10
57.91438516880396
 20
31.52426205560494
 30
0.0
  0
LINE
  5
C5
330
1F
100
AcDbEntity
  8
0
  6
Continuous
 62
     7
370
    25
100
AcDbLine
 10
57.9143851688
 20
31.5242620556
 30
0.0
 11
55.8149238851
 21
31.5242620556
 31
0.0
  0
SPLINE
  5
C6
330
1F
100
AcDbEntity
  8
0
  6
Continuous
 62
     7
370
    25
100
AcDbSpline
210
0.0
220
0.0
230
1.0
 70
     8
 71
     3
 72
     8
 73
     4
 74
     0
 42
0.000000001
 43
0.00000001
 40
0.0
 40
0.0
 40
0.0
 40
0.0
 40
1.0
 40
1.0
 40
1.0
 40
1.0
 10
55.73453912734584
 20
31.83998990761613
 30
0.0
 10
55.75991376050502
 20
31.73462787147744
 30
0.0
 10
55.7867551617118
 20
31.62938916238145
 30
0.0
 10
55.81492388507517
 20
31.52426205560496
 30
0.0
  0
SPLINE
  5
C7
330
1F
100
AcDbEntity
  8
0
  6
Continuous
 62
     7
370
    25
100
AcDbSpline
210
0.0
220
0.0
230
1.0
 70
     8
 71
     3
 72
     8
 73
     4
 74
     0
 42
0.000000001
 43
0.00000001
 40
0.0
 40
0.0
 40
0.0
 40
0.0
 40
1.0
 40
1.0
 40
1.0
 40
1.0
 10
55.65415436961651
 20
31.52426205560496
 30
0.0
 10
55.68233567543967
 20
31.62943612076065
 30
0.0
 10
55.7091762014344
 20
31.73467648299631
 30
0.0
 10
55.73453912734584
 20
31.83998990761613
 30
0.0
  0
LINE
  5
C8
330
1F
100
AcDbEntity
  8
0
  6
Continuous
 62
     7
370
    25
100
AcDbLine
 10
55.7345391273
 20
36.1160114917
 30
0.0
 11
55.7345391273
 21
37.0631950477
 31
0.0
  0
SPLINE
  5
C9
330
1F
100
AcDbEntity
  8
0
  6
Continuous
 62
     7
370
    25
100
AcDbSpline
210
0.0
220
0.0
230
1.0
 70
     8
 71
     3
 72
    10
 73
     6
 74
     0
 42
0.000000001
 43
0.00000001
 40
0.0
 40
0.0
 40
0.0
 40
0.0
 40
0.5
 40
0.5
 40
1.0
 40
1.0
 40
1.0
 40
1.0
 10
53.55469308588793
 20
46.24669391994042
 30
0.0
 10
53.3610429992783
 20
46.58210570883841
 30
0.0
 10
53.19425575116247
 20
46.92304605512947
 30
0.0
 10
52.94193489124015
 20
47.60565238414504
 30
0.0
 10
52.85586633797458
 20
47.9486949516845
 30
0.0
 10
52.81791211465601
 20
48.29382497978393
 30
0.0
  0
SPLINE
  5
CA
330
1F
100
AcDbEntity
  8
0
  6
Continuous
 62
     7
370
    25
100
AcDbSpline
210
0.0
220
0.0
230
1.0
 70
     8
 71
     3
 72
    12
 73
     8
 74
     0
 42
0.000000001
 43
0.00000001
 40
0.0
 40
0.0
 40
0.0
 40
0.0
 40
0.2500000000000002
 40
0.2500000000000002
 40
0.5000000000000004
 40
0.5000000000000004
 40
1.0
 40
1.0
 40
1.0
 40
1.0
 10
52.817912114656
 20
49.10704014820872
 30
0.0
 10
52.83703959736226
 20
49.28097253482272
 30
0.0
 10
52.868637850703
 20
49.45613643493595
 30
0.0
 10
52.95420496920801
 20
49.80308595117542
 30
0.0
 10
53.00804246885185
 20
49.97498909689593
 30
0.0
 10
53.19822886607174
 20
50.48662177477631
 30
0.0
 10
53.36308605373556
 20
50.82229809327691
 30
0.0
 10
53.55469308588789
 20
51.15417120805225
 30
0.0
  0
LINE
  5
CB
330
1F
100
AcDbEntity
  8
0
  6
Continuous
 62
     7
370
    25
100
AcDbLine
 10
55.6541543696
 20
51.1541712081
 30
0.0
 11
53.5546930859
 21
51.1541712081
 31
0.0
  0
SPLINE
  5
CC
330
1F
100
AcDbEntity
  8
0
  6
Continuous
 62
     7
370
    25
100
AcDbSpline
210
0.0
220
0.0
230
1.0
 70
     8
 71
     3
 72
     8
 73
     4
 74
     0
 42
0.000000001
 43
0.00000001
 40
0.0
 40
0.0
 40
0.0
 40
0.0
 40
1.0
 40
1.0
 40
1.0
 40
1.0
 10
55.73453912734584
 20
50.83844335604108
 30
0.0
 10
55.70916449418667
 20
50.94380539217976
 30
0.0
 10
55.68232309297989
 20
51.04904410127575
 30
0.0
 10
55.65415436961651
 20
51.15417120805224
 30
0.0
  0
SPLINE
  5
CD
330
1F
100
AcDbEntity
  8
0
  6
Continuous
 62
     7
370
    25
100
AcDbSpline
210
0.0
220
0.0
230
1.0
 70
     8
 71
     3
 72
     8
 73
     4
 74
     0
 42
0.000000001
 43
0.00000001
 40
0.0
 40
0.0
 40
0.0
 40
0.0
 40
1.0
 40
1.0
 40
1.0
 40
1.0
 10
55.81492388507518
 20
51.15417120805225
 30
0.0
 10
55.78674257925201
 20
51.04899714289655
 30
0.0
 10
55.75990205325729
 20
50.94375678066089
 30
0.0
 10
55.73453912734584
 20
50.83844335604108
 30
0.0
  0
LINE
  5
CE
330
1F
100
AcDbEntity
  8
0
  6
Continuous
 62
     7
370
    25
100
AcDbLine
 10
57.9143851688
 20
51.1541712081
 30
0.0
 11
55.8149238851
 21
51.1541712081
 31
0.0
  0
SPLINE
  5
CF
330
1F
100
AcDbEntity
  8
0
  6
Continuous
 62
     7
370
    25
100
AcDbSpline
210
0.0
220
0.0
230
1.0
 70
     8
 71
     3
 72
    16
 73
    12
 74
     0
 42
0.000000001
 43
0.00000001
 40
0.0
 40
0.0
 40
0.0
 40
0.0
 40
0.2500000000000002
 40
0.2500000000000002
 40
0.5000000000000004
 40
0.5000000000000004
 40
0.6250000000000003
 40
0.6250000000000003
 40
0.7500000000000002
 40
0.7500000000000002
 40
1.0
 40
1.0
 40
1.0
 40
1.0
 10
57.91438516880417
 20
51.15417120805228
 30
0.0
 10
58.14569992248679
 20
50.75352230213369
 30
0.0
 10
58.33634521581723
 20
50.34995231244883
 30
0.0
 10
58.60045087222454
 20
49.53439552610775
 30
0.0
 10
58.67304006353849
 20
49.12234615754443
 30
0.0
 10
58.67383730962946
 20
48.49650878949483
 30
0.0
 10
58.656092053006
 20
48.28691480603172
 30
0.0
 10
58.58689496947621
 20
47.87231578865548
 30
0.0
 10
58.53551336341393
 20
47.66640627663331
 30
0.0
 10
58.33710536467731
 20
47.05234367858014
 30
0.0
 10
58.14598826297336
 20
46.64784224623196
 30
0.0
 10
57.91438516880396
 20
46.24669391994041
 30
0.0
  0
SPLINE
  5
D0
330
1F
100
AcDbEntity
  8
0
  6
Continuous
 62
     7
370
    25
100
AcDbSpline
210
0.0
220
0.0
230
1.0
 70
     8
 71
     3
 72
     8
 73
     4
 74
     0
 42
0.000000001
 43
0.00000001
 40
0.0
 40
0.0
 40
0.0
 40
0.0
 40
1.0
 40
1.0
 40
1.0
 40
1.0
 10
55.73453912734584
 20
46.56242177195159
 30
0.0
 10
55.75991376050502
 20
46.4570597358129
 30
0.0
 10
55.7867551617118
 20
46.35182102671691
 30
0.0
 10
55.81492388507518
 20
46.24669391994042
 30
0.0
  0
SPLINE
  5
D1
330
1F
100
AcDbEntity
  8
0
  6
Continuous
 62
     7
370
    25
100
AcDbSpline
210
0.0
220
0.0
230
1.0
 70
     8
 71
     3
 72
     8
 73
     4
 74
     0
 42
0.000000001
 43
0.00000001
 40
0.0
 40
0.0
 40
0.0
 40
0.0
 40
1.0
 40
1.0
 40
1.0
 40
1.0
 10
55.65415436961651
 20
46.24669391994042
 30
0.0
 10
55.68233567543967
 20
46.35186798509612
 30
0.0
 10
55.7091762014344
 20
46.45710834733178
 30
0.0
 10
55.73453912734584
 20
46.56242177195159
 30
0.0
  0
LINE
  5
D2
330
1F
100
AcDbEntity
  8
0
  6
Continuous
 62
     7
370
    25
100
AcDbLine
 10
55.7345391273
 20
45.6152382159
 30
0.0
 11
55.7345391273
 21
46.562421772
 31
0.0
  0
LINE
  5
D3
330
1F
100
AcDbEntity
  8
0
  6
Continuous
 62
     7
370
    25
100
AcDbLine
 10
58.8179121147
 20
49.5892166318
 30
0.0
 11
58.8179121147
 21
33.0892166318
 31
0.0
  0
SPLINE
  5
D4
330
1F
100
AcDbEntity
  8
0
  6
Continuous
 62
     7
370
    25
100
AcDbSpline
210
0.0
220
0.0
230
1.0
 70
     8
 71
     3
 72
    23
 73
    19
 74
     0
 42
0.000000001
 43
0.00000001
 40
0.0
 40
0.0
 40
0.0
 40
0.0
 40
0.0679503475997537
 40
0.1332598223836998
 40
0.1978002967596474
 40
0.2608458295516822
 40
0.3233192927503671
 40
0.3862817224595722
 40
0.450061516233313
 40
0.5152075844858154
 40
0.5796407692199316
 40
0.6418172023841522
 40
0.7016924412115348
 40
0.7607690981778945
 40
0.8192540511346832
 40
0.8787376269055537
 40
0.9381582970160912
 40
1.0
 40
1.0
 40
1.0
 40
1.0
 10
55.03329673004062
 20
40.44800003910242
 30
0.0
 10
55.03362631908175
 20
40.43687195007904
 30
0.0
 10
55.03427268777053
 20
40.41504826235546
 30
0.0
 10
55.03816434176876
 20
40.38283132427075
 30
0.0
 10
55.04504783287938
 20
40.35193965825103
 30
0.0
 10
55.05482967009959
 20
40.32235177940773
 30
0.0
 10
55.06674871193564
 20
40.29382116994697
 30
0.0
 10
55.08195707196344
 20
40.26675261572253
 30
0.0
 10
55.09973432347104
 20
40.24078067179143
 30
0.0
 10
55.12007287668925
 20
40.2164706590863
 30
0.0
 10
55.14193065015786
 20
40.19381897332295
 30
0.0
 10
55.1659392516264
 20
40.17486892225213
 30
0.0
 10
55.19025437397146
 20
40.15776664045682
 30
0.0
 10
55.21635279598533
 20
40.14481225981474
 30
0.0
 10
55.2432891954642
 20
40.13395209016009
 30
0.0
 10
55.27147415620815
 20
40.1266513405928
 30
0.0
 10
55.30076237602361
 20
40.12187177493483
 30
0.0
 10
55.32063698591494
 20
40.1213454028138
 30
0.0
 10
55.33077269157909
 20
40.12107696217935
 30
0.0
  0
SPLINE
  5
D5
330
1F
100
AcDbEntity
  8
0
  6
Continuous
 62
     7
370
    25
100
AcDbSpline
210
0.0
220
0.0
230
1.0
 70
     8
 71
     3
 72
    23
 73
    19
 74
     0
 42
0.000000001
 43
0.00000001
 40
0.0
 40
0.0
 40
0.0
 40
0.0
 40
0.0611415679303346
 40
0.1200010135310723
 40
0.1782359705414083
 40
0.2364955434070171
 40
0.2948872487049731
 40
0.3546771928192958
 40
0.4166948132897783
 40
0.4806333779628393
 40
0.5458046334786407
 40
0.6097347883178743
 40
0.6729516883751544
 40
0.7360010960706834
 40
0.7998274385165249
 40
0.864767276939387
 40
0.9310835057306723
 40
1.0
 40
1.0
 40
1.0
 40
1.0
 10
55.33077269157909
 20
40.12107696217935
 30
0.0
 10
55.34101440202923
 20
40.12131005322239
 30
0.0
 10
55.36111554885802
 20
40.12176753513456
 30
0.0
 10
55.39053616246105
 20
40.12704211019076
 30
0.0
 10
55.41906097119459
 20
40.13416630163256
 30
0.0
 10
55.44604740771937
 20
40.14567964796991
 30
0.0
 10
55.47224175554974
 20
40.15939298323356
 30
0.0
 10
55.49689536066081
 20
40.17686287152893
 30
0.0
 10
55.52070666410481
 20
40.19689252606691
 30
0.0
 10
55.54279907783494
 20
40.22008880953177
 30
0.0
 10
55.56300659749948
 20
40.24532428938132
 30
0.0
 10
55.5808431200352
 20
40.27216038313455
 30
0.0
 10
55.5958967946808
 20
40.3002350071886
 30
0.0
 10
55.60845695114948
 20
40.32952104172396
 30
0.0
 10
55.6175210197049
 20
40.36035368962485
 30
0.0
 10
55.62465812162381
 20
40.39223526797627
 30
0.0
 10
55.6284561298341
 20
40.42557351362174
 30
0.0
 10
55.62911487195915
 20
40.44819206020889
 30
0.0
 10
55.62945057619447
 20
40.45971878910242
 30
0.0
  0
SPLINE
  5
D6
330
1F
100
AcDbEntity
  8
0
  6
Continuous
 62
     7
370
    25
100
AcDbSpline
210
0.0
220
0.0
230
1.0
 70
     8
 71
     3
 72
    23
 73
    19
 74
     0
 42
0.000000001
 43
0.00000001
 40
0.0
 40
0.0
 40
0.0
 40
0.0
 40
0.0705921865358071
 40
0.1385012886049299
 40
0.2037899961427012
 40
0.266787572669601
 40
0.3290979656467183
 40
0.3911745246039658
 40
0.4531677986176573
 40
0.5157967602265844
 40
0.5779688050530403
 40
0.6389663383752914
 40
0.698381066162843
 40
0.7573204555574266
 40
0.8164122397216688
 40
0.876279358230831
 40
0.936823465650193
 40
1.0
 40
1.0
 40
1.0
 40
1.0
 10
55.62945057619447
 20
40.45971878910242
 30
0.0
 10
55.62911271173987
 20
40.47114510694024
 30
0.0
 10
55.62844982446251
 20
40.49356344843394
 30
0.0
 10
55.62470583234356
 20
40.52641290464916
 30
0.0
 10
55.61761199372316
 20
40.55741883833487
 30
0.0
 10
55.60843595016689
 20
40.58693538781901
 30
0.0
 10
55.59594212477007
 20
40.61465491316652
 30
0.0
 10
55.58094599222575
 20
40.64089361179486
 30
0.0
 10
55.56311657095296
 20
40.66539111974178
 30
0.0
 10
55.5426526546169
 20
40.68771721827396
 30
0.0
 10
55.52057490033702
 20
40.70821809070831
 30
0.0
 10
55.49678597659837
 20
40.72585218878327
 30
0.0
 10
55.47201267661757
 20
40.7410799498916
 30
0.0
 10
55.44602216143372
 20
40.75345685059457
 30
0.0
 10
55.41883110295904
 20
40.76309572889244
 30
0.0
 10
55.39056277210296
 20
40.77006776183512
 30
0.0
 10
55.3610280913479
 20
40.77394796103496
 30
0.0
 10
55.34099987286911
 20
40.77459348604373
 30
0.0
 10
55.33077269157909
 20
40.7749231160255
 30
0.0
  0
SPLINE
  5
D7
330
1F
100
AcDbEntity
  8
0
  6
Continuous
 62
     7
370
    25
100
AcDbSpline
210
0.0
220
0.0
230
1.0
 70
     8
 71
     3
 72
    23
 73
    19
 74
     0
 42
0.000000001
 43
0.00000001
 40
0.0
 40
0.0
 40
0.0
 40
0.0
 40
0.0618526459466917
 40
0.1212838306153701
 40
0.1807779320756125
 40
0.2392732340142805
 40
0.2986414352139417
 40
0.3581858222417117
 40
0.4207600867589709
 40
0.4852046730216432
 40
0.5503622689482871
 40
0.613649924530912
 40
0.6766234955168249
 40
0.7391080134690126
 40
0.8021647022429448
 40
0.8667165971324778
 40
0.9320376285055445
 40
1.0
 40
1.0
 40
1.0
 40
1.0
 10
55.33077269157909
 20
40.7749231160255
 30
0.0
 10
55.32063737172218
 20
40.77465398371805
 30
0.0
 10
55.3007635183414
 20
40.7741262553292
 30
0.0
 10
55.2714697929279
 20
40.769356560076
 30
0.0
 10
55.24330548267692
 20
40.76201878842274
 30
0.0
 10
55.21624998797602
 20
40.75127823500095
 30
0.0
 10
55.19045089231262
 20
40.73780644054328
 30
0.0
 10
55.16572493717239
 20
40.72122791201137
 30
0.0
 10
55.14205505613231
 20
40.70182336392334
 30
0.0
 10
55.1200381195813
 20
40.679265961778
 30
0.0
 10
55.09984365034189
 20
40.65493999054345
 30
0.0
 10
55.08186245701987
 20
40.62921366473832
 30
0.0
 10
55.06676306284591
 20
40.60216878409108
 30
0.0
 10
55.05482580159384
 20
40.57365102791999
 30
0.0
 10
55.04504890005155
 20
40.54405966709363
 30
0.0
 10
55.03816405093772
 20
40.51316895910728
 30
0.0
 10
55.03427276429197
 20
40.48095176186565
 30
0.0
 10
55.03362634492368
 20
40.45912810989505
 30
0.0
 10
55.03329673004062
 20
40.44800003910242
 30
0.0
  0
LINE
  5
D8
330
1F
100
AcDbEntity
  8
0
  6
Continuous
 62
     7
370
    25
100
AcDbLine
 10
39.8179121147
 20
41.3392166318
 30
0.0
 11
39.8179121147
 21
48.3392166318
 31
0.0
  0
LINE
  5
D9
330
1F
100
AcDbEntity
  8
0
  6
Continuous
 62
     7
370
    25
100
AcDbLine
 10
39.8179121147
 20
34.3392166318
 30
0.0
 11
39.8179121147
 21
41.3392166318
 31
0.0
  0
LINE
  5
DA
330
1F
100
AcDbEntity
  8
0
  6
Continuous
 62
     7
370
    25
100
AcDbLine
 10
71.8179121147
 20
45.8392166318
 30
0.0
 11
71.8179121147
 21
36.8392166318
 31
0.0
  0
LINE
  5
DB
330
1F
100
AcDbEntity
  8
0
  6
Continuous
 62
     7
370
    25
100
AcDbLine
 10
67.3179121147
 20
45.8392166318
 30
0.0
 11
67.3179121147
 21
36.8392166318
 31
0.0
  0
LINE
  5
DC
330
1F
100
AcDbEntity
  8
0
  6
Continuous
 62
     7
370
    25
100
AcDbLine
 10
76.3179121147
 20
45.8392166318
 30
0.0
 11
76.3179121147
 21
36.8392166318
 31
0.0
  0
LINE
  5
DD
330
1F
100
AcDbEntity
  8
0
  6
Continuous
 62
     7
370
    25
100
AcDbLine
 10
62.8179121147
 20
45.8392166318
 30
0.0
 11
62.8179121147
 21
36.8392166318
 31
0.0
  0
LINE
  5
DE
330
1F
100
AcDbEntity
  8
0
  6
Continuous
 62
     7
370
    25
100
AcDbLine
 10
81.8179121147
 20
44.652771102
 30
0.0
 11
81.8179121147
 21
38.0256621616
 31
0.0
  0
LINE
  5
DF
330
1F
100
AcDbEntity
  8
0
  6
Continuous
 62
     7
370
    25
100
AcDbLine
 10
55.7345391273
 20
31.8242620556
 30
0.0
 11
55.7345391273
 21
31.8399899076
 31
0.0
  0
LINE
  5
E0
330
1F
100
AcDbEntity
  8
0
  6
Continuous
 62
     7
370
    25
100
AcDbLine
 10
55.7345391273
 20
50.838443356
 30
0.0
 11
55.7345391273
 21
50.8541712081
 31
0.0
  0
LINE
  5
E1
330
1F
100
AcDbEntity
  8
0
  6
Continuous
 62
     8
370
    25
100
AcDbLine
 10
81.385468717
 20
37.5302470776
 30
0.0
 11
81.385468717
 21
45.1481861861
 31
0.0
  0
LINE
  5
E2
330
1F
100
AcDbEntity
  8
0
  6
Continuous
 62
     7
370
    18
100
AcDbLine
 10
40.6877157511
 20
48.8413979955
 30
0.0
 11
52.3179121147
 21
49.2048416318
 31
0.0
  0
LINE
  5
E3
330
1F
100
AcDbEntity
  8
0
  6
Continuous
 62
     7
370
    18
100
AcDbLine
 10
40.6877157511
 20
33.8370352682
 30
0.0
 11
52.3179121147
 21
33.4735916318
 31
0.0
  0
LINE
  5
E4
330
1F
100
AcDbEntity
  8
0
  6
Continuous
 62
     7
370
    18
100
AcDbLine
 10
52.3179121147
 20
32.8160291318
 30
0.0
 11
52.3179121147
 21
49.8624041318
 31
0.0
  0
LINE
  5
E5
330
1F
100
AcDbEntity
  8
0
  6
CENTERX2
 62
     7
370
    18
100
AcDbLine
 10
82.8179121147
 20
41.3392166318
 30
0.0
 11
38.7206824611
 21
41.3392166318
 31
0.0
  0
CIRCLE
  5
E6
330
1F
100
AcDbEntity
  8
0
  6
Continuous
 62
     7
370
    25
100
AcDbCircle
 10
103.8906846374
 20
41.3392166318
 30
0.0
 40
3.313554470200579
  0
CIRCLE
  5
E7
330
1F
100
AcDbEntity
  8
0
  6
Continuous
 62
     7
370
    25
100
AcDbCircle
 10
103.8906846374
 20
41.3392166318
 30
0.0
 40
3.808969554222735
  0
CIRCLE
  5
E8
330
1F
100
AcDbEntity
  8
0
  6
Continuous
 62
     7
370
    25
100
AcDbCircle
 10
103.8906846374
 20
41.3392166318
 30
0.0
 40
2.949999999999996
  0
CIRCLE
  5
E9
330
1F
100
AcDbEntity
  8
0
  6
Continuous
 62
     7
370
    25
100
AcDbCircle
 10
103.8906846374
 20
41.3392166318
 30
0.0
 40
2.75
  0
CIRCLE
  5
EA
330
1F
100
AcDbEntity
  8
0
  6
Continuous
 62
     7
370
    25
100
AcDbCircle
 10
103.8906846374
 20
41.3392166318
 30
0.0
 40
4.5
  0
SPLINE
  5
EB
330
1F
100
AcDbEntity
  8
0
  6
Continuous
 62
     7
370
    25
100
AcDbSpline
210
0.0
220
0.0
230
1.0
 70
    24
 71
     3
 72
    16
 73
    12
 74
     0
 42
0.000000001
 43
0.00000001
 40
0.0
 40
0.0
 40
0.0
 40
0.0
 40
0.25
 40
0.25
 40
0.5000000000000001
 40
0.5000000000000001
 40
0.6250000000000001
 40
0.6250000000000001
 40
0.7500000000000001
 40
0.7500000000000001
 40
1.0
 40
1.0
 40
1.0
 40
1.0
 10
112.3906846373559
 20
36.43173934371677
 30
0.0
 10
112.3906846373559
 20
37.23141474625955
 30
0.0
 10
112.3906846373559
 20
38.04848495019791
 30
0.0
 10
112.3906846373559
 20
39.68599237162454
 30
0.0
 10
112.3906846373559
 20
40.51031699401128
 30
0.0
 10
112.3906846373559
 20
41.75667234835832
 30
0.0
 10
112.3906846373559
 20
42.17494088250462
 30
0.0
 10
112.3906846373559
 20
43.009402177871
 30
0.0
 10
112.3906846373559
 20
43.42229017315152
 30
0.0
 10
112.3906846373559
 20
44.64974509719154
 30
0.0
 10
112.3906846373559
 20
45.45317864644766
 30
0.0
 10
112.3906846373559
 20
46.24669391994043
 30
0.0
  0
SPLINE
  5
EC
330
1F
100
AcDbEntity
  8
0
  6
Continuous
 62
     7
370
    25
100
AcDbSpline
210
0.0
220
0.0
230
1.0
 70
    24
 71
     3
 72
    16
 73
    12
 74
     0
 42
0.000000001
 43
0.00000001
 40
0.0
 40
0.0
 40
0.0
 40
0.0
 40
0.2499999999999998
 40
0.2499999999999998
 40
0.4999999999999997
 40
0.4999999999999997
 40
0.6249999999999998
 40
0.6249999999999998
 40
0.7499999999999999
 40
0.7499999999999999
 40
1.0
 40
1.0
 40
1.0
 40
1.0
 10
103.8906846373559
 20
31.52426205560494
 30
0.0
 10
104.5846288984037
 20
31.92491096152352
 30
0.0
 10
105.2836326249479
 20
32.32848095120837
 30
0.0
 10
106.6962184153483
 20
33.14403773754945
 30
0.0
 10
107.4099088569266
 20
33.55608710611277
 30
0.0
 10
108.4938909756637
 20
34.18192447416237
 30
0.0
 10
108.8569184039826
 20
34.39151845762549
 30
0.0
 10
109.5750249668464
 20
34.80611747500172
 30
0.0
 10
109.9316707034305
 20
35.01202698702389
 30
0.0
 10
110.9952583222863
 20
35.62608958507705
 30
0.0
 10
111.6958753548477
 20
36.03059101742524
 30
0.0
 10
112.3906846373559
 20
36.4317393437168
 30
0.0
  0
SPLINE
  5
ED
330
1F
100
AcDbEntity
  8
0
  6
Continuous
 62
     7
370
    25
100
AcDbSpline
210
0.0
220
0.0
230
1.0
 70
    24
 71
     3
 72
    16
 73
    12
 74
     0
 42
0.000000001
 43
0.00000001
 40
0.0
 40
0.0
 40
0.0
 40
0.0
 40
0.2500000000000001
 40
0.2500000000000001
 40
0.5000000000000001
 40
0.5000000000000001
 40
0.6250000000000001
 40
0.6250000000000001
 40
0.7500000000000002
 40
0.7500000000000002
 40
1.0
 40
1.0
 40
1.0
 40
1.0
 10
95.39068463735585
 20
36.43173934371681
 30
0.0
 10
96.08462889840374
 20
36.03109043779822
 30
0.0
 10
96.78363262494796
 20
35.62752044811337
 30
0.0
 10
98.1962184153483
 20
34.81196366177228
 30
0.0
 10
98.90990885692663
 20
34.39991429320897
 30
0.0
 10
99.99389097566373
 20
33.77407692515936
 30
0.0
 10
100.3569184039826
 20
33.56448294169625
 30
0.0
 10
101.0750249668464
 20
33.14988392432002
 30
0.0
 10
101.4316707034305
 20
32.94397441229784
 30
0.0
 10
102.4952583222863
 20
32.32991181424467
 30
0.0
 10
103.1958753548478
 20
31.92541038189649
 30
0.0
 10
103.8906846373559
 20
31.52426205560494
 30
0.0
  0
SPLINE
  5
EE
330
1F
100
AcDbEntity
  8
0
  6
Continuous
 62
     7
370
    25
100
AcDbSpline
210
0.0
220
0.0
230
1.0
 70
    24
 71
     3
 72
    16
 73
    12
 74
     0
 42
0.000000001
 43
0.00000001
 40
0.0
 40
0.0
 40
0.0
 40
0.0
 40
0.25
 40
0.25
 40
0.5
 40
0.5
 40
0.625
 40
0.625
 40
0.75
 40
0.75
 40
1.0
 40
1.0
 40
1.0
 40
1.0
 10
95.3906846373559
 20
36.43173934371679
 30
0.0
 10
95.3906846373559
 20
37.23141474625655
 30
0.0
 10
95.3906846373559
 20
38.04848495019689
 30
0.0
 10
95.3906846373559
 20
39.68599237165478
 30
0.0
 10
95.3906846373559
 20
40.51031699406553
 30
0.0
 10
95.39068463735589
 20
41.75667234846401
 30
0.0
 10
95.3906846373559
 20
42.17494088266183
 30
0.0
 10
95.3906846373559
 20
43.00940217797194
 30
0.0
 10
95.3906846373559
 20
43.42229017322996
 30
0.0
 10
95.3906846373559
 20
44.64974509721618
 30
0.0
 10
95.3906846373559
 20
45.45317864645452
 30
0.0
 10
95.3906846373559
 20
46.24669391994043
 30
0.0
  0
SPLINE
  5
EF
330
1F
100
AcDbEntity
  8
0
  6
Continuous
 62
     7
370
    25
100
AcDbSpline
210
0.0
220
0.0
230
1.0
 70
    24
 71
     3
 72
    16
 73
    12
 74
     0
 42
0.000000001
 43
0.00000001
 40
0.0
 40
0.0
 40
0.0
 40
0.0
 40
0.2500000000000002
 40
0.2500000000000002
 40
0.5000000000000004
 40
0.5000000000000004
 40
0.6250000000000003
 40
0.6250000000000003
 40
0.7500000000000002
 40
0.7500000000000002
 40
1.0
 40
1.0
 40
1.0
 40
1.0
 10
103.890684637356
 20
51.15417120805228
 30
0.0
 10
103.1967403763081
 20
50.75352230213369
 30
0.0
 10
102.4977366497639
 20
50.34995231244883
 30
0.0
 10
101.0851508593635
 20
49.53439552610775
 30
0.0
 10
100.3714604177852
 20
49.12234615754443
 30
0.0
 10
99.28747829904808
 20
48.49650878949483
 30
0.0
 10
98.9244508707292
 20
48.28691480603172
 30
0.0
 10
98.20634430786544
 20
47.87231578865548
 30
0.0
 10
97.84969857128132
 20
47.66640627663331
 30
0.0
 10
96.78611095242549
 20
47.05234367858014
 30
0.0
 10
96.08549391986405
 20
46.64784224623196
 30
0.0
 10
95.39068463735587
 20
46.24669391994041
 30
0.0
  0
SPLINE
  5
F0
330
1F
100
AcDbEntity
  8
0
  6
Continuous
 62
     7
370
    25
100
AcDbSpline
210
0.0
220
0.0
230
1.0
 70
    24
 71
     3
 72
    16
 73
    12
 74
     0
 42
0.000000001
 43
0.00000001
 40
0.0
 40
0.0
 40
0.0
 40
0.0
 40
0.2499999999999998
 40
0.2499999999999998
 40
0.4999999999999996
 40
0.4999999999999996
 40
0.6249999999999994
 40
0.6249999999999994
 40
0.7499999999999996
 40
0.7499999999999996
 40
1.0
 40
1.0
 40
1.0
 40
1.0
 10
112.3906846373559
 20
46.24669391994039
 30
0.0
 10
111.6967403763081
 20
46.64734282585898
 30
0.0
 10
110.9977366497639
 20
47.05091281554384
 30
0.0
 10
109.5851508593635
 20
47.86646960188492
 30
0.0
 10
108.8714604177852
 20
48.27851897044824
 30
0.0
 10
107.7874782990481
 20
48.90435633849784
 30
0.0
 10
107.4244508707292
 20
49.11395032196096
 30
0.0
 10
106.7063443078654
 20
49.52854933933719
 30
0.0
 10
106.3496985712813
 20
49.73445885135937
 30
0.0
 10
105.2861109524255
 20
50.34852144941253
 30
0.0
 10
104.5854939198641
 20
50.7530228817607
 30
0.0
 10
103.8906846373559
 20
51.15417120805226
 30
0.0
  0
CIRCLE
  5
F1
330
1F
100
AcDbEntity
  8
0
  6
Continuous
 62
     7
370
    25
100
AcDbCircle
 10
103.8906846374
 20
41.3392166318
 30
0.0
 40
8.25
  0
INSERT
  5
FD
330
1F
100
AcDbEntity
  8
0
  6
Continuous
 62
     7
370
    18
100
AcDbBlockReference
  2
SW_CENTERMARKSYMBOL_0
 10
103.8906846374
 20
41.3392166318
 30
0.0
  0
INSERT
  5
109
330
1F
100
AcDbEntity
  8
0
  6
Continuous
 62
     7
370
    18
100
AcDbBlockReference
  2
SW_CENTERMARKSYMBOL_1
 10
103.8906846374
 20
41.3392166318
 30
0.0
  0
LINE
  5
10A
330
1F
100
AcDbEntity
  8
0
  6
Continuous
 62
     7
370
    25
100
AcDbLine
 10
58.6735745474
 20
60.7692175645
 30
0.0
 11
58.8179121147
 21
61.0192175645
 31
0.0
  0
LINE
  5
10B
330
1F
100
AcDbEntity
  8
0
  6
Continuous
 62
     7
370
    25
100
AcDbLine
 10
58.8179121147
 20
77.5192175645
 30
0.0
 11
58.6735745474
 21
77.7692175645
 31
0.0
  0
LINE
  5
10C
330
1F
100
AcDbEntity
  8
0
  6
Continuous
 62
     7
370
    25
100
AcDbLine
 10
52.8179121147
 20
77.8080300645
 30
0.0
 11
41.8918215483
 21
77.4665897343
 31
0.0
  0
LINE
  5
10D
330
1F
100
AcDbEntity
  8
0
  6
Continuous
 62
     7
370
    25
100
AcDbLine
 10
41.8918215483
 20
61.0718453947
 30
0.0
 11
52.8179121147
 21
60.7304050645
 31
0.0
  0
LINE
  5
10E
330
1F
100
AcDbEntity
  8
0
  6
Continuous
 62
     7
370
    25
100
AcDbLine
 10
41.8918215483
 20
77.4665897343
 30
0.0
 11
39.8179121147
 21
76.2692175645
 31
0.0
  0
LINE
  5
10F
330
1F
100
AcDbEntity
  8
0
  6
Continuous
 62
     7
370
    25
100
AcDbLine
 10
39.8179121147
 20
62.2692175645
 30
0.0
 11
41.8918215483
 21
61.0718453947
 31
0.0
  0
LINE
  5
110
330
1F
100
AcDbEntity
  8
0
  6
Continuous
 62
     7
370
    25
100
AcDbLine
 10
67.3179121147
 20
64.7692175645
 30
0.0
 11
71.8179121147
 21
65.5192175645
 31
0.0
  0
LINE
  5
111
330
1F
100
AcDbEntity
  8
0
  6
Continuous
 62
     7
370
    25
100
AcDbLine
 10
71.8179121147
 20
73.0192175645
 30
0.0
 11
67.3179121147
 21
73.7692175645
 31
0.0
  0
LINE
  5
112
330
1F
100
AcDbEntity
  8
0
  6
Continuous
 62
     7
370
    25
100
AcDbLine
 10
62.8179121147
 20
64.7692175645
 30
0.0
 11
67.3179121147
 21
65.5192175645
 31
0.0
  0
LINE
  5
113
330
1F
100
AcDbEntity
  8
0
  6
Continuous
 62
     7
370
    25
100
AcDbLine
 10
67.3179121147
 20
73.0192175645
 30
0.0
 11
62.8179121147
 21
73.7692175645
 31
0.0
  0
LINE
  5
114
330
1F
100
AcDbEntity
  8
0
  6
Continuous
 62
     7
370
    25
100
AcDbLine
 10
76.3179121147
 20
64.7692175645
 30
0.0
 11
81.385468717
 21
65.4602480103
 31
0.0
  0
LINE
  5
115
330
1F
100
AcDbEntity
  8
0
  6
Continuous
 62
     7
370
    25
100
AcDbLine
 10
81.385468717
 20
73.0781871187
 30
0.0
 11
76.3179121147
 21
73.7692175645
 31
0.0
  0
LINE
  5
116
330
1F
100
AcDbEntity
  8
0
  6
Continuous
 62
     7
370
    25
100
AcDbLine
 10
62.8179121147
 20
73.7692175645
 30
0.0
 11
58.8179121147
 21
73.7692175645
 31
0.0
  0
LINE
  5
117
330
1F
100
AcDbEntity
  8
0
  6
Continuous
 62
     7
370
    25
100
AcDbLine
 10
58.8179121147
 20
64.7692175645
 30
0.0
 11
62.8179121147
 21
64.7692175645
 31
0.0
  0
LINE
  5
118
330
1F
100
AcDbEntity
  8
0
  6
Continuous
 62
     7
370
    25
100
AcDbLine
 10
71.8179121147
 20
64.7692175645
 30
0.0
 11
76.3179121147
 21
65.5192175645
 31
0.0
  0
LINE
  5
119
330
1F
100
AcDbEntity
  8
0
  6
Continuous
 62
     7
370
    25
100
AcDbLine
 10
76.3179121147
 20
73.0192175645
 30
0.0
 11
71.8179121147
 21
73.7692175645
 31
0.0
  0
ARC
  5
11A
330
1F
100
AcDbEntity
  8
0
  6
Continuous
 62
     7
370
    25
100
AcDbCircle
 10
81.3179121147
 20
72.5827720347
 30
0.0
 40
0.5000000000000054
100
AcDbArc
 50
0.0
 51
82.2348339816
  0
ARC
  5
11B
330
1F
100
AcDbEntity
  8
0
  6
Continuous
 62
     7
370
    25
100
AcDbCircle
 10
81.3179121147
 20
65.9556630943
 30
0.0
 40
0.5000000000000054
100
AcDbArc
 50
277.7651660184
 51
0.0
  0
LINE
  5
11C
330
1F
100
AcDbEntity
  8
0
  6
Continuous
 62
     7
370
    25
100
AcDbLine
 10
55.6541543696
 20
69.2692175645
 30
0.0
 11
53.5546930859
 21
69.2692175645
 31
0.0
  0
SPLINE
  5
11D
330
1F
100
AcDbEntity
  8
0
  6
Continuous
 62
     7
370
    25
100
AcDbSpline
210
0.0
220
0.0
230
1.0
 70
     8
 71
     3
 72
    10
 73
     6
 74
     0
 42
0.000000001
 43
0.00000001
 40
0.0
 40
0.0
 40
0.0
 40
0.0
 40
0.5
 40
0.5
 40
1.0
 40
1.0
 40
1.0
 40
1.0
 10
53.55469308588792
 20
69.26921756451682
 30
0.0
 10
53.3610429992783
 20
69.85016782434569
 30
0.0
 10
53.19425575116246
 20
70.44069382647193
 30
0.0
 10
52.94193489124014
 20
71.62300266989497
 30
0.0
 10
52.85586633797458
 20
72.21716982603222
 30
0.0
 10
52.817912114656
 20
72.8149525699181
 30
0.0
  0
SPLINE
  5
11E
330
1F
100
AcDbEntity
  8
0
  6
Continuous
 62
     7
370
    25
100
AcDbSpline
210
0.0
220
0.0
230
1.0
 70
     8
 71
     3
 72
    12
 73
     8
 74
     0
 42
0.000000001
 43
0.00000001
 40
0.0
 40
0.0
 40
0.0
 40
0.0
 40
0.2499999999999999
 40
0.2499999999999999
 40
0.4999999999999998
 40
0.4999999999999998
 40
1.0
 40
1.0
 40
1.0
 40
1.0
 10
52.817912114656
 20
74.22348255911552
 30
0.0
 10
52.83703959736224
 20
74.52474228981268
 30
0.0
 10
52.868637850703
 20
74.82813506446071
 30
0.0
 10
52.954204969208
 20
75.42906925424892
 30
0.0
 10
53.00804246885184
 20
75.72681423661777
 30
0.0
 10
53.19822886607174
 20
76.61298802951907
 30
0.0
 10
53.36308605373556
 20
77.19439646805981
 30
0.0
 10
53.55469308588789
 20
77.76921756451682
 30
0.0
  0
LINE
  5
11F
330
1F
100
AcDbEntity
  8
0
  6
Continuous
 62
     7
370
    25
100
AcDbLine
 10
55.6541543696
 20
77.7692175645
 30
0.0
 11
53.5546930859
 21
77.7692175645
 31
0.0
  0
SPLINE
  5
120
330
1F
100
AcDbEntity
  8
0
  6
Continuous
 62
     7
370
    25
100
AcDbSpline
210
0.0
220
0.0
230
1.0
 70
     8
 71
     3
 72
     8
 73
     4
 74
     0
 42
0.000000001
 43
0.00000001
 40
0.0
 40
0.0
 40
0.0
 40
0.0
 40
1.0
 40
1.0
 40
1.0
 40
1.0
 10
55.73453912734583
 20
77.22236088346888
 30
0.0
 10
55.70916449418666
 20
77.40485328325
 30
0.0
 10
55.68232309297988
 20
77.58713207432722
 30
0.0
 10
55.6541543696165
 20
77.76921756451681
 30
0.0
  0
SPLINE
  5
121
330
1F
100
AcDbEntity
  8
0
  6
Continuous
 62
     7
370
    25
100
AcDbSpline
210
0.0
220
0.0
230
1.0
 70
     8
 71
     3
 72
     8
 73
     4
 74
     0
 42
0.000000001
 43
0.00000001
 40
0.0
 40
0.0
 40
0.0
 40
0.0
 40
1.0
 40
1.0
 40
1.0
 40
1.0
 10
55.81492388507517
 20
77.76921756451681
 30
0.0
 10
55.78674257925201
 20
77.58705074002859
 30
0.0
 10
55.75990205325727
 20
77.40476908562947
 30
0.0
 10
55.73453912734583
 20
77.22236088346888
 30
0.0
  0
LINE
  5
122
330
1F
100
AcDbEntity
  8
0
  6
Continuous
 62
     7
370
    25
100
AcDbLine
 10
57.9143851688
 20
77.7692175645
 30
0.0
 11
55.8149238851
 21
77.7692175645
 31
0.0
  0
SPLINE
  5
123
330
1F
100
AcDbEntity
  8
0
  6
Continuous
 62
     7
370
    25
100
AcDbSpline
210
0.0
220
0.0
230
1.0
 70
     8
 71
     3
 72
    16
 73
    12
 74
     0
 42
0.000000001
 43
0.00000001
 40
0.0
 40
0.0
 40
0.0
 40
0.0
 40
0.2499999999999998
 40
0.2499999999999998
 40
0.4999999999999996
 40
0.4999999999999996
 40
0.6249999999999994
 40
0.6249999999999994
 40
0.7499999999999996
 40
0.7499999999999996
 40
1.0
 40
1.0
 40
1.0
 40
1.0
 10
57.91438516880416
 20
77.76921756451686
 30
0.0
 10
58.14569992248679
 20
77.07527330346899
 30
0.0
 10
58.33634521581723
 20
76.37626957692478
 30
0.0
 10
58.60045087222453
 20
74.96368378652441
 30
0.0
 10
58.67304006353849
 20
74.24999334494609
 30
0.0
 10
58.67383730962945
 20
73.16601122620898
 30
0.0
 10
58.656092053006
 20
72.80298379789012
 30
0.0
 10
58.58689496947621
 20
72.08487723502635
 30
0.0
 10
58.53551336341393
 20
71.72823149844224
 30
0.0
 10
58.33710536467731
 20
70.66464387958642
 30
0.0
 10
58.14598826297335
 20
69.96402684702498
 30
0.0
 10
57.91438516880395
 20
69.2692175645168
 30
0.0
  0
LINE
  5
124
330
1F
100
AcDbEntity
  8
0
  6
Continuous
 62
     7
370
    25
100
AcDbLine
 10
57.9143851688
 20
69.2692175645
 30
0.0
 11
55.8149238851
 21
69.2692175645
 31
0.0
  0
SPLINE
  5
125
330
1F
100
AcDbEntity
  8
0
  6
Continuous
 62
     7
370
    25
100
AcDbSpline
210
0.0
220
0.0
230
1.0
 70
     8
 71
     3
 72
     8
 73
     4
 74
     0
 42
0.000000001
 43
0.00000001
 40
0.0
 40
0.0
 40
0.0
 40
0.0
 40
1.0
 40
1.0
 40
1.0
 40
1.0
 10
55.73453912734583
 20
69.81607424556474
 30
0.0
 10
55.75991376050501
 20
69.63358184578364
 30
0.0
 10
55.78675516171179
 20
69.45130305470641
 30
0.0
 10
55.81492388507517
 20
69.26921756451682
 30
0.0
  0
SPLINE
  5
126
330
1F
100
AcDbEntity
  8
0
  6
Continuous
 62
     7
370
    25
100
AcDbSpline
210
0.0
220
0.0
230
1.0
 70
     8
 71
     3
 72
     8
 73
     4
 74
     0
 42
0.000000001
 43
0.00000001
 40
0.0
 40
0.0
 40
0.0
 40
0.0
 40
1.0
 40
1.0
 40
1.0
 40
1.0
 10
55.6541543696165
 20
69.26921756451682
 30
0.0
 10
55.68233567543967
 20
69.45138438900504
 30
0.0
 10
55.7091762014344
 20
69.63366604340416
 30
0.0
 10
55.73453912734583
 20
69.81607424556474
 30
0.0
  0
SPLINE
  5
127
330
1F
100
AcDbEntity
  8
0
  6
Continuous
 62
     7
370
    25
100
AcDbSpline
210
0.0
220
0.0
230
1.0
 70
    24
 71
     3
 72
    12
 73
     8
 74
     0
 42
0.000000001
 43
0.00000001
 40
0.0
 40
0.0
 40
0.0
 40
0.0
 40
0.2209502077398786
 40
0.4142465674664244
 40
0.6082238276433367
 40
0.8039003243569413
 40
1.0
 40
1.0
 40
1.0
 40
1.0
 10
58.66634001929915
 20
77.76921756451681
 30
0.0
 10
58.66152919483329
 20
77.76921756451681
 30
0.0
 10
58.65250966259547
 20
77.76921756451681
 30
0.0
 10
58.53990429416692
 20
77.76921756451681
 30
0.0
 10
58.38241486151687
 20
77.76921756451681
 30
0.0
 10
58.17475935559271
 20
77.76921756451681
 30
0.0
 10
58.0012390406695
 20
77.76921756451681
 30
0.0
 10
57.91438516880375
 20
77.76921756451681
 30
0.0
  0
SPLINE
  5
128
330
1F
100
AcDbEntity
  8
0
  6
Continuous
 62
     7
370
    25
100
AcDbSpline
210
0.0
220
0.0
230
1.0
 70
    24
 71
     3
 72
    12
 73
     8
 74
     0
 42
0.000000001
 43
0.00000001
 40
0.0
 40
0.0
 40
0.0
 40
0.0
 40
0.1936017471876932
 40
0.387570600564146
 40
0.5829802617830864
 40
0.7790460356636821
 40
0.9999999999999999
 40
0.9999999999999999
 40
0.9999999999999999
 40
0.9999999999999999
 10
57.91438516880375
 20
60.76921756451681
 30
0.0
 10
58.00017693011214
 20
60.76921756451681
 30
0.0
 10
58.17192313042671
 20
60.76921756451681
 30
0.0
 10
58.37936370784417
 20
60.76921756451681
 30
0.0
 10
58.5386035453317
 20
60.76921756451681
 30
0.0
 10
58.65205472803506
 20
60.76921756451681
 30
0.0
 10
58.66240216086712
 20
60.76921756451681
 30
0.0
 10
58.66788465029249
 20
60.76921756451681
 30
0.0
  0
SPLINE
  5
129
330
1F
100
AcDbEntity
  8
0
  6
Continuous
 62
     7
370
    25
100
AcDbSpline
210
0.0
220
0.0
230
1.0
 70
     8
 71
     3
 72
    16
 73
    12
 74
     0
 42
0.000000001
 43
0.00000001
 40
0.0
 40
0.0
 40
0.0
 40
0.0
 40
0.2500000000000002
 40
0.2500000000000002
 40
0.5000000000000004
 40
0.5000000000000004
 40
0.6250000000000003
 40
0.6250000000000003
 40
0.7500000000000002
 40
0.7500000000000002
 40
1.0
 40
1.0
 40
1.0
 40
1.0
 10
57.91438516880416
 20
69.26921756451688
 30
0.0
 10
58.14569992248678
 20
68.57527330346899
 30
0.0
 10
58.33634521581723
 20
67.87626957692477
 30
0.0
 10
58.60045087222453
 20
66.46368378652443
 30
0.0
 10
58.67304006353849
 20
65.74999334494608
 30
0.0
 10
58.67383730962945
 20
64.666011226209
 30
0.0
 10
58.656092053006
 20
64.30298379789012
 30
0.0
 10
58.58689496947621
 20
63.58487723502634
 30
0.0
 10
58.53551336341393
 20
63.22823149844224
 30
0.0
 10
58.33710536467731
 20
62.16464387958641
 30
0.0
 10
58.14598826297335
 20
61.46402684702497
 30
0.0
 10
57.91438516880395
 20
60.76921756451679
 30
0.0
  0
LINE
  5
12A
330
1F
100
AcDbEntity
  8
0
  6
Continuous
 62
     7
370
    25
100
AcDbLine
 10
58.8179121147
 20
77.5192175645
 30
0.0
 11
58.8179121147
 21
61.0192175645
 31
0.0
  0
SPLINE
  5
12B
330
1F
100
AcDbEntity
  8
0
  6
Continuous
 62
     7
370
    25
100
AcDbSpline
210
0.0
220
0.0
230
1.0
 70
     8
 71
     3
 72
    12
 73
     8
 74
     0
 42
0.000000001
 43
0.00000001
 40
0.0
 40
0.0
 40
0.0
 40
0.0
 40
0.2500000000000002
 40
0.2500000000000002
 40
0.5000000000000004
 40
0.5000000000000004
 40
1.0
 40
1.0
 40
1.0
 40
1.0
 10
52.817912114656
 20
65.72348255911552
 30
0.0
 10
52.83703959736224
 20
66.02474228981266
 30
0.0
 10
52.868637850703
 20
66.3281350644607
 30
0.0
 10
52.954204969208
 20
66.92906925424892
 30
0.0
 10
53.00804246885184
 20
67.22681423661777
 30
0.0
 10
53.19822886607174
 20
68.11298802951909
 30
0.0
 10
53.36308605373556
 20
68.69439646805982
 30
0.0
 10
53.55469308588789
 20
69.26921756451684
 30
0.0
  0
LINE
  5
12C
330
1F
100
AcDbEntity
  8
0
  6
Continuous
 62
     7
370
    25
100
AcDbLine
 10
52.8179121147
 20
65.7234825591
 30
0.0
 11
52.8179121147
 21
72.8149525699
 31
0.0
  0
LINE
  5
12D
330
1F
100
AcDbEntity
  8
0
  6
Continuous
 62
     7
370
    25
100
AcDbLine
 10
55.7345391273
 20
68.7223608835
 30
0.0
 11
55.7345391273
 21
69.8160742456
 31
0.0
  0
SPLINE
  5
12E
330
1F
100
AcDbEntity
  8
0
  6
Continuous
 62
     7
370
    25
100
AcDbSpline
210
0.0
220
0.0
230
1.0
 70
     8
 71
     3
 72
     8
 73
     4
 74
     0
 42
0.000000001
 43
0.00000001
 40
0.0
 40
0.0
 40
0.0
 40
0.0
 40
1.0
 40
1.0
 40
1.0
 40
1.0
 10
55.73453912734583
 20
68.7223608834689
 30
0.0
 10
55.70916449418665
 20
68.90485328325
 30
0.0
 10
55.68232309297988
 20
69.08713207432722
 30
0.0
 10
55.6541543696165
 20
69.26921756451682
 30
0.0
  0
SPLINE
  5
12F
330
1F
100
AcDbEntity
  8
0
  6
Continuous
 62
     7
370
    25
100
AcDbSpline
210
0.0
220
0.0
230
1.0
 70
     8
 71
     3
 72
     8
 73
     4
 74
     0
 42
0.000000001
 43
0.00000001
 40
0.0
 40
0.0
 40
0.0
 40
0.0
 40
1.0
 40
1.0
 40
1.0
 40
1.0
 10
55.81492388507517
 20
69.26921756451682
 30
0.0
 10
55.78674257925201
 20
69.08705074002859
 30
0.0
 10
55.75990205325728
 20
68.90476908562948
 30
0.0
 10
55.73453912734583
 20
68.7223608834689
 30
0.0
  0
LINE
  5
130
330
1F
100
AcDbEntity
  8
0
  6
Continuous
 62
     7
370
    25
100
AcDbLine
 10
55.6541543696
 20
60.7692175645
 30
0.0
 11
53.5546930859
 21
60.7692175645
 31
0.0
  0
SPLINE
  5
131
330
1F
100
AcDbEntity
  8
0
  6
Continuous
 62
     7
370
    25
100
AcDbSpline
210
0.0
220
0.0
230
1.0
 70
     8
 71
     3
 72
    10
 73
     6
 74
     0
 42
0.000000001
 43
0.00000001
 40
0.0
 40
0.0
 40
0.0
 40
0.0
 40
0.5
 40
0.5
 40
1.0
 40
1.0
 40
1.0
 40
1.0
 10
53.55469308588792
 20
60.76921756451681
 30
0.0
 10
53.3610429992783
 20
61.35016782434569
 30
0.0
 10
53.19425575116246
 20
61.94069382647193
 30
0.0
 10
52.94193489124014
 20
63.12300266989499
 30
0.0
 10
52.85586633797457
 20
63.7171698260322
 30
0.0
 10
52.817912114656
 20
64.31495256991809
 30
0.0
  0
LINE
  5
132
330
1F
100
AcDbEntity
  8
0
  6
Continuous
 62
     7
370
    25
100
AcDbLine
 10
57.9143851688
 20
60.7692175645
 30
0.0
 11
55.8149238851
 21
60.7692175645
 31
0.0
  0
SPLINE
  5
133
330
1F
100
AcDbEntity
  8
0
  6
Continuous
 62
     7
370
    25
100
AcDbSpline
210
0.0
220
0.0
230
1.0
 70
     8
 71
     3
 72
     8
 73
     4
 74
     0
 42
0.000000001
 43
0.00000001
 40
0.0
 40
0.0
 40
0.0
 40
0.0
 40
1.0
 40
1.0
 40
1.0
 40
1.0
 10
55.73453912734583
 20
61.31607424556475
 30
0.0
 10
55.75991376050501
 20
61.13358184578363
 30
0.0
 10
55.78675516171179
 20
60.95130305470641
 30
0.0
 10
55.81492388507517
 20
60.76921756451681
 30
0.0
  0
SPLINE
  5
134
330
1F
100
AcDbEntity
  8
0
  6
Continuous
 62
     7
370
    25
100
AcDbSpline
210
0.0
220
0.0
230
1.0
 70
     8
 71
     3
 72
     8
 73
     4
 74
     0
 42
0.000000001
 43
0.00000001
 40
0.0
 40
0.0
 40
0.0
 40
0.0
 40
1.0
 40
1.0
 40
1.0
 40
1.0
 10
55.6541543696165
 20
60.76921756451681
 30
0.0
 10
55.68233567543967
 20
60.95138438900504
 30
0.0
 10
55.7091762014344
 20
61.13366604340416
 30
0.0
 10
55.73453912734583
 20
61.31607424556474
 30
0.0
  0
LINE
  5
135
330
1F
100
AcDbEntity
  8
0
  6
Continuous
 62
     7
370
    25
100
AcDbLine
 10
41.8918215483
 20
77.4665897343
 30
0.0
 11
41.8918215483
 21
61.0718453947
 31
0.0
  0
LINE
  5
136
330
1F
100
AcDbEntity
  8
0
  6
Continuous
 62
     7
370
    25
100
AcDbLine
 10
52.8179121147
 20
60.7304050645
 30
0.0
 11
52.8179121147
 21
60.7692175645
 31
0.0
  0
LINE
  5
137
330
1F
100
AcDbEntity
  8
0
  6
Continuous
 62
     7
370
    25
100
AcDbLine
 10
52.8179121147
 20
77.7692175645
 30
0.0
 11
52.8179121147
 21
77.8080300645
 31
0.0
  0
LINE
  5
138
330
1F
100
AcDbEntity
  8
0
  6
Continuous
 62
     7
370
    25
100
AcDbLine
 10
52.8179121147
 20
74.2234825591
 30
0.0
 11
52.8179121147
 21
77.7692175645
 31
0.0
  0
LINE
  5
139
330
1F
100
AcDbEntity
  8
0
  6
Continuous
 62
     7
370
    25
100
AcDbLine
 10
52.8179121147
 20
72.8149525699
 30
0.0
 11
52.8179121147
 21
74.2234825591
 31
0.0
  0
LINE
  5
13A
330
1F
100
AcDbEntity
  8
0
  6
Continuous
 62
     7
370
    25
100
AcDbLine
 10
52.8179121147
 20
64.3149525699
 30
0.0
 11
52.8179121147
 21
65.7234825591
 31
0.0
  0
LINE
  5
13B
330
1F
100
AcDbEntity
  8
0
  6
Continuous
 62
     7
370
    25
100
AcDbLine
 10
52.8179121147
 20
60.7692175645
 30
0.0
 11
52.8179121147
 21
64.3149525699
 31
0.0
  0
LINE
  5
13C
330
1F
100
AcDbEntity
  8
0
  6
Continuous
 62
     7
370
    25
100
AcDbLine
 10
39.8179121147
 20
62.2692175645
 30
0.0
 11
39.8179121147
 21
76.2692175645
 31
0.0
  0
SPLINE
  5
13D
330
1F
100
AcDbEntity
  8
0
  6
Continuous
 62
     7
370
    25
100
AcDbSpline
210
0.0
220
0.0
230
1.0
 70
    24
 71
     3
 72
    12
 73
     8
 74
     0
 42
0.000000001
 43
0.00000001
 40
0.0
 40
0.0
 40
0.0
 40
0.0
 40
0.2499999999999998
 40
0.2499999999999998
 40
0.4999999999999999
 40
0.4999999999999999
 40
1.0
 40
1.0
 40
1.0
 40
1.0
 10
53.55469308588791
 20
77.76921756451681
 30
0.0
 10
53.45829419293798
 20
77.76921756451681
 30
0.0
 10
53.36856008827912
 20
77.76921756451681
 30
0.0
 10
53.20526324427946
 20
77.76921756451681
 30
0.0
 10
53.1316147055653
 20
77.76921756451681
 30
0.0
 10
52.94160750196265
 20
77.76921756451681
 30
0.0
 10
52.85575420143468
 20
77.76921756451681
 30
0.0
 10
52.817912114656
 20
77.76921756451681
 30
0.0
  0
SPLINE
  5
13E
330
1F
100
AcDbEntity
  8
0
  6
Continuous
 62
     7
370
    25
100
AcDbSpline
210
0.0
220
0.0
230
1.0
 70
    24
 71
     3
 72
    12
 73
     8
 74
     0
 42
0.000000001
 43
0.00000001
 40
0.0
 40
0.0
 40
0.0
 40
0.0
 40
0.2499999999999999
 40
0.2499999999999999
 40
0.5000000000000001
 40
0.5000000000000001
 40
1.0
 40
1.0
 40
1.0
 40
1.0
 10
52.817912114656
 20
60.76921756451681
 30
0.0
 10
52.83689305531459
 20
60.76921756451681
 30
0.0
 10
52.86791252371934
 20
60.76921756451681
 30
0.0
 10
52.95288325801383
 20
60.76921756451681
 30
0.0
 10
53.00702713207135
 20
60.76921756451681
 30
0.0
 10
53.19786895867673
 20
60.76921756451681
 30
0.0
 10
53.36312890680525
 20
60.76921756451681
 30
0.0
 10
53.55469308588792
 20
60.76921756451681
 30
0.0
  0
LINE
  5
13F
330
1F
100
AcDbEntity
  8
0
  6
Continuous
 62
     7
370
    25
100
AcDbLine
 10
55.7345391273
 20
77.2223608835
 30
0.0
 11
55.7345391273
 21
77.7692175645
 31
0.0
  0
SPLINE
  5
140
330
1F
100
AcDbEntity
  8
0
  6
Continuous
 62
     7
370
    25
100
AcDbSpline
210
0.0
220
0.0
230
1.0
 70
    24
 71
     3
 72
     8
 73
     4
 74
     0
 42
0.000000001
 43
0.00000001
 40
0.0
 40
0.0
 40
0.0
 40
0.0
 40
1.0
 40
1.0
 40
1.0
 40
1.0
 10
55.73453912734583
 20
77.76921756451681
 30
0.0
 10
55.75991315793016
 20
77.76921756451681
 30
0.0
 10
55.78675451464715
 20
77.76921756451681
 30
0.0
 10
55.81492388507517
 20
77.76921756451681
 30
0.0
  0
SPLINE
  5
141
330
1F
100
AcDbEntity
  8
0
  6
Continuous
 62
     7
370
    25
100
AcDbSpline
210
0.0
220
0.0
230
1.0
 70
    24
 71
     3
 72
     8
 73
     4
 74
     0
 42
0.000000001
 43
0.00000001
 40
0.0
 40
0.0
 40
0.0
 40
0.0
 40
1.0
 40
1.0
 40
1.0
 40
1.0
 10
55.6541543696165
 20
77.76921756451681
 30
0.0
 10
55.68233752150866
 20
77.76921756451681
 30
0.0
 10
55.70917791730678
 20
77.76921756451681
 30
0.0
 10
55.73453912734583
 20
77.76921756451681
 30
0.0
  0
SPLINE
  5
142
330
1F
100
AcDbEntity
  8
0
  6
Continuous
 62
     7
370
    25
100
AcDbSpline
210
0.0
220
0.0
230
1.0
 70
    24
 71
     3
 72
     8
 73
     4
 74
     0
 42
0.000000001
 43
0.00000001
 40
0.0
 40
0.0
 40
0.0
 40
0.0
 40
1.0
 40
1.0
 40
1.0
 40
1.0
 10
55.73453912734583
 20
60.76921756451681
 30
0.0
 10
55.70916509676151
 20
60.76921756451681
 30
0.0
 10
55.68232374004452
 20
60.76921756451681
 30
0.0
 10
55.6541543696165
 20
60.76921756451681
 30
0.0
  0
LINE
  5
143
330
1F
100
AcDbEntity
  8
0
  6
Continuous
 62
     7
370
    25
100
AcDbLine
 10
55.7345391273
 20
60.7692175645
 30
0.0
 11
55.7345391273
 21
61.3160742456
 31
0.0
  0
SPLINE
  5
144
330
1F
100
AcDbEntity
  8
0
  6
Continuous
 62
     7
370
    25
100
AcDbSpline
210
0.0
220
0.0
230
1.0
 70
    24
 71
     3
 72
     8
 73
     4
 74
     0
 42
0.000000001
 43
0.00000001
 40
0.0
 40
0.0
 40
0.0
 40
0.0
 40
1.0
 40
1.0
 40
1.0
 40
1.0
 10
55.81492388507517
 20
60.76921756451681
 30
0.0
 10
55.78674073318302
 20
60.76921756451681
 30
0.0
 10
55.75990033738488
 20
60.76921756451681
 30
0.0
 10
55.73453912734583
 20
60.76921756451681
 30
0.0
  0
LINE
  5
145
330
1F
100
AcDbEntity
  8
0
  6
Continuous
 62
     7
370
    25
100
AcDbLine
 10
67.3179121147
 20
69.2692175645
 30
0.0
 11
67.3179121147
 21
64.7692175645
 31
0.0
  0
LINE
  5
146
330
1F
100
AcDbEntity
  8
0
  6
Continuous
 62
     7
370
    25
100
AcDbLine
 10
67.3179121147
 20
73.7692175645
 30
0.0
 11
67.3179121147
 21
69.2692175645
 31
0.0
  0
LINE
  5
147
330
1F
100
AcDbEntity
  8
0
  6
Continuous
 62
     7
370
    25
100
AcDbLine
 10
62.8179121147
 20
69.2692175645
 30
0.0
 11
62.8179121147
 21
64.7692175645
 31
0.0
  0
LINE
  5
148
330
1F
100
AcDbEntity
  8
0
  6
Continuous
 62
     7
370
    25
100
AcDbLine
 10
62.8179121147
 20
73.7692175645
 30
0.0
 11
62.8179121147
 21
69.2692175645
 31
0.0
  0
LINE
  5
149
330
1F
100
AcDbEntity
  8
0
  6
Continuous
 62
     7
370
    25
100
AcDbLine
 10
76.3179121147
 20
69.2692175645
 30
0.0
 11
76.3179121147
 21
64.7692175645
 31
0.0
  0
LINE
  5
14A
330
1F
100
AcDbEntity
  8
0
  6
Continuous
 62
     7
370
    25
100
AcDbLine
 10
76.3179121147
 20
73.7692175645
 30
0.0
 11
76.3179121147
 21
69.2692175645
 31
0.0
  0
LINE
  5
14B
330
1F
100
AcDbEntity
  8
0
  6
Continuous
 62
     7
370
    25
100
AcDbLine
 10
71.8179121147
 20
69.2692175645
 30
0.0
 11
71.8179121147
 21
64.7692175645
 31
0.0
  0
LINE
  5
14C
330
1F
100
AcDbEntity
  8
0
  6
Continuous
 62
     7
370
    25
100
AcDbLine
 10
71.8179121147
 20
73.7692175645
 30
0.0
 11
71.8179121147
 21
69.2692175645
 31
0.0
  0
LINE
  5
14D
330
1F
100
AcDbEntity
  8
0
  6
Continuous
 62
     7
370
    25
100
AcDbLine
 10
81.8179121147
 20
69.2692175645
 30
0.0
 11
81.8179121147
 21
65.9556630943
 31
0.0
  0
LINE
  5
14E
330
1F
100
AcDbEntity
  8
0
  6
Continuous
 62
     7
370
    25
100
AcDbLine
 10
81.8179121147
 20
72.5827720347
 30
0.0
 11
81.8179121147
 21
69.2692175645
 31
0.0
  0
LINE
  5
14F
330
1F
100
AcDbEntity
  8
0
  6
Continuous
 62
     8
370
    25
100
AcDbLine
 10
81.385468717
 20
69.2692175645
 30
0.0
 11
81.385468717
 21
73.0781871187
 31
0.0
  0
LINE
  5
150
330
1F
100
AcDbEntity
  8
0
  6
Continuous
 62
     8
370
    25
100
AcDbLine
 10
81.385468717
 20
65.4602480103
 30
0.0
 11
81.385468717
 21
69.2692175645
 31
0.0
  0
LINE
  5
151
330
1F
100
AcDbEntity
  8
0
  6
Continuous
 62
     7
370
    18
100
AcDbLine
 10
40.6877157511
 20
76.7713989282
 30
0.0
 11
52.3179121147
 21
77.1348425645
 31
0.0
  0
LINE
  5
152
330
1F
100
AcDbEntity
  8
0
  6
Continuous
 62
     7
370
    18
100
AcDbLine
 10
40.6877157511
 20
61.7670362009
 30
0.0
 11
52.3179121147
 21
61.4035925645
 31
0.0
  0
LINE
  5
153
330
1F
100
AcDbEntity
  8
0
  6
Continuous
 62
     7
370
    18
100
AcDbLine
 10
52.3179121147
 20
60.7460300645
 30
0.0
 11
52.3179121147
 21
77.7924050645
 31
0.0
  0
LINE
  5
154
330
1F
100
AcDbEntity
  8
0
  6
CENTERX2
 62
     7
370
    18
100
AcDbLine
 10
82.8179121147
 20
69.2692175645
 30
0.0
 11
38.6085137826
 21
69.2692175645
 31
0.0
  0
ENDSEC
  0
SECTION
  2
OBJECTS
  0
DICTIONARY
  5
C
330
0
100
AcDbDictionary
281
     1
  3
ACAD_GROUP
350
D
  3
ACAD_LAYOUT
350
1A
  3
ACAD_MLINESTYLE
350
17
  3
ACAD_PLOTSETTINGS
350
19
  3
ACAD_PLOTSTYLENAME
350
E
  3
ACAD_SCALELIST
350
47
  0
DICTIONARY
  5
D
102
{ACAD_REACTORS
330
C
102
}
330
C
100
AcDbDictionary
281
     1
  0
DICTIONARY
  5
1A
102
{ACAD_REACTORS
330
C
102
}
330
C
100
AcDbDictionary
281
     1
  3
Layout1
350
1E
  3
Layout2
350
26
  3
Model
350
22
  0
DICTIONARY
  5
17
102
{ACAD_REACTORS
330
C
102
}
330
C
100
AcDbDictionary
281
     1
  3
Standard
350
18
  0
DICTIONARY
  5
19
102
{ACAD_REACTORS
330
C
102
}
330
C
100
AcDbDictionary
281
     1
  0
ACDBDICTIONARYWDFLT
  5
E
102
{ACAD_REACTORS
330
C
102
}
330
C
100
AcDbDictionary
281
     1
  3
Normal
350
F
100
AcDbDictionaryWithDefault
340
F
  0
DICTIONARY
  5
47
102
{ACAD_REACTORS
330
C
102
}
330
C
100
AcDbDictionary
281
     1
  3
A0
350
48
  3
A1
350
49
  3
A2
350
4A
  3
A3
350
4B
  3
A4
350
4C
  3
A5
350
4D
  3
A6
350
4E
  3
A7
350
4F
  3
A8
350
50
  3
A9
350
51
  3
B0
350
52
  3
B1
350
53
  3
B2
350
54
  3
B3
350
55
  3
B4
350
56
  3
B5
350
57
  3
B6
350
58
  3
B7
350
59
  3
B8
350
5A
  3
B9
350
5B
  3
C0
350
5C
  3
C1
350
5D
  3
C2
350
5E
  3
C3
350
5F
  3
C4
350
60
  3
C5
350
61
  3
C6
350
62
  3
C7
350
63
  3
C8
350
64
  3
C9
350
65
  3
D0
350
66
  3
D1
350
67
  3
D2
350
68
  0
LAYOUT
  5
1E
102
{ACAD_REACTORS
330
1A
102
}
330
1A
100
AcDbPlotSettings
  1

  2
none_device
  4

  6

 40
0.0
 41
0.0
 42
0.0
 43
0.0
 44
0.0
 45
0.0
 46
0.0
 47
0.0
 48
0.0
 49
0.0
140
0.0
141
0.0
142
1.0
143
1.0
 70
   688
 72
     1
 73
     0
 74
     5
  7

 75
    16
147
1.0
148
0.0
149
0.0
100
AcDbLayout
  1
Layout1
 70
     1
 71
     1
 10
0.0
 20
0.0
 11
420.0
 21
297.0
 12
0.0
 22
0.0
 32
0.0
 14
1.0000000000E+20
 24
1.0000000000E+20
 34
1.0000000000E+20
 15
-1.0000000000E+20
 25
-1.0000000000E+20
 35
-1.0000000000E+20
146
0.0
 13
0.0
 23
0.0
 33
0.0
 16
1.0
 26
0.0
 36
0.0
 17
0.0
 27
1.0
 37
0.0
 76
     0
330
1B
  0
LAYOUT
  5
26
102
{ACAD_REACTORS
330
1A
102
}
330
1A
100
AcDbPlotSettings
  1

  2
none_device
  4

  6

 40
0.0
 41
0.0
 42
0.0
 43
0.0
 44
0.0
 45
0.0
 46
0.0
 47
0.0
 48
0.0
 49
0.0
140
0.0
141
0.0
142
1.0
143
1.0
 70
   688
 72
     1
 73
     0
 74
     5
  7

 75
    16
147
1.0
148
0.0
149
0.0
100
AcDbLayout
  1
Layout2
 70
     1
 71
     2
 10
0.0
 20
0.0
 11
0.0
 21
0.0
 12
0.0
 22
0.0
 32
0.0
 14
0.0
 24
0.0
 34
0.0
 15
0.0
 25
0.0
 35
0.0
146
0.0
 13
0.0
 23
0.0
 33
0.0
 16
1.0
 26
0.0
 36
0.0
 17
0.0
 27
1.0
 37
0.0
 76
     0
330
23
  0
LAYOUT
  5
22
102
{ACAD_REACTORS
330
1A
102
}
330
1A
100
AcDbPlotSettings
  1

  2
none_device
  4
Letter_(8.50_x_11.00_Inches)
  6

 40
6.35
 41
6.35
 42
6.35000508
 43
6.35000508
 44
215.9
 45
279.4
 46
0.0
 47
0.0
 48
0.0
 49
0.0
140
0.0
141
0.0
142
1.0
143
1.0
 70
  1712
 72
     1
 73
     0
 74
     0
  7

 75
     0
147
1.0
148
0.0
149
0.0
100
AcDbLayout
  1
Model
 70
     1
 71
     0
 10
0.0
 20
0.0
 11
215.9
 21
139.7
 12
0.0
 22
0.0
 32
0.0
 14
0.0
 24
0.0
 34
0.0
 15
215.9
 25
139.7
 35
0.0
146
0.0
 13
0.0
 23
0.0
 33
0.0
 16
1.0
 26
0.0
 36
0.0
 17
0.0
 27
1.0
 37
0.0
 76
     0
330
1F
331
29
  0
MLINESTYLE
  5
18
102
{ACAD_REACTORS
330
17
102
}
330
17
100
AcDbMlineStyle
  2
Standard
 70
     0
  3

 62
   256
 51
90.0
 52
90.0
 71
     2
 49
0.5
 62
   256
  6
BYLAYER
 49
-0.5
 62
   256
  6
BYLAYER
  0
ACDBPLACEHOLDER
  5
F
102
{ACAD_REACTORS
330
E
102
}
330
E
  0
SCALE
  5
48
102
{ACAD_REACTORS
330
47
102
}
330
47
100
AcDbScale
 70
     0
300
1:1
140
1.0
141
1.0
290
     1
  0
SCALE
  5
49
102
{ACAD_REACTORS
330
47
102
}
330
47
100
AcDbScale
 70
     0
300
1:2
140
1.0
141
2.0
290
     0
  0
SCALE
  5
4A
102
{ACAD_REACTORS
330
47
102
}
330
47
100
AcDbScale
 70
     0
300
1:4
140
1.0
141
4.0
290
     0
  0
SCALE
  5
4B
102
{ACAD_REACTORS
330
47
102
}
330
47
100
AcDbScale
 70
     0
300
1:5
140
1.0
141
5.0
290
     0
  0
SCALE
  5
4C
102
{ACAD_REACTORS
330
47
102
}
330
47
100
AcDbScale
 70
     0
300
1:8
140
1.0
141
8.0
290
     0
  0
SCALE
  5
4D
102
{ACAD_REACTORS
330
47
102
}
330
47
100
AcDbScale
 70
     0
300
1:10
140
1.0
141
10.0
290
     0
  0
SCALE
  5
4E
102
{ACAD_REACTORS
330
47
102
}
330
47
100
AcDbScale
 70
     0
300
1:16
140
1.0
141
16.0
290
     0
  0
SCALE
  5
4F
102
{ACAD_REACTORS
330
47
102
}
330
47
100
AcDbScale
 70
     0
300
1:20
140
1.0
141
20.0
290
     0
  0
SCALE
  5
50
102
{ACAD_REACTORS
330
47
102
}
330
47
100
AcDbScale
 70
     0
300
1:30
140
1.0
141
30.0
290
     0
  0
SCALE
  5
51
102
{ACAD_REACTORS
330
47
102
}
330
47
100
AcDbScale
 70
     0
300
1:40
140
1.0
141
40.0
290
     0
  0
SCALE
  5
52
102
{ACAD_REACTORS
330
47
102
}
330
47
100
AcDbScale
 70
     0
300
1:50
140
1.0
141
50.0
290
     0
  0
SCALE
  5
53
102
{ACAD_REACTORS
330
47
102
}
330
47
100
AcDbScale
 70
     0
300
1:100
140
1.0
141
100.0
290
     0
  0
SCALE
  5
54
102
{ACAD_REACTORS
330
47
102
}
330
47
100
AcDbScale
 70
     0
300
2:1
140
2.0
141
1.0
290
     0
  0
SCALE
  5
55
102
{ACAD_REACTORS
330
47
102
}
330
47
100
AcDbScale
 70
     0
300
4:1
140
4.0
141
1.0
290
     0
  0
SCALE
  5
56
102
{ACAD_REACTORS
330
47
102
}
330
47
100
AcDbScale
 70
     0
300
8:1
140
8.0
141
1.0
290
     0
  0
SCALE
  5
57
102
{ACAD_REACTORS
330
47
102
}
330
47
100
AcDbScale
 70
     0
300
10:1
140
10.0
141
1.0
290
     0
  0
SCALE
  5
58
102
{ACAD_REACTORS
330
47
102
}
330
47
100
AcDbScale
 70
     0
300
100:1
140
100.0
141
1.0
290
     0
  0
SCALE
  5
59
102
{ACAD_REACTORS
330
47
102
}
330
47
100
AcDbScale
 70
     0
300
1/128" = 1'-0"
140
0.0078125
141
12.0
290
     0
  0
SCALE
  5
5A
102
{ACAD_REACTORS
330
47
102
}
330
47
100
AcDbScale
 70
     0
300
1/64" = 1'-0"
140
0.015625
141
12.0
290
     0
  0
SCALE
  5
5B
102
{ACAD_REACTORS
330
47
102
}
330
47
100
AcDbScale
 70
     0
300
1/32" = 1'-0"
140
0.03125
141
12.0
290
     0
  0
SCALE
  5
5C
102
{ACAD_REACTORS
330
47
102
}
330
47
100
AcDbScale
 70
     0
300
1/16" = 1'-0"
140
0.0625
141
12.0
290
     0
  0
SCALE
  5
5D
102
{ACAD_REACTORS
330
47
102
}
330
47
100
AcDbScale
 70
     0
300
3/32" = 1'-0"
140
0.09375
141
12.0
290
     0
  0
SCALE
  5
5E
102
{ACAD_REACTORS
330
47
102
}
330
47
100
AcDbScale
 70
     0
300
1/8" = 1'-0"
140
0.125
141
12.0
290
     0
  0
SCALE
  5
5F
102
{ACAD_REACTORS
330
47
102
}
330
47
100
AcDbScale
 70
     0
300
3/16" = 1'-0"
140
0.1875
141
12.0
290
     0
  0
SCALE
  5
60
102
{ACAD_REACTORS
330
47
102
}
330
47
100
AcDbScale
 70
     0
300
1/4" = 1'-0"
140
0.25
141
12.0
290
     0
  0
SCALE
  5
61
102
{ACAD_REACTORS
330
47
102
}
330
47
100
AcDbScale
 70
     0
300
3/8" = 1'-0"
140
0.375
141
12.0
290
     0
  0
SCALE
  5
62
102
{ACAD_REACTORS
330
47
102
}
330
47
100
AcDbScale
 70
     0
300
1/2" = 1'-0"
140
0.5
141
12.0
290
     0
  0
SCALE
  5
63
102
{ACAD_REACTORS
330
47
102
}
330
47
100
AcDbScale
 70
     0
300
3/4" = 1'-0"
140
0.75
141
12.0
290
     0
  0
SCALE
  5
64
102
{ACAD_REACTORS
330
47
102
}
330
47
100
AcDbScale
 70
     0
300
1" = 1'-0"
140
1.0
141
12.0
290
     0
  0
SCALE
  5
65
102
{ACAD_REACTORS
330
47
102
}
330
47
100
AcDbScale
 70
     0
300
1-1/2" = 1'-0"
140
1.5
141
12.0
290
     0
  0
SCALE
  5
66
102
{ACAD_REACTORS
330
47
102
}
330
47
100
AcDbScale
 70
     0
300
3" = 1'-0"
140
3.0
141
12.0
290
     0
  0
SCALE
  5
67
102
{ACAD_REACTORS
330
47
102
}
330
47
100
AcDbScale
 70
     0
300
6" = 1'-0"
140
6.0
141
12.0
290
     0
  0
SCALE
  5
68
102
{ACAD_REACTORS
330
47
102
}
330
47
100
AcDbScale
 70
     0
300
1'-0" = 1'-0"
140
12.0
141
12.0
290
     0
  0
ENDSEC
  0
EOF
