  0
SECTION
  2
HEADER
  9
$ACADVER
  1
AC1015
  9
$ACADMAINTVER
 70
     6
  9
$DWGCODEPAGE
  3
DOS932
  9
$INSBASE
 10
0.0
 20
0.0
 30
0.0
  9
$EXTMIN
 10
0.0
 20
0.0
 30
0.0
  9
$EXTMAX
 10
215.9
 20
139.7
 30
0.0
  9
$LIMMIN
 10
0.0
 20
0.0
  9
$LIMMAX
 10
215.9
 20
139.7
  9
$ORTHOMODE
 70
     0
  9
$REGENMODE
 70
     1
  9
$FILLMODE
 70
     1
  9
$QTEXTMODE
 70
     0
  9
$MIRRTEXT
 70
     1
  9
$LTSCALE
 40
0.5
  9
$ATTMODE
 70
     1
  9
$TEXTSIZE
 40
1.75
  9
$TRACEWID
 40
1.0
  9
$TEXTSTYLE
  7
Standard
  9
$CLAYER
  8
0
  9
$CELTYPE
  6
ByLayer
  9
$CECOLOR
 62
   256
  9
$CELTSCALE
 40
1.0
  9
$DISPSILH
 70
     0
  9
$DIMSCALE
 40
1.0
  9
$DIMASZ
 40
1.651
  9
$DIMEXO
 40
0.5
  9
$DIMDLI
 40
3.75
  9
$DIMRND
 40
0.0
  9
$DIMDLE
 40
0.0
  9
$DIMEXE
 40
0.5
  9
$DIMTP
 40
0.0
  9
$DIMTM
 40
0.0
  9
$DIMTXT
 40
1.75
  9
$DIMCEN
 40
2.5
  9
$DIMTSZ
 40
0.0
  9
$DIMTOL
 70
     0
  9
$DIMLIM
 70
     0
  9
$DIMTIH
 70
     1
  9
$DIMTOH
 70
     1
  9
$DIMSE1
 70
     0
  9
$DIMSE2
 70
     0
  9
$DIMTAD
 70
     1
  9
$DIMZIN
 70
     1
  9
$DIMBLK
  1

  9
$DIMASO
 70
     1
  9
$DIMSHO
 70
     1
  9
$DIMPOST
  1

  9
$DIMAPOST
  1

  9
$DIMALT
 70
     0
  9
$DIMALTD
 70
     3
  9
$DIMALTF
 40
0.0393700787
  9
$DIMLFAC
 40
1.0
  9
$DIMTOFL
 70
     1
  9
$DIMTVP
 40
0.0
  9
$DIMTIX
 70
     0
  9
$DIMSOXD
 70
     0
  9
$DIMSAH
 70
     0
  9
$DIMBLK1
  1

  9
$DIMBLK2
  1

  9
$DIMSTYLE
  2
ISO-25
  9
$DIMCLRD
 70
     0
  9
$DIMCLRE
 70
     0
  9
$DIMCLRT
 70
     0
  9
$DIMTFAC
 40
1.0
  9
$DIMGAP
 40
0.762
  9
$DIMJUST
 70
     0
  9
$DIMSD1
 70
     0
  9
$DIMSD2
 70
     0
  9
$DIMTOLJ
 70
     0
  9
$DIMTZIN
 70
     1
  9
$DIMALTZ
 70
     0
  9
$DIMALTTZ
 70
     0
  9
$DIMUPT
 70
     0
  9
$DIMDEC
 70
     2
  9
$DIMTDEC
 70
     2
  9
$DIMALTU
 70
     2
  9
$DIMALTTD
 70
     3
  9
$DIMTXSTY
  7
Standard
  9
$DIMAUNIT
 70
     0
  9
$DIMADEC
 70
     2
  9
$DIMALTRND
 40
0.0
  9
$DIMAZIN
 70
     0
  9
$DIMDSEP
 70
    44
  9
$DIMATFIT
 70
     3
  9
$DIMFRAC
 70
     0
  9
$DIMLDRBLK
  1

  9
$DIMLUNIT
 70
     2
  9
$DIMLWD
 70
    -2
  9
$DIMLWE
 70
    -2
  9
$DIMTMOVE
 70
     0
  9
$LUNITS
 70
     2
  9
$LUPREC
 70
     2
  9
$SKETCHINC
 40
1.0
  9
$FILLETRAD
 40
10.0
  9
$AUNITS
 70
     0
  9
$AUPREC
 70
     2
  9
$MENU
  1
.
  9
$ELEVATION
 40
0.0
  9
$PELEVATION
 40
0.0
  9
$THICKNESS
 40
0.0
  9
$LIMCHECK
 70
     0
  9
$CHAMFERA
 40
0.0
  9
$CHAMFERB
 40
0.0
  9
$CHAMFERC
 40
0.0
  9
$CHAMFERD
 40
0.0
  9
$SKPOLY
 70
     0
  9
$TDCREATE
 40
2460081.711737905
  9
$TDUCREATE
 40
2460081.336737905
  9
$TDUPDATE
 40
2460081.711738576
  9
$TDUUPDATE
 40
2460081.336738576
  9
$TDINDWG
 40
0.0000000116
  9
$TDUSRTIMER
 40
0.0000000116
  9
$USRTIMER
 70
     1
  9
$ANGBASE
 50
0.0
  9
$ANGDIR
 70
     0
  9
$PDMODE
 70
     0
  9
$PDSIZE
 40
-1.0
  9
$PLINEWID
 40
0.0
  9
$SPLFRAME
 70
     0
  9
$SPLINETYPE
 70
     6
  9
$SPLINESEGS
 70
     8
  9
$HANDSEED
  5
155
  9
$SURFTAB1
 70
     6
  9
$SURFTAB2
 70
     6
  9
$SURFTYPE
 70
     6
  9
$SURFU
 70
     6
  9
$SURFV
 70
     6
  9
$UCSBASE
  2

  9
$UCSNAME
  2

  9
$UCSORG
 10
0.0
 20
0.0
 30
0.0
  9
$UCSXDIR
 10
1.0
 20
0.0
 30
0.0
  9
$UCSYDIR
 10
0.0
 20
1.0
 30
0.0
  9
$UCSORTHOREF
  2

  9
$UCSORTHOVIEW
 70
     0
  9
$UCSORGTOP
 10
0.0
 20
0.0
 30
0.0
  9
$UCSORGBOTTOM
 10
0.0
 20
0.0
 30
0.0
  9
$UCSORGLEFT
 10
0.0
 20
0.0
 30
0.0
  9
$UCSORGRIGHT
 10
0.0
 20
0.0
 30
0.0
  9
$UCSORGFRONT
 10
0.0
 20
0.0
 30
0.0
  9
$UCSORGBACK
 10
0.0
 20
0.0
 30
0.0
  9
$PUCSBASE
  2

  9
$PUCSNAME
  2

  9
$PUCSORG
 10
0.0
 20
0.0
 30
0.0
  9
$PUCSXDIR
 10
1.0
 20
0.0
 30
0.0
  9
$PUCSYDIR
 10
0.0
 20
1.0
 30
0.0
  9
$PUCSORTHOREF
  2

  9
$PUCSORTHOVIEW
 70
     0
  9
$PUCSORGTOP
 10
0.0
 20
0.0
 30
0.0
  9
$PUCSORGBOTTOM
 10
0.0
 20
0.0
 30
0.0
  9
$PUCSORGLEFT
 10
0.0
 20
0.0
 30
0.0
  9
$PUCSORGRIGHT
 10
0.0
 20
0.0
 30
0.0
  9
$PUCSORGFRONT
 10
0.0
 20
0.0
 30
0.0
  9
$PUCSORGBACK
 10
0.0
 20
0.0
 30
0.0
  9
$USERI1
 70
     0
  9
$USERI2
 70
     0
  9
$USERI3
 70
     0
  9
$USERI4
 70
     0
  9
$USERI5
 70
     0
  9
$USERR1
 40
0.0
  9
$USERR2
 40
0.0
  9
$USERR3
 40
0.0
  9
$USERR4
 40
0.0
  9
$USERR5
 40
0.0
  9
$WORLDVIEW
 70
     1
  9
$SHADEDGE
 70
     3
  9
$SHADEDIF
 70
    70
  9
$TILEMODE
 70
     1
  9
$MAXACTVP
 70
    64
  9
$PINSBASE
 10
0.0
 20
0.0
 30
0.0
  9
$PLIMCHECK
 70
     0
  9
$PEXTMIN
 10
1.0000000000E+20
 20
1.0000000000E+20
 30
1.0000000000E+20
  9
$PEXTMAX
 10
-1.0000000000E+20
 20
-1.0000000000E+20
 30
-1.0000000000E+20
  9
$PLIMMIN
 10
0.0
 20
0.0
  9
$PLIMMAX
 10
420.0
 20
297.0
  9
$UNITMODE
 70
     0
  9
$VISRETAIN
 70
     1
  9
$PLINEGEN
 70
     0
  9
$PSLTSCALE
 70
     1
  9
$TREEDEPTH
 70
  3020
  9
$CMLSTYLE
  2
Standard
  9
$CMLJUST
 70
     0
  9
$CMLSCALE
 40
20.0
  9
$PROXYGRAPHICS
 70
     1
  9
$MEASUREMENT
 70
     1
  9
$CELWEIGHT
370
    -1
  9
$ENDCAPS
280
     0
  9
$JOINSTYLE
280
     0
  9
$LWDISPLAY
290
     1
  9
$INSUNITS
 70
     4
  9
$HYPERLINKBASE
  1

  9
$STYLESHEET
  1

  9
$XEDIT
290
     1
  9
$CEPSNTYPE
380
     0
  9
$PSTYLEMODE
290
     1
  9
$FINGERPRINTGUID
  2
{78C89289-7807-440E-B533-08A836E151A8}
  9
$VERSIONGUID
  2
{FAEB1C32-E019-11D5-929B-00C0DF256EC4}
  9
$EXTNAMES
290
     1
  9
$PSVPSCALE
 40
0.0
  9
$OLESTARTUP
290
     0
  0
ENDSEC
  0
SECTION
  2
CLASSES
  0
CLASS
  1
ACDBDICTIONARYWDFLT
  2
AcDbDictionaryWithDefault
  3
ObjectDBX Classes
 90
        0
280
     0
281
     0
  0
CLASS
  1
VISUALSTYLE
  2
AcDbVisualStyle
  3
ObjectDBX Classes
 90
     4095
280
     0
281
     0
  0
CLASS
  1
MATERIAL
  2
AcDbMaterial
  3
ObjectDBX Classes
 90
     1153
280
     0
281
     0
  0
CLASS
  1
SCALE
  2
AcDbScale
  3
ObjectDBX Classes
 90
     1153
280
     0
281
     0
  0
CLASS
  1
TABLESTYLE
  2
AcDbTableStyle
  3
ObjectDBX Classes
 90
     4095
280
     0
281
     0
  0
CLASS
  1
MLEADERSTYLE
  2
AcDbMLeaderStyle
  3
ACDB_MLEADERSTYLE_CLASS
 90
     4095
280
     0
281
     0
  0
CLASS
  1
SUN
  2
AcDbSun
  3
SCENEOE
 90
     1153
280
     0
281
     0
  0
CLASS
  1
ACDBPLACEHOLDER
  2
AcDbPlaceHolder
  3
ObjectDBX Classes
 90
        0
280
     0
281
     0
  0
CLASS
  1
LAYOUT
  2
AcDbLayout
  3
ObjectDBX Classes
 90
        0
280
     0
281
     0
  0
ENDSEC
  0
SECTION
  2
TABLES
  0
TABLE
  2
VPORT
  5
8
330
0
100
AcDbSymbolTable
 70
     1
  0
VPORT
  5
29
330
8
100
AcDbSymbolTableRecord
100
AcDbViewportTableRecord
  2
*Active
 70
     0
 10
0.0
 20
0.0
 11
1.0
 21
1.0
 12
107.95
 22
69.85
 13
0.0
 23
0.0
 14
10.0
 24
10.0
 15
10.0
 25
10.0
 16
0.0
 26
0.0
 36
1.0
 17
0.0
 27
0.0
 37
0.0
 40
139.7
 41
1.5454545455
 42
50.0
 43
0.0
 44
0.0
 50
0.0
 51
0.0
 71
     0
 72
  2000
 73
     1
 74
     3
 75
     0
 76
     0
 77
     0
 78
     0
281
     0
 65
     1
110
0.0
120
0.0
130
0.0
111
1.0
121
0.0
131
0.0
112
0.0
122
1.0
132
0.0
 79
     0
146
0.0
  0
ENDTAB
  0
TABLE
  2
LTYPE
  5
5
330
0
100
AcDbSymbolTable
 70
     6
  0
LTYPE
  5
14
330
5
100
AcDbSymbolTableRecord
100
AcDbLinetypeTableRecord
  2
ByBlock
 70
     0
  3

 72
    65
 73
     0
 40
0.0
  0
LTYPE
  5
15
330
5
100
AcDbSymbolTableRecord
100
AcDbLinetypeTableRecord
  2
ByLayer
 70
     0
  3

 72
    65
 73
     0
 40
0.0
  0
LTYPE
  5
16
330
5
100
AcDbSymbolTableRecord
100
AcDbLinetypeTableRecord
  2
Continuous
 70
     0
  3
Solid line
 72
    65
 73
     0
 40
0.0
  0
LTYPE
  5
6E
330
5
100
AcDbSymbolTableRecord
100
AcDbLinetypeTableRecord
  2
HIDDEN
 70
     0
  3
Hidden __ __ __ __ __ __ __ __ __ __ __ __ __ __
 72
    65
 73
     2
 40
1.905
 49
1.27
 74
     0
 49
-0.635
 74
     0
  0
LTYPE
  5
6F
330
5
100
AcDbSymbolTableRecord
100
AcDbLinetypeTableRecord
  2
PHANTOM
 70
     0
  3
Phantom ______  __  __  ______  __  __  ______
 72
    65
 73
     6
 40
12.7
 49
6.35
 74
     0
 49
-1.27
 74
     0
 49
1.27
 74
     0
 49
-1.27
 74
     0
 49
1.27
 74
     0
 49
-1.27
 74
     0
  0
LTYPE
  5
70
330
5
100
AcDbSymbolTableRecord
100
AcDbLinetypeTableRecord
  2
CENTER
 70
     0
  3
Center ____ _ ____ _ ____ _ ____ _ ____ _ ____
 72
    65
 73
     4
 40
10.16
 49
6.35
 74
     0
 49
-1.27
 74
     0
 49
1.27
 74
     0
 49
-1.27
 74
     0
  0
LTYPE
  5
71
330
5
100
AcDbSymbolTableRecord
100
AcDbLinetypeTableRecord
  2
CENTERX2
 70
     0
  3
Center (2x) ________  __  ________  __  _____
 72
    65
 73
     4
 40
20.32
 49
12.7
 74
     0
 49
-2.54
 74
     0
 49
2.54
 74
     0
 49
-2.54
 74
     0
  0
LTYPE
  5
72
330
5
100
AcDbSymbolTableRecord
100
AcDbLinetypeTableRecord
  2
DOT2
 70
     0
  3
Dot (.5x) ........................................
 72
    65
 73
     2
 40
0.635
 49
0.0
 74
     0
 49
-0.635
 74
     0
  0
ENDTAB
  0
TABLE
  2
LAYER
  5
2
330
0
100
AcDbSymbolTable
 70
     1
  0
LAYER
  5
10
330
2
100
AcDbSymbolTableRecord
100
AcDbLayerTableRecord
  2
0
 70
     0
 62
     7
  6
Continuous
370
    -3
390
F
  0
ENDTAB
  0
TABLE
  2
STYLE
  5
3
330
0
100
AcDbSymbolTable
 70
     2
  0
STYLE
  5
11
330
3
100
AcDbSymbolTableRecord
100
AcDbTextStyleTableRecord
  2
Standard
 70
     0
 40
0.0
 41
1.0
 50
0.0
 71
     0
 42
1.75
  3
txt
  4
bigfont
  0
STYLE
  5
73
330
3
100
AcDbSymbolTableRecord
100
AcDbTextStyleTableRecord
  2
SLDTEXTSTYLE0
 70
     0
 40
0.0
 41
0.7
 50
0.0
 71
     0
 42
1.75
  3
TXT
  4
bigfont
  0
ENDTAB
  0
TABLE
  2
VIEW
  5
6
330
0
100
AcDbSymbolTable
 70
     0
  0
ENDTAB
  0
TABLE
  2
UCS
  5
7
330
0
100
AcDbSymbolTable
 70
     0
  0
ENDTAB
  0
TABLE
  2
APPID
  5
9
330
0
100
AcDbSymbolTable
 70
     1
  0
APPID
  5
12
330
9
100
AcDbSymbolTableRecord
100
AcDbRegAppTableRecord
  2
ACAD
 70
     0
  0
ENDTAB
  0
TABLE
  2
DIMSTYLE
  5
A
330
0
100
AcDbSymbolTable
 70
     1
100
AcDbDimStyleTable
  0
DIMSTYLE
105
27
330
A
100
AcDbSymbolTableRecord
100
AcDbDimStyleTableRecord
  2
ISO-25
 70
     0
 41
2.5
 42
0.625
 43
3.75
 44
1.25
 73
     0
 74
     0
 77
     1
 78
     8
140
2.5
141
2.5
143
0.0393700787
147
0.625
171
     3
172
     1
178
     0
271
     2
272
     2
274
     3
278
    44
283
     0
284
     8
340
11
  0
ENDTAB
  0
TABLE
  2
BLOCK_RECORD
  5
1
330
0
100
AcDbSymbolTable
 70
     3
  0
BLOCK_RECORD
  5
1F
330
1
100
AcDbSymbolTableRecord
100
AcDbBlockTableRecord
  2
*Model_Space
340
22
  0
BLOCK_RECORD
  5
1B
330
1
100
AcDbSymbolTableRecord
100
AcDbBlockTableRecord
  2
*Paper_Space
340
1E
  0
BLOCK_RECORD
  5
23
330
1
100
AcDbSymbolTableRecord
100
AcDbBlockTableRecord
  2
*Paper_Space0
340
26
  0
BLOCK_RECORD
  5
F2
330
1
100
AcDbSymbolTableRecord
100
AcDbBlockTableRecord
  2
SW_CENTERMARKSYMBOL_0
340
0
102
{BLKREFS
331
FD
102
}
  0
BLOCK_RECORD
  5
FE
330
1
100
AcDbSymbolTableRecord
100
AcDbBlockTableRecord
  2
SW_CENTERMARKSYMBOL_1
340
0
102
{BLKREFS
331
109
102
}
  0
ENDTAB
  0
ENDSEC
  0
SECTION
  2
BLOCKS
  0
BLOCK
  5
20
330
1F
100
AcDbEntity
  8
0
100
AcDbBlockBegin
  2
*Model_Space
 70
     0
 10
0.0
 20
0.0
 30
0.0
  3
*Model_Space
  1

  0
ENDBLK
  5
21
330
1F
100
AcDbEntity
  8
0
100
AcDbBlockEnd
  0
BLOCK
  5
1C
330
1B
100
AcDbEntity
 67
     1
  8
0
100
AcDbBlockBegin
  2
*Paper_Space
 70
     0
 10
0.0
 20
0.0
 30
0.0
  3
*Paper_Space
  1

  0
ENDBLK
  5
1D
330
1B
100
AcDbEntity
 67
     1
  8
0
100
AcDbBlockEnd
  0
BLOCK
  5
24
330
23
100
AcDbEntity
  8
0
100
AcDbBlockBegin
  2
*Paper_Space0
 70
     0
 10
0.0
 20
0.0
 30
0.0
  3
*Paper_Space0
  1

  0
ENDBLK
  5
25
330
23
100
AcDbEntity
  8
0
100
AcDbBlockEnd
  0
BLOCK
  5
F3
330
F2
100
AcDbEntity
  8
0
100
AcDbBlockBegin
  2
SW_CENTERMARKSYMBOL_0
 70
     0
 10
0.0
 20
0.0
 30
0.0
  3
SW_CENTERMARKSYMBOL_0
  1

  0
LINE
  5
F5
330
F2
100
AcDbEntity
  8
0
  6
Continuous
 62
     0
370
    18
100
AcDbLine
 10
0.0
 20
0.0
 30
0.0
 11
0.0
 21
2.5
 31
0.0
  0
LINE
  5
F6
330
F2
100
AcDbEntity
  8
0
  6
Continuous
 62
     0
370
    18
100
AcDbLine
 10
0.0
 20
0.0
 30
0.0
 11
-2.5
 21
0.0
 31
0.0
  0
LINE
  5
F7
330
F2
100
AcDbEntity
  8
0
  6
Continuous
 62
     0
370
    18
100
AcDbLine
 10
0.0
 20
0.0
 30
0.0
 11
0.0
 21
-2.5
 31
0.0
  0
LINE
  5
F8
330
F2
100
AcDbEntity
  8
0
  6
Continuous
 62
     0
370
    18
100
AcDbLine
 10
0.0
 20
0.0
 30
0.0
 11
2.5
 21
0.0
 31
0.0
  0
LINE
  5
F9
330
F2
100
AcDbEntity
  8
0
  6
Continuous
 62
     0
370
    18
100
AcDbLine
 10
0.0
 20
2.5
 30
0.0
 11
0.0
 21
5.0
 31
0.0
  0
LINE
  5
FA
330
F2
100
AcDbEntity
  8
0
  6
Continuous
 62
     0
370
    18
100
AcDbLine
 10
-2.5
 20
0.0
 30
0.0
 11
-5.0
 21
0.0
 31
0.0
  0
LINE
  5
FB
330
F2
100
AcDbEntity
  8
0
  6
Continuous
 62
     0
370
    18
100
AcDbLine
 10
0.0
 20
-2.5
 30
0.0
 11
0.0
 21
-5.0
 31
0.0
  0
LINE
  5
FC
330
F2
100
AcDbEntity
  8
0
  6
Continuous
 62
     0
370
    18
100
AcDbLine
 10
2.5
 20
0.0
 30
0.0
 11
5.0
 21
0.0
 31
0.0
  0
ENDBLK
  5
F4
330
F2
100
AcDbEntity
  8
0
100
AcDbBlockEnd
  0
BLOCK
  5
FF
330
FE
100
AcDbEntity
  8
0
100
AcDbBlockBegin
  2
SW_CENTERMARKSYMBOL_1
 70
     0
 10
0.0
 20
0.0
 30
0.0
  3
SW_CENTERMARKSYMBOL_1
  1

  0
LINE
  5
101
330
FE
100
AcDbEntity
  8
0
  6
Continuous
 62
     0
370
    18
100
AcDbLine
 10
0.0
 20
0.0
 30
0.0
 11
0.0
 21
2.5
 31
0.0
  0
LINE
  5
102
330
FE
100
AcDbEntity
  8
0
  6
Continuous
 62
     0
370
    18
100
AcDbLine
 10
0.0
 20
0.0
 30
0.0
 11
-2.5
 21
0.0
 31
0.0
  0
LINE
  5
103
330
FE
100
AcDbEntity
  8
0
  6
Continuous
 62
     0
370
    18
100
AcDbLine
 10
0.0
 20
0.0
 30
0.0
 11
0.0
 21
-2.5
 31
0.0
  0
LINE
  5
104
330
FE
100
AcDbEntity
  8
0
  6
Continuous
 62
     0
370
    18
100
AcDbLine
 10
0.0
 20
0.0
 30
0.0
 11
2.5
 21
0.0
 31
0.0
  0
LINE
  5
105
330
FE
100
AcDbEntity
  8
0
  6
Continuous
 62
     0
370
    18
100
AcDbLine
 10
0.0
 20
5.0
 30
0.0
 11
0.0
 21
10.75
 31
0.0
  0
LINE
  5
106
330
FE
100
AcDbEntity
  8
0
  6
Continuous
 62
     0
370
    18
100
AcDbLine
 10
-5.0
 20
0.0
 30
0.0
 11
-10.75
 21
0.0
 31
0.0
  0
LINE
  5
107
330
FE
100
AcDbEntity
  8
0
  6
Continuous
 62
     0
370
    18
100
AcDbLine
 10
0.0
 20
-5.0
 30
0.0
 11
0.0
 21
-10.75
 31
0.0
  0
LINE
  5
108
330
FE
100
AcDbEntity
  8
0
  6
Continuous
 62
     0
370
    18
100
AcDbLine
 10
5.0
 20
0.0
 30
0.0
 11
10.75
 21
0.0
 31
0.0
  0
ENDBLK
  5
100
330
FE
100
AcDbEntity
  8
0
100
AcDbBlockEnd
  0
ENDSEC
  0
SECTION
  2
ENTITIES
  0
MTEXT
  5
74
330
1F
100
AcDbEntity
  8
0
  6
Continuous
 62
     7
370
     0
100
AcDbMText
 10
77.3835097328
 20
57.4851419746
 30
0.0
 40
2.1166666667
 41
0.0
 71
     1
 72
     1
  1
エースニップル　HN-8308
  7
SLDTEXTSTYLE0
 73
     1
 44
1.0
  0
LINE
  5
75
330
1F
100
AcDbEntity
  8
0
  6
Continuous
 62
     7
370
    25
100
AcDbLine
 10
53.8247745665
 20
49.4781801301
 30
0.0
 11
42.8986840001
 21
49.1367397999
 31
0.0
  0
LINE
  5
76
330
1F
100
AcDbEntity
  8
0
  6
Continuous
 62
     7
370
    25
100
AcDbLine
 10
42.8986840001
 20
32.7419954603
 30
0.0
 11
53.8247745665
 21
32.4005551301
 31
0.0
  0
LINE
  5
77
330
1F
100
AcDbEntity
  8
0
  6
Continuous
 62
     7
370
    25
100
AcDbLine
 10
58.9212476206
 20
31.1244130538
 30
0.0
 11
59.8247745665
 21
32.6893676301
 31
0.0
  0
LINE
  5
78
330
1F
100
AcDbEntity
  8
0
  6
Continuous
 62
     7
370
    25
100
AcDbLine
 10
59.8247745665
 20
49.1893676301
 30
0.0
 11
58.9212476206
 21
50.7543222063
 31
0.0
  0
LINE
  5
79
330
1F
100
AcDbEntity
  8
0
  6
Continuous
 62
     7
370
    25
100
AcDbLine
 10
42.8986840001
 20
49.1367397999
 30
0.0
 11
40.8247745665
 21
47.9393676301
 31
0.0
  0
LINE
  5
7A
330
1F
100
AcDbEntity
  8
0
  6
Continuous
 62
     7
370
    25
100
AcDbLine
 10
40.8247745665
 20
33.9393676301
 30
0.0
 11
42.8986840001
 21
32.7419954603
 31
0.0
  0
LINE
  5
7B
330
1F
100
AcDbEntity
  8
0
  6
Continuous
 62
     7
370
    25
100
AcDbLine
 10
72.8247745665
 20
36.9393676301
 30
0.0
 11
77.3247745665
 21
37.5893676301
 31
0.0
  0
LINE
  5
7C
330
1F
100
AcDbEntity
  8
0
  6
Continuous
 62
     7
370
    25
100
AcDbLine
 10
77.3247745665
 20
44.2893676301
 30
0.0
 11
72.8247745665
 21
44.9393676301
 31
0.0
  0
LINE
  5
7D
330
1F
100
AcDbEntity
  8
0
  6
Continuous
 62
     7
370
    25
100
AcDbLine
 10
77.3247745665
 20
36.9393676301
 30
0.0
 11
82.3834570889
 21
37.5372119282
 31
0.0
  0
LINE
  5
7E
330
1F
100
AcDbEntity
  8
0
  6
Continuous
 62
     7
370
    25
100
AcDbLine
 10
82.3834570889
 20
44.341523332
 30
0.0
 11
77.3247745665
 21
44.9393676301
 31
0.0
  0
LINE
  5
7F
330
1F
100
AcDbEntity
  8
0
  6
Continuous
 62
     7
370
    25
100
AcDbLine
 10
68.3247745665
 20
36.9393676301
 30
0.0
 11
72.8247745665
 21
37.5893676301
 31
0.0
  0
LINE
  5
80
330
1F
100
AcDbEntity
  8
0
  6
Continuous
 62
     7
370
    25
100
AcDbLine
 10
72.8247745665
 20
44.2893676301
 30
0.0
 11
68.3247745665
 21
44.9393676301
 31
0.0
  0
LINE
  5
81
330
1F
100
AcDbEntity
  8
0
  6
Continuous
 62
     7
370
    25
100
AcDbLine
 10
63.8247745665
 20
36.9393676301
 30
0.0
 11
68.3247745665
 21
37.5893676301
 31
0.0
  0
LINE
  5
82
330
1F
100
AcDbEntity
  8
0
  6
Continuous
 62
     7
370
    25
100
AcDbLine
 10
68.3247745665
 20
44.2893676301
 30
0.0
 11
63.8247745665
 21
44.9393676301
 31
0.0
  0
LINE
  5
83
330
1F
100
AcDbEntity
  8
0
  6
Continuous
 62
     7
370
    25
100
AcDbLine
 10
63.8247745665
 20
44.9393676301
 30
0.0
 11
59.8247745665
 21
44.9393676301
 31
0.0
  0
LINE
  5
84
330
1F
100
AcDbEntity
  8
0
  6
Continuous
 62
     7
370
    25
100
AcDbLine
 10
59.8247745665
 20
36.9393676301
 30
0.0
 11
63.8247745665
 21
36.9393676301
 31
0.0
  0
LINE
  5
85
330
1F
100
AcDbEntity
  8
0
  6
Continuous
 62
     7
370
    25
100
AcDbLine
 10
54.5615555377
 20
50.7543222063
 30
0.0
 11
53.8247745665
 21
49.4781801301
 31
0.0
  0
LINE
  5
86
330
1F
100
AcDbEntity
  8
0
  6
Continuous
 62
     7
370
    25
100
AcDbLine
 10
53.8247745665
 20
32.4005551301
 30
0.0
 11
54.5615555377
 21
31.1244130538
 31
0.0
  0
ARC
  5
87
330
1F
100
AcDbEntity
  8
0
  6
Continuous
 62
     7
370
    25
100
AcDbCircle
 10
82.3247745665
 20
43.8449789114
 30
0.0
 40
0.5000000000000004
100
AcDbArc
 50
0.0
 51
83.2599439021
  0
ARC
  5
88
330
1F
100
AcDbEntity
  8
0
  6
Continuous
 62
     7
370
    25
100
AcDbCircle
 10
82.3247745665
 20
38.0337563487
 30
0.0
 40
0.5000000000000004
100
AcDbArc
 50
276.7400560979
 51
0.0
  0
LINE
  5
89
330
1F
100
AcDbEntity
  8
0
  6
Continuous
 62
     7
370
    25
100
AcDbLine
 10
56.7414015792
 20
31.4244130538
 30
0.0
 11
56.8217863369
 21
31.1244130538
 31
0.0
  0
LINE
  5
8A
330
1F
100
AcDbEntity
  8
0
  6
Continuous
 62
     7
370
    25
100
AcDbLine
 10
56.6610168214
 20
31.1244130538
 30
0.0
 11
56.7414015792
 21
31.4244130538
 31
0.0
  0
LINE
  5
8B
330
1F
100
AcDbEntity
  8
0
  6
Continuous
 62
     7
370
    25
100
AcDbLine
 10
56.7414015792
 20
50.4543222063
 30
0.0
 11
56.6610168214
 21
50.7543222063
 31
0.0
  0
LINE
  5
8C
330
1F
100
AcDbEntity
  8
0
  6
Continuous
 62
     7
370
    25
100
AcDbLine
 10
56.8217863369
 20
50.7543222063
 30
0.0
 11
56.7414015792
 21
50.4543222063
 31
0.0
  0
LINE
  5
8D
330
1F
100
AcDbEntity
  8
0
  6
Continuous
 62
     7
370
    25
100
AcDbLine
 10
42.8986840001
 20
49.1367397999
 30
0.0
 11
42.8986840001
 21
32.7419954603
 31
0.0
  0
LINE
  5
8E
330
1F
100
AcDbEntity
  8
0
  6
Continuous
 62
     7
370
    25
100
AcDbLine
 10
53.8247745665
 20
33.9847592821
 30
0.0
 11
53.8247745665
 21
40.1261524616
 31
0.0
  0
LINE
  5
8F
330
1F
100
AcDbEntity
  8
0
  6
Continuous
 62
     7
370
    25
100
AcDbLine
 10
53.8247745665
 20
33.1715441137
 30
0.0
 11
53.8247745665
 21
33.9847592821
 31
0.0
  0
LINE
  5
90
330
1F
100
AcDbEntity
  8
0
  6
Continuous
 62
     7
370
    25
100
AcDbLine
 10
53.8247745665
 20
32.4005551301
 30
0.0
 11
53.8247745665
 21
33.1715441137
 31
0.0
  0
LINE
  5
91
330
1F
100
AcDbEntity
  8
0
  6
Continuous
 62
     7
370
    25
100
AcDbLine
 10
53.8247745665
 20
48.7071911464
 30
0.0
 11
53.8247745665
 21
49.4781801301
 31
0.0
  0
LINE
  5
92
330
1F
100
AcDbEntity
  8
0
  6
Continuous
 62
     7
370
    25
100
AcDbLine
 10
53.8247745665
 20
47.893975978
 30
0.0
 11
53.8247745665
 21
48.7071911464
 31
0.0
  0
LINE
  5
93
330
1F
100
AcDbEntity
  8
0
  6
Continuous
 62
     7
370
    25
100
AcDbLine
 10
53.8247745665
 20
41.7525827985
 30
0.0
 11
53.8247745665
 21
47.893975978
 31
0.0
  0
LINE
  5
94
330
1F
100
AcDbEntity
  8
0
  6
Continuous
 62
     7
370
    25
100
AcDbLine
 10
53.8247745665
 20
40.1261524616
 30
0.0
 11
53.8247745665
 21
41.7525827985
 31
0.0
  0
LINE
  5
95
330
1F
100
AcDbEntity
  8
0
  6
Continuous
 62
     7
370
    25
100
AcDbLine
 10
56.6610168214
 20
36.0318903419
 30
0.0
 11
54.5615555377
 21
36.0318903419
 31
0.0
  0
SPLINE
  5
96
330
1F
100
AcDbEntity
  8
0
  6
Continuous
 62
     7
370
    25
100
AcDbSpline
210
0.0
220
0.0
230
1.0
 70
     8
 71
     3
 72
    12
 73
     8
 74
     0
 42
0.000000001
 43
0.00000001
 40
0.0
 40
0.0
 40
0.0
 40
0.0
 40
0.2500000000000002
 40
0.2500000000000002
 40
0.5
 40
0.5
 40
1.0
 40
1.0
 40
1.0
 40
1.0
 10
54.56155553770588
 20
36.03189034194598
 30
0.0
 10
54.46515664475594
 20
36.36582590271136
 30
0.0
 10
54.37542254009708
 20
36.70216937425339
 30
0.0
 10
54.21212569609742
 20
37.38069884422977
 30
0.0
 10
54.13847715738327
 20
37.72362810340744
 30
0.0
 10
53.94846995378062
 20
38.75136610072643
 30
0.0
 10
53.86261665325265
 20
39.43793179308478
 30
0.0
 10
53.82477456647396
 20
40.12615246163296
 30
0.0
  0
SPLINE
  5
97
330
1F
100
AcDbEntity
  8
0
  6
Continuous
 62
     7
370
    25
100
AcDbSpline
210
0.0
220
0.0
230
1.0
 70
     8
 71
     3
 72
    12
 73
     8
 74
     0
 42
0.000000001
 43
0.00000001
 40
0.0
 40
0.0
 40
0.0
 40
0.0
 40
0.2499999999999999
 40
0.2499999999999999
 40
0.5000000000000001
 40
0.5000000000000001
 40
1.0
 40
1.0
 40
1.0
 40
1.0
 10
53.82477456647396
 20
41.75258279848263
 30
0.0
 10
53.84375550713255
 20
42.09778246324026
 30
0.0
 10
53.87477497553731
 20
42.44339710348433
 30
0.0
 10
53.95974570983178
 20
43.13541685719452
 30
0.0
 10
54.01388958388931
 20
43.48255887780859
 30
0.0
 10
54.20473141049469
 20
44.51071901210647
 30
0.0
 10
54.36999135862321
 20
45.18324713600679
 30
0.0
 10
54.56155553770589
 20
45.84684491816962
 30
0.0
  0
LINE
  5
98
330
1F
100
AcDbEntity
  8
0
  6
Continuous
 62
     7
370
    25
100
AcDbLine
 10
56.6610168214
 20
45.8468449182
 30
0.0
 11
54.5615555377
 21
45.8468449182
 31
0.0
  0
SPLINE
  5
99
330
1F
100
AcDbEntity
  8
0
  6
Continuous
 62
     7
370
    25
100
AcDbSpline
210
0.0
220
0.0
230
1.0
 70
     8
 71
     3
 72
     8
 73
     4
 74
     0
 42
0.000000001
 43
0.00000001
 40
0.0
 40
0.0
 40
0.0
 40
0.0
 40
1.0
 40
1.0
 40
1.0
 40
1.0
 10
56.7414015791638
 20
45.21538921414729
 30
0.0
 10
56.71602754857947
 20
45.4261082823316
 30
0.0
 10
56.68918619186248
 20
45.63658587486046
 30
0.0
 10
56.66101682143447
 20
45.84684491816963
 30
0.0
  0
SPLINE
  5
9A
330
1F
100
AcDbEntity
  8
0
  6
Continuous
 62
     7
370
    25
100
AcDbSpline
210
0.0
220
0.0
230
1.0
 70
     8
 71
     3
 72
     8
 73
     4
 74
     0
 42
0.000000001
 43
0.00000001
 40
0.0
 40
0.0
 40
0.0
 40
0.0
 40
1.0
 40
1.0
 40
1.0
 40
1.0
 10
56.82178633689314
 20
45.84684491816962
 30
0.0
 10
56.79360318500098
 20
45.6364830086117
 30
0.0
 10
56.76676278920285
 20
45.42600181389547
 30
0.0
 10
56.7414015791638
 20
45.21538921414729
 30
0.0
  0
LINE
  5
9B
330
1F
100
AcDbEntity
  8
0
  6
Continuous
 62
     7
370
    25
100
AcDbLine
 10
58.9212476206
 20
45.8468449182
 30
0.0
 11
56.8217863369
 21
45.8468449182
 31
0.0
  0
SPLINE
  5
9C
330
1F
100
AcDbEntity
  8
0
  6
Continuous
 62
     7
370
    25
100
AcDbSpline
210
0.0
220
0.0
230
1.0
 70
     8
 71
     3
 72
    16
 73
    12
 74
     0
 42
0.000000001
 43
0.00000001
 40
0.0
 40
0.0
 40
0.0
 40
0.0
 40
0.25
 40
0.25
 40
0.5
 40
0.5
 40
0.625
 40
0.625
 40
0.75
 40
0.75
 40
1.0
 40
1.0
 40
1.0
 40
1.0
 10
58.92124762062173
 20
36.03189034194598
 30
0.0
 10
59.15209402508206
 20
36.83156574448575
 30
0.0
 10
59.34511500991984
 20
37.6486359484261
 30
0.0
 10
59.60912366297472
 20
39.28614336988399
 30
0.0
 10
59.68054996055505
 20
40.11046799229473
 30
0.0
 10
59.68038031391465
 20
41.35682334669322
 30
0.0
 10
59.66253593550555
 20
41.77509188089103
 30
0.0
 10
59.59227817631619
 20
42.60955317620115
 30
0.0
 10
59.54030618963319
 20
43.02244117145916
 30
0.0
 10
59.34091554849284
 20
44.24989609544539
 30
0.0
 10
59.1503157489983
 20
45.05332964468372
 30
0.0
 10
58.92124762062171
 20
45.84684491816963
 30
0.0
  0
LINE
  5
9D
330
1F
100
AcDbEntity
  8
0
  6
Continuous
 62
     7
370
    25
100
AcDbLine
 10
58.9212476206
 20
36.0318903419
 30
0.0
 11
56.8217863369
 21
36.0318903419
 31
0.0
  0
SPLINE
  5
9E
330
1F
100
AcDbEntity
  8
0
  6
Continuous
 62
     7
370
    25
100
AcDbSpline
210
0.0
220
0.0
230
1.0
 70
     8
 71
     3
 72
     8
 73
     4
 74
     0
 42
0.000000001
 43
0.00000001
 40
0.0
 40
0.0
 40
0.0
 40
0.0
 40
1.0
 40
1.0
 40
1.0
 40
1.0
 10
56.7414015791638
 20
36.6633460459683
 30
0.0
 10
56.76677560974812
 20
36.45262697778401
 30
0.0
 10
56.79361696646512
 20
36.24214938525516
 30
0.0
 10
56.82178633689314
 20
36.03189034194599
 30
0.0
  0
SPLINE
  5
9F
330
1F
100
AcDbEntity
  8
0
  6
Continuous
 62
     7
370
    25
100
AcDbSpline
210
0.0
220
0.0
230
1.0
 70
     8
 71
     3
 72
     8
 73
     4
 74
     0
 42
0.000000001
 43
0.00000001
 40
0.0
 40
0.0
 40
0.0
 40
0.0
 40
1.0
 40
1.0
 40
1.0
 40
1.0
 10
56.66101682143447
 20
36.03189034194598
 30
0.0
 10
56.68919997332662
 20
36.24225225150391
 30
0.0
 10
56.71604036912475
 20
36.45273344622013
 30
0.0
 10
56.7414015791638
 20
36.6633460459683
 30
0.0
  0
LINE
  5
A0
330
1F
100
AcDbEntity
  8
0
  6
Continuous
 62
     7
370
    25
100
AcDbLine
 10
56.7787409126
 20
40.3420212296
 30
0.0
 11
57.4632361049
 21
39.8943048835
 31
0.0
  0
SPLINE
  5
A1
330
1F
100
AcDbEntity
  8
0
  6
Continuous
 62
     7
370
    25
100
AcDbSpline
210
0.0
220
0.0
230
1.0
 70
     8
 71
     3
 72
    19
 73
    15
 74
     0
 42
0.000000001
 43
0.00000001
 40
0.0
 40
0.0
 40
0.0
 40
0.0
 40
0.0978059775289525
 40
0.1996122522918966
 40
0.3052960258330041
 40
0.4158173591641854
 40
0.474240566618493
 40
0.5372869128296534
 40
0.6033858352934854
 40
0.6743111580696056
 40
0.749530467357482
 40
0.8286083142695116
 40
0.9120427387714447
 40
0.9999999999999999
 40
0.9999999999999999
 40
0.9999999999999999
 40
0.9999999999999999
 10
56.3430437972432
 20
40.50968949887009
 30
0.0
 10
56.35848585120652
 20
40.50914587816959
 30
0.0
 10
56.39000154431148
 20
40.50803640249989
 30
0.0
 10
56.43787101837388
 20
40.5014151795269
 30
0.0
 10
56.48665983155617
 20
40.48927104762786
 30
0.0
 10
56.5280193972022
 20
40.47612844265831
 30
0.0
 10
56.5622726110074
 20
40.46308701121328
 30
0.0
 10
56.58932146911446
 20
40.45099469589656
 30
0.0
 10
56.61788593179173
 20
40.43747401395709
 30
0.0
 10
56.64742553129733
 20
40.42162589183786
 30
0.0
 10
56.67878427797024
 20
40.40482560343817
 30
0.0
 10
56.71080086168693
 20
40.38520096008982
 30
0.0
 10
56.74464462694656
 20
40.36472234320948
 30
0.0
 10
56.76717728014827
 20
40.34972023054093
 30
0.0
 10
56.77874091262781
 20
40.34202122963932
 30
0.0
  0
SPLINE
  5
A2
330
1F
100
AcDbEntity
  8
0
  6
Continuous
 62
     7
370
    25
100
AcDbSpline
210
0.0
220
0.0
230
1.0
 70
     8
 71
     3
 72
    19
 73
    15
 74
     0
 42
0.000000001
 43
0.00000001
 40
0.0
 40
0.0
 40
0.0
 40
0.0
 40
0.0843261511037433
 40
0.1670353409858406
 40
0.2495407139852792
 40
0.3327066655796642
 40
0.4158726171740492
 40
0.4977774155681174
 40
0.5803136056784763
 40
0.6645325781316563
 40
0.7495711764063215
 40
0.8324741628544073
 40
0.9156738488962566
 40
1.0
 40
1.0
 40
1.0
 40
1.0
 10
55.88631302801242
 20
40.05536257579317
 30
0.0
 10
55.88696797167758
 20
40.0755468799649
 30
0.0
 10
55.8882653004066
 20
40.11552845253473
 30
0.0
 10
55.89982215510944
 20
40.17434245028307
 30
0.0
 10
55.9185536790236
 20
40.23085538750141
 30
0.0
 10
55.94436014307113
 20
40.28467002520684
 30
0.0
 10
55.97695509650264
 20
40.33452473418868
 30
0.0
 10
56.01620079989079
 20
40.37911316761223
 30
0.0
 10
56.06122987814017
 20
40.41828019295379
 30
0.0
 10
56.11218046398137
 20
40.4507035602937
 30
0.0
 10
56.16657760521917
 20
40.4771286926776
 30
0.0
 10
56.22381521396382
 20
40.49576672067453
 30
0.0
 10
56.28274136062628
 20
40.50781998202991
 30
0.0
 10
56.32285307960213
 20
40.50906353931086
 30
0.0
 10
56.3430437972432
 20
40.50968949887009
 30
0.0
  0
SPLINE
  5
A3
330
1F
100
AcDbEntity
  8
0
  6
Continuous
 62
     7
370
    25
100
AcDbSpline
210
0.0
220
0.0
230
1.0
 70
     8
 71
     3
 72
    19
 73
    15
 74
     0
 42
0.000000001
 43
0.00000001
 40
0.0
 40
0.0
 40
0.0
 40
0.0
 40
0.0859901205637198
 40
0.1691084375726415
 40
0.2505285789581879
 40
0.332255696176845
 40
0.4135763652356403
 40
0.4941261456201216
 40
0.576305934120417
 40
0.6607126719045473
 40
0.7461272722239103
 40
0.8300149859609743
 40
0.9144197259288509
 40
1.0
 40
1.0
 40
1.0
 40
1.0
 10
56.34574812416627
 20
39.58661257579316
 30
0.0
 10
56.32476930088015
 20
39.5873953737963
 30
0.0
 10
56.28351228199507
 20
39.58893482677505
 30
0.0
 10
56.22317053285332
 20
39.60014139060833
 30
0.0
 10
56.16614563763248
 20
39.6194814159045
 30
0.0
 10
56.11221349790949
 20
39.64535605058484
 30
0.0
 10
56.06294327244378
 20
39.67892635453752
 30
0.0
 10
56.01841620041348
 20
39.71870901039301
 30
0.0
 10
55.97960431601209
 20
39.76508007546748
 30
0.0
 10
55.94630921715433
 20
39.81694147270364
 30
0.0
 10
55.91985630303662
 20
39.87307161050066
 30
0.0
 10
55.90029912369557
 20
39.93192589602652
 30
0.0
 10
55.88861321201568
 20
39.99300127460823
 30
0.0
 10
55.88708328276364
 20
40.03447986012272
 30
0.0
 10
55.88631302801242
 20
40.05536257579317
 30
0.0
  0
SPLINE
  5
A4
330
1F
100
AcDbEntity
  8
0
  6
Continuous
 62
     7
370
    25
100
AcDbSpline
210
0.0
220
0.0
230
1.0
 70
     8
 71
     3
 72
    23
 73
    19
 74
     0
 42
0.000000001
 43
0.00000001
 40
0.0
 40
0.0
 40
0.0
 40
0.0
 40
0.0652308037420294
 40
0.1284048960032227
 40
0.1900670715964781
 40
0.25094336576828
 40
0.3115458328521431
 40
0.3728628021568291
 40
0.4350236738562383
 40
0.4990717247070431
 40
0.563091075049662
 40
0.625510106330375
 40
0.6866800359296492
 40
0.7472825030135124
 40
0.8085634952159588
 40
0.8707421035159856
 40
0.9343409515059125
 40
1.0
 40
1.0
 40
1.0
 40
1.0
 10
56.79015918185858
 20
40.03162459502393
 30
0.0
 10
56.78974941970324
 20
40.01637923945172
 30
0.0
 10
56.78894281509434
 20
39.98636921068488
 30
0.0
 10
56.78273545051211
 20
39.94230915261031
 30
0.0
 10
56.77295325968771
 20
39.89997103719324
 30
0.0
 10
56.75869372142419
 20
39.85953034622663
 30
0.0
 10
56.74047842669749
 20
39.82084192542968
 30
0.0
 10
56.71864748229157
 20
39.78368375566887
 30
0.0
 10
56.69207361928153
 20
39.74875432276622
 30
0.0
 10
56.66238863823131
 20
39.71560381738968
 30
0.0
 10
56.62950993059053
 20
39.68550648993557
 30
0.0
 10
56.59462364343079
 20
39.65885960898234
 30
0.0
 10
56.55776612300299
 20
39.63647669823915
 30
0.0
 10
56.518956037603
 20
39.61831644611861
 30
0.0
 10
56.47825321207705
 20
39.60421435529095
 30
0.0
 10
56.43570972372488
 20
39.59393393598654
 30
0.0
 10
56.39129623595625
 20
39.58785696763518
 30
0.0
 10
56.36109130369933
 20
39.58703175732872
 30
0.0
 10
56.34574812416627
 20
39.58661257579316
 30
0.0
  0
SPLINE
  5
A5
330
1F
100
AcDbEntity
  8
0
  6
Continuous
 62
     7
370
    25
100
AcDbSpline
210
0.0
220
0.0
230
1.0
 70
     8
 71
     3
 72
     9
 73
     5
 74
     0
 42
0.000000001
 43
0.00000001
 40
0.0
 40
0.0
 40
0.0
 40
0.0
 40
0.5126593363417812
 40
1.0
 40
1.0
 40
1.0
 40
1.0
 10
56.7757361049355
 20
40.18697315271624
 30
0.0
 10
56.77994204521561
 20
40.16058589115195
 30
0.0
 10
56.78814620728184
 20
40.10911455396228
 30
0.0
 10
56.78949961247402
 20
40.05701488316611
 30
0.0
 10
56.79015918185858
 20
40.03162459502393
 30
0.0
  0
LINE
  5
A6
330
1F
100
AcDbEntity
  8
0
  6
Continuous
 62
     7
370
    25
100
AcDbLine
 10
57.3818058165
 20
39.7906390181
 30
0.0
 11
56.7757361049
 21
40.1869731527
 31
0.0
  0
LINE
  5
A7
330
1F
100
AcDbEntity
  8
0
  6
Continuous
 62
     7
370
    25
100
AcDbLine
 10
57.4632361049
 20
39.8943048835
 30
0.0
 11
57.3818058165
 21
39.7906390181
 31
0.0
  0
LINE
  5
A8
330
1F
100
AcDbEntity
  8
0
  6
Continuous
 62
     7
370
    25
100
AcDbLine
 10
57.2709284126
 20
41.2380719038
 30
0.0
 11
57.4247745665
 21
41.1500310384
 31
0.0
  0
LINE
  5
A9
330
1F
100
AcDbEntity
  8
0
  6
Continuous
 62
     7
370
    25
100
AcDbLine
 10
57.2709284126
 20
41.007302673
 30
0.0
 11
57.2709284126
 21
41.2380719038
 31
0.0
  0
LINE
  5
AA
330
1F
100
AcDbEntity
  8
0
  6
Continuous
 62
     7
370
    25
100
AcDbLine
 10
55.9247745665
 20
41.007302673
 30
0.0
 11
57.2709284126
 21
41.007302673
 31
0.0
  0
LINE
  5
AB
330
1F
100
AcDbEntity
  8
0
  6
Continuous
 62
     7
370
    25
100
AcDbLine
 10
55.9247745665
 20
40.8726872884
 30
0.0
 11
55.9247745665
 21
41.007302673
 31
0.0
  0
LINE
  5
AC
330
1F
100
AcDbEntity
  8
0
  6
Continuous
 62
     7
370
    25
100
AcDbLine
 10
57.4247745665
 20
40.8726872884
 30
0.0
 11
55.9247745665
 21
40.8726872884
 31
0.0
  0
LINE
  5
AD
330
1F
100
AcDbEntity
  8
0
  6
Continuous
 62
     7
370
    25
100
AcDbLine
 10
57.4247745665
 20
41.1500310384
 30
0.0
 11
57.4247745665
 21
40.8726872884
 31
0.0
  0
SPLINE
  5
AE
330
1F
100
AcDbEntity
  8
0
  6
Continuous
 62
     7
370
    25
100
AcDbSpline
210
0.0
220
0.0
230
1.0
 70
     8
 71
     3
 72
    19
 73
    15
 74
     0
 42
0.000000001
 43
0.00000001
 40
0.0
 40
0.0
 40
0.0
 40
0.0
 40
0.1227280999764553
 40
0.239716523588393
 40
0.3518621792202463
 40
0.4632019818032239
 40
0.5202611541541643
 40
0.5794324380306665
 40
0.6405963441586369
 40
0.70529822908802
 40
0.7732361059084537
 40
0.844648929340316
 40
0.9200459817773698
 40
1.0
 40
1.0
 40
1.0
 40
1.0
 10
57.30938995108935
 20
42.06540972467833
 30
0.0
 10
57.30879480974157
 20
42.0824895753636
 30
0.0
 10
57.30763236027024
 20
42.11585049621601
 30
0.0
 10
57.29741495339009
 20
42.16393473982323
 30
0.0
 10
57.28122652545851
 20
42.20858940885228
 30
0.0
 10
57.2616790467453
 20
42.24260725893056
 30
0.0
 10
57.24244956438251
 20
42.2677698637222
 30
0.0
 10
57.22590644073546
 20
42.28609556570706
 30
0.0
 10
57.20714992686027
 20
42.30376341962948
 30
0.0
 10
57.18566555269051
 20
42.32008012287864
 30
0.0
 10
57.16219207889782
 20
42.33602340686549
 30
0.0
 10
57.1366002223288
 20
42.35144103705976
 30
0.0
 10
57.10852511969894
 20
42.36583779882266
 30
0.0
 10
57.08878189832195
 20
42.37460134343297
 30
0.0
 10
57.07862072032012
 20
42.37911164775526
 30
0.0
  0
SPLINE
  5
AF
330
1F
100
AcDbEntity
  8
0
  6
Continuous
 62
     7
370
    25
100
AcDbSpline
210
0.0
220
0.0
230
1.0
 70
     8
 71
     3
 72
    23
 73
    19
 74
     0
 42
0.000000001
 43
0.00000001
 40
0.0
 40
0.0
 40
0.0
 40
0.0
 40
0.0552698294993248
 40
0.1099567044850938
 40
0.1632335040550556
 40
0.2180575651623568
 40
0.2732775387226747
 40
0.330881045495497
 40
0.3904799376860887
 40
0.4536559730386417
 40
0.5189026226022311
 40
0.5833461108214766
 40
0.6485466930814431
 40
0.7150552190344909
 40
0.7825206438000536
 40
0.852335294426451
 40
0.9249348997257087
 40
0.9999999999999999
 40
0.9999999999999999
 40
0.9999999999999999
 40
0.9999999999999999
 10
57.07411350878166
 20
41.76372703237064
 30
0.0
 10
57.08194684696004
 20
41.76390461639215
 30
0.0
 10
57.09753090175114
 20
41.7642579113806
 30
0.0
 10
57.12029851200653
 20
41.76871419096844
 30
0.0
 10
57.14237137747654
 20
41.77540907598214
 30
0.0
 10
57.16364934461318
 20
41.78461901290412
 30
0.0
 10
57.18400890619762
 20
41.79692388318414
 30
0.0
 10
57.20347503942459
 20
41.81169382664505
 30
0.0
 10
57.2223739765279
 20
41.82893597203037
 30
0.0
 10
57.23980156923152
 20
41.84910094238973
 30
0.0
 10
57.25624025192391
 20
41.8709316734427
 30
0.0
 10
57.2704508816009
 20
41.89463357862664
 30
0.0
 10
57.28249580181836
 20
41.91968388349032
 30
0.0
 10
57.29244747358843
 20
41.94610562357163
 30
0.0
 10
57.29992871995723
 20
41.97400464350537
 30
0.0
 10
57.30530158921093
 20
42.00324433470612
 30
0.0
 10
57.30866048230462
 20
42.03388198628468
 30
0.0
 10
57.3091441032233
 20
42.05478414704209
 30
0.0
 10
57.30938995108935
 20
42.06540972467833
 30
0.0
  0
SPLINE
  5
B0
330
1F
100
AcDbEntity
  8
0
  6
Continuous
 62
     7
370
    25
100
AcDbSpline
210
0.0
220
0.0
230
1.0
 70
     8
 71
     3
 72
    19
 73
    15
 74
     0
 42
0.000000001
 43
0.00000001
 40
0.0
 40
0.0
 40
0.0
 40
0.0
 40
0.1101423815503176
 40
0.2157418685830274
 40
0.3179605426392306
 40
0.4180517606815226
 40
0.5115631470355316
 40
0.5965727584443461
 40
0.6733290469034968
 40
0.7440491927238595
 40
0.8107168223002833
 40
0.8740854521098849
 40
0.9367096168966699
 40
1.0
 40
1.0
 40
1.0
 40
1.0
 10
56.82862072032012
 20
42.14834241698603
 30
0.0
 10
56.82893700928872
 20
42.12978528745386
 30
0.0
 10
56.82955654168067
 20
42.09343642932627
 30
0.0
 10
56.83699778879127
 20
42.04033164984765
 30
0.0
 10
56.84740711461115
 20
41.98949010021602
 30
0.0
 10
56.86298328625263
 20
41.94207229614122
 30
0.0
 10
56.88167913795262
 20
41.89899357804295
 30
0.0
 10
56.90276007607523
 20
41.86141414268995
 30
0.0
 10
56.92664383311605
 20
41.83022460799928
 30
0.0
 10
56.95301695766427
 20
41.80534704969784
 30
0.0
 10
56.98163274705578
 20
41.78708780524592
 30
0.0
 10
57.01114567441659
 20
41.77338243379049
 30
0.0
 10
57.04224240761859
 20
41.76534778973768
 30
0.0
 10
57.06345240078651
 20
41.76426918713447
 30
0.0
 10
57.07411350878165
 20
41.76372703237064
 30
0.0
  0
LINE
  5
B1
330
1F
100
AcDbEntity
  8
0
  6
Continuous
 62
     7
370
    25
100
AcDbLine
 10
56.6747745665
 20
42.148342417
 30
0.0
 11
56.8286207203
 21
42.148342417
 31
0.0
  0
SPLINE
  5
B2
330
1F
100
AcDbEntity
  8
0
  6
Continuous
 62
     7
370
    25
100
AcDbSpline
210
0.0
220
0.0
230
1.0
 70
     8
 71
     3
 72
    23
 73
    19
 74
     0
 42
0.000000001
 43
0.00000001
 40
0.0
 40
0.0
 40
0.0
 40
0.0
 40
0.0669051223273616
 40
0.1334773340846825
 40
0.2010229080576287
 40
0.2712178684297488
 40
0.3428591616573978
 40
0.4138109980627169
 40
0.4855518488903453
 40
0.5598002749200529
 40
0.5998999649035781
 40
0.6436094423977958
 40
0.6919106424505659
 40
0.7447030291556902
 40
0.8015038302285953
 40
0.8628660266331954
 40
0.9293326711591618
 40
1.0
 40
1.0
 40
1.0
 40
1.0
 10
56.35746687416627
 20
41.68680395544757
 30
0.0
 10
56.37144317804881
 20
41.68745978731258
 30
0.0
 10
56.39932624167243
 20
41.68876818771461
 30
0.0
 10
56.44034782263245
 20
41.69875775333968
 30
0.0
 10
56.47987306500447
 20
41.71518801478943
 30
0.0
 10
56.51722193120852
 20
41.7381931851827
 30
0.0
 10
56.55185399922384
 20
41.76618401885052
 30
0.0
 10
56.58263341818039
 20
41.79888956611696
 30
0.0
 10
56.60828628897244
 20
41.8363900536058
 30
0.0
 10
56.6259447632082
 20
41.87112691479051
 30
0.0
 10
56.63771339367386
 20
41.90196991654549
 30
0.0
 10
56.64596533703883
 20
41.92831229052761
 30
0.0
 10
56.6525617943428
 20
41.95782946883475
 30
0.0
 10
56.65894255506645
 20
41.99016710417162
 30
0.0
 10
56.66429177993455
 20
42.02546158036659
 30
0.0
 10
56.66877196542382
 20
42.06374469551663
 30
0.0
 10
56.67235118626787
 20
42.10503185121073
 30
0.0
 10
56.6739504436022
 20
42.1336137220192
 30
0.0
 10
56.67477456647396
 20
42.14834241698603
 30
0.0
  0
SPLINE
  5
B3
330
1F
100
AcDbEntity
  8
0
  6
Continuous
 62
     7
370
    25
100
AcDbSpline
210
0.0
220
0.0
230
1.0
 70
     8
 71
     3
 72
    23
 73
    19
 74
     0
 42
0.000000001
 43
0.00000001
 40
0.0
 40
0.0
 40
0.0
 40
0.0
 40
0.0760618905628339
 40
0.1487324608035359
 40
0.2183745247439722
 40
0.2857225935927383
 40
0.3510576941824569
 40
0.414934915729319
 40
0.4784859417740854
 40
0.542169035281216
 40
0.6047501165431387
 40
0.6641185017301124
 40
0.7214996756099116
 40
0.7776159163852547
 40
0.832666108697549
 40
0.8878580281135741
 40
0.9434676608977686
 40
1.0
 40
1.0
 40
1.0
 40
1.0
 10
56.04015918185858
 20
42.06871501313987
 30
0.0
 10
56.04042271196784
 20
42.05467760770408
 30
0.0
 10
56.04093802234674
 20
42.02722867318099
 30
0.0
 10
56.04569075136975
 20
41.98717924531729
 30
0.0
 10
56.05258235649563
 20
41.94906656820238
 30
0.0
 10
56.06336216685767
 20
41.91327958159072
 30
0.0
 10
56.07629433018204
 20
41.87933131241419
 30
0.0
 10
56.09322490545475
 20
41.84797958412013
 30
0.0
 10
56.11234525309052
 20
41.81830269463102
 30
0.0
 10
56.13458589480648
 20
41.79117003965673
 30
0.0
 10
56.1586256211312
 20
41.76670862448585
 30
0.0
 10
56.18412962839331
 20
41.74557125913306
 30
0.0
 10
56.21030712639625
 20
41.72726388326952
 30
0.0
 10
56.23776878325489
 20
41.7125478082885
 30
0.0
 10
56.2662452221918
 20
41.70090670227171
 30
0.0
 10
56.29584303077012
 20
41.69298670688879
 30
0.0
 10
56.32631297692199
 20
41.68747854829606
 30
0.0
 10
56.3470254342514
 20
41.68703004981512
 30
0.0
 10
56.35746687416627
 20
41.68680395544757
 30
0.0
  0
SPLINE
  5
B4
330
1F
100
AcDbEntity
  8
0
  6
Continuous
 62
     7
370
    25
100
AcDbSpline
210
0.0
220
0.0
230
1.0
 70
     8
 71
     3
 72
    15
 73
    11
 74
     0
 42
0.000000001
 43
0.00000001
 40
0.0
 40
0.0
 40
0.0
 40
0.0
 40
0.1182713048357256
 40
0.2361775330837632
 40
0.355662932948509
 40
0.4759041646706825
 40
0.6001273417110832
 40
0.7286081161551193
 40
0.8613134756739422
 40
1.0
 40
1.0
 40
1.0
 40
1.0
 10
56.12128898955088
 20
42.31931597467833
 30
0.0
 10
56.11481398931424
 20
42.31091744188184
 30
0.0
 10
56.10188397569232
 20
42.29414630064725
 30
0.0
 10
56.08538327774756
 20
42.26681705874792
 30
0.0
 10
56.07108569546124
 20
42.23807496471118
 30
0.0
 10
56.06016411158282
 20
42.20729724718793
 30
0.0
 10
56.05091654267318
 20
42.17514805985049
 30
0.0
 10
56.0448648916164
 20
42.14110776046542
 30
0.0
 10
56.0407128181836
 20
42.10547666741753
 30
0.0
 10
56.04034641897257
 20
42.08114762592479
 30
0.0
 10
56.04015918185858
 20
42.06871501313987
 30
0.0
  0
SPLINE
  5
B5
330
1F
100
AcDbEntity
  8
0
  6
Continuous
 62
     7
370
    25
100
AcDbSpline
210
0.0
220
0.0
230
1.0
 70
     8
 71
     3
 72
    15
 73
    11
 74
     0
 42
0.000000001
 43
0.00000001
 40
0.0
 40
0.0
 40
0.0
 40
0.0
 40
0.1497703860319681
 40
0.2913164099952446
 40
0.4259663731047426
 40
0.5521595739695285
 40
0.6715274135235928
 40
0.7861216286916589
 40
0.8953250730704446
 40
1.0
 40
1.0
 40
1.0
 40
1.0
 10
56.32862072032012
 20
42.43680395544757
 30
0.0
 10
56.31707114320498
 20
42.43329683054458
 30
0.0
 10
56.29460621251151
 20
42.42647516797692
 30
0.0
 10
56.26227465293657
 20
42.41486332596187
 30
0.0
 10
56.23263548726879
 20
42.4016340665031
 30
0.0
 10
56.20547129213538
 20
42.38744211280193
 30
0.0
 10
56.18051454822215
 20
42.37253706450647
 30
0.0
 10
56.15842517577898
 20
42.35585923944802
 30
0.0
 10
56.13823294626049
 20
42.33864389152775
 30
0.0
 10
56.12685668400041
 20
42.32566702580574
 30
0.0
 10
56.12128898955088
 20
42.31931597467833
 30
0.0
  0
LINE
  5
B6
330
1F
100
AcDbEntity
  8
0
  6
Continuous
 62
     7
370
    25
100
AcDbLine
 10
56.3286207203
 20
42.5714193401
 30
0.0
 11
56.3286207203
 21
42.4368039554
 31
0.0
  0
SPLINE
  5
B7
330
1F
100
AcDbEntity
  8
0
  6
Continuous
 62
     7
370
    25
100
AcDbSpline
210
0.0
220
0.0
230
1.0
 70
     8
 71
     3
 72
    23
 73
    19
 74
     0
 42
0.000000001
 43
0.00000001
 40
0.0
 40
0.0
 40
0.0
 40
0.0
 40
0.0655411703374033
 40
0.1289631677825933
 40
0.1903771361885609
 40
0.2500923616690527
 40
0.308548432459201
 40
0.3663979630552958
 40
0.42454218926668
 40
0.4831699964229055
 40
0.5422433998311199
 40
0.6017393520173299
 40
0.6625060022496068
 40
0.7248555134488469
 40
0.7891278292811811
 40
0.8563463998785099
 40
0.9262952349869055
 40
1.0
 40
1.0
 40
1.0
 40
1.0
 10
55.88631302801242
 20
42.07111885929372
 30
0.0
 10
55.88668511940892
 20
42.0871557022722
 30
0.0
 10
55.88741727119916
 20
42.11871086158795
 30
0.0
 10
55.8924223859977
 20
42.16510093232495
 30
0.0
 10
55.9015638168139
 20
42.20938166062403
 30
0.0
 10
55.91386523339936
 20
42.25161291684832
 30
0.0
 10
55.92946169429101
 20
42.29183221815984
 30
0.0
 10
55.948883993443
 20
42.32991683466457
 30
0.0
 10
55.97173178003664
 20
42.36610107474462
 30
0.0
 10
55.99827474623946
 20
42.400043482378
 30
0.0
 10
56.02796674899236
 20
42.43174001139496
 30
0.0
 10
56.06133489612136
 20
42.46034832177931
 30
0.0
 10
56.09776235494466
 20
42.48634537589734
 30
0.0
 10
56.13767223617269
 20
42.50903507820227
 30
0.0
 10
56.18054877500602
 20
42.52945091503764
 30
0.0
 10
56.22694098859816
 20
42.54624275360077
 30
0.0
 10
56.27643414087915
 20
42.56102228301632
 30
0.0
 10
56.31092460095452
 20
42.56789376769321
 30
0.0
 10
56.32862072032012
 20
42.57141934006295
 30
0.0
  0
SPLINE
  5
B8
330
1F
100
AcDbEntity
  8
0
  6
Continuous
 62
     7
370
    25
100
AcDbSpline
210
0.0
220
0.0
230
1.0
 70
     8
 71
     3
 72
    19
 73
    15
 74
     0
 42
0.000000001
 43
0.00000001
 40
0.0
 40
0.0
 40
0.0
 40
0.0
 40
0.079641704194991
 40
0.1589086132578561
 40
0.2395997983184508
 40
0.3224093988203484
 40
0.405827748173513
 40
0.4876442139503137
 40
0.5697199979738974
 40
0.6530646649976934
 40
0.7374573001733065
 40
0.8224924079539125
 40
0.9097550737466981
 40
1.0
 40
1.0
 40
1.0
 40
1.0
 10
56.3703875472432
 20
41.55218857083218
 30
0.0
 10
56.34938421623988
 20
41.55295934154369
 30
0.0
 10
56.30747639624444
 20
41.55449725570743
 30
0.0
 10
56.24554613020177
 20
41.56818788541048
 30
0.0
 10
56.18511295613951
 20
41.58953448971071
 30
0.0
 10
56.12707229721452
 20
41.61931843341113
 30
0.0
 10
56.07288090685489
 20
41.65616899580078
 30
0.0
 10
56.02461432281834
 20
41.70025314134018
 30
0.0
 10
55.982846216571
 20
41.75049919148276
 30
0.0
 10
55.94806051031445
 20
41.8065782958536
 30
0.0
 10
55.92023344623713
 20
41.8673088750019
 30
0.0
 10
55.90092450059316
 20
41.93227129412161
 30
0.0
 10
55.88834726576543
 20
42.0005209219581
 30
0.0
 10
55.88699865979347
 20
42.0473241040139
 30
0.0
 10
55.88631302801242
 20
42.07111885929372
 30
0.0
  0
SPLINE
  5
B9
330
1F
100
AcDbEntity
  8
0
  6
Continuous
 62
     7
370
    25
100
AcDbSpline
210
0.0
220
0.0
230
1.0
 70
     8
 71
     3
 72
    15
 73
    11
 74
     0
 42
0.000000001
 43
0.00000001
 40
0.0
 40
0.0
 40
0.0
 40
0.0
 40
0.1281455049994643
 40
0.2541925386280419
 40
0.3781411397135888
 40
0.5013808330744057
 40
0.6239569784447038
 40
0.7470758858273289
 40
0.8728647202442611
 40
1.0
 40
1.0
 40
1.0
 40
1.0
 10
56.63691398955088
 20
41.64173184006295
 30
0.0
 10
56.62703314912589
 20
41.6345111838754
 30
0.0
 10
56.60743327387922
 20
41.62018811474486
 30
0.0
 10
56.57590227731364
 20
41.60255866608093
 30
0.0
 10
56.54412617807813
 20
41.58638245865983
 30
0.0
 10
56.5108555809343
 20
41.57447723824973
 30
0.0
 10
56.47715919631378
 20
41.56420350481167
 30
0.0
 10
56.44231544994786
 20
41.55744373029933
 30
0.0
 10
56.40665538692029
 20
41.55310422545364
 30
0.0
 10
56.3825196561113
 20
41.55249487034304
 30
0.0
 10
56.3703875472432
 20
41.55218857083218
 30
0.0
  0
SPLINE
  5
BA
330
1F
100
AcDbEntity
  8
0
  6
Continuous
 62
     7
370
    25
100
AcDbSpline
210
0.0
220
0.0
230
1.0
 70
     8
 71
     3
 72
    11
 73
     7
 74
     0
 42
0.000000001
 43
0.00000001
 40
0.0
 40
0.0
 40
0.0
 40
0.0
 40
0.253879600326656
 40
0.5030089172783633
 40
0.7502910806899731
 40
1.0
 40
1.0
 40
1.0
 40
1.0
 10
56.76491879724319
 20
41.80429193621679
 30
0.0
 10
56.75721386658255
 20
41.78833546997108
 30
0.0
 10
56.7419481704639
 20
41.75672109528513
 30
0.0
 10
56.7120099886708
 20
41.7136280111996
 30
0.0
 10
56.67744298266199
 20
41.6745089217609
 30
0.0
 10
56.65046755998474
 20
41.65269304218785
 30
0.0
 10
56.63691398955088
 20
41.64173184006295
 30
0.0
  0
SPLINE
  5
BB
330
1F
100
AcDbEntity
  8
0
  6
Continuous
 62
     7
370
    25
100
AcDbSpline
210
0.0
220
0.0
230
1.0
 70
     8
 71
     3
 72
    15
 73
    11
 74
     0
 42
0.000000001
 43
0.00000001
 40
0.0
 40
0.0
 40
0.0
 40
0.0
 40
0.1280675485958904
 40
0.2506083188676684
 40
0.3706301659145029
 40
0.4900722467299488
 40
0.6103747641546199
 40
0.7343130699115256
 40
0.8632165042449895
 40
1.0
 40
1.0
 40
1.0
 40
1.0
 10
57.0735125472432
 20
41.62911164775525
 30
0.0
 10
57.05765249236937
 20
41.62961032963257
 30
0.0
 10
57.0266168261709
 20
41.6305861726802
 30
0.0
 10
56.98130761311168
 20
41.63887204649262
 30
0.0
 10
56.93860407013359
 20
41.65281615915386
 30
0.0
 10
56.89832642922353
 20
41.67213177168723
 30
0.0
 10
56.86073006929934
 20
41.69713529321878
 30
0.0
 10
56.82573040178769
 20
41.72742359188606
 30
0.0
 10
56.7931721911613
 20
41.7632104469327
 30
0.0
 10
56.77452098845752
 20
41.79032999179982
 30
0.0
 10
56.76491879724319
 20
41.80429193621679
 30
0.0
  0
SPLINE
  5
BC
330
1F
100
AcDbEntity
  8
0
  6
Continuous
 62
     7
370
    25
100
AcDbSpline
210
0.0
220
0.0
230
1.0
 70
     8
 71
     3
 72
    19
 73
    15
 74
     0
 42
0.000000001
 43
0.00000001
 40
0.0
 40
0.0
 40
0.0
 40
0.0
 40
0.0902542493426766
 40
0.1785397915286843
 40
0.2660930338538198
 40
0.3546309779571733
 40
0.4418861533505626
 40
0.5257469151636484
 40
0.6081136336036366
 40
0.6901972728278825
 40
0.770821484330335
 40
0.8483261812554109
 40
0.9240117400247433
 40
1.0
 40
1.0
 40
1.0
 40
1.0
 10
57.4632361049355
 20
42.06721260929372
 30
0.0
 10
57.46264500625909
 20
42.04763429126155
 30
0.0
 10
57.46147570248417
 20
42.00890471514291
 30
0.0
 10
57.45079808685028
 20
41.95200626644984
 30
0.0
 10
57.43390160155563
 20
41.89713762969179
 30
0.0
 10
57.41055571849691
 20
41.84489938062765
 30
0.0
 10
57.38176115571316
 20
41.79637719522925
 30
0.0
 10
57.34749055418683
 20
41.7532045437662
 30
0.0
 10
57.30840513926368
 20
41.71596661056451
 30
0.0
 10
57.26523404027
 20
41.68472616299589
 30
0.0
 10
57.21909596481846
 20
41.66026544911573
 30
0.0
 10
57.1716101831839
 20
41.64222843191014
 30
0.0
 10
57.12288933830294
 20
41.63124771148215
 30
0.0
 10
57.08999336151359
 20
41.62982461570633
 30
0.0
 10
57.0735125472432
 20
41.62911164775525
 30
0.0
  0
SPLINE
  5
BD
330
1F
100
AcDbEntity
  8
0
  6
Continuous
 62
     7
370
    25
100
AcDbSpline
210
0.0
220
0.0
230
1.0
 70
     8
 71
     3
 72
    23
 73
    19
 74
     0
 42
0.000000001
 43
0.00000001
 40
0.0
 40
0.0
 40
0.0
 40
0.0
 40
0.0726253460834355
 40
0.1419766113262345
 40
0.2089849284189386
 40
0.2739568703644447
 40
0.336889347396841
 40
0.3987449534945902
 40
0.4601158852788617
 40
0.5208249225900291
 40
0.5809944586324857
 40
0.6401519276014648
 40
0.6986224507562546
 40
0.7572710809271643
 40
0.8164266940046602
 40
0.8762540482034705
 40
0.9371652930625374
 40
1.0
 40
1.0
 40
1.0
 40
1.0
 10
57.07862072032012
 20
42.51372703237064
 30
0.0
 10
57.09372035630957
 20
42.51008008207878
 30
0.0
 10
57.12323890961984
 20
42.50295059255431
 30
0.0
 10
57.16541344998298
 20
42.48808020392478
 30
0.0
 10
57.20532353057901
 20
42.47188052312709
 30
0.0
 10
57.24222184787703
 20
42.4524280497422
 30
0.0
 10
57.27684994904818
 20
42.43121001221672
 30
0.0
 10
57.3084224309631
 20
42.40690027441563
 30
0.0
 10
57.33774227330616
 20
42.38062039331594
 30
0.0
 10
57.36376223225924
 20
42.3515525579009
 30
0.0
 10
57.38732411620497
 20
42.32106884576913
 30
0.0
 10
57.40741342649455
 20
42.28873972301881
 30
0.0
 10
57.42469520629362
 20
42.25521562573141
 30
0.0
 10
57.43893244852593
 20
42.22026428303916
 30
0.0
 10
57.44965767295425
 20
42.1837816380283
 30
0.0
 10
57.45743916106458
 20
42.14609751374795
 30
0.0
 10
57.46249249572792
 20
42.10711315655596
 30
0.0
 10
57.46298567990778
 20
42.08064990344242
 30
0.0
 10
57.4632361049355
 20
42.06721260929372
 30
0.0
  0
LINE
  5
BE
330
1F
100
AcDbEntity
  8
0
  6
Continuous
 62
     7
370
    25
100
AcDbLine
 10
57.0786207203
 20
42.3791116478
 30
0.0
 11
57.0786207203
 21
42.5137270324
 31
0.0
  0
SPLINE
  5
BF
330
1F
100
AcDbEntity
  8
0
  6
Continuous
 62
     7
370
    25
100
AcDbSpline
210
0.0
220
0.0
230
1.0
 70
     8
 71
     3
 72
     8
 73
     4
 74
     0
 42
0.000000001
 43
0.00000001
 40
0.0
 40
0.0
 40
0.0
 40
0.0
 40
1.0
 40
1.0
 40
1.0
 40
1.0
 10
56.82178633689314
 20
36.03189034194599
 30
0.0
 10
56.79360503106997
 20
35.92671627679029
 30
0.0
 10
56.76676450507524
 20
35.82147591455463
 30
0.0
 10
56.7414015791638
 20
35.71616248993482
 30
0.0
  0
LINE
  5
C0
330
1F
100
AcDbEntity
  8
0
  6
Continuous
 62
     7
370
    25
100
AcDbLine
 10
56.7414015792
 20
35.7161624899
 30
0.0
 11
56.7414015792
 21
36.663346046
 31
0.0
  0
LINE
  5
C1
330
1F
100
AcDbEntity
  8
0
  6
Continuous
 62
     7
370
    25
100
AcDbLine
 10
56.6610168214
 20
31.1244130538
 30
0.0
 11
54.5615555377
 21
31.1244130538
 31
0.0
  0
SPLINE
  5
C2
330
1F
100
AcDbEntity
  8
0
  6
Continuous
 62
     7
370
    25
100
AcDbSpline
210
0.0
220
0.0
230
1.0
 70
     8
 71
     3
 72
    10
 73
     6
 74
     0
 42
0.000000001
 43
0.00000001
 40
0.0
 40
0.0
 40
0.0
 40
0.0
 40
0.5
 40
0.5
 40
1.0
 40
1.0
 40
1.0
 40
1.0
 10
54.56155553770589
 20
31.12441305383416
 30
0.0
 10
54.36790545109626
 20
31.45982484273215
 30
0.0
 10
54.20111820298043
 20
31.8007651890232
 30
0.0
 10
53.94879734305811
 20
32.48337151803876
 30
0.0
 10
53.86272878979253
 20
32.82641408557822
 30
0.0
 10
53.82477456647396
 20
33.17154411367765
 30
0.0
  0
SPLINE
  5
C3
330
1F
100
AcDbEntity
  8
0
  6
Continuous
 62
     7
370
    25
100
AcDbSpline
210
0.0
220
0.0
230
1.0
 70
     8
 71
     3
 72
    12
 73
     8
 74
     0
 42
0.000000001
 43
0.00000001
 40
0.0
 40
0.0
 40
0.0
 40
0.0
 40
0.2500000000000001
 40
0.2500000000000001
 40
0.5000000000000001
 40
0.5000000000000001
 40
1.0
 40
1.0
 40
1.0
 40
1.0
 10
53.82477456647396
 20
33.98475928210249
 30
0.0
 10
53.84390204918022
 20
34.15869166871649
 30
0.0
 10
53.87550030252097
 20
34.3338555688297
 30
0.0
 10
53.96106742102597
 20
34.68080508506917
 30
0.0
 10
54.0149049206698
 20
34.85270823078969
 30
0.0
 10
54.2050913178897
 20
35.36434090867005
 30
0.0
 10
54.36994850555352
 20
35.70001722717065
 30
0.0
 10
54.56155553770585
 20
36.03189034194599
 30
0.0
  0
SPLINE
  5
C4
330
1F
100
AcDbEntity
  8
0
  6
Continuous
 62
     7
370
    25
100
AcDbSpline
210
0.0
220
0.0
230
1.0
 70
     8
 71
     3
 72
     8
 73
     4
 74
     0
 42
0.000000001
 43
0.00000001
 40
0.0
 40
0.0
 40
0.0
 40
0.0
 40
1.0
 40
1.0
 40
1.0
 40
1.0
 10
56.7414015791638
 20
35.71616248993482
 30
0.0
 10
56.71602694600463
 20
35.8215245260735
 30
0.0
 10
56.68918554479784
 20
35.9267632351695
 30
0.0
 10
56.66101682143447
 20
36.03189034194598
 30
0.0
  0
SPLINE
  5
C5
330
1F
100
AcDbEntity
  8
0
  6
Continuous
 62
     7
370
    25
100
AcDbSpline
210
0.0
220
0.0
230
1.0
 70
     8
 71
     3
 72
    16
 73
    12
 74
     0
 42
0.000000001
 43
0.00000001
 40
0.0
 40
0.0
 40
0.0
 40
0.0
 40
0.2500000000000001
 40
0.2500000000000001
 40
0.5000000000000001
 40
0.5000000000000001
 40
0.6250000000000001
 40
0.6250000000000001
 40
0.7500000000000002
 40
0.7500000000000002
 40
1.0
 40
1.0
 40
1.0
 40
1.0
 10
58.92124762062212
 20
36.03189034194601
 30
0.0
 10
59.15256237430475
 20
35.63124143602742
 30
0.0
 10
59.34320766763519
 20
35.22767144634257
 30
0.0
 10
59.60731332404249
 20
34.41211466000149
 30
0.0
 10
59.67990251535646
 20
34.00006529143817
 30
0.0
 10
59.68069976144741
 20
33.37422792338857
 30
0.0
 10
59.66295450482396
 20
33.16463393992545
 30
0.0
 10
59.59375742129417
 20
32.75003492254921
 30
0.0
 10
59.54237581523189
 20
32.54412541052704
 30
0.0
 10
59.34396781649527
 20
31.93006281247387
 30
0.0
 10
59.15285071479131
 20
31.52556138012569
 30
0.0
 10
58.92124762062192
 20
31.12441305383414
 30
0.0
  0
LINE
  5
C6
330
1F
100
AcDbEntity
  8
0
  6
Continuous
 62
     7
370
    25
100
AcDbLine
 10
58.9212476206
 20
31.1244130538
 30
0.0
 11
56.8217863369
 21
31.1244130538
 31
0.0
  0
SPLINE
  5
C7
330
1F
100
AcDbEntity
  8
0
  6
Continuous
 62
     7
370
    25
100
AcDbSpline
210
0.0
220
0.0
230
1.0
 70
     8
 71
     3
 72
     8
 73
     4
 74
     0
 42
0.000000001
 43
0.00000001
 40
0.0
 40
0.0
 40
0.0
 40
0.0
 40
1.0
 40
1.0
 40
1.0
 40
1.0
 10
56.7414015791638
 20
31.44014090584533
 30
0.0
 10
56.76677621232297
 20
31.33477886970664
 30
0.0
 10
56.79361761352975
 20
31.22954016061065
 30
0.0
 10
56.82178633689314
 20
31.12441305383416
 30
0.0
  0
SPLINE
  5
C8
330
1F
100
AcDbEntity
  8
0
  6
Continuous
 62
     7
370
    25
100
AcDbSpline
210
0.0
220
0.0
230
1.0
 70
     8
 71
     3
 72
     8
 73
     4
 74
     0
 42
0.000000001
 43
0.00000001
 40
0.0
 40
0.0
 40
0.0
 40
0.0
 40
1.0
 40
1.0
 40
1.0
 40
1.0
 10
56.66101682143447
 20
31.12441305383416
 30
0.0
 10
56.68919812725763
 20
31.22958711898985
 30
0.0
 10
56.71603865325235
 20
31.33482748122551
 30
0.0
 10
56.7414015791638
 20
31.44014090584533
 30
0.0
  0
SPLINE
  5
C9
330
1F
100
AcDbEntity
  8
0
  6
Continuous
 62
     7
370
    25
100
AcDbSpline
210
0.0
220
0.0
230
1.0
 70
     8
 71
     3
 72
    10
 73
     6
 74
     0
 42
0.000000001
 43
0.00000001
 40
0.0
 40
0.0
 40
0.0
 40
0.0
 40
0.5
 40
0.5
 40
1.0
 40
1.0
 40
1.0
 40
1.0
 10
54.56155553770589
 20
45.84684491816962
 30
0.0
 10
54.36790545109626
 20
46.18225670706761
 30
0.0
 10
54.20111820298042
 20
46.52319705335866
 30
0.0
 10
53.94879734305811
 20
47.20580338237424
 30
0.0
 10
53.86272878979253
 20
47.54884594991371
 30
0.0
 10
53.82477456647396
 20
47.89397597801313
 30
0.0
  0
SPLINE
  5
CA
330
1F
100
AcDbEntity
  8
0
  6
Continuous
 62
     7
370
    25
100
AcDbSpline
210
0.0
220
0.0
230
1.0
 70
     8
 71
     3
 72
    12
 73
     8
 74
     0
 42
0.000000001
 43
0.00000001
 40
0.0
 40
0.0
 40
0.0
 40
0.0
 40
0.2500000000000002
 40
0.2500000000000002
 40
0.5000000000000004
 40
0.5000000000000004
 40
1.0
 40
1.0
 40
1.0
 40
1.0
 10
53.82477456647396
 20
48.70719114643793
 30
0.0
 10
53.84390204918022
 20
48.88112353305192
 30
0.0
 10
53.87550030252096
 20
49.05628743316515
 30
0.0
 10
53.96106742102597
 20
49.40323694940462
 30
0.0
 10
54.0149049206698
 20
49.57514009512514
 30
0.0
 10
54.2050913178897
 20
50.08677277300551
 30
0.0
 10
54.36994850555352
 20
50.42244909150612
 30
0.0
 10
54.56155553770585
 20
50.75432220628145
 30
0.0
  0
LINE
  5
CB
330
1F
100
AcDbEntity
  8
0
  6
Continuous
 62
     7
370
    25
100
AcDbLine
 10
56.6610168214
 20
50.7543222063
 30
0.0
 11
54.5615555377
 21
50.7543222063
 31
0.0
  0
SPLINE
  5
CC
330
1F
100
AcDbEntity
  8
0
  6
Continuous
 62
     7
370
    25
100
AcDbSpline
210
0.0
220
0.0
230
1.0
 70
     8
 71
     3
 72
     8
 73
     4
 74
     0
 42
0.000000001
 43
0.00000001
 40
0.0
 40
0.0
 40
0.0
 40
0.0
 40
1.0
 40
1.0
 40
1.0
 40
1.0
 10
56.7414015791638
 20
50.43859435427028
 30
0.0
 10
56.71602694600463
 20
50.54395639040897
 30
0.0
 10
56.68918554479784
 20
50.64919509950495
 30
0.0
 10
56.66101682143447
 20
50.75432220628144
 30
0.0
  0
SPLINE
  5
CD
330
1F
100
AcDbEntity
  8
0
  6
Continuous
 62
     7
370
    25
100
AcDbSpline
210
0.0
220
0.0
230
1.0
 70
     8
 71
     3
 72
     8
 73
     4
 74
     0
 42
0.000000001
 43
0.00000001
 40
0.0
 40
0.0
 40
0.0
 40
0.0
 40
1.0
 40
1.0
 40
1.0
 40
1.0
 10
56.82178633689314
 20
50.75432220628145
 30
0.0
 10
56.79360503106997
 20
50.64914814112576
 30
0.0
 10
56.76676450507524
 20
50.54390777889009
 30
0.0
 10
56.7414015791638
 20
50.43859435427028
 30
0.0
  0
LINE
  5
CE
330
1F
100
AcDbEntity
  8
0
  6
Continuous
 62
     7
370
    25
100
AcDbLine
 10
58.9212476206
 20
50.7543222063
 30
0.0
 11
56.8217863369
 21
50.7543222063
 31
0.0
  0
SPLINE
  5
CF
330
1F
100
AcDbEntity
  8
0
  6
Continuous
 62
     7
370
    25
100
AcDbSpline
210
0.0
220
0.0
230
1.0
 70
     8
 71
     3
 72
    16
 73
    12
 74
     0
 42
0.000000001
 43
0.00000001
 40
0.0
 40
0.0
 40
0.0
 40
0.0
 40
0.2500000000000002
 40
0.2500000000000002
 40
0.5000000000000004
 40
0.5000000000000004
 40
0.6250000000000003
 40
0.6250000000000003
 40
0.7500000000000002
 40
0.7500000000000002
 40
1.0
 40
1.0
 40
1.0
 40
1.0
 10
58.92124762062212
 20
50.75432220628147
 30
0.0
 10
59.15256237430474
 20
50.35367330036289
 30
0.0
 10
59.34320766763518
 20
49.95010331067803
 30
0.0
 10
59.60731332404249
 20
49.13454652433695
 30
0.0
 10
59.67990251535645
 20
48.72249715577363
 30
0.0
 10
59.68069976144741
 20
48.09665978772403
 30
0.0
 10
59.66295450482396
 20
47.88706580426091
 30
0.0
 10
59.59375742129417
 20
47.47246678688468
 30
0.0
 10
59.54237581523189
 20
47.26655727486251
 30
0.0
 10
59.34396781649527
 20
46.65249467680935
 30
0.0
 10
59.15285071479131
 20
46.24799324446116
 30
0.0
 10
58.92124762062192
 20
45.84684491816961
 30
0.0
  0
SPLINE
  5
D0
330
1F
100
AcDbEntity
  8
0
  6
Continuous
 62
     7
370
    25
100
AcDbSpline
210
0.0
220
0.0
230
1.0
 70
     8
 71
     3
 72
     8
 73
     4
 74
     0
 42
0.000000001
 43
0.00000001
 40
0.0
 40
0.0
 40
0.0
 40
0.0
 40
1.0
 40
1.0
 40
1.0
 40
1.0
 10
56.7414015791638
 20
46.16257277018079
 30
0.0
 10
56.76677621232297
 20
46.05721073404211
 30
0.0
 10
56.79361761352975
 20
45.95197202494612
 30
0.0
 10
56.82178633689314
 20
45.84684491816962
 30
0.0
  0
SPLINE
  5
D1
330
1F
100
AcDbEntity
  8
0
  6
Continuous
 62
     7
370
    25
100
AcDbSpline
210
0.0
220
0.0
230
1.0
 70
     8
 71
     3
 72
     8
 73
     4
 74
     0
 42
0.000000001
 43
0.00000001
 40
0.0
 40
0.0
 40
0.0
 40
0.0
 40
1.0
 40
1.0
 40
1.0
 40
1.0
 10
56.66101682143447
 20
45.84684491816962
 30
0.0
 10
56.68919812725763
 20
45.95201898332532
 30
0.0
 10
56.71603865325235
 20
46.05725934556099
 30
0.0
 10
56.7414015791638
 20
46.16257277018079
 30
0.0
  0
LINE
  5
D2
330
1F
100
AcDbEntity
  8
0
  6
Continuous
 62
     7
370
    25
100
AcDbLine
 10
56.7414015792
 20
45.2153892141
 30
0.0
 11
56.7414015792
 21
46.1625727702
 31
0.0
  0
LINE
  5
D3
330
1F
100
AcDbEntity
  8
0
  6
Continuous
 62
     7
370
    25
100
AcDbLine
 10
59.8247745665
 20
49.1893676301
 30
0.0
 11
59.8247745665
 21
32.6893676301
 31
0.0
  0
SPLINE
  5
D4
330
1F
100
AcDbEntity
  8
0
  6
Continuous
 62
     7
370
    25
100
AcDbSpline
210
0.0
220
0.0
230
1.0
 70
     8
 71
     3
 72
    23
 73
    19
 74
     0
 42
0.000000001
 43
0.00000001
 40
0.0
 40
0.0
 40
0.0
 40
0.0
 40
0.0611415679303346
 40
0.1200010135310723
 40
0.1782359705414083
 40
0.2364955434070171
 40
0.2948872487049731
 40
0.3546771928192958
 40
0.4166948132897783
 40
0.4806333779628393
 40
0.5458046334786407
 40
0.6097347883178743
 40
0.6729516883751544
 40
0.7360010960706834
 40
0.7998274385165249
 40
0.864767276939387
 40
0.9310835057306723
 40
1.0
 40
1.0
 40
1.0
 40
1.0
 10
56.33763514339704
 20
39.72122796040855
 30
0.0
 10
56.34787685384718
 20
39.72146105145159
 30
0.0
 10
56.36797800067598
 20
39.72191853336376
 30
0.0
 10
56.39739861427901
 20
39.72719310841995
 30
0.0
 10
56.42592342301254
 20
39.73431729986176
 30
0.0
 10
56.45290985953733
 20
39.7458306461991
 30
0.0
 10
56.4791042073677
 20
39.75954398146276
 30
0.0
 10
56.50375781247877
 20
39.77701386975814
 30
0.0
 10
56.52756911592277
 20
39.79704352429611
 30
0.0
 10
56.54966152965289
 20
39.82023980776097
 30
0.0
 10
56.56986904931743
 20
39.84547528761053
 30
0.0
 10
56.58770557185316
 20
39.87231138136375
 30
0.0
 10
56.60275924649876
 20
39.90038600541779
 30
0.0
 10
56.61531940296744
 20
39.92967203995316
 30
0.0
 10
56.62438347152285
 20
39.96050468785405
 30
0.0
 10
56.63152057344176
 20
39.99238626620547
 30
0.0
 10
56.63531858165206
 20
40.02572451185094
 30
0.0
 10
56.63597732377711
 20
40.04834305843809
 30
0.0
 10
56.63631302801242
 20
40.05986978733163
 30
0.0
  0
SPLINE
  5
D5
330
1F
100
AcDbEntity
  8
0
  6
Continuous
 62
     7
370
    25
100
AcDbSpline
210
0.0
220
0.0
230
1.0
 70
     8
 71
     3
 72
    23
 73
    19
 74
     0
 42
0.000000001
 43
0.00000001
 40
0.0
 40
0.0
 40
0.0
 40
0.0
 40
0.0618526459466917
 40
0.1212838306153701
 40
0.1807779320756125
 40
0.2392732340142805
 40
0.2986414352139417
 40
0.3581858222417117
 40
0.4207600867589709
 40
0.4852046730216432
 40
0.5503622689482871
 40
0.613649924530912
 40
0.6766234955168249
 40
0.7391080134690126
 40
0.8021647022429448
 40
0.8667165971324778
 40
0.9320376285055445
 40
1.0
 40
1.0
 40
1.0
 40
1.0
 10
56.33763514339704
 20
40.3750741142547
 30
0.0
 10
56.32749982354014
 20
40.37480498194724
 30
0.0
 10
56.30762597015936
 20
40.3742772535584
 30
0.0
 10
56.27833224474585
 20
40.3695075583052
 30
0.0
 10
56.25016793449488
 20
40.36216978665194
 30
0.0
 10
56.22311243979398
 20
40.35142923323015
 30
0.0
 10
56.19731334413058
 20
40.33795743877248
 30
0.0
 10
56.17258738899034
 20
40.32137891024058
 30
0.0
 10
56.14891750795027
 20
40.30197436215254
 30
0.0
 10
56.12690057139925
 20
40.2794169600072
 30
0.0
 10
56.10670610215984
 20
40.25509098877266
 30
0.0
 10
56.08872490883783
 20
40.22936466296753
 30
0.0
 10
56.07362551466386
 20
40.20231978232029
 30
0.0
 10
56.06168825341179
 20
40.17380202614919
 30
0.0
 10
56.0519113518695
 20
40.14421066532283
 30
0.0
 10
56.04502650275568
 20
40.11331995733647
 30
0.0
 10
56.04113521610993
 20
40.08110276009486
 30
0.0
 10
56.04048879674163
 20
40.05927910812425
 30
0.0
 10
56.04015918185858
 20
40.04815103733163
 30
0.0
  0
SPLINE
  5
D6
330
1F
100
AcDbEntity
  8
0
  6
Continuous
 62
     7
370
    25
100
AcDbSpline
210
0.0
220
0.0
230
1.0
 70
     8
 71
     3
 72
    23
 73
    19
 74
     0
 42
0.000000001
 43
0.00000001
 40
0.0
 40
0.0
 40
0.0
 40
0.0
 40
0.0705921865358071
 40
0.1385012886049299
 40
0.2037899961427012
 40
0.266787572669601
 40
0.3290979656467183
 40
0.3911745246039658
 40
0.4531677986176573
 40
0.5157967602265844
 40
0.5779688050530403
 40
0.6389663383752914
 40
0.698381066162843
 40
0.7573204555574266
 40
0.8164122397216688
 40
0.876279358230831
 40
0.936823465650193
 40
1.0
 40
1.0
 40
1.0
 40
1.0
 10
56.63631302801242
 20
40.05986978733163
 30
0.0
 10
56.63597516355782
 20
40.07129610516944
 30
0.0
 10
56.63531227628047
 20
40.09371444666314
 30
0.0
 10
56.63156828416152
 20
40.12656390287837
 30
0.0
 10
56.62447444554111
 20
40.15756983656407
 30
0.0
 10
56.61529840198484
 20
40.18708638604821
 30
0.0
 10
56.60280457658803
 20
40.21480591139571
 30
0.0
 10
56.58780844404371
 20
40.24104461002405
 30
0.0
 10
56.56997902277092
 20
40.26554211797097
 30
0.0
 10
56.54951510643485
 20
40.28786821650316
 30
0.0
 10
56.52743735215497
 20
40.3083690889375
 30
0.0
 10
56.50364842841632
 20
40.32600318701247
 30
0.0
 10
56.47887512843553
 20
40.3412309481208
 30
0.0
 10
56.45288461325168
 20
40.35360784882377
 30
0.0
 10
56.42569355477699
 20
40.36324672712164
 30
0.0
 10
56.39742522392092
 20
40.37021876006432
 30
0.0
 10
56.36789054316586
 20
40.37409895926417
 30
0.0
 10
56.34786232468706
 20
40.37474448427294
 30
0.0
 10
56.33763514339704
 20
40.3750741142547
 30
0.0
  0
SPLINE
  5
D7
330
1F
100
AcDbEntity
  8
0
  6
Continuous
 62
     7
370
    25
100
AcDbSpline
210
0.0
220
0.0
230
1.0
 70
     8
 71
     3
 72
    23
 73
    19
 74
     0
 42
0.000000001
 43
0.00000001
 40
0.0
 40
0.0
 40
0.0
 40
0.0
 40
0.0679503475997537
 40
0.1332598223836998
 40
0.1978002967596474
 40
0.2608458295516822
 40
0.3233192927503671
 40
0.3862817224595722
 40
0.450061516233313
 40
0.5152075844858154
 40
0.5796407692199316
 40
0.6418172023841522
 40
0.7016924412115348
 40
0.7607690981778945
 40
0.8192540511346832
 40
0.8787376269055537
 40
0.9381582970160912
 40
1.0
 40
1.0
 40
1.0
 40
1.0
 10
56.04015918185858
 20
40.04815103733163
 30
0.0
 10
56.04048877089971
 20
40.03702294830824
 30
0.0
 10
56.04113513958848
 20
40.01519926058465
 30
0.0
 10
56.04502679358671
 20
39.98298232249995
 30
0.0
 10
56.05191028469734
 20
39.95209065648024
 30
0.0
 10
56.06169212191755
 20
39.92250277763694
 30
0.0
 10
56.0736111637536
 20
39.89397216817617
 30
0.0
 10
56.0888195237814
 20
39.86690361395173
 30
0.0
 10
56.10659677528899
 20
39.84093167002063
 30
0.0
 10
56.1269353285072
 20
39.81662165731549
 30
0.0
 10
56.14879310197581
 20
39.79396997155215
 30
0.0
 10
56.17280170344435
 20
39.77501992048133
 30
0.0
 10
56.19711682578941
 20
39.75791763868602
 30
0.0
 10
56.22321524780328
 20
39.74496325804394
 30
0.0
 10
56.25015164728216
 20
39.7341030883893
 30
0.0
 10
56.27833660802611
 20
39.726802338822
 30
0.0
 10
56.30762482784156
 20
39.72202277316403
 30
0.0
 10
56.3274994377329
 20
39.721496401043
 30
0.0
 10
56.33763514339704
 20
39.72122796040855
 30
0.0
  0
LINE
  5
D8
330
1F
100
AcDbEntity
  8
0
  6
Continuous
 62
     7
370
    25
100
AcDbLine
 10
40.8247745665
 20
40.9393676301
 30
0.0
 11
40.8247745665
 21
47.9393676301
 31
0.0
  0
LINE
  5
D9
330
1F
100
AcDbEntity
  8
0
  6
Continuous
 62
     7
370
    25
100
AcDbLine
 10
40.8247745665
 20
33.9393676301
 30
0.0
 11
40.8247745665
 21
40.9393676301
 31
0.0
  0
LINE
  5
DA
330
1F
100
AcDbEntity
  8
0
  6
Continuous
 62
     7
370
    25
100
AcDbLine
 10
72.8247745665
 20
44.9393676301
 30
0.0
 11
72.8247745665
 21
36.9393676301
 31
0.0
  0
LINE
  5
DB
330
1F
100
AcDbEntity
  8
0
  6
Continuous
 62
     7
370
    25
100
AcDbLine
 10
77.3247745665
 20
44.9393676301
 30
0.0
 11
77.3247745665
 21
36.9393676301
 31
0.0
  0
LINE
  5
DC
330
1F
100
AcDbEntity
  8
0
  6
Continuous
 62
     7
370
    25
100
AcDbLine
 10
68.3247745665
 20
44.9393676301
 30
0.0
 11
68.3247745665
 21
36.9393676301
 31
0.0
  0
LINE
  5
DD
330
1F
100
AcDbEntity
  8
0
  6
Continuous
 62
     7
370
    25
100
AcDbLine
 10
63.8247745665
 20
44.9393676301
 30
0.0
 11
63.8247745665
 21
36.9393676301
 31
0.0
  0
LINE
  5
DE
330
1F
100
AcDbEntity
  8
0
  6
Continuous
 62
     7
370
    25
100
AcDbLine
 10
82.8247745665
 20
43.8449789114
 30
0.0
 11
82.8247745665
 21
38.0337563487
 31
0.0
  0
LINE
  5
DF
330
1F
100
AcDbEntity
  8
0
  6
Continuous
 62
     7
370
    25
100
AcDbLine
 10
56.7414015792
 20
31.4244130538
 30
0.0
 11
56.7414015792
 21
31.4401409058
 31
0.0
  0
LINE
  5
E0
330
1F
100
AcDbEntity
  8
0
  6
Continuous
 62
     7
370
    25
100
AcDbLine
 10
56.7414015792
 20
50.4385943543
 30
0.0
 11
56.7414015792
 21
50.4543222063
 31
0.0
  0
LINE
  5
E1
330
1F
100
AcDbEntity
  8
0
  6
Continuous
 62
     8
370
    25
100
AcDbLine
 10
82.3834570889
 20
37.5372119282
 30
0.0
 11
82.3834570889
 21
44.341523332
 31
0.0
  0
LINE
  5
E2
330
1F
100
AcDbEntity
  8
0
  6
Continuous
 62
     7
370
    18
100
AcDbLine
 10
41.6945782029
 20
48.4415489937
 30
0.0
 11
53.3247745665
 21
48.8049926301
 31
0.0
  0
LINE
  5
E3
330
1F
100
AcDbEntity
  8
0
  6
Continuous
 62
     7
370
    18
100
AcDbLine
 10
41.6945782029
 20
33.4371862664
 30
0.0
 11
53.3247745665
 21
33.0737426301
 31
0.0
  0
LINE
  5
E4
330
1F
100
AcDbEntity
  8
0
  6
Continuous
 62
     7
370
    18
100
AcDbLine
 10
53.3247745665
 20
32.4161801301
 30
0.0
 11
53.3247745665
 21
49.4625551301
 31
0.0
  0
LINE
  5
E5
330
1F
100
AcDbEntity
  8
0
  6
CENTERX2
 62
     7
370
    18
100
AcDbLine
 10
83.8247745665
 20
40.9393676301
 30
0.0
 11
40.1351981771
 21
40.9393676301
 31
0.0
  0
CIRCLE
  5
E6
330
1F
100
AcDbEntity
  8
0
  6
Continuous
 62
     7
370
    25
100
AcDbCircle
 10
102.1843468208
 20
40.9393676301
 30
0.0
 40
2.905611281362845
  0
CIRCLE
  5
E7
330
1F
100
AcDbEntity
  8
0
  6
Continuous
 62
     7
370
    25
100
AcDbCircle
 10
102.1843468208
 20
40.9393676301
 30
0.0
 40
2.699999999999996
  0
CIRCLE
  5
E8
330
1F
100
AcDbEntity
  8
0
  6
Continuous
 62
     7
370
    25
100
AcDbCircle
 10
102.1843468208
 20
40.9393676301
 30
0.0
 40
2.5
  0
CIRCLE
  5
E9
330
1F
100
AcDbEntity
  8
0
  6
Continuous
 62
     7
370
    25
100
AcDbCircle
 10
102.1843468208
 20
40.9393676301
 30
0.0
 40
3.402155701895047
  0
CIRCLE
  5
EA
330
1F
100
AcDbEntity
  8
0
  6
Continuous
 62
     7
370
    25
100
AcDbCircle
 10
102.1843468208
 20
40.9393676301
 30
0.0
 40
4.0
  0
SPLINE
  5
EB
330
1F
100
AcDbEntity
  8
0
  6
Continuous
 62
     7
370
    25
100
AcDbSpline
210
0.0
220
0.0
230
1.0
 70
    24
 71
     3
 72
    16
 73
    12
 74
     0
 42
0.000000001
 43
0.00000001
 40
0.0
 40
0.0
 40
0.0
 40
0.0
 40
0.25
 40
0.25
 40
0.5000000000000001
 40
0.5000000000000001
 40
0.6250000000000001
 40
0.6250000000000001
 40
0.7500000000000001
 40
0.7500000000000001
 40
1.0
 40
1.0
 40
1.0
 40
1.0
 10
110.6843468208092
 20
36.03189034194597
 30
0.0
 10
110.6843468208092
 20
36.83156574448875
 30
0.0
 10
110.6843468208092
 20
37.64863594842711
 30
0.0
 10
110.6843468208092
 20
39.28614336985374
 30
0.0
 10
110.6843468208092
 20
40.11046799224048
 30
0.0
 10
110.6843468208092
 20
41.35682334658753
 30
0.0
 10
110.6843468208092
 20
41.77509188073382
 30
0.0
 10
110.6843468208092
 20
42.6095531761002
 30
0.0
 10
110.6843468208092
 20
43.02244117138073
 30
0.0
 10
110.6843468208092
 20
44.24989609542074
 30
0.0
 10
110.6843468208092
 20
45.05332964467686
 30
0.0
 10
110.6843468208092
 20
45.84684491816963
 30
0.0
  0
SPLINE
  5
EC
330
1F
100
AcDbEntity
  8
0
  6
Continuous
 62
     7
370
    25
100
AcDbSpline
210
0.0
220
0.0
230
1.0
 70
    24
 71
     3
 72
    16
 73
    12
 74
     0
 42
0.000000001
 43
0.00000001
 40
0.0
 40
0.0
 40
0.0
 40
0.0
 40
0.2499999999999998
 40
0.2499999999999998
 40
0.4999999999999997
 40
0.4999999999999997
 40
0.6249999999999998
 40
0.6249999999999998
 40
0.7499999999999999
 40
0.7499999999999999
 40
1.0
 40
1.0
 40
1.0
 40
1.0
 10
102.1843468208092
 20
31.12441305383413
 30
0.0
 10
102.8782910818571
 20
31.52506195975272
 30
0.0
 10
103.5772948084013
 20
31.92863194943757
 30
0.0
 10
104.9898805988016
 20
32.74418873577866
 30
0.0
 10
105.70357104038
 20
33.15623810434197
 30
0.0
 10
106.7875531591171
 20
33.78207547239158
 30
0.0
 10
107.1505805874359
 20
33.99166945585469
 30
0.0
 10
107.8686871502997
 20
34.40626847323092
 30
0.0
 10
108.2253328868838
 20
34.6121779852531
 30
0.0
 10
109.2889205057396
 20
35.22624058330626
 30
0.0
 10
109.9895375383011
 20
35.63074201565444
 30
0.0
 10
110.6843468208093
 20
36.031890341946
 30
0.0
  0
SPLINE
  5
ED
330
1F
100
AcDbEntity
  8
0
  6
Continuous
 62
     7
370
    25
100
AcDbSpline
210
0.0
220
0.0
230
1.0
 70
    24
 71
     3
 72
    16
 73
    12
 74
     0
 42
0.000000001
 43
0.00000001
 40
0.0
 40
0.0
 40
0.0
 40
0.0
 40
0.2500000000000001
 40
0.2500000000000001
 40
0.5000000000000001
 40
0.5000000000000001
 40
0.6250000000000001
 40
0.6250000000000001
 40
0.7500000000000002
 40
0.7500000000000002
 40
1.0
 40
1.0
 40
1.0
 40
1.0
 10
93.68434682080918
 20
36.03189034194601
 30
0.0
 10
94.37829108185707
 20
35.63124143602742
 30
0.0
 10
95.07729480840128
 20
35.22767144634257
 30
0.0
 10
96.48988059880163
 20
34.41211466000149
 30
0.0
 10
97.20357104037997
 20
34.00006529143817
 30
0.0
 10
98.28755315911707
 20
33.37422792338857
 30
0.0
 10
98.65058058743594
 20
33.16463393992545
 30
0.0
 10
99.3686871502997
 20
32.75003492254921
 30
0.0
 10
99.72533288688382
 20
32.54412541052704
 30
0.0
 10
100.7889205057397
 20
31.93006281247387
 30
0.0
 10
101.4895375383011
 20
31.52556138012569
 30
0.0
 10
102.1843468208093
 20
31.12441305383414
 30
0.0
  0
SPLINE
  5
EE
330
1F
100
AcDbEntity
  8
0
  6
Continuous
 62
     7
370
    25
100
AcDbSpline
210
0.0
220
0.0
230
1.0
 70
    24
 71
     3
 72
    16
 73
    12
 74
     0
 42
0.000000001
 43
0.00000001
 40
0.0
 40
0.0
 40
0.0
 40
0.0
 40
0.25
 40
0.25
 40
0.5
 40
0.5
 40
0.625
 40
0.625
 40
0.75
 40
0.75
 40
1.0
 40
1.0
 40
1.0
 40
1.0
 10
93.68434682080924
 20
36.03189034194598
 30
0.0
 10
93.68434682080924
 20
36.83156574448575
 30
0.0
 10
93.68434682080924
 20
37.6486359484261
 30
0.0
 10
93.68434682080924
 20
39.28614336988399
 30
0.0
 10
93.68434682080924
 20
40.11046799229473
 30
0.0
 10
93.68434682080922
 20
41.35682334669322
 30
0.0
 10
93.68434682080924
 20
41.77509188089103
 30
0.0
 10
93.68434682080924
 20
42.60955317620115
 30
0.0
 10
93.68434682080924
 20
43.02244117145916
 30
0.0
 10
93.68434682080924
 20
44.24989609544539
 30
0.0
 10
93.68434682080924
 20
45.05332964468372
 30
0.0
 10
93.68434682080924
 20
45.84684491816963
 30
0.0
  0
SPLINE
  5
EF
330
1F
100
AcDbEntity
  8
0
  6
Continuous
 62
     7
370
    25
100
AcDbSpline
210
0.0
220
0.0
230
1.0
 70
    24
 71
     3
 72
    16
 73
    12
 74
     0
 42
0.000000001
 43
0.00000001
 40
0.0
 40
0.0
 40
0.0
 40
0.0
 40
0.2500000000000002
 40
0.2500000000000002
 40
0.5000000000000004
 40
0.5000000000000004
 40
0.6250000000000003
 40
0.6250000000000003
 40
0.7500000000000002
 40
0.7500000000000002
 40
1.0
 40
1.0
 40
1.0
 40
1.0
 10
102.1843468208093
 20
50.75432220628147
 30
0.0
 10
101.4904025597614
 20
50.35367330036289
 30
0.0
 10
100.7913988332172
 20
49.95010331067803
 30
0.0
 10
99.37881304281684
 20
49.13454652433695
 30
0.0
 10
98.66512260123851
 20
48.72249715577363
 30
0.0
 10
97.58114048250141
 20
48.09665978772403
 30
0.0
 10
97.21811305418254
 20
47.88706580426091
 30
0.0
 10
96.50000649131877
 20
47.47246678688468
 30
0.0
 10
96.14336075473466
 20
47.26655727486251
 30
0.0
 10
95.07977313587882
 20
46.65249467680935
 30
0.0
 10
94.37915610331738
 20
46.24799324446116
 30
0.0
 10
93.68434682080921
 20
45.84684491816961
 30
0.0
  0
SPLINE
  5
F0
330
1F
100
AcDbEntity
  8
0
  6
Continuous
 62
     7
370
    25
100
AcDbSpline
210
0.0
220
0.0
230
1.0
 70
    24
 71
     3
 72
    16
 73
    12
 74
     0
 42
0.000000001
 43
0.00000001
 40
0.0
 40
0.0
 40
0.0
 40
0.0
 40
0.2499999999999998
 40
0.2499999999999998
 40
0.4999999999999996
 40
0.4999999999999996
 40
0.6249999999999994
 40
0.6249999999999994
 40
0.7499999999999996
 40
0.7499999999999996
 40
1.0
 40
1.0
 40
1.0
 40
1.0
 10
110.6843468208093
 20
45.84684491816959
 30
0.0
 10
109.9904025597614
 20
46.24749382408819
 30
0.0
 10
109.2913988332172
 20
46.65106381377304
 30
0.0
 10
107.8788130428168
 20
47.46662060011413
 30
0.0
 10
107.1651226012385
 20
47.87866996867744
 30
0.0
 10
106.0811404825014
 20
48.50450733672704
 30
0.0
 10
105.7181130541825
 20
48.71410132019016
 30
0.0
 10
105.0000064913188
 20
49.12870033756639
 30
0.0
 10
104.6433607547347
 20
49.33460984958857
 30
0.0
 10
103.5797731358788
 20
49.94867244764173
 30
0.0
 10
102.8791561033174
 20
50.3531738799899
 30
0.0
 10
102.1843468208092
 20
50.75432220628146
 30
0.0
  0
CIRCLE
  5
F1
330
1F
100
AcDbEntity
  8
0
  6
Continuous
 62
     7
370
    25
100
AcDbCircle
 10
102.1843468208
 20
40.9393676301
 30
0.0
 40
8.25
  0
INSERT
  5
FD
330
1F
100
AcDbEntity
  8
0
  6
Continuous
 62
     7
370
    18
100
AcDbBlockReference
  2
SW_CENTERMARKSYMBOL_0
 10
102.1843468208
 20
40.9393676301
 30
0.0
  0
INSERT
  5
109
330
1F
100
AcDbEntity
  8
0
  6
Continuous
 62
     7
370
    18
100
AcDbBlockReference
  2
SW_CENTERMARKSYMBOL_1
 10
102.1843468208
 20
40.9393676301
 30
0.0
  0
LINE
  5
10A
330
1F
100
AcDbEntity
  8
0
  6
Continuous
 62
     7
370
    25
100
AcDbLine
 10
59.6804369992
 20
58.4671734104
 30
0.0
 11
59.8247745665
 21
58.7171734104
 31
0.0
  0
LINE
  5
10B
330
1F
100
AcDbEntity
  8
0
  6
Continuous
 62
     7
370
    25
100
AcDbLine
 10
59.8247745665
 20
75.2171734104
 30
0.0
 11
59.6804369992
 21
75.4671734104
 31
0.0
  0
LINE
  5
10C
330
1F
100
AcDbEntity
  8
0
  6
Continuous
 62
     7
370
    25
100
AcDbLine
 10
53.8247745665
 20
75.5059859104
 30
0.0
 11
42.8986840001
 21
75.1645455802
 31
0.0
  0
LINE
  5
10D
330
1F
100
AcDbEntity
  8
0
  6
Continuous
 62
     7
370
    25
100
AcDbLine
 10
42.8986840001
 20
58.7698012406
 30
0.0
 11
53.8247745665
 21
58.4283609104
 31
0.0
  0
LINE
  5
10E
330
1F
100
AcDbEntity
  8
0
  6
Continuous
 62
     7
370
    25
100
AcDbLine
 10
42.8986840001
 20
75.1645455802
 30
0.0
 11
40.8247745665
 21
73.9671734104
 31
0.0
  0
LINE
  5
10F
330
1F
100
AcDbEntity
  8
0
  6
Continuous
 62
     7
370
    25
100
AcDbLine
 10
40.8247745665
 20
59.9671734104
 30
0.0
 11
42.8986840001
 21
58.7698012406
 31
0.0
  0
LINE
  5
110
330
1F
100
AcDbEntity
  8
0
  6
Continuous
 62
     7
370
    25
100
AcDbLine
 10
77.3247745665
 20
62.9671734104
 30
0.0
 11
82.3834570889
 21
63.5650177085
 31
0.0
  0
LINE
  5
111
330
1F
100
AcDbEntity
  8
0
  6
Continuous
 62
     7
370
    25
100
AcDbLine
 10
82.3834570889
 20
70.3693291123
 30
0.0
 11
77.3247745665
 21
70.9671734104
 31
0.0
  0
LINE
  5
112
330
1F
100
AcDbEntity
  8
0
  6
Continuous
 62
     7
370
    25
100
AcDbLine
 10
68.3247745665
 20
62.9671734104
 30
0.0
 11
72.8247745665
 21
63.6171734104
 31
0.0
  0
LINE
  5
113
330
1F
100
AcDbEntity
  8
0
  6
Continuous
 62
     7
370
    25
100
AcDbLine
 10
72.8247745665
 20
70.3171734104
 30
0.0
 11
68.3247745665
 21
70.9671734104
 31
0.0
  0
LINE
  5
114
330
1F
100
AcDbEntity
  8
0
  6
Continuous
 62
     7
370
    25
100
AcDbLine
 10
63.8247745665
 20
62.9671734104
 30
0.0
 11
68.3247745665
 21
63.6171734104
 31
0.0
  0
LINE
  5
115
330
1F
100
AcDbEntity
  8
0
  6
Continuous
 62
     7
370
    25
100
AcDbLine
 10
68.3247745665
 20
70.3171734104
 30
0.0
 11
63.8247745665
 21
70.9671734104
 31
0.0
  0
LINE
  5
116
330
1F
100
AcDbEntity
  8
0
  6
Continuous
 62
     7
370
    25
100
AcDbLine
 10
72.8247745665
 20
62.9671734104
 30
0.0
 11
77.3247745665
 21
63.6171734104
 31
0.0
  0
LINE
  5
117
330
1F
100
AcDbEntity
  8
0
  6
Continuous
 62
     7
370
    25
100
AcDbLine
 10
77.3247745665
 20
70.3171734104
 30
0.0
 11
72.8247745665
 21
70.9671734104
 31
0.0
  0
LINE
  5
118
330
1F
100
AcDbEntity
  8
0
  6
Continuous
 62
     7
370
    25
100
AcDbLine
 10
63.8247745665
 20
70.9671734104
 30
0.0
 11
59.8247745665
 21
70.9671734104
 31
0.0
  0
LINE
  5
119
330
1F
100
AcDbEntity
  8
0
  6
Continuous
 62
     7
370
    25
100
AcDbLine
 10
59.8247745665
 20
62.9671734104
 30
0.0
 11
63.8247745665
 21
62.9671734104
 31
0.0
  0
ARC
  5
11A
330
1F
100
AcDbEntity
  8
0
  6
Continuous
 62
     7
370
    25
100
AcDbCircle
 10
82.3247745665
 20
69.8727846918
 30
0.0
 40
0.5000000000000163
100
AcDbArc
 50
0.0
 51
83.2599439021
  0
ARC
  5
11B
330
1F
100
AcDbEntity
  8
0
  6
Continuous
 62
     7
370
    25
100
AcDbCircle
 10
82.3247745665
 20
64.061562129
 30
0.0
 40
0.5000000000000021
100
AcDbArc
 50
276.7400560979
 51
0.0
  0
LINE
  5
11C
330
1F
100
AcDbEntity
  8
0
  6
Continuous
 62
     7
370
    25
100
AcDbLine
 10
56.6610168214
 20
66.9671734104
 30
0.0
 11
54.5615555377
 21
66.9671734104
 31
0.0
  0
SPLINE
  5
11D
330
1F
100
AcDbEntity
  8
0
  6
Continuous
 62
     7
370
    25
100
AcDbSpline
210
0.0
220
0.0
230
1.0
 70
     8
 71
     3
 72
    10
 73
     6
 74
     0
 42
0.000000001
 43
0.00000001
 40
0.0
 40
0.0
 40
0.0
 40
0.0
 40
0.5
 40
0.5
 40
1.0
 40
1.0
 40
1.0
 40
1.0
 10
54.56155553770588
 20
66.96717341040463
 30
0.0
 10
54.36790545109625
 20
67.54812367023351
 30
0.0
 10
54.20111820298042
 20
68.13864967235975
 30
0.0
 10
53.9487973430581
 20
69.32095851578279
 30
0.0
 10
53.86272878979253
 20
69.91512567192002
 30
0.0
 10
53.82477456647396
 20
70.51290841580591
 30
0.0
  0
SPLINE
  5
11E
330
1F
100
AcDbEntity
  8
0
  6
Continuous
 62
     7
370
    25
100
AcDbSpline
210
0.0
220
0.0
230
1.0
 70
     8
 71
     3
 72
    12
 73
     8
 74
     0
 42
0.000000001
 43
0.00000001
 40
0.0
 40
0.0
 40
0.0
 40
0.0
 40
0.2499999999999999
 40
0.2499999999999999
 40
0.4999999999999998
 40
0.4999999999999998
 40
1.0
 40
1.0
 40
1.0
 40
1.0
 10
53.82477456647396
 20
71.92143840500334
 30
0.0
 10
53.8439020491802
 20
72.2226981357005
 30
0.0
 10
53.87550030252095
 20
72.52609091034851
 30
0.0
 10
53.96106742102596
 20
73.12702510013673
 30
0.0
 10
54.01490492066979
 20
73.42477008250559
 30
0.0
 10
54.20509131788969
 20
74.31094387540689
 30
0.0
 10
54.36994850555351
 20
74.89235231394763
 30
0.0
 10
54.56155553770584
 20
75.46717341040464
 30
0.0
  0
LINE
  5
11F
330
1F
100
AcDbEntity
  8
0
  6
Continuous
 62
     7
370
    25
100
AcDbLine
 10
56.6610168214
 20
75.4671734104
 30
0.0
 11
54.5615555377
 21
75.4671734104
 31
0.0
  0
SPLINE
  5
120
330
1F
100
AcDbEntity
  8
0
  6
Continuous
 62
     7
370
    25
100
AcDbSpline
210
0.0
220
0.0
230
1.0
 70
     8
 71
     3
 72
     8
 73
     4
 74
     0
 42
0.000000001
 43
0.00000001
 40
0.0
 40
0.0
 40
0.0
 40
0.0
 40
1.0
 40
1.0
 40
1.0
 40
1.0
 10
56.74140157916379
 20
74.9203167293567
 30
0.0
 10
56.71602694600462
 20
75.10280912913782
 30
0.0
 10
56.68918554479784
 20
75.28508792021503
 30
0.0
 10
56.66101682143446
 20
75.46717341040463
 30
0.0
  0
SPLINE
  5
121
330
1F
100
AcDbEntity
  8
0
  6
Continuous
 62
     7
370
    25
100
AcDbSpline
210
0.0
220
0.0
230
1.0
 70
     8
 71
     3
 72
     8
 73
     4
 74
     0
 42
0.000000001
 43
0.00000001
 40
0.0
 40
0.0
 40
0.0
 40
0.0
 40
1.0
 40
1.0
 40
1.0
 40
1.0
 10
56.82178633689313
 20
75.46717341040463
 30
0.0
 10
56.79360503106997
 20
75.2850065859164
 30
0.0
 10
56.76676450507524
 20
75.10272493151729
 30
0.0
 10
56.74140157916379
 20
74.9203167293567
 30
0.0
  0
LINE
  5
122
330
1F
100
AcDbEntity
  8
0
  6
Continuous
 62
     7
370
    25
100
AcDbLine
 10
58.9212476206
 20
75.4671734104
 30
0.0
 11
56.8217863369
 21
75.4671734104
 31
0.0
  0
SPLINE
  5
123
330
1F
100
AcDbEntity
  8
0
  6
Continuous
 62
     7
370
    25
100
AcDbSpline
210
0.0
220
0.0
230
1.0
 70
     8
 71
     3
 72
    16
 73
    12
 74
     0
 42
0.000000001
 43
0.00000001
 40
0.0
 40
0.0
 40
0.0
 40
0.0
 40
0.2499999999999998
 40
0.2499999999999998
 40
0.4999999999999996
 40
0.4999999999999996
 40
0.6249999999999994
 40
0.6249999999999994
 40
0.7499999999999996
 40
0.7499999999999996
 40
1.0
 40
1.0
 40
1.0
 40
1.0
 10
58.92124762062211
 20
75.46717341040468
 30
0.0
 10
59.15256237430474
 20
74.77322914935681
 30
0.0
 10
59.34320766763518
 20
74.0742254228126
 30
0.0
 10
59.60731332404249
 20
72.66163963241223
 30
0.0
 10
59.67990251535645
 20
71.9479491908339
 30
0.0
 10
59.6806997614474
 20
70.8639670720968
 30
0.0
 10
59.66295450482395
 20
70.50093964377793
 30
0.0
 10
59.59375742129416
 20
69.78283308091417
 30
0.0
 10
59.54237581523189
 20
69.42618734433005
 30
0.0
 10
59.34396781649527
 20
68.36259972547423
 30
0.0
 10
59.15285071479131
 20
67.66198269291279
 30
0.0
 10
58.92124762062191
 20
66.9671734104046
 30
0.0
  0
LINE
  5
124
330
1F
100
AcDbEntity
  8
0
  6
Continuous
 62
     7
370
    25
100
AcDbLine
 10
58.9212476206
 20
66.9671734104
 30
0.0
 11
56.8217863369
 21
66.9671734104
 31
0.0
  0
SPLINE
  5
125
330
1F
100
AcDbEntity
  8
0
  6
Continuous
 62
     7
370
    25
100
AcDbSpline
210
0.0
220
0.0
230
1.0
 70
     8
 71
     3
 72
     8
 73
     4
 74
     0
 42
0.000000001
 43
0.00000001
 40
0.0
 40
0.0
 40
0.0
 40
0.0
 40
1.0
 40
1.0
 40
1.0
 40
1.0
 10
56.74140157916379
 20
67.51403009145255
 30
0.0
 10
56.76677621232297
 20
67.33153769167146
 30
0.0
 10
56.79361761352975
 20
67.14925890059425
 30
0.0
 10
56.82178633689313
 20
66.96717341040463
 30
0.0
  0
SPLINE
  5
126
330
1F
100
AcDbEntity
  8
0
  6
Continuous
 62
     7
370
    25
100
AcDbSpline
210
0.0
220
0.0
230
1.0
 70
     8
 71
     3
 72
     8
 73
     4
 74
     0
 42
0.000000001
 43
0.00000001
 40
0.0
 40
0.0
 40
0.0
 40
0.0
 40
1.0
 40
1.0
 40
1.0
 40
1.0
 10
56.66101682143446
 20
66.96717341040463
 30
0.0
 10
56.68919812725763
 20
67.14934023489286
 30
0.0
 10
56.71603865325235
 20
67.33162188929198
 30
0.0
 10
56.74140157916379
 20
67.51403009145255
 30
0.0
  0
SPLINE
  5
127
330
1F
100
AcDbEntity
  8
0
  6
Continuous
 62
     7
370
    25
100
AcDbSpline
210
0.0
220
0.0
230
1.0
 70
    24
 71
     3
 72
    12
 73
     8
 74
     0
 42
0.000000001
 43
0.00000001
 40
0.0
 40
0.0
 40
0.0
 40
0.0
 40
0.2209502077398786
 40
0.4142465674664244
 40
0.6082238276433367
 40
0.8039003243569413
 40
1.0
 40
1.0
 40
1.0
 40
1.0
 10
59.67320247111711
 20
75.46717341040463
 30
0.0
 10
59.66839164665124
 20
75.46717341040463
 30
0.0
 10
59.65937211441342
 20
75.46717341040463
 30
0.0
 10
59.54676674598488
 20
75.46717341040463
 30
0.0
 10
59.38927731333483
 20
75.46717341040463
 30
0.0
 10
59.18162180741066
 20
75.46717341040463
 30
0.0
 10
59.00810149248746
 20
75.46717341040463
 30
0.0
 10
58.92124762062171
 20
75.46717341040463
 30
0.0
  0
SPLINE
  5
128
330
1F
100
AcDbEntity
  8
0
  6
Continuous
 62
     7
370
    25
100
AcDbSpline
210
0.0
220
0.0
230
1.0
 70
    24
 71
     3
 72
    12
 73
     8
 74
     0
 42
0.000000001
 43
0.00000001
 40
0.0
 40
0.0
 40
0.0
 40
0.0
 40
0.1936017471876932
 40
0.387570600564146
 40
0.5829802617830864
 40
0.7790460356636821
 40
0.9999999999999999
 40
0.9999999999999999
 40
0.9999999999999999
 40
0.9999999999999999
 10
58.92124762062171
 20
58.46717341040463
 30
0.0
 10
59.0070393819301
 20
58.46717341040463
 30
0.0
 10
59.17878558224466
 20
58.46717341040463
 30
0.0
 10
59.38622615966212
 20
58.46717341040463
 30
0.0
 10
59.54546599714966
 20
58.46717341040463
 30
0.0
 10
59.65891717985301
 20
58.46717341040463
 30
0.0
 10
59.66926461268507
 20
58.46717341040463
 30
0.0
 10
59.67474710211044
 20
58.46717341040463
 30
0.0
  0
SPLINE
  5
129
330
1F
100
AcDbEntity
  8
0
  6
Continuous
 62
     7
370
    25
100
AcDbSpline
210
0.0
220
0.0
230
1.0
 70
     8
 71
     3
 72
    16
 73
    12
 74
     0
 42
0.000000001
 43
0.00000001
 40
0.0
 40
0.0
 40
0.0
 40
0.0
 40
0.2500000000000002
 40
0.2500000000000002
 40
0.5000000000000004
 40
0.5000000000000004
 40
0.6250000000000003
 40
0.6250000000000003
 40
0.7500000000000002
 40
0.7500000000000002
 40
1.0
 40
1.0
 40
1.0
 40
1.0
 10
58.92124762062211
 20
66.96717341040468
 30
0.0
 10
59.15256237430474
 20
66.27322914935681
 30
0.0
 10
59.34320766763518
 20
65.57422542281259
 30
0.0
 10
59.60731332404249
 20
64.16163963241225
 30
0.0
 10
59.67990251535645
 20
63.4479491908339
 30
0.0
 10
59.6806997614474
 20
62.36396707209681
 30
0.0
 10
59.66295450482395
 20
62.00093964377793
 30
0.0
 10
59.59375742129416
 20
61.28283308091417
 30
0.0
 10
59.54237581523189
 20
60.92618734433005
 30
0.0
 10
59.34396781649527
 20
59.86259972547423
 30
0.0
 10
59.15285071479131
 20
59.16198269291279
 30
0.0
 10
58.92124762062191
 20
58.46717341040461
 30
0.0
  0
LINE
  5
12A
330
1F
100
AcDbEntity
  8
0
  6
Continuous
 62
     7
370
    25
100
AcDbLine
 10
59.8247745665
 20
75.2171734104
 30
0.0
 11
59.8247745665
 21
58.7171734104
 31
0.0
  0
SPLINE
  5
12B
330
1F
100
AcDbEntity
  8
0
  6
Continuous
 62
     7
370
    25
100
AcDbSpline
210
0.0
220
0.0
230
1.0
 70
     8
 71
     3
 72
    12
 73
     8
 74
     0
 42
0.000000001
 43
0.00000001
 40
0.0
 40
0.0
 40
0.0
 40
0.0
 40
0.2500000000000002
 40
0.2500000000000002
 40
0.5000000000000004
 40
0.5000000000000004
 40
1.0
 40
1.0
 40
1.0
 40
1.0
 10
53.82477456647396
 20
63.42143840500335
 30
0.0
 10
53.8439020491802
 20
63.72269813570049
 30
0.0
 10
53.87550030252096
 20
64.02609091034851
 30
0.0
 10
53.96106742102596
 20
64.62702510013673
 30
0.0
 10
54.01490492066979
 20
64.92477008250557
 30
0.0
 10
54.20509131788969
 20
65.81094387540689
 30
0.0
 10
54.36994850555351
 20
66.39235231394764
 30
0.0
 10
54.56155553770585
 20
66.96717341040464
 30
0.0
  0
LINE
  5
12C
330
1F
100
AcDbEntity
  8
0
  6
Continuous
 62
     7
370
    25
100
AcDbLine
 10
53.8247745665
 20
63.421438405
 30
0.0
 11
53.8247745665
 21
70.5129084158
 31
0.0
  0
SPLINE
  5
12D
330
1F
100
AcDbEntity
  8
0
  6
Continuous
 62
     7
370
    25
100
AcDbSpline
210
0.0
220
0.0
230
1.0
 70
     8
 71
     3
 72
     8
 73
     4
 74
     0
 42
0.000000001
 43
0.00000001
 40
0.0
 40
0.0
 40
0.0
 40
0.0
 40
1.0
 40
1.0
 40
1.0
 40
1.0
 10
56.82178633689313
 20
66.96717341040463
 30
0.0
 10
56.79360503106997
 20
66.7850065859164
 30
0.0
 10
56.76676450507524
 20
66.6027249315173
 30
0.0
 10
56.74140157916379
 20
66.42031672935671
 30
0.0
  0
LINE
  5
12E
330
1F
100
AcDbEntity
  8
0
  6
Continuous
 62
     7
370
    25
100
AcDbLine
 10
56.7414015792
 20
66.4203167294
 30
0.0
 11
56.7414015792
 21
67.5140300915
 31
0.0
  0
SPLINE
  5
12F
330
1F
100
AcDbEntity
  8
0
  6
Continuous
 62
     7
370
    25
100
AcDbSpline
210
0.0
220
0.0
230
1.0
 70
     8
 71
     3
 72
     8
 73
     4
 74
     0
 42
0.000000001
 43
0.00000001
 40
0.0
 40
0.0
 40
0.0
 40
0.0
 40
1.0
 40
1.0
 40
1.0
 40
1.0
 10
56.74140157916379
 20
66.42031672935671
 30
0.0
 10
56.71602694600461
 20
66.60280912913782
 30
0.0
 10
56.68918554479784
 20
66.78508792021503
 30
0.0
 10
56.66101682143446
 20
66.96717341040463
 30
0.0
  0
LINE
  5
130
330
1F
100
AcDbEntity
  8
0
  6
Continuous
 62
     7
370
    25
100
AcDbLine
 10
56.6610168214
 20
58.4671734104
 30
0.0
 11
54.5615555377
 21
58.4671734104
 31
0.0
  0
SPLINE
  5
131
330
1F
100
AcDbEntity
  8
0
  6
Continuous
 62
     7
370
    25
100
AcDbSpline
210
0.0
220
0.0
230
1.0
 70
     8
 71
     3
 72
    10
 73
     6
 74
     0
 42
0.000000001
 43
0.00000001
 40
0.0
 40
0.0
 40
0.0
 40
0.0
 40
0.5
 40
0.5
 40
1.0
 40
1.0
 40
1.0
 40
1.0
 10
54.56155553770588
 20
58.46717341040463
 30
0.0
 10
54.36790545109625
 20
59.0481236702335
 30
0.0
 10
54.20111820298042
 20
59.63864967235975
 30
0.0
 10
53.9487973430581
 20
60.82095851578279
 30
0.0
 10
53.86272878979252
 20
61.41512567192002
 30
0.0
 10
53.82477456647396
 20
62.01290841580591
 30
0.0
  0
LINE
  5
132
330
1F
100
AcDbEntity
  8
0
  6
Continuous
 62
     7
370
    25
100
AcDbLine
 10
58.9212476206
 20
58.4671734104
 30
0.0
 11
56.8217863369
 21
58.4671734104
 31
0.0
  0
SPLINE
  5
133
330
1F
100
AcDbEntity
  8
0
  6
Continuous
 62
     7
370
    25
100
AcDbSpline
210
0.0
220
0.0
230
1.0
 70
     8
 71
     3
 72
     8
 73
     4
 74
     0
 42
0.000000001
 43
0.00000001
 40
0.0
 40
0.0
 40
0.0
 40
0.0
 40
1.0
 40
1.0
 40
1.0
 40
1.0
 10
56.74140157916379
 20
59.01403009145255
 30
0.0
 10
56.76677621232297
 20
58.83153769167144
 30
0.0
 10
56.79361761352975
 20
58.64925890059423
 30
0.0
 10
56.82178633689313
 20
58.46717341040463
 30
0.0
  0
SPLINE
  5
134
330
1F
100
AcDbEntity
  8
0
  6
Continuous
 62
     7
370
    25
100
AcDbSpline
210
0.0
220
0.0
230
1.0
 70
     8
 71
     3
 72
     8
 73
     4
 74
     0
 42
0.000000001
 43
0.00000001
 40
0.0
 40
0.0
 40
0.0
 40
0.0
 40
1.0
 40
1.0
 40
1.0
 40
1.0
 10
56.66101682143446
 20
58.46717341040463
 30
0.0
 10
56.68919812725763
 20
58.64934023489285
 30
0.0
 10
56.71603865325235
 20
58.83162188929197
 30
0.0
 10
56.74140157916379
 20
59.01403009145255
 30
0.0
  0
LINE
  5
135
330
1F
100
AcDbEntity
  8
0
  6
Continuous
 62
     7
370
    25
100
AcDbLine
 10
42.8986840001
 20
75.1645455802
 30
0.0
 11
42.8986840001
 21
58.7698012406
 31
0.0
  0
LINE
  5
136
330
1F
100
AcDbEntity
  8
0
  6
Continuous
 62
     7
370
    25
100
AcDbLine
 10
53.8247745665
 20
58.4283609104
 30
0.0
 11
53.8247745665
 21
58.4671734104
 31
0.0
  0
LINE
  5
137
330
1F
100
AcDbEntity
  8
0
  6
Continuous
 62
     7
370
    25
100
AcDbLine
 10
53.8247745665
 20
75.4671734104
 30
0.0
 11
53.8247745665
 21
75.5059859104
 31
0.0
  0
LINE
  5
138
330
1F
100
AcDbEntity
  8
0
  6
Continuous
 62
     7
370
    25
100
AcDbLine
 10
53.8247745665
 20
71.921438405
 30
0.0
 11
53.8247745665
 21
75.4671734104
 31
0.0
  0
LINE
  5
139
330
1F
100
AcDbEntity
  8
0
  6
Continuous
 62
     7
370
    25
100
AcDbLine
 10
53.8247745665
 20
70.5129084158
 30
0.0
 11
53.8247745665
 21
71.921438405
 31
0.0
  0
LINE
  5
13A
330
1F
100
AcDbEntity
  8
0
  6
Continuous
 62
     7
370
    25
100
AcDbLine
 10
53.8247745665
 20
62.0129084158
 30
0.0
 11
53.8247745665
 21
63.421438405
 31
0.0
  0
LINE
  5
13B
330
1F
100
AcDbEntity
  8
0
  6
Continuous
 62
     7
370
    25
100
AcDbLine
 10
53.8247745665
 20
58.4671734104
 30
0.0
 11
53.8247745665
 21
62.0129084158
 31
0.0
  0
LINE
  5
13C
330
1F
100
AcDbEntity
  8
0
  6
Continuous
 62
     7
370
    25
100
AcDbLine
 10
40.8247745665
 20
59.9671734104
 30
0.0
 11
40.8247745665
 21
73.9671734104
 31
0.0
  0
SPLINE
  5
13D
330
1F
100
AcDbEntity
  8
0
  6
Continuous
 62
     7
370
    25
100
AcDbSpline
210
0.0
220
0.0
230
1.0
 70
    24
 71
     3
 72
    12
 73
     8
 74
     0
 42
0.000000001
 43
0.00000001
 40
0.0
 40
0.0
 40
0.0
 40
0.0
 40
0.2499999999999998
 40
0.2499999999999998
 40
0.4999999999999999
 40
0.4999999999999999
 40
1.0
 40
1.0
 40
1.0
 40
1.0
 10
54.56155553770587
 20
75.46717341040463
 30
0.0
 10
54.46515664475593
 20
75.46717341040463
 30
0.0
 10
54.37542254009707
 20
75.46717341040463
 30
0.0
 10
54.21212569609742
 20
75.46717341040463
 30
0.0
 10
54.13847715738326
 20
75.46717341040463
 30
0.0
 10
53.94846995378061
 20
75.46717341040463
 30
0.0
 10
53.86261665325264
 20
75.46717341040463
 30
0.0
 10
53.82477456647396
 20
75.46717341040463
 30
0.0
  0
SPLINE
  5
13E
330
1F
100
AcDbEntity
  8
0
  6
Continuous
 62
     7
370
    25
100
AcDbSpline
210
0.0
220
0.0
230
1.0
 70
    24
 71
     3
 72
    12
 73
     8
 74
     0
 42
0.000000001
 43
0.00000001
 40
0.0
 40
0.0
 40
0.0
 40
0.0
 40
0.2499999999999999
 40
0.2499999999999999
 40
0.5000000000000001
 40
0.5000000000000001
 40
1.0
 40
1.0
 40
1.0
 40
1.0
 10
53.82477456647396
 20
58.46717341040463
 30
0.0
 10
53.84375550713254
 20
58.46717341040463
 30
0.0
 10
53.8747749755373
 20
58.46717341040463
 30
0.0
 10
53.95974570983178
 20
58.46717341040463
 30
0.0
 10
54.01388958388931
 20
58.46717341040463
 30
0.0
 10
54.20473141049469
 20
58.46717341040463
 30
0.0
 10
54.36999135862321
 20
58.46717341040463
 30
0.0
 10
54.56155553770588
 20
58.46717341040463
 30
0.0
  0
LINE
  5
13F
330
1F
100
AcDbEntity
  8
0
  6
Continuous
 62
     7
370
    25
100
AcDbLine
 10
56.7414015792
 20
74.9203167294
 30
0.0
 11
56.7414015792
 21
75.4671734104
 31
0.0
  0
SPLINE
  5
140
330
1F
100
AcDbEntity
  8
0
  6
Continuous
 62
     7
370
    25
100
AcDbSpline
210
0.0
220
0.0
230
1.0
 70
    24
 71
     3
 72
     8
 73
     4
 74
     0
 42
0.000000001
 43
0.00000001
 40
0.0
 40
0.0
 40
0.0
 40
0.0
 40
1.0
 40
1.0
 40
1.0
 40
1.0
 10
56.74140157916379
 20
75.46717341040463
 30
0.0
 10
56.76677560974812
 20
75.46717341040463
 30
0.0
 10
56.79361696646512
 20
75.46717341040463
 30
0.0
 10
56.82178633689313
 20
75.46717341040463
 30
0.0
  0
SPLINE
  5
141
330
1F
100
AcDbEntity
  8
0
  6
Continuous
 62
     7
370
    25
100
AcDbSpline
210
0.0
220
0.0
230
1.0
 70
    24
 71
     3
 72
     8
 73
     4
 74
     0
 42
0.000000001
 43
0.00000001
 40
0.0
 40
0.0
 40
0.0
 40
0.0
 40
1.0
 40
1.0
 40
1.0
 40
1.0
 10
56.66101682143446
 20
75.46717341040463
 30
0.0
 10
56.68919997332661
 20
75.46717341040463
 30
0.0
 10
56.71604036912474
 20
75.46717341040463
 30
0.0
 10
56.74140157916379
 20
75.46717341040463
 30
0.0
  0
SPLINE
  5
142
330
1F
100
AcDbEntity
  8
0
  6
Continuous
 62
     7
370
    25
100
AcDbSpline
210
0.0
220
0.0
230
1.0
 70
    24
 71
     3
 72
     8
 73
     4
 74
     0
 42
0.000000001
 43
0.00000001
 40
0.0
 40
0.0
 40
0.0
 40
0.0
 40
1.0
 40
1.0
 40
1.0
 40
1.0
 10
56.82178633689313
 20
58.46717341040463
 30
0.0
 10
56.79360318500097
 20
58.46717341040463
 30
0.0
 10
56.76676278920284
 20
58.46717341040463
 30
0.0
 10
56.74140157916379
 20
58.46717341040463
 30
0.0
  0
LINE
  5
143
330
1F
100
AcDbEntity
  8
0
  6
Continuous
 62
     7
370
    25
100
AcDbLine
 10
56.7414015792
 20
58.4671734104
 30
0.0
 11
56.7414015792
 21
59.0140300915
 31
0.0
  0
SPLINE
  5
144
330
1F
100
AcDbEntity
  8
0
  6
Continuous
 62
     7
370
    25
100
AcDbSpline
210
0.0
220
0.0
230
1.0
 70
    24
 71
     3
 72
     8
 73
     4
 74
     0
 42
0.000000001
 43
0.00000001
 40
0.0
 40
0.0
 40
0.0
 40
0.0
 40
1.0
 40
1.0
 40
1.0
 40
1.0
 10
56.74140157916379
 20
58.46717341040463
 30
0.0
 10
56.71602754857946
 20
58.46717341040463
 30
0.0
 10
56.68918619186248
 20
58.46717341040463
 30
0.0
 10
56.66101682143446
 20
58.46717341040463
 30
0.0
  0
LINE
  5
145
330
1F
100
AcDbEntity
  8
0
  6
Continuous
 62
     7
370
    25
100
AcDbLine
 10
77.3247745665
 20
66.9671734104
 30
0.0
 11
77.3247745665
 21
62.9671734104
 31
0.0
  0
LINE
  5
146
330
1F
100
AcDbEntity
  8
0
  6
Continuous
 62
     7
370
    25
100
AcDbLine
 10
77.3247745665
 20
70.9671734104
 30
0.0
 11
77.3247745665
 21
66.9671734104
 31
0.0
  0
LINE
  5
147
330
1F
100
AcDbEntity
  8
0
  6
Continuous
 62
     7
370
    25
100
AcDbLine
 10
68.3247745665
 20
66.9671734104
 30
0.0
 11
68.3247745665
 21
62.9671734104
 31
0.0
  0
LINE
  5
148
330
1F
100
AcDbEntity
  8
0
  6
Continuous
 62
     7
370
    25
100
AcDbLine
 10
68.3247745665
 20
70.9671734104
 30
0.0
 11
68.3247745665
 21
66.9671734104
 31
0.0
  0
LINE
  5
149
330
1F
100
AcDbEntity
  8
0
  6
Continuous
 62
     7
370
    25
100
AcDbLine
 10
63.8247745665
 20
66.9671734104
 30
0.0
 11
63.8247745665
 21
62.9671734104
 31
0.0
  0
LINE
  5
14A
330
1F
100
AcDbEntity
  8
0
  6
Continuous
 62
     7
370
    25
100
AcDbLine
 10
63.8247745665
 20
70.9671734104
 30
0.0
 11
63.8247745665
 21
66.9671734104
 31
0.0
  0
LINE
  5
14B
330
1F
100
AcDbEntity
  8
0
  6
Continuous
 62
     7
370
    25
100
AcDbLine
 10
72.8247745665
 20
66.9671734104
 30
0.0
 11
72.8247745665
 21
62.9671734104
 31
0.0
  0
LINE
  5
14C
330
1F
100
AcDbEntity
  8
0
  6
Continuous
 62
     7
370
    25
100
AcDbLine
 10
72.8247745665
 20
70.9671734104
 30
0.0
 11
72.8247745665
 21
66.9671734104
 31
0.0
  0
LINE
  5
14D
330
1F
100
AcDbEntity
  8
0
  6
Continuous
 62
     7
370
    25
100
AcDbLine
 10
82.8247745665
 20
66.9671734104
 30
0.0
 11
82.8247745665
 21
64.061562129
 31
0.0
  0
LINE
  5
14E
330
1F
100
AcDbEntity
  8
0
  6
Continuous
 62
     7
370
    25
100
AcDbLine
 10
82.8247745665
 20
69.8727846918
 30
0.0
 11
82.8247745665
 21
66.9671734104
 31
0.0
  0
LINE
  5
14F
330
1F
100
AcDbEntity
  8
0
  6
Continuous
 62
     8
370
    25
100
AcDbLine
 10
82.3834570889
 20
66.9671734104
 30
0.0
 11
82.3834570889
 21
70.3693291123
 31
0.0
  0
LINE
  5
150
330
1F
100
AcDbEntity
  8
0
  6
Continuous
 62
     8
370
    25
100
AcDbLine
 10
82.3834570889
 20
63.5650177085
 30
0.0
 11
82.3834570889
 21
66.9671734104
 31
0.0
  0
LINE
  5
151
330
1F
100
AcDbEntity
  8
0
  6
Continuous
 62
     7
370
    18
100
AcDbLine
 10
41.6945782029
 20
74.469354774
 30
0.0
 11
53.3247745665
 21
74.8327984104
 31
0.0
  0
LINE
  5
152
330
1F
100
AcDbEntity
  8
0
  6
Continuous
 62
     7
370
    18
100
AcDbLine
 10
41.6945782029
 20
59.4649920468
 30
0.0
 11
53.3247745665
 21
59.1015484104
 31
0.0
  0
LINE
  5
153
330
1F
100
AcDbEntity
  8
0
  6
Continuous
 62
     7
370
    18
100
AcDbLine
 10
53.3247745665
 20
58.4439859104
 30
0.0
 11
53.3247745665
 21
75.4903609104
 31
0.0
  0
LINE
  5
154
330
1F
100
AcDbEntity
  8
0
  6
CENTERX2
 62
     7
370
    18
100
AcDbLine
 10
83.8247745665
 20
66.9671734104
 30
0.0
 11
39.8700001749
 21
66.9671734104
 31
0.0
  0
ENDSEC
  0
SECTION
  2
OBJECTS
  0
DICTIONARY
  5
C
330
0
100
AcDbDictionary
281
     1
  3
ACAD_GROUP
350
D
  3
ACAD_LAYOUT
350
1A
  3
ACAD_MLINESTYLE
350
17
  3
ACAD_PLOTSETTINGS
350
19
  3
ACAD_PLOTSTYLENAME
350
E
  3
ACAD_SCALELIST
350
47
  0
DICTIONARY
  5
D
102
{ACAD_REACTORS
330
C
102
}
330
C
100
AcDbDictionary
281
     1
  0
DICTIONARY
  5
1A
102
{ACAD_REACTORS
330
C
102
}
330
C
100
AcDbDictionary
281
     1
  3
Layout1
350
1E
  3
Layout2
350
26
  3
Model
350
22
  0
DICTIONARY
  5
17
102
{ACAD_REACTORS
330
C
102
}
330
C
100
AcDbDictionary
281
     1
  3
Standard
350
18
  0
DICTIONARY
  5
19
102
{ACAD_REACTORS
330
C
102
}
330
C
100
AcDbDictionary
281
     1
  0
ACDBDICTIONARYWDFLT
  5
E
102
{ACAD_REACTORS
330
C
102
}
330
C
100
AcDbDictionary
281
     1
  3
Normal
350
F
100
AcDbDictionaryWithDefault
340
F
  0
DICTIONARY
  5
47
102
{ACAD_REACTORS
330
C
102
}
330
C
100
AcDbDictionary
281
     1
  3
A0
350
48
  3
A1
350
49
  3
A2
350
4A
  3
A3
350
4B
  3
A4
350
4C
  3
A5
350
4D
  3
A6
350
4E
  3
A7
350
4F
  3
A8
350
50
  3
A9
350
51
  3
B0
350
52
  3
B1
350
53
  3
B2
350
54
  3
B3
350
55
  3
B4
350
56
  3
B5
350
57
  3
B6
350
58
  3
B7
350
59
  3
B8
350
5A
  3
B9
350
5B
  3
C0
350
5C
  3
C1
350
5D
  3
C2
350
5E
  3
C3
350
5F
  3
C4
350
60
  3
C5
350
61
  3
C6
350
62
  3
C7
350
63
  3
C8
350
64
  3
C9
350
65
  3
D0
350
66
  3
D1
350
67
  3
D2
350
68
  0
LAYOUT
  5
1E
102
{ACAD_REACTORS
330
1A
102
}
330
1A
100
AcDbPlotSettings
  1

  2
none_device
  4

  6

 40
0.0
 41
0.0
 42
0.0
 43
0.0
 44
0.0
 45
0.0
 46
0.0
 47
0.0
 48
0.0
 49
0.0
140
0.0
141
0.0
142
1.0
143
1.0
 70
   688
 72
     1
 73
     0
 74
     5
  7

 75
    16
147
1.0
148
0.0
149
0.0
100
AcDbLayout
  1
Layout1
 70
     1
 71
     1
 10
0.0
 20
0.0
 11
420.0
 21
297.0
 12
0.0
 22
0.0
 32
0.0
 14
1.0000000000E+20
 24
1.0000000000E+20
 34
1.0000000000E+20
 15
-1.0000000000E+20
 25
-1.0000000000E+20
 35
-1.0000000000E+20
146
0.0
 13
0.0
 23
0.0
 33
0.0
 16
1.0
 26
0.0
 36
0.0
 17
0.0
 27
1.0
 37
0.0
 76
     0
330
1B
  0
LAYOUT
  5
26
102
{ACAD_REACTORS
330
1A
102
}
330
1A
100
AcDbPlotSettings
  1

  2
none_device
  4

  6

 40
0.0
 41
0.0
 42
0.0
 43
0.0
 44
0.0
 45
0.0
 46
0.0
 47
0.0
 48
0.0
 49
0.0
140
0.0
141
0.0
142
1.0
143
1.0
 70
   688
 72
     1
 73
     0
 74
     5
  7

 75
    16
147
1.0
148
0.0
149
0.0
100
AcDbLayout
  1
Layout2
 70
     1
 71
     2
 10
0.0
 20
0.0
 11
0.0
 21
0.0
 12
0.0
 22
0.0
 32
0.0
 14
0.0
 24
0.0
 34
0.0
 15
0.0
 25
0.0
 35
0.0
146
0.0
 13
0.0
 23
0.0
 33
0.0
 16
1.0
 26
0.0
 36
0.0
 17
0.0
 27
1.0
 37
0.0
 76
     0
330
23
  0
LAYOUT
  5
22
102
{ACAD_REACTORS
330
1A
102
}
330
1A
100
AcDbPlotSettings
  1

  2
none_device
  4
Letter_(8.50_x_11.00_Inches)
  6

 40
6.35
 41
6.35
 42
6.35000508
 43
6.35000508
 44
215.9
 45
279.4
 46
0.0
 47
0.0
 48
0.0
 49
0.0
140
0.0
141
0.0
142
1.0
143
1.0
 70
  1712
 72
     1
 73
     0
 74
     0
  7

 75
     0
147
1.0
148
0.0
149
0.0
100
AcDbLayout
  1
Model
 70
     1
 71
     0
 10
0.0
 20
0.0
 11
215.9
 21
139.7
 12
0.0
 22
0.0
 32
0.0
 14
0.0
 24
0.0
 34
0.0
 15
215.9
 25
139.7
 35
0.0
146
0.0
 13
0.0
 23
0.0
 33
0.0
 16
1.0
 26
0.0
 36
0.0
 17
0.0
 27
1.0
 37
0.0
 76
     0
330
1F
331
29
  0
MLINESTYLE
  5
18
102
{ACAD_REACTORS
330
17
102
}
330
17
100
AcDbMlineStyle
  2
Standard
 70
     0
  3

 62
   256
 51
90.0
 52
90.0
 71
     2
 49
0.5
 62
   256
  6
BYLAYER
 49
-0.5
 62
   256
  6
BYLAYER
  0
ACDBPLACEHOLDER
  5
F
102
{ACAD_REACTORS
330
E
102
}
330
E
  0
SCALE
  5
48
102
{ACAD_REACTORS
330
47
102
}
330
47
100
AcDbScale
 70
     0
300
1:1
140
1.0
141
1.0
290
     1
  0
SCALE
  5
49
102
{ACAD_REACTORS
330
47
102
}
330
47
100
AcDbScale
 70
     0
300
1:2
140
1.0
141
2.0
290
     0
  0
SCALE
  5
4A
102
{ACAD_REACTORS
330
47
102
}
330
47
100
AcDbScale
 70
     0
300
1:4
140
1.0
141
4.0
290
     0
  0
SCALE
  5
4B
102
{ACAD_REACTORS
330
47
102
}
330
47
100
AcDbScale
 70
     0
300
1:5
140
1.0
141
5.0
290
     0
  0
SCALE
  5
4C
102
{ACAD_REACTORS
330
47
102
}
330
47
100
AcDbScale
 70
     0
300
1:8
140
1.0
141
8.0
290
     0
  0
SCALE
  5
4D
102
{ACAD_REACTORS
330
47
102
}
330
47
100
AcDbScale
 70
     0
300
1:10
140
1.0
141
10.0
290
     0
  0
SCALE
  5
4E
102
{ACAD_REACTORS
330
47
102
}
330
47
100
AcDbScale
 70
     0
300
1:16
140
1.0
141
16.0
290
     0
  0
SCALE
  5
4F
102
{ACAD_REACTORS
330
47
102
}
330
47
100
AcDbScale
 70
     0
300
1:20
140
1.0
141
20.0
290
     0
  0
SCALE
  5
50
102
{ACAD_REACTORS
330
47
102
}
330
47
100
AcDbScale
 70
     0
300
1:30
140
1.0
141
30.0
290
     0
  0
SCALE
  5
51
102
{ACAD_REACTORS
330
47
102
}
330
47
100
AcDbScale
 70
     0
300
1:40
140
1.0
141
40.0
290
     0
  0
SCALE
  5
52
102
{ACAD_REACTORS
330
47
102
}
330
47
100
AcDbScale
 70
     0
300
1:50
140
1.0
141
50.0
290
     0
  0
SCALE
  5
53
102
{ACAD_REACTORS
330
47
102
}
330
47
100
AcDbScale
 70
     0
300
1:100
140
1.0
141
100.0
290
     0
  0
SCALE
  5
54
102
{ACAD_REACTORS
330
47
102
}
330
47
100
AcDbScale
 70
     0
300
2:1
140
2.0
141
1.0
290
     0
  0
SCALE
  5
55
102
{ACAD_REACTORS
330
47
102
}
330
47
100
AcDbScale
 70
     0
300
4:1
140
4.0
141
1.0
290
     0
  0
SCALE
  5
56
102
{ACAD_REACTORS
330
47
102
}
330
47
100
AcDbScale
 70
     0
300
8:1
140
8.0
141
1.0
290
     0
  0
SCALE
  5
57
102
{ACAD_REACTORS
330
47
102
}
330
47
100
AcDbScale
 70
     0
300
10:1
140
10.0
141
1.0
290
     0
  0
SCALE
  5
58
102
{ACAD_REACTORS
330
47
102
}
330
47
100
AcDbScale
 70
     0
300
100:1
140
100.0
141
1.0
290
     0
  0
SCALE
  5
59
102
{ACAD_REACTORS
330
47
102
}
330
47
100
AcDbScale
 70
     0
300
1/128" = 1'-0"
140
0.0078125
141
12.0
290
     0
  0
SCALE
  5
5A
102
{ACAD_REACTORS
330
47
102
}
330
47
100
AcDbScale
 70
     0
300
1/64" = 1'-0"
140
0.015625
141
12.0
290
     0
  0
SCALE
  5
5B
102
{ACAD_REACTORS
330
47
102
}
330
47
100
AcDbScale
 70
     0
300
1/32" = 1'-0"
140
0.03125
141
12.0
290
     0
  0
SCALE
  5
5C
102
{ACAD_REACTORS
330
47
102
}
330
47
100
AcDbScale
 70
     0
300
1/16" = 1'-0"
140
0.0625
141
12.0
290
     0
  0
SCALE
  5
5D
102
{ACAD_REACTORS
330
47
102
}
330
47
100
AcDbScale
 70
     0
300
3/32" = 1'-0"
140
0.09375
141
12.0
290
     0
  0
SCALE
  5
5E
102
{ACAD_REACTORS
330
47
102
}
330
47
100
AcDbScale
 70
     0
300
1/8" = 1'-0"
140
0.125
141
12.0
290
     0
  0
SCALE
  5
5F
102
{ACAD_REACTORS
330
47
102
}
330
47
100
AcDbScale
 70
     0
300
3/16" = 1'-0"
140
0.1875
141
12.0
290
     0
  0
SCALE
  5
60
102
{ACAD_REACTORS
330
47
102
}
330
47
100
AcDbScale
 70
     0
300
1/4" = 1'-0"
140
0.25
141
12.0
290
     0
  0
SCALE
  5
61
102
{ACAD_REACTORS
330
47
102
}
330
47
100
AcDbScale
 70
     0
300
3/8" = 1'-0"
140
0.375
141
12.0
290
     0
  0
SCALE
  5
62
102
{ACAD_REACTORS
330
47
102
}
330
47
100
AcDbScale
 70
     0
300
1/2" = 1'-0"
140
0.5
141
12.0
290
     0
  0
SCALE
  5
63
102
{ACAD_REACTORS
330
47
102
}
330
47
100
AcDbScale
 70
     0
300
3/4" = 1'-0"
140
0.75
141
12.0
290
     0
  0
SCALE
  5
64
102
{ACAD_REACTORS
330
47
102
}
330
47
100
AcDbScale
 70
     0
300
1" = 1'-0"
140
1.0
141
12.0
290
     0
  0
SCALE
  5
65
102
{ACAD_REACTORS
330
47
102
}
330
47
100
AcDbScale
 70
     0
300
1-1/2" = 1'-0"
140
1.5
141
12.0
290
     0
  0
SCALE
  5
66
102
{ACAD_REACTORS
330
47
102
}
330
47
100
AcDbScale
 70
     0
300
3" = 1'-0"
140
3.0
141
12.0
290
     0
  0
SCALE
  5
67
102
{ACAD_REACTORS
330
47
102
}
330
47
100
AcDbScale
 70
     0
300
6" = 1'-0"
140
6.0
141
12.0
290
     0
  0
SCALE
  5
68
102
{ACAD_REACTORS
330
47
102
}
330
47
100
AcDbScale
 70
     0
300
1'-0" = 1'-0"
140
12.0
141
12.0
290
     0
  0
ENDSEC
  0
EOF
