  0
SECTION
  2
HEADER
  9
$ACADVER
  1
AC1015
  9
$ACADMAINTVER
 70
     6
  9
$DWGCODEPAGE
  3
DOS932
  9
$INSBASE
 10
0.0
 20
0.0
 30
0.0
  9
$EXTMIN
 10
0.0
 20
0.0
 30
0.0
  9
$EXTMAX
 10
215.9
 20
139.7
 30
0.0
  9
$LIMMIN
 10
0.0
 20
0.0
  9
$LIMMAX
 10
215.9
 20
139.7
  9
$ORTHOMODE
 70
     0
  9
$REGENMODE
 70
     1
  9
$FILLMODE
 70
     1
  9
$QTEXTMODE
 70
     0
  9
$MIRRTEXT
 70
     1
  9
$LTSCALE
 40
0.5
  9
$ATTMODE
 70
     1
  9
$TEXTSIZE
 40
1.75
  9
$TRACEWID
 40
1.0
  9
$TEXTSTYLE
  7
Standard
  9
$CLAYER
  8
0
  9
$CELTYPE
  6
ByLayer
  9
$CECOLOR
 62
   256
  9
$CELTSCALE
 40
1.0
  9
$DISPSILH
 70
     0
  9
$DIMSCALE
 40
1.0
  9
$DIMASZ
 40
1.651
  9
$DIMEXO
 40
0.5
  9
$DIMDLI
 40
3.75
  9
$DIMRND
 40
0.0
  9
$DIMDLE
 40
0.0
  9
$DIMEXE
 40
0.5
  9
$DIMTP
 40
0.0
  9
$DIMTM
 40
0.0
  9
$DIMTXT
 40
1.75
  9
$DIMCEN
 40
2.5
  9
$DIMTSZ
 40
0.0
  9
$DIMTOL
 70
     0
  9
$DIMLIM
 70
     0
  9
$DIMTIH
 70
     1
  9
$DIMTOH
 70
     1
  9
$DIMSE1
 70
     0
  9
$DIMSE2
 70
     0
  9
$DIMTAD
 70
     1
  9
$DIMZIN
 70
     1
  9
$DIMBLK
  1

  9
$DIMASO
 70
     1
  9
$DIMSHO
 70
     1
  9
$DIMPOST
  1

  9
$DIMAPOST
  1

  9
$DIMALT
 70
     0
  9
$DIMALTD
 70
     3
  9
$DIMALTF
 40
0.0393700787
  9
$DIMLFAC
 40
1.0
  9
$DIMTOFL
 70
     1
  9
$DIMTVP
 40
0.0
  9
$DIMTIX
 70
     0
  9
$DIMSOXD
 70
     0
  9
$DIMSAH
 70
     0
  9
$DIMBLK1
  1

  9
$DIMBLK2
  1

  9
$DIMSTYLE
  2
ISO-25
  9
$DIMCLRD
 70
     0
  9
$DIMCLRE
 70
     0
  9
$DIMCLRT
 70
     0
  9
$DIMTFAC
 40
1.0
  9
$DIMGAP
 40
0.762
  9
$DIMJUST
 70
     0
  9
$DIMSD1
 70
     0
  9
$DIMSD2
 70
     0
  9
$DIMTOLJ
 70
     0
  9
$DIMTZIN
 70
     1
  9
$DIMALTZ
 70
     0
  9
$DIMALTTZ
 70
     0
  9
$DIMUPT
 70
     0
  9
$DIMDEC
 70
     2
  9
$DIMTDEC
 70
     2
  9
$DIMALTU
 70
     2
  9
$DIMALTTD
 70
     3
  9
$DIMTXSTY
  7
Standard
  9
$DIMAUNIT
 70
     0
  9
$DIMADEC
 70
     2
  9
$DIMALTRND
 40
0.0
  9
$DIMAZIN
 70
     0
  9
$DIMDSEP
 70
    44
  9
$DIMATFIT
 70
     3
  9
$DIMFRAC
 70
     0
  9
$DIMLDRBLK
  1

  9
$DIMLUNIT
 70
     2
  9
$DIMLWD
 70
    -2
  9
$DIMLWE
 70
    -2
  9
$DIMTMOVE
 70
     0
  9
$LUNITS
 70
     2
  9
$LUPREC
 70
     2
  9
$SKETCHINC
 40
1.0
  9
$FILLETRAD
 40
10.0
  9
$AUNITS
 70
     0
  9
$AUPREC
 70
     2
  9
$MENU
  1
.
  9
$ELEVATION
 40
0.0
  9
$PELEVATION
 40
0.0
  9
$THICKNESS
 40
0.0
  9
$LIMCHECK
 70
     0
  9
$CHAMFERA
 40
0.0
  9
$CHAMFERB
 40
0.0
  9
$CHAMFERC
 40
0.0
  9
$CHAMFERD
 40
0.0
  9
$SKPOLY
 70
     0
  9
$TDCREATE
 40
2460081.7100825
  9
$TDUCREATE
 40
2460081.3350825
  9
$TDUPDATE
 40
2460081.710083137
  9
$TDUUPDATE
 40
2460081.335083137
  9
$TDINDWG
 40
0.0000000116
  9
$TDUSRTIMER
 40
0.0000000116
  9
$USRTIMER
 70
     1
  9
$ANGBASE
 50
0.0
  9
$ANGDIR
 70
     0
  9
$PDMODE
 70
     0
  9
$PDSIZE
 40
-1.0
  9
$PLINEWID
 40
0.0
  9
$SPLFRAME
 70
     0
  9
$SPLINETYPE
 70
     6
  9
$SPLINESEGS
 70
     8
  9
$HANDSEED
  5
153
  9
$SURFTAB1
 70
     6
  9
$SURFTAB2
 70
     6
  9
$SURFTYPE
 70
     6
  9
$SURFU
 70
     6
  9
$SURFV
 70
     6
  9
$UCSBASE
  2

  9
$UCSNAME
  2

  9
$UCSORG
 10
0.0
 20
0.0
 30
0.0
  9
$UCSXDIR
 10
1.0
 20
0.0
 30
0.0
  9
$UCSYDIR
 10
0.0
 20
1.0
 30
0.0
  9
$UCSORTHOREF
  2

  9
$UCSORTHOVIEW
 70
     0
  9
$UCSORGTOP
 10
0.0
 20
0.0
 30
0.0
  9
$UCSORGBOTTOM
 10
0.0
 20
0.0
 30
0.0
  9
$UCSORGLEFT
 10
0.0
 20
0.0
 30
0.0
  9
$UCSORGRIGHT
 10
0.0
 20
0.0
 30
0.0
  9
$UCSORGFRONT
 10
0.0
 20
0.0
 30
0.0
  9
$UCSORGBACK
 10
0.0
 20
0.0
 30
0.0
  9
$PUCSBASE
  2

  9
$PUCSNAME
  2

  9
$PUCSORG
 10
0.0
 20
0.0
 30
0.0
  9
$PUCSXDIR
 10
1.0
 20
0.0
 30
0.0
  9
$PUCSYDIR
 10
0.0
 20
1.0
 30
0.0
  9
$PUCSORTHOREF
  2

  9
$PUCSORTHOVIEW
 70
     0
  9
$PUCSORGTOP
 10
0.0
 20
0.0
 30
0.0
  9
$PUCSORGBOTTOM
 10
0.0
 20
0.0
 30
0.0
  9
$PUCSORGLEFT
 10
0.0
 20
0.0
 30
0.0
  9
$PUCSORGRIGHT
 10
0.0
 20
0.0
 30
0.0
  9
$PUCSORGFRONT
 10
0.0
 20
0.0
 30
0.0
  9
$PUCSORGBACK
 10
0.0
 20
0.0
 30
0.0
  9
$USERI1
 70
     0
  9
$USERI2
 70
     0
  9
$USERI3
 70
     0
  9
$USERI4
 70
     0
  9
$USERI5
 70
     0
  9
$USERR1
 40
0.0
  9
$USERR2
 40
0.0
  9
$USERR3
 40
0.0
  9
$USERR4
 40
0.0
  9
$USERR5
 40
0.0
  9
$WORLDVIEW
 70
     1
  9
$SHADEDGE
 70
     3
  9
$SHADEDIF
 70
    70
  9
$TILEMODE
 70
     1
  9
$MAXACTVP
 70
    64
  9
$PINSBASE
 10
0.0
 20
0.0
 30
0.0
  9
$PLIMCHECK
 70
     0
  9
$PEXTMIN
 10
1.0000000000E+20
 20
1.0000000000E+20
 30
1.0000000000E+20
  9
$PEXTMAX
 10
-1.0000000000E+20
 20
-1.0000000000E+20
 30
-1.0000000000E+20
  9
$PLIMMIN
 10
0.0
 20
0.0
  9
$PLIMMAX
 10
420.0
 20
297.0
  9
$UNITMODE
 70
     0
  9
$VISRETAIN
 70
     1
  9
$PLINEGEN
 70
     0
  9
$PSLTSCALE
 70
     1
  9
$TREEDEPTH
 70
  3020
  9
$CMLSTYLE
  2
Standard
  9
$CMLJUST
 70
     0
  9
$CMLSCALE
 40
20.0
  9
$PROXYGRAPHICS
 70
     1
  9
$MEASUREMENT
 70
     1
  9
$CELWEIGHT
370
    -1
  9
$ENDCAPS
280
     0
  9
$JOINSTYLE
280
     0
  9
$LWDISPLAY
290
     1
  9
$INSUNITS
 70
     4
  9
$HYPERLINKBASE
  1

  9
$STYLESHEET
  1

  9
$XEDIT
290
     1
  9
$CEPSNTYPE
380
     0
  9
$PSTYLEMODE
290
     1
  9
$FINGERPRINTGUID
  2
{E0A2C7D3-AE7B-4401-8DD5-5B90A9E361AD}
  9
$VERSIONGUID
  2
{FAEB1C32-E019-11D5-929B-00C0DF256EC4}
  9
$EXTNAMES
290
     1
  9
$PSVPSCALE
 40
0.0
  9
$OLESTARTUP
290
     0
  0
ENDSEC
  0
SECTION
  2
CLASSES
  0
CLASS
  1
ACDBDICTIONARYWDFLT
  2
AcDbDictionaryWithDefault
  3
ObjectDBX Classes
 90
        0
280
     0
281
     0
  0
CLASS
  1
VISUALSTYLE
  2
AcDbVisualStyle
  3
ObjectDBX Classes
 90
     4095
280
     0
281
     0
  0
CLASS
  1
MATERIAL
  2
AcDbMaterial
  3
ObjectDBX Classes
 90
     1153
280
     0
281
     0
  0
CLASS
  1
SCALE
  2
AcDbScale
  3
ObjectDBX Classes
 90
     1153
280
     0
281
     0
  0
CLASS
  1
TABLESTYLE
  2
AcDbTableStyle
  3
ObjectDBX Classes
 90
     4095
280
     0
281
     0
  0
CLASS
  1
MLEADERSTYLE
  2
AcDbMLeaderStyle
  3
ACDB_MLEADERSTYLE_CLASS
 90
     4095
280
     0
281
     0
  0
CLASS
  1
SUN
  2
AcDbSun
  3
SCENEOE
 90
     1153
280
     0
281
     0
  0
CLASS
  1
ACDBPLACEHOLDER
  2
AcDbPlaceHolder
  3
ObjectDBX Classes
 90
        0
280
     0
281
     0
  0
CLASS
  1
LAYOUT
  2
AcDbLayout
  3
ObjectDBX Classes
 90
        0
280
     0
281
     0
  0
ENDSEC
  0
SECTION
  2
TABLES
  0
TABLE
  2
VPORT
  5
8
330
0
100
AcDbSymbolTable
 70
     1
  0
VPORT
  5
29
330
8
100
AcDbSymbolTableRecord
100
AcDbViewportTableRecord
  2
*Active
 70
     0
 10
0.0
 20
0.0
 11
1.0
 21
1.0
 12
107.95
 22
69.85
 13
0.0
 23
0.0
 14
10.0
 24
10.0
 15
10.0
 25
10.0
 16
0.0
 26
0.0
 36
1.0
 17
0.0
 27
0.0
 37
0.0
 40
139.7
 41
1.5454545455
 42
50.0
 43
0.0
 44
0.0
 50
0.0
 51
0.0
 71
     0
 72
  2000
 73
     1
 74
     3
 75
     0
 76
     0
 77
     0
 78
     0
281
     0
 65
     1
110
0.0
120
0.0
130
0.0
111
1.0
121
0.0
131
0.0
112
0.0
122
1.0
132
0.0
 79
     0
146
0.0
  0
ENDTAB
  0
TABLE
  2
LTYPE
  5
5
330
0
100
AcDbSymbolTable
 70
     6
  0
LTYPE
  5
14
330
5
100
AcDbSymbolTableRecord
100
AcDbLinetypeTableRecord
  2
ByBlock
 70
     0
  3

 72
    65
 73
     0
 40
0.0
  0
LTYPE
  5
15
330
5
100
AcDbSymbolTableRecord
100
AcDbLinetypeTableRecord
  2
ByLayer
 70
     0
  3

 72
    65
 73
     0
 40
0.0
  0
LTYPE
  5
16
330
5
100
AcDbSymbolTableRecord
100
AcDbLinetypeTableRecord
  2
Continuous
 70
     0
  3
Solid line
 72
    65
 73
     0
 40
0.0
  0
LTYPE
  5
6E
330
5
100
AcDbSymbolTableRecord
100
AcDbLinetypeTableRecord
  2
HIDDEN
 70
     0
  3
Hidden __ __ __ __ __ __ __ __ __ __ __ __ __ __
 72
    65
 73
     2
 40
1.905
 49
1.27
 74
     0
 49
-0.635
 74
     0
  0
LTYPE
  5
6F
330
5
100
AcDbSymbolTableRecord
100
AcDbLinetypeTableRecord
  2
PHANTOM
 70
     0
  3
Phantom ______  __  __  ______  __  __  ______
 72
    65
 73
     6
 40
12.7
 49
6.35
 74
     0
 49
-1.27
 74
     0
 49
1.27
 74
     0
 49
-1.27
 74
     0
 49
1.27
 74
     0
 49
-1.27
 74
     0
  0
LTYPE
  5
70
330
5
100
AcDbSymbolTableRecord
100
AcDbLinetypeTableRecord
  2
CENTER
 70
     0
  3
Center ____ _ ____ _ ____ _ ____ _ ____ _ ____
 72
    65
 73
     4
 40
10.16
 49
6.35
 74
     0
 49
-1.27
 74
     0
 49
1.27
 74
     0
 49
-1.27
 74
     0
  0
LTYPE
  5
71
330
5
100
AcDbSymbolTableRecord
100
AcDbLinetypeTableRecord
  2
CENTERX2
 70
     0
  3
Center (2x) ________  __  ________  __  _____
 72
    65
 73
     4
 40
20.32
 49
12.7
 74
     0
 49
-2.54
 74
     0
 49
2.54
 74
     0
 49
-2.54
 74
     0
  0
LTYPE
  5
72
330
5
100
AcDbSymbolTableRecord
100
AcDbLinetypeTableRecord
  2
DOT2
 70
     0
  3
Dot (.5x) ........................................
 72
    65
 73
     2
 40
0.635
 49
0.0
 74
     0
 49
-0.635
 74
     0
  0
ENDTAB
  0
TABLE
  2
LAYER
  5
2
330
0
100
AcDbSymbolTable
 70
     1
  0
LAYER
  5
10
330
2
100
AcDbSymbolTableRecord
100
AcDbLayerTableRecord
  2
0
 70
     0
 62
     7
  6
Continuous
370
    -3
390
F
  0
ENDTAB
  0
TABLE
  2
STYLE
  5
3
330
0
100
AcDbSymbolTable
 70
     2
  0
STYLE
  5
11
330
3
100
AcDbSymbolTableRecord
100
AcDbTextStyleTableRecord
  2
Standard
 70
     0
 40
0.0
 41
1.0
 50
0.0
 71
     0
 42
1.75
  3
txt
  4
bigfont
  0
STYLE
  5
73
330
3
100
AcDbSymbolTableRecord
100
AcDbTextStyleTableRecord
  2
SLDTEXTSTYLE0
 70
     0
 40
0.0
 41
0.7
 50
0.0
 71
     0
 42
1.75
  3
TXT
  4
bigfont
  0
ENDTAB
  0
TABLE
  2
VIEW
  5
6
330
0
100
AcDbSymbolTable
 70
     0
  0
ENDTAB
  0
TABLE
  2
UCS
  5
7
330
0
100
AcDbSymbolTable
 70
     0
  0
ENDTAB
  0
TABLE
  2
APPID
  5
9
330
0
100
AcDbSymbolTable
 70
     1
  0
APPID
  5
12
330
9
100
AcDbSymbolTableRecord
100
AcDbRegAppTableRecord
  2
ACAD
 70
     0
  0
ENDTAB
  0
TABLE
  2
DIMSTYLE
  5
A
330
0
100
AcDbSymbolTable
 70
     1
100
AcDbDimStyleTable
  0
DIMSTYLE
105
27
330
A
100
AcDbSymbolTableRecord
100
AcDbDimStyleTableRecord
  2
ISO-25
 70
     0
 41
2.5
 42
0.625
 43
3.75
 44
1.25
 73
     0
 74
     0
 77
     1
 78
     8
140
2.5
141
2.5
143
0.0393700787
147
0.625
171
     3
172
     1
178
     0
271
     2
272
     2
274
     3
278
    44
283
     0
284
     8
340
11
  0
ENDTAB
  0
TABLE
  2
BLOCK_RECORD
  5
1
330
0
100
AcDbSymbolTable
 70
     3
  0
BLOCK_RECORD
  5
1F
330
1
100
AcDbSymbolTableRecord
100
AcDbBlockTableRecord
  2
*Model_Space
340
22
  0
BLOCK_RECORD
  5
1B
330
1
100
AcDbSymbolTableRecord
100
AcDbBlockTableRecord
  2
*Paper_Space
340
1E
  0
BLOCK_RECORD
  5
23
330
1
100
AcDbSymbolTableRecord
100
AcDbBlockTableRecord
  2
*Paper_Space0
340
26
  0
BLOCK_RECORD
  5
F4
330
1
100
AcDbSymbolTableRecord
100
AcDbBlockTableRecord
  2
SW_CENTERMARKSYMBOL_0
340
0
102
{BLKREFS
331
FF
102
}
  0
BLOCK_RECORD
  5
100
330
1
100
AcDbSymbolTableRecord
100
AcDbBlockTableRecord
  2
SW_CENTERMARKSYMBOL_1
340
0
102
{BLKREFS
331
10B
102
}
  0
ENDTAB
  0
ENDSEC
  0
SECTION
  2
BLOCKS
  0
BLOCK
  5
20
330
1F
100
AcDbEntity
  8
0
100
AcDbBlockBegin
  2
*Model_Space
 70
     0
 10
0.0
 20
0.0
 30
0.0
  3
*Model_Space
  1

  0
ENDBLK
  5
21
330
1F
100
AcDbEntity
  8
0
100
AcDbBlockEnd
  0
BLOCK
  5
1C
330
1B
100
AcDbEntity
 67
     1
  8
0
100
AcDbBlockBegin
  2
*Paper_Space
 70
     0
 10
0.0
 20
0.0
 30
0.0
  3
*Paper_Space
  1

  0
ENDBLK
  5
1D
330
1B
100
AcDbEntity
 67
     1
  8
0
100
AcDbBlockEnd
  0
BLOCK
  5
24
330
23
100
AcDbEntity
  8
0
100
AcDbBlockBegin
  2
*Paper_Space0
 70
     0
 10
0.0
 20
0.0
 30
0.0
  3
*Paper_Space0
  1

  0
ENDBLK
  5
25
330
23
100
AcDbEntity
  8
0
100
AcDbBlockEnd
  0
BLOCK
  5
F5
330
F4
100
AcDbEntity
  8
0
100
AcDbBlockBegin
  2
SW_CENTERMARKSYMBOL_0
 70
     0
 10
0.0
 20
0.0
 30
0.0
  3
SW_CENTERMARKSYMBOL_0
  1

  0
LINE
  5
F7
330
F4
100
AcDbEntity
  8
0
  6
Continuous
 62
     0
370
    18
100
AcDbLine
 10
0.0
 20
0.0
 30
0.0
 11
0.0
 21
2.5
 31
0.0
  0
LINE
  5
F8
330
F4
100
AcDbEntity
  8
0
  6
Continuous
 62
     0
370
    18
100
AcDbLine
 10
0.0
 20
0.0
 30
0.0
 11
-2.5
 21
0.0
 31
0.0
  0
LINE
  5
F9
330
F4
100
AcDbEntity
  8
0
  6
Continuous
 62
     0
370
    18
100
AcDbLine
 10
0.0
 20
0.0
 30
0.0
 11
0.0
 21
-2.5
 31
0.0
  0
LINE
  5
FA
330
F4
100
AcDbEntity
  8
0
  6
Continuous
 62
     0
370
    18
100
AcDbLine
 10
0.0
 20
0.0
 30
0.0
 11
2.5
 21
0.0
 31
0.0
  0
LINE
  5
FB
330
F4
100
AcDbEntity
  8
0
  6
Continuous
 62
     0
370
    18
100
AcDbLine
 10
0.0
 20
5.0
 30
0.0
 11
0.0
 21
6.0
 31
0.0
  0
LINE
  5
FC
330
F4
100
AcDbEntity
  8
0
  6
Continuous
 62
     0
370
    18
100
AcDbLine
 10
-5.0
 20
0.0
 30
0.0
 11
-6.0
 21
0.0
 31
0.0
  0
LINE
  5
FD
330
F4
100
AcDbEntity
  8
0
  6
Continuous
 62
     0
370
    18
100
AcDbLine
 10
0.0
 20
-5.0
 30
0.0
 11
0.0
 21
-6.0
 31
0.0
  0
LINE
  5
FE
330
F4
100
AcDbEntity
  8
0
  6
Continuous
 62
     0
370
    18
100
AcDbLine
 10
5.0
 20
0.0
 30
0.0
 11
6.0
 21
0.0
 31
0.0
  0
ENDBLK
  5
F6
330
F4
100
AcDbEntity
  8
0
100
AcDbBlockEnd
  0
BLOCK
  5
101
330
100
100
AcDbEntity
  8
0
100
AcDbBlockBegin
  2
SW_CENTERMARKSYMBOL_1
 70
     0
 10
0.0
 20
0.0
 30
0.0
  3
SW_CENTERMARKSYMBOL_1
  1

  0
LINE
  5
103
330
100
100
AcDbEntity
  8
0
  6
Continuous
 62
     0
370
    18
100
AcDbLine
 10
0.0
 20
0.0
 30
0.0
 11
0.0
 21
2.5
 31
0.0
  0
LINE
  5
104
330
100
100
AcDbEntity
  8
0
  6
Continuous
 62
     0
370
    18
100
AcDbLine
 10
0.0
 20
0.0
 30
0.0
 11
-2.5
 21
0.0
 31
0.0
  0
LINE
  5
105
330
100
100
AcDbEntity
  8
0
  6
Continuous
 62
     0
370
    18
100
AcDbLine
 10
0.0
 20
0.0
 30
0.0
 11
0.0
 21
-2.5
 31
0.0
  0
LINE
  5
106
330
100
100
AcDbEntity
  8
0
  6
Continuous
 62
     0
370
    18
100
AcDbLine
 10
0.0
 20
0.0
 30
0.0
 11
2.5
 21
0.0
 31
0.0
  0
LINE
  5
107
330
100
100
AcDbEntity
  8
0
  6
Continuous
 62
     0
370
    18
100
AcDbLine
 10
0.0
 20
5.0
 30
0.0
 11
0.0
 21
9.5
 31
0.0
  0
LINE
  5
108
330
100
100
AcDbEntity
  8
0
  6
Continuous
 62
     0
370
    18
100
AcDbLine
 10
-5.0
 20
0.0
 30
0.0
 11
-9.5
 21
0.0
 31
0.0
  0
LINE
  5
109
330
100
100
AcDbEntity
  8
0
  6
Continuous
 62
     0
370
    18
100
AcDbLine
 10
0.0
 20
-5.0
 30
0.0
 11
0.0
 21
-9.5
 31
0.0
  0
LINE
  5
10A
330
100
100
AcDbEntity
  8
0
  6
Continuous
 62
     0
370
    18
100
AcDbLine
 10
5.0
 20
0.0
 30
0.0
 11
9.5
 21
0.0
 31
0.0
  0
ENDBLK
  5
102
330
100
100
AcDbEntity
  8
0
100
AcDbBlockEnd
  0
ENDSEC
  0
SECTION
  2
ENTITIES
  0
MTEXT
  5
74
330
1F
100
AcDbEntity
  8
0
  6
Continuous
 62
     7
370
     0
100
AcDbMText
 10
77.3835097328
 20
57.4851419746
 30
0.0
 40
2.1166666667
 41
0.0
 71
     1
 72
     1
  1
エースニップル　HN-8214
  7
SLDTEXTSTYLE0
 73
     1
 44
1.0
  0
LINE
  5
75
330
1F
100
AcDbEntity
  8
0
  6
Continuous
 62
     7
370
    25
100
AcDbLine
 10
63.0176576376
 20
48.3493994395
 30
0.0
 11
57.0176576376
 21
48.3493994395
 31
0.0
  0
LINE
  5
76
330
1F
100
AcDbEntity
  8
0
  6
Continuous
 62
     7
370
    25
100
AcDbLine
 10
57.0176576376
 20
34.3493994395
 30
0.0
 11
63.0176576376
 21
34.3493994395
 31
0.0
  0
LINE
  5
77
330
1F
100
AcDbEntity
  8
0
  6
Continuous
 62
     7
370
    25
100
AcDbLine
 10
51.7872099872
 20
49.4323032082
 30
0.0
 11
51.0176576376
 21
48.0993994395
 31
0.0
  0
LINE
  5
78
330
1F
100
AcDbEntity
  8
0
  6
Continuous
 62
     7
370
    25
100
AcDbLine
 10
51.0176576376
 20
34.5993994395
 30
0.0
 11
51.7872099872
 21
33.2664956709
 31
0.0
  0
LINE
  5
79
330
1F
100
AcDbEntity
  8
0
  6
Continuous
 62
     7
370
    25
100
AcDbLine
 10
67.5176576376
 20
34.3493994395
 30
0.0
 11
72.0176576376
 21
35.0993994395
 31
0.0
  0
LINE
  5
7A
330
1F
100
AcDbEntity
  8
0
  6
Continuous
 62
     7
370
    25
100
AcDbLine
 10
72.0176576376
 20
47.5993994395
 30
0.0
 11
67.5176576376
 21
48.3493994395
 31
0.0
  0
LINE
  5
7B
330
1F
100
AcDbEntity
  8
0
  6
Continuous
 62
     7
370
    25
100
AcDbLine
 10
76.5176576376
 20
34.3493994395
 30
0.0
 11
81.58521424
 21
35.0404298853
 31
0.0
  0
LINE
  5
7C
330
1F
100
AcDbEntity
  8
0
  6
Continuous
 62
     7
370
    25
100
AcDbLine
 10
81.58521424
 20
47.6583689938
 30
0.0
 11
76.5176576376
 21
48.3493994395
 31
0.0
  0
LINE
  5
7D
330
1F
100
AcDbEntity
  8
0
  6
Continuous
 62
     7
370
    25
100
AcDbLine
 10
72.0176576376
 20
34.3493994395
 30
0.0
 11
76.5176576376
 21
35.0993994395
 31
0.0
  0
LINE
  5
7E
330
1F
100
AcDbEntity
  8
0
  6
Continuous
 62
     7
370
    25
100
AcDbLine
 10
76.5176576376
 20
47.5993994395
 30
0.0
 11
72.0176576376
 21
48.3493994395
 31
0.0
  0
LINE
  5
7F
330
1F
100
AcDbEntity
  8
0
  6
Continuous
 62
     7
370
    25
100
AcDbLine
 10
63.0176576376
 20
34.3493994395
 30
0.0
 11
67.5176576376
 21
35.0993994395
 31
0.0
  0
LINE
  5
80
330
1F
100
AcDbEntity
  8
0
  6
Continuous
 62
     7
370
    25
100
AcDbLine
 10
67.5176576376
 20
47.5993994395
 30
0.0
 11
63.0176576376
 21
48.3493994395
 31
0.0
  0
LINE
  5
81
330
1F
100
AcDbEntity
  8
0
  6
Continuous
 62
     7
370
    25
100
AcDbLine
 10
51.0176576376
 20
48.1150869395
 30
0.0
 11
41.1064452914
 21
47.8053615537
 31
0.0
  0
LINE
  5
82
330
1F
100
AcDbEntity
  8
0
  6
Continuous
 62
     7
370
    25
100
AcDbLine
 10
41.1064452914
 20
34.8934373254
 30
0.0
 11
51.0176576376
 21
34.5837119395
 31
0.0
  0
LINE
  5
83
330
1F
100
AcDbEntity
  8
0
  6
Continuous
 62
     7
370
    25
100
AcDbLine
 10
41.1064452914
 20
47.8053615537
 30
0.0
 11
39.0176576376
 21
46.5993994395
 31
0.0
  0
LINE
  5
84
330
1F
100
AcDbEntity
  8
0
  6
Continuous
 62
     7
370
    25
100
AcDbLine
 10
39.0176576376
 20
36.0993994395
 30
0.0
 11
41.1064452914
 21
34.8934373254
 31
0.0
  0
ARC
  5
85
330
1F
100
AcDbEntity
  8
0
  6
Continuous
 62
     7
370
    25
100
AcDbCircle
 10
81.5176576376
 20
47.1629539097
 30
0.0
 40
0.5000000000000003
100
AcDbArc
 50
0.0
 51
82.2348339816
  0
ARC
  5
86
330
1F
100
AcDbEntity
  8
0
  6
Continuous
 62
     7
370
    25
100
AcDbCircle
 10
81.5176576376
 20
35.5358449693
 30
0.0
 40
0.5000000000000003
100
AcDbArc
 50
277.7651660184
 51
0.0
  0
LINE
  5
87
330
1F
100
AcDbEntity
  8
0
  6
Continuous
 62
     7
370
    25
100
AcDbLine
 10
56.3924428553
 20
33.2664956709
 30
0.0
 11
57.0176576376
 21
34.3493994395
 31
0.0
  0
LINE
  5
88
330
1F
100
AcDbEntity
  8
0
  6
Continuous
 62
     7
370
    25
100
AcDbLine
 10
57.0176576376
 20
48.3493994395
 30
0.0
 11
56.3924428553
 21
49.4323032082
 31
0.0
  0
LINE
  5
89
330
1F
100
AcDbEntity
  8
0
  6
Continuous
 62
     7
370
    25
100
AcDbLine
 10
54.170211179
 20
49.4323032082
 30
0.0
 11
54.0898264213
 21
49.1323032082
 31
0.0
  0
LINE
  5
8A
330
1F
100
AcDbEntity
  8
0
  6
Continuous
 62
     7
370
    25
100
AcDbLine
 10
54.0898264213
 20
49.1323032082
 30
0.0
 11
54.0094416635
 21
49.4323032082
 31
0.0
  0
LINE
  5
8B
330
1F
100
AcDbEntity
  8
0
  6
Continuous
 62
     7
370
    25
100
AcDbLine
 10
54.0094416635
 20
33.2664956709
 30
0.0
 11
54.0898264213
 21
33.5664956709
 31
0.0
  0
LINE
  5
8C
330
1F
100
AcDbEntity
  8
0
  6
Continuous
 62
     7
370
    25
100
AcDbLine
 10
54.0898264213
 20
33.5664956709
 30
0.0
 11
54.170211179
 21
33.2664956709
 31
0.0
  0
SPLINE
  5
8D
330
1F
100
AcDbEntity
  8
0
  6
Continuous
 62
     7
370
    25
100
AcDbSpline
210
0.0
220
0.0
230
1.0
 70
     8
 71
     3
 72
     8
 73
     4
 74
     0
 42
0.000000001
 43
0.00000001
 40
0.0
 40
0.0
 40
0.0
 40
0.0
 40
1.0
 40
1.0
 40
1.0
 40
1.0
 10
54.08982642125314
 20
37.94740133957735
 30
0.0
 10
54.11482609324737
 20
37.73395463598704
 30
0.0
 10
54.14169233403435
 20
37.52081511185044
 30
0.0
 10
54.17021117898247
 20
37.3079475552113
 30
0.0
  0
SPLINE
  5
8E
330
1F
100
AcDbEntity
  8
0
  6
Continuous
 62
     7
370
    25
100
AcDbSpline
210
0.0
220
0.0
230
1.0
 70
     8
 71
     3
 72
     8
 73
     4
 74
     0
 42
0.000000001
 43
0.00000001
 40
0.0
 40
0.0
 40
0.0
 40
0.0
 40
1.0
 40
1.0
 40
1.0
 40
1.0
 10
54.17021117898248
 20
37.3079475552113
 30
0.0
 10
54.14167736414438
 20
37.20145790850177
 30
0.0
 10
54.11481244233759
 20
37.09488573922498
 30
0.0
 10
54.08982642125314
 20
36.98822066302827
 30
0.0
  0
LINE
  5
8F
330
1F
100
AcDbEntity
  8
0
  6
Continuous
 62
     7
370
    25
100
AcDbLine
 10
54.0898264213
 20
36.988220663
 30
0.0
 11
54.0898264213
 21
37.9474013396
 31
0.0
  0
LINE
  5
90
330
1F
100
AcDbEntity
  8
0
  6
Continuous
 62
     7
370
    25
100
AcDbLine
 10
54.0094416635
 20
37.3079475552
 30
0.0
 11
51.7872099872
 21
37.3079475552
 31
0.0
  0
SPLINE
  5
91
330
1F
100
AcDbEntity
  8
0
  6
Continuous
 62
     7
370
    25
100
AcDbSpline
210
0.0
220
0.0
230
1.0
 70
     8
 71
     3
 72
    14
 73
    10
 74
     0
 42
0.000000001
 43
0.00000001
 40
0.0
 40
0.0
 40
0.0
 40
0.0
 40
0.2500000000000001
 40
0.2500000000000001
 40
0.5000000000000001
 40
0.5000000000000001
 40
0.7500000000000002
 40
0.7500000000000002
 40
1.0
 40
1.0
 40
1.0
 40
1.0
 10
51.78720998724111
 20
37.30794755521129
 30
0.0
 10
51.59736547204287
 20
37.96558824693452
 30
0.0
 10
51.43819884663058
 20
38.63898476519535
 30
0.0
 10
51.22061257742795
 20
39.98866297907608
 30
0.0
 10
51.1619239119991
 20
40.66738656058974
 30
0.0
 10
51.16206663004377
 20
42.03394476000466
 30
0.0
 10
51.22245799005427
 20
42.72644258064009
 30
0.0
 10
51.44156667184997
 20
44.07572743744691
 30
0.0
 10
51.59861731228715
 20
44.73754713395484
 30
0.0
 10
51.78720998724112
 20
45.39085132386606
 30
0.0
  0
LINE
  5
92
330
1F
100
AcDbEntity
  8
0
  6
Continuous
 62
     7
370
    25
100
AcDbLine
 10
54.0094416635
 20
45.3908513239
 30
0.0
 11
51.7872099872
 21
45.3908513239
 31
0.0
  0
SPLINE
  5
93
330
1F
100
AcDbEntity
  8
0
  6
Continuous
 62
     7
370
    25
100
AcDbSpline
210
0.0
220
0.0
230
1.0
 70
     8
 71
     3
 72
     8
 73
     4
 74
     0
 42
0.000000001
 43
0.00000001
 40
0.0
 40
0.0
 40
0.0
 40
0.0
 40
1.0
 40
1.0
 40
1.0
 40
1.0
 10
54.08982642125314
 20
44.75139753950001
 30
0.0
 10
54.06482674925891
 20
44.96484424309032
 30
0.0
 10
54.03796050847193
 20
45.17798376722692
 30
0.0
 10
54.0094416635238
 20
45.39085132386606
 30
0.0
  0
SPLINE
  5
94
330
1F
100
AcDbEntity
  8
0
  6
Continuous
 62
     7
370
    25
100
AcDbSpline
210
0.0
220
0.0
230
1.0
 70
     8
 71
     3
 72
     8
 73
     4
 74
     0
 42
0.000000001
 43
0.00000001
 40
0.0
 40
0.0
 40
0.0
 40
0.0
 40
1.0
 40
1.0
 40
1.0
 40
1.0
 10
54.17021117898248
 20
45.39085132386606
 30
0.0
 10
54.14167504866683
 20
45.1778547474873
 30
0.0
 10
54.11481033348341
 20
44.96470968653834
 30
0.0
 10
54.08982642125314
 20
44.75139753950001
 30
0.0
  0
LINE
  5
95
330
1F
100
AcDbEntity
  8
0
  6
Continuous
 62
     7
370
    25
100
AcDbLine
 10
56.3924428553
 20
45.3908513239
 30
0.0
 11
54.170211179
 21
45.3908513239
 31
0.0
  0
SPLINE
  5
96
330
1F
100
AcDbEntity
  8
0
  6
Continuous
 62
     7
370
    25
100
AcDbSpline
210
0.0
220
0.0
230
1.0
 70
     8
 71
     3
 72
    10
 73
     6
 74
     0
 42
0.000000001
 43
0.00000001
 40
0.0
 40
0.0
 40
0.0
 40
0.0
 40
0.5
 40
0.5
 40
1.0
 40
1.0
 40
1.0
 40
1.0
 10
57.01765763760444
 20
41.34939943953868
 30
0.0
 10
57.01765763760444
 20
42.0333803383744
 30
0.0
 10
56.95720841698594
 20
42.72626460172175
 30
0.0
 10
56.73817389327071
 20
44.07528164015994
 30
0.0
 10
56.58112371137531
 20
44.73724166546931
 30
0.0
 10
56.39244285526515
 20
45.39085132386606
 30
0.0
  0
SPLINE
  5
97
330
1F
100
AcDbEntity
  8
0
  6
Continuous
 62
     7
370
    25
100
AcDbSpline
210
0.0
220
0.0
230
1.0
 70
     8
 71
     3
 72
    10
 73
     6
 74
     0
 42
0.000000001
 43
0.00000001
 40
0.0
 40
0.0
 40
0.0
 40
0.0
 40
0.5
 40
0.5
 40
1.0
 40
1.0
 40
1.0
 40
1.0
 10
56.39244285526517
 20
37.30794755521129
 30
0.0
 10
56.58235107055547
 20
37.96580891052633
 30
0.0
 10
56.7413861676112
 20
38.63879027739879
 30
0.0
 10
56.95886933312102
 20
39.98737669583819
 30
0.0
 10
57.01765763760444
 20
40.66589933309589
 30
0.0
 10
57.01765763760444
 20
41.34939943953868
 30
0.0
  0
LINE
  5
98
330
1F
100
AcDbEntity
  8
0
  6
Continuous
 62
     7
370
    25
100
AcDbLine
 10
56.3924428553
 20
37.3079475552
 30
0.0
 11
54.170211179
 21
37.3079475552
 31
0.0
  0
SPLINE
  5
99
330
1F
100
AcDbEntity
  8
0
  6
Continuous
 62
     7
370
    25
100
AcDbSpline
210
0.0
220
0.0
230
1.0
 70
     8
 71
     3
 72
     8
 73
     4
 74
     0
 42
0.000000001
 43
0.00000001
 40
0.0
 40
0.0
 40
0.0
 40
0.0
 40
1.0
 40
1.0
 40
1.0
 40
1.0
 10
54.0094416635238
 20
37.3079475552113
 30
0.0
 10
54.03797779383945
 20
37.52094413159006
 30
0.0
 10
54.06484250902286
 20
37.73408919253902
 30
0.0
 10
54.08982642125314
 20
37.94740133957735
 30
0.0
  0
LINE
  5
9A
330
1F
100
AcDbEntity
  8
0
  6
Continuous
 62
     7
370
    25
100
AcDbLine
 10
53.9716239838
 20
40.7520530391
 30
0.0
 11
54.6561191761
 21
40.304336693
 31
0.0
  0
SPLINE
  5
9B
330
1F
100
AcDbEntity
  8
0
  6
Continuous
 62
     7
370
    25
100
AcDbSpline
210
0.0
220
0.0
230
1.0
 70
     8
 71
     3
 72
    19
 73
    15
 74
     0
 42
0.000000001
 43
0.00000001
 40
0.0
 40
0.0
 40
0.0
 40
0.0
 40
0.0978059775289525
 40
0.1996122522918966
 40
0.3052960258330041
 40
0.4158173591641854
 40
0.474240566618493
 40
0.5372869128296534
 40
0.6033858352934854
 40
0.6743111580696056
 40
0.749530467357482
 40
0.8286083142695116
 40
0.9120427387714447
 40
0.9999999999999999
 40
0.9999999999999999
 40
0.9999999999999999
 40
0.9999999999999999
 10
53.53592686837366
 20
40.91972130835097
 30
0.0
 10
53.55136892233699
 20
40.91917768765047
 30
0.0
 10
53.58288461544196
 20
40.91806821198077
 30
0.0
 10
53.63075408950435
 20
40.91144698900778
 30
0.0
 10
53.67954290268664
 20
40.89930285710874
 30
0.0
 10
53.72090246833267
 20
40.88616025213919
 30
0.0
 10
53.75515568213788
 20
40.87311882069416
 30
0.0
 10
53.78220454024493
 20
40.86102650537744
 30
0.0
 10
53.81076900292221
 20
40.84750582343796
 30
0.0
 10
53.84030860242779
 20
40.83165770131874
 30
0.0
 10
53.87166734910072
 20
40.81485741291904
 30
0.0
 10
53.90368393281741
 20
40.7952327695707
 30
0.0
 10
53.93752769807703
 20
40.77475415269036
 30
0.0
 10
53.96006035127875
 20
40.75975204002181
 30
0.0
 10
53.97162398375828
 20
40.7520530391202
 30
0.0
  0
SPLINE
  5
9C
330
1F
100
AcDbEntity
  8
0
  6
Continuous
 62
     7
370
    25
100
AcDbSpline
210
0.0
220
0.0
230
1.0
 70
     8
 71
     3
 72
    19
 73
    15
 74
     0
 42
0.000000001
 43
0.00000001
 40
0.0
 40
0.0
 40
0.0
 40
0.0
 40
0.0843261511037433
 40
0.1670353409858406
 40
0.2495407139852792
 40
0.3327066655796642
 40
0.4158726171740492
 40
0.4977774155681174
 40
0.5803136056784763
 40
0.6645325781316563
 40
0.7495711764063215
 40
0.8324741628544073
 40
0.9156738488962566
 40
1.0
 40
1.0
 40
1.0
 40
1.0
 10
53.0791960991429
 20
40.46539438527405
 30
0.0
 10
53.07985104280804
 20
40.48557868944578
 30
0.0
 10
53.08114837153708
 20
40.5255602620156
 30
0.0
 10
53.09270522623991
 20
40.58437425976395
 30
0.0
 10
53.11143675015407
 20
40.64088719698228
 30
0.0
 10
53.1372432142016
 20
40.69470183468771
 30
0.0
 10
53.16983816763311
 20
40.74455654366956
 30
0.0
 10
53.20908387102126
 20
40.78914497709311
 30
0.0
 10
53.25411294927064
 20
40.82831200243466
 30
0.0
 10
53.30506353511183
 20
40.86073536977458
 30
0.0
 10
53.35946067634965
 20
40.88716050215848
 30
0.0
 10
53.41669828509428
 20
40.90579853015541
 30
0.0
 10
53.47562443175676
 20
40.91785179151079
 30
0.0
 10
53.51573615073261
 20
40.91909534879174
 30
0.0
 10
53.53592686837366
 20
40.91972130835097
 30
0.0
  0
SPLINE
  5
9D
330
1F
100
AcDbEntity
  8
0
  6
Continuous
 62
     7
370
    25
100
AcDbSpline
210
0.0
220
0.0
230
1.0
 70
     8
 71
     3
 72
    19
 73
    15
 74
     0
 42
0.000000001
 43
0.00000001
 40
0.0
 40
0.0
 40
0.0
 40
0.0
 40
0.0859901205637198
 40
0.1691084375726415
 40
0.2505285789581879
 40
0.332255696176845
 40
0.4135763652356403
 40
0.4941261456201216
 40
0.576305934120417
 40
0.6607126719045473
 40
0.7461272722239103
 40
0.8300149859609743
 40
0.9144197259288509
 40
1.0
 40
1.0
 40
1.0
 40
1.0
 10
53.53863119529674
 20
39.99664438527404
 30
0.0
 10
53.51765237201062
 20
39.99742718327718
 30
0.0
 10
53.47639535312554
 20
39.99896663625594
 30
0.0
 10
53.41605360398379
 20
40.01017320008921
 30
0.0
 10
53.35902870876296
 20
40.02951322538537
 30
0.0
 10
53.30509656903996
 20
40.05538786006572
 30
0.0
 10
53.25582634357425
 20
40.08895816401839
 30
0.0
 10
53.21129927154396
 20
40.12874081987389
 30
0.0
 10
53.17248738714256
 20
40.17511188494836
 30
0.0
 10
53.1391922882848
 20
40.22697328218452
 30
0.0
 10
53.1127393741671
 20
40.28310341998154
 30
0.0
 10
53.09318219482604
 20
40.34195770550739
 30
0.0
 10
53.08149628314615
 20
40.4030330840891
 30
0.0
 10
53.07996635389411
 20
40.4445116696036
 30
0.0
 10
53.0791960991429
 20
40.46539438527405
 30
0.0
  0
SPLINE
  5
9E
330
1F
100
AcDbEntity
  8
0
  6
Continuous
 62
     7
370
    25
100
AcDbSpline
210
0.0
220
0.0
230
1.0
 70
     8
 71
     3
 72
    23
 73
    19
 74
     0
 42
0.000000001
 43
0.00000001
 40
0.0
 40
0.0
 40
0.0
 40
0.0
 40
0.0652308037420294
 40
0.1284048960032227
 40
0.1900670715964781
 40
0.25094336576828
 40
0.3115458328521431
 40
0.3728628021568291
 40
0.4350236738562383
 40
0.4990717247070431
 40
0.563091075049662
 40
0.625510106330375
 40
0.6866800359296492
 40
0.7472825030135124
 40
0.8085634952159588
 40
0.8707421035159856
 40
0.9343409515059125
 40
1.0
 40
1.0
 40
1.0
 40
1.0
 10
53.98304225298905
 20
40.44165640450481
 30
0.0
 10
53.98263249083372
 20
40.42641104893259
 30
0.0
 10
53.9818258862248
 20
40.39640102016576
 30
0.0
 10
53.97561852164259
 20
40.35234096209119
 30
0.0
 10
53.96583633081818
 20
40.31000284667412
 30
0.0
 10
53.95157679255466
 20
40.26956215570751
 30
0.0
 10
53.93336149782797
 20
40.23087373491056
 30
0.0
 10
53.91153055342205
 20
40.19371556514976
 30
0.0
 10
53.884956690412
 20
40.15878613224709
 30
0.0
 10
53.85527170936178
 20
40.12563562687056
 30
0.0
 10
53.822393001721
 20
40.09553829941644
 30
0.0
 10
53.78750671456126
 20
40.06889141846322
 30
0.0
 10
53.75064919413347
 20
40.04650850772003
 30
0.0
 10
53.71183910873347
 20
40.02834825559949
 30
0.0
 10
53.67113628320752
 20
40.01424616477183
 30
0.0
 10
53.62859279485535
 20
40.00396574546743
 30
0.0
 10
53.58417930708673
 20
39.99788877711606
 30
0.0
 10
53.5539743748298
 20
39.99706356680959
 30
0.0
 10
53.53863119529674
 20
39.99664438527404
 30
0.0
  0
SPLINE
  5
9F
330
1F
100
AcDbEntity
  8
0
  6
Continuous
 62
     7
370
    25
100
AcDbSpline
210
0.0
220
0.0
230
1.0
 70
     8
 71
     3
 72
     9
 73
     5
 74
     0
 42
0.000000001
 43
0.00000001
 40
0.0
 40
0.0
 40
0.0
 40
0.0
 40
0.5126593363417812
 40
1.0
 40
1.0
 40
1.0
 40
1.0
 10
53.96861917606598
 20
40.59700496219712
 30
0.0
 10
53.97282511634609
 20
40.57061770063283
 30
0.0
 10
53.98102927841231
 20
40.51914636344316
 30
0.0
 10
53.98238268360449
 20
40.46704669264699
 30
0.0
 10
53.98304225298905
 20
40.44165640450481
 30
0.0
  0
LINE
  5
A0
330
1F
100
AcDbEntity
  8
0
  6
Continuous
 62
     7
370
    25
100
AcDbLine
 10
54.5746888876
 20
40.2006708276
 30
0.0
 11
53.9686191761
 21
40.5970049622
 31
0.0
  0
LINE
  5
A1
330
1F
100
AcDbEntity
  8
0
  6
Continuous
 62
     7
370
    25
100
AcDbLine
 10
54.6561191761
 20
40.304336693
 30
0.0
 11
54.5746888876
 21
40.2006708276
 31
0.0
  0
LINE
  5
A2
330
1F
100
AcDbEntity
  8
0
  6
Continuous
 62
     7
370
    25
100
AcDbLine
 10
54.4638114838
 20
41.6481037133
 30
0.0
 11
54.6176576376
 21
41.5600628479
 31
0.0
  0
LINE
  5
A3
330
1F
100
AcDbEntity
  8
0
  6
Continuous
 62
     7
370
    25
100
AcDbLine
 10
54.4638114838
 20
41.4173344825
 30
0.0
 11
54.4638114838
 21
41.6481037133
 31
0.0
  0
LINE
  5
A4
330
1F
100
AcDbEntity
  8
0
  6
Continuous
 62
     7
370
    25
100
AcDbLine
 10
53.1176576376
 20
41.4173344825
 30
0.0
 11
54.4638114838
 21
41.4173344825
 31
0.0
  0
LINE
  5
A5
330
1F
100
AcDbEntity
  8
0
  6
Continuous
 62
     7
370
    25
100
AcDbLine
 10
53.1176576376
 20
41.2827190979
 30
0.0
 11
53.1176576376
 21
41.4173344825
 31
0.0
  0
LINE
  5
A6
330
1F
100
AcDbEntity
  8
0
  6
Continuous
 62
     7
370
    25
100
AcDbLine
 10
54.6176576376
 20
41.2827190979
 30
0.0
 11
53.1176576376
 21
41.2827190979
 31
0.0
  0
LINE
  5
A7
330
1F
100
AcDbEntity
  8
0
  6
Continuous
 62
     7
370
    25
100
AcDbLine
 10
54.6176576376
 20
41.5600628479
 30
0.0
 11
54.6176576376
 21
41.2827190979
 31
0.0
  0
SPLINE
  5
A8
330
1F
100
AcDbEntity
  8
0
  6
Continuous
 62
     7
370
    25
100
AcDbSpline
210
0.0
220
0.0
230
1.0
 70
     8
 71
     3
 72
    19
 73
    15
 74
     0
 42
0.000000001
 43
0.00000001
 40
0.0
 40
0.0
 40
0.0
 40
0.0
 40
0.1227280999764553
 40
0.239716523588393
 40
0.3518621792202463
 40
0.4632019818032239
 40
0.5202611541541643
 40
0.5794324380306665
 40
0.6405963441586369
 40
0.70529822908802
 40
0.7732361059084537
 40
0.844648929340316
 40
0.9200459817773698
 40
1.0
 40
1.0
 40
1.0
 40
1.0
 10
54.50227302221982
 20
42.47544153415921
 30
0.0
 10
54.50167788087204
 20
42.49252138484447
 30
0.0
 10
54.50051543140072
 20
42.52588230569688
 30
0.0
 10
54.49029802452056
 20
42.57396654930411
 30
0.0
 10
54.47410959658898
 20
42.61862121833315
 30
0.0
 10
54.45456211787577
 20
42.65263906841143
 30
0.0
 10
54.43533263551299
 20
42.67780167320308
 30
0.0
 10
54.41878951186592
 20
42.69612737518793
 30
0.0
 10
54.40003299799074
 20
42.71379522911036
 30
0.0
 10
54.37854862382098
 20
42.73011193235951
 30
0.0
 10
54.35507515002829
 20
42.74605521634637
 30
0.0
 10
54.32948329345928
 20
42.76147284654064
 30
0.0
 10
54.30140819082941
 20
42.77586960830354
 30
0.0
 10
54.28166496945243
 20
42.78463315291385
 30
0.0
 10
54.27150379145059
 20
42.78914345723613
 30
0.0
  0
SPLINE
  5
A9
330
1F
100
AcDbEntity
  8
0
  6
Continuous
 62
     7
370
    25
100
AcDbSpline
210
0.0
220
0.0
230
1.0
 70
     8
 71
     3
 72
    23
 73
    19
 74
     0
 42
0.000000001
 43
0.00000001
 40
0.0
 40
0.0
 40
0.0
 40
0.0
 40
0.0552698294993248
 40
0.1099567044850938
 40
0.1632335040550556
 40
0.2180575651623568
 40
0.2732775387226747
 40
0.330881045495497
 40
0.3904799376860887
 40
0.4536559730386417
 40
0.5189026226022311
 40
0.5833461108214766
 40
0.6485466930814431
 40
0.7150552190344909
 40
0.7825206438000536
 40
0.852335294426451
 40
0.9249348997257087
 40
0.9999999999999999
 40
0.9999999999999999
 40
0.9999999999999999
 40
0.9999999999999999
 10
54.26699657991213
 20
42.17375884185152
 30
0.0
 10
54.27482991809051
 20
42.17393642587302
 30
0.0
 10
54.29041397288161
 20
42.17428972086148
 30
0.0
 10
54.313181583137
 20
42.17874600044932
 30
0.0
 10
54.335254448607
 20
42.18544088546302
 30
0.0
 10
54.35653241574364
 20
42.19465082238499
 30
0.0
 10
54.37689197732809
 20
42.20695569266503
 30
0.0
 10
54.39635811055506
 20
42.22172563612593
 30
0.0
 10
54.41525704765839
 20
42.23896778151125
 30
0.0
 10
54.432684640362
 20
42.2591327518706
 30
0.0
 10
54.44912332305438
 20
42.28096348292357
 30
0.0
 10
54.46333395273138
 20
42.30466538810752
 30
0.0
 10
54.47537887294884
 20
42.3297156929712
 30
0.0
 10
54.4853305447189
 20
42.3561374330525
 30
0.0
 10
54.4928117910877
 20
42.38403645298625
 30
0.0
 10
54.4981846603414
 20
42.41327614418701
 30
0.0
 10
54.5015435534351
 20
42.44391379576556
 30
0.0
 10
54.50202717435378
 20
42.46481595652297
 30
0.0
 10
54.50227302221982
 20
42.47544153415921
 30
0.0
  0
SPLINE
  5
AA
330
1F
100
AcDbEntity
  8
0
  6
Continuous
 62
     7
370
    25
100
AcDbSpline
210
0.0
220
0.0
230
1.0
 70
     8
 71
     3
 72
    19
 73
    15
 74
     0
 42
0.000000001
 43
0.00000001
 40
0.0
 40
0.0
 40
0.0
 40
0.0
 40
0.1101423815503176
 40
0.2157418685830274
 40
0.3179605426392306
 40
0.4180517606815226
 40
0.5115631470355316
 40
0.5965727584443461
 40
0.6733290469034968
 40
0.7440491927238595
 40
0.8107168223002833
 40
0.8740854521098849
 40
0.9367096168966699
 40
1.0
 40
1.0
 40
1.0
 40
1.0
 10
54.02150379145059
 20
42.5583742264669
 30
0.0
 10
54.02182008041919
 20
42.53981709693473
 30
0.0
 10
54.02243961281115
 20
42.50346823880714
 30
0.0
 10
54.02988085992175
 20
42.45036345932853
 30
0.0
 10
54.04029018574162
 20
42.39952190969689
 30
0.0
 10
54.0558663573831
 20
42.3521041056221
 30
0.0
 10
54.0745622090831
 20
42.30902538752383
 30
0.0
 10
54.09564314720571
 20
42.27144595217083
 30
0.0
 10
54.11952690424653
 20
42.24025641748016
 30
0.0
 10
54.14590002879474
 20
42.21537885917872
 30
0.0
 10
54.17451581818625
 20
42.19711961472679
 30
0.0
 10
54.20402874554706
 20
42.18341424327136
 30
0.0
 10
54.23512547874905
 20
42.17537959921857
 30
0.0
 10
54.25633547191698
 20
42.17430099661534
 30
0.0
 10
54.26699657991213
 20
42.17375884185152
 30
0.0
  0
LINE
  5
AB
330
1F
100
AcDbEntity
  8
0
  6
Continuous
 62
     7
370
    25
100
AcDbLine
 10
53.8676576376
 20
42.5583742265
 30
0.0
 11
54.0215037915
 21
42.5583742265
 31
0.0
  0
SPLINE
  5
AC
330
1F
100
AcDbEntity
  8
0
  6
Continuous
 62
     7
370
    25
100
AcDbSpline
210
0.0
220
0.0
230
1.0
 70
     8
 71
     3
 72
    23
 73
    19
 74
     0
 42
0.000000001
 43
0.00000001
 40
0.0
 40
0.0
 40
0.0
 40
0.0
 40
0.0669051223273616
 40
0.1334773340846825
 40
0.2010229080576287
 40
0.2712178684297488
 40
0.3428591616573978
 40
0.4138109980627169
 40
0.4855518488903453
 40
0.5598002749200529
 40
0.5998999649035781
 40
0.6436094423977958
 40
0.6919106424505659
 40
0.7447030291556902
 40
0.8015038302285953
 40
0.8628660266331954
 40
0.9293326711591618
 40
1.0
 40
1.0
 40
1.0
 40
1.0
 10
53.55034994529674
 20
42.09683576492844
 30
0.0
 10
53.56432624917928
 20
42.09749159679346
 30
0.0
 10
53.59220931280289
 20
42.09879999719548
 30
0.0
 10
53.63323089376293
 20
42.10878956282055
 30
0.0
 10
53.67275613613494
 20
42.12521982427031
 30
0.0
 10
53.71010500233898
 20
42.14822499466358
 30
0.0
 10
53.7447370703543
 20
42.17621582833139
 30
0.0
 10
53.77551648931086
 20
42.20892137559784
 30
0.0
 10
53.80116936010292
 20
42.24642186308667
 30
0.0
 10
53.81882783433867
 20
42.28115872427139
 30
0.0
 10
53.83059646480434
 20
42.31200172602637
 30
0.0
 10
53.8388484081693
 20
42.33834410000848
 30
0.0
 10
53.84544486547327
 20
42.36786127831563
 30
0.0
 10
53.85182562619692
 20
42.4001989136525
 30
0.0
 10
53.85717485106503
 20
42.43549338984747
 30
0.0
 10
53.8616550365543
 20
42.47377650499751
 30
0.0
 10
53.86523425739833
 20
42.5150636606916
 30
0.0
 10
53.86683351473268
 20
42.54364553150008
 30
0.0
 10
53.86765763760443
 20
42.5583742264669
 30
0.0
  0
SPLINE
  5
AD
330
1F
100
AcDbEntity
  8
0
  6
Continuous
 62
     7
370
    25
100
AcDbSpline
210
0.0
220
0.0
230
1.0
 70
     8
 71
     3
 72
    23
 73
    19
 74
     0
 42
0.000000001
 43
0.00000001
 40
0.0
 40
0.0
 40
0.0
 40
0.0
 40
0.0760618905628339
 40
0.1487324608035359
 40
0.2183745247439722
 40
0.2857225935927383
 40
0.3510576941824569
 40
0.414934915729319
 40
0.4784859417740854
 40
0.542169035281216
 40
0.6047501165431387
 40
0.6641185017301124
 40
0.7214996756099116
 40
0.7776159163852547
 40
0.832666108697549
 40
0.8878580281135741
 40
0.9434676608977686
 40
1.0
 40
1.0
 40
1.0
 40
1.0
 10
53.23304225298904
 20
42.47874682262075
 30
0.0
 10
53.23330578309831
 20
42.46470941718496
 30
0.0
 10
53.2338210934772
 20
42.43726048266186
 30
0.0
 10
53.23857382250023
 20
42.39721105479816
 30
0.0
 10
53.24546542762611
 20
42.35909837768326
 30
0.0
 10
53.25624523798815
 20
42.3233113910716
 30
0.0
 10
53.26917740131252
 20
42.28936312189507
 30
0.0
 10
53.28610797658522
 20
42.258011393601
 30
0.0
 10
53.30522832422099
 20
42.2283345041119
 30
0.0
 10
53.32746896593695
 20
42.2012018491376
 30
0.0
 10
53.35150869226167
 20
42.17674043396673
 30
0.0
 10
53.37701269952379
 20
42.15560306861394
 30
0.0
 10
53.40319019752672
 20
42.1372956927504
 30
0.0
 10
53.43065185438537
 20
42.12257961776938
 30
0.0
 10
53.45912829332227
 20
42.11093851175259
 30
0.0
 10
53.48872610190059
 20
42.10301851636967
 30
0.0
 10
53.51919604805246
 20
42.09751035777695
 30
0.0
 10
53.53990850538187
 20
42.09706185929601
 30
0.0
 10
53.55034994529674
 20
42.09683576492844
 30
0.0
  0
SPLINE
  5
AE
330
1F
100
AcDbEntity
  8
0
  6
Continuous
 62
     7
370
    25
100
AcDbSpline
210
0.0
220
0.0
230
1.0
 70
     8
 71
     3
 72
    15
 73
    11
 74
     0
 42
0.000000001
 43
0.00000001
 40
0.0
 40
0.0
 40
0.0
 40
0.0
 40
0.1182713048357256
 40
0.2361775330837632
 40
0.355662932948509
 40
0.4759041646706825
 40
0.6001273417110832
 40
0.7286081161551193
 40
0.8613134756739422
 40
1.0
 40
1.0
 40
1.0
 40
1.0
 10
53.31417206068136
 20
42.72934778415921
 30
0.0
 10
53.30769706044471
 20
42.72094925136272
 30
0.0
 10
53.29476704682279
 20
42.70417811012813
 30
0.0
 10
53.27826634887803
 20
42.6768488682288
 30
0.0
 10
53.26396876659171
 20
42.64810677419206
 30
0.0
 10
53.2530471827133
 20
42.61732905666881
 30
0.0
 10
53.24379961380365
 20
42.58517986933136
 30
0.0
 10
53.23774796274687
 20
42.5511395699463
 30
0.0
 10
53.23359588931407
 20
42.51550847689841
 30
0.0
 10
53.23322949010305
 20
42.49117943540567
 30
0.0
 10
53.23304225298904
 20
42.47874682262075
 30
0.0
  0
SPLINE
  5
AF
330
1F
100
AcDbEntity
  8
0
  6
Continuous
 62
     7
370
    25
100
AcDbSpline
210
0.0
220
0.0
230
1.0
 70
     8
 71
     3
 72
    15
 73
    11
 74
     0
 42
0.000000001
 43
0.00000001
 40
0.0
 40
0.0
 40
0.0
 40
0.0
 40
0.1497703860319681
 40
0.2913164099952446
 40
0.4259663731047426
 40
0.5521595739695285
 40
0.6715274135235928
 40
0.7861216286916589
 40
0.8953250730704446
 40
1.0
 40
1.0
 40
1.0
 40
1.0
 10
53.52150379145059
 20
42.84683576492844
 30
0.0
 10
53.50995421433546
 20
42.84332864002546
 30
0.0
 10
53.48748928364198
 20
42.83650697745779
 30
0.0
 10
53.45515772406704
 20
42.82489513544275
 30
0.0
 10
53.42551855839926
 20
42.81166587598398
 30
0.0
 10
53.39835436326585
 20
42.7974739222828
 30
0.0
 10
53.37339761935263
 20
42.78256887398735
 30
0.0
 10
53.35130824690945
 20
42.76589104892889
 30
0.0
 10
53.33111601739097
 20
42.74867570100862
 30
0.0
 10
53.31973975513088
 20
42.73569883528661
 30
0.0
 10
53.31417206068136
 20
42.72934778415921
 30
0.0
  0
LINE
  5
B0
330
1F
100
AcDbEntity
  8
0
  6
Continuous
 62
     7
370
    25
100
AcDbLine
 10
53.5215037915
 20
42.9814511495
 30
0.0
 11
53.5215037915
 21
42.8468357649
 31
0.0
  0
SPLINE
  5
B1
330
1F
100
AcDbEntity
  8
0
  6
Continuous
 62
     7
370
    25
100
AcDbSpline
210
0.0
220
0.0
230
1.0
 70
     8
 71
     3
 72
    23
 73
    19
 74
     0
 42
0.000000001
 43
0.00000001
 40
0.0
 40
0.0
 40
0.0
 40
0.0
 40
0.0655411703374033
 40
0.1289631677825933
 40
0.1903771361885609
 40
0.2500923616690527
 40
0.308548432459201
 40
0.3663979630552958
 40
0.42454218926668
 40
0.4831699964229055
 40
0.5422433998311199
 40
0.6017393520173299
 40
0.6625060022496068
 40
0.7248555134488469
 40
0.7891278292811811
 40
0.8563463998785099
 40
0.9262952349869055
 40
1.0
 40
1.0
 40
1.0
 40
1.0
 10
53.0791960991429
 20
42.4811506687746
 30
0.0
 10
53.07956819053939
 20
42.49718751175308
 30
0.0
 10
53.08030034232964
 20
42.52874267106883
 30
0.0
 10
53.08530545712816
 20
42.57513274180582
 30
0.0
 10
53.09444688794436
 20
42.6194134701049
 30
0.0
 10
53.10674830452984
 20
42.6616447263292
 30
0.0
 10
53.12234476542148
 20
42.70186402764072
 30
0.0
 10
53.14176706457348
 20
42.73994864414544
 30
0.0
 10
53.16461485116712
 20
42.77613288422549
 30
0.0
 10
53.19115781736993
 20
42.81007529185888
 30
0.0
 10
53.22084982012282
 20
42.84177182087584
 30
0.0
 10
53.25421796725183
 20
42.87038013126018
 30
0.0
 10
53.29064542607514
 20
42.89637718537822
 30
0.0
 10
53.33055530730317
 20
42.91906688768315
 30
0.0
 10
53.37343184613649
 20
42.93948272451851
 30
0.0
 10
53.41982405972863
 20
42.95627456308165
 30
0.0
 10
53.46931721200963
 20
42.9710540924972
 30
0.0
 10
53.50380767208499
 20
42.97792557717408
 30
0.0
 10
53.52150379145059
 20
42.98145114954382
 30
0.0
  0
SPLINE
  5
B2
330
1F
100
AcDbEntity
  8
0
  6
Continuous
 62
     7
370
    25
100
AcDbSpline
210
0.0
220
0.0
230
1.0
 70
     8
 71
     3
 72
    19
 73
    15
 74
     0
 42
0.000000001
 43
0.00000001
 40
0.0
 40
0.0
 40
0.0
 40
0.0
 40
0.079641704194991
 40
0.1589086132578561
 40
0.2395997983184508
 40
0.3224093988203484
 40
0.405827748173513
 40
0.4876442139503137
 40
0.5697199979738974
 40
0.6530646649976934
 40
0.7374573001733065
 40
0.8224924079539125
 40
0.9097550737466981
 40
1.0
 40
1.0
 40
1.0
 40
1.0
 10
53.56327061837366
 20
41.96222038031306
 30
0.0
 10
53.54226728737035
 20
41.96299115102457
 30
0.0
 10
53.50035946737491
 20
41.96452906518832
 30
0.0
 10
53.43842920133226
 20
41.97821969489137
 30
0.0
 10
53.37799602726998
 20
41.99956629919159
 30
0.0
 10
53.31995536834499
 20
42.02935024289201
 30
0.0
 10
53.26576397798536
 20
42.06620080528166
 30
0.0
 10
53.21749739394881
 20
42.11028495082106
 30
0.0
 10
53.17572928770147
 20
42.16053100096363
 30
0.0
 10
53.14094358144492
 20
42.21661010533449
 30
0.0
 10
53.11311651736761
 20
42.27734068448278
 30
0.0
 10
53.09380757172363
 20
42.34230310360248
 30
0.0
 10
53.0812303368959
 20
42.41055273143898
 30
0.0
 10
53.07988173092394
 20
42.45735591349478
 30
0.0
 10
53.0791960991429
 20
42.4811506687746
 30
0.0
  0
SPLINE
  5
B3
330
1F
100
AcDbEntity
  8
0
  6
Continuous
 62
     7
370
    25
100
AcDbSpline
210
0.0
220
0.0
230
1.0
 70
     8
 71
     3
 72
    15
 73
    11
 74
     0
 42
0.000000001
 43
0.00000001
 40
0.0
 40
0.0
 40
0.0
 40
0.0
 40
0.1281455049994643
 40
0.2541925386280419
 40
0.3781411397135888
 40
0.5013808330744057
 40
0.6239569784447038
 40
0.7470758858273289
 40
0.8728647202442611
 40
1.0
 40
1.0
 40
1.0
 40
1.0
 10
53.82979706068136
 20
42.05176364954383
 30
0.0
 10
53.81991622025636
 20
42.04454299335627
 30
0.0
 10
53.80031634500969
 20
42.03021992422573
 30
0.0
 10
53.7687853484441
 20
42.01259047556181
 30
0.0
 10
53.7370092492086
 20
41.99641426814071
 30
0.0
 10
53.70373865206477
 20
41.98450904773061
 30
0.0
 10
53.67004226744424
 20
41.97423531429255
 30
0.0
 10
53.63519852107834
 20
41.96747553978022
 30
0.0
 10
53.59953845805077
 20
41.96313603493452
 30
0.0
 10
53.57540272724177
 20
41.96252667982392
 30
0.0
 10
53.56327061837366
 20
41.96222038031306
 30
0.0
  0
SPLINE
  5
B4
330
1F
100
AcDbEntity
  8
0
  6
Continuous
 62
     7
370
    25
100
AcDbSpline
210
0.0
220
0.0
230
1.0
 70
     8
 71
     3
 72
    11
 73
     7
 74
     0
 42
0.000000001
 43
0.00000001
 40
0.0
 40
0.0
 40
0.0
 40
0.0
 40
0.253879600326656
 40
0.5030089172783633
 40
0.7502910806899731
 40
1.0
 40
1.0
 40
1.0
 40
1.0
 10
53.95780186837366
 20
42.21432374569767
 30
0.0
 10
53.95009693771303
 20
42.19836727945196
 30
0.0
 10
53.93483124159437
 20
42.16675290476601
 30
0.0
 10
53.90489305980127
 20
42.12365982068048
 30
0.0
 10
53.87032605379246
 20
42.08454073124179
 30
0.0
 10
53.84335063111521
 20
42.06272485166873
 30
0.0
 10
53.82979706068136
 20
42.05176364954383
 30
0.0
  0
SPLINE
  5
B5
330
1F
100
AcDbEntity
  8
0
  6
Continuous
 62
     7
370
    25
100
AcDbSpline
210
0.0
220
0.0
230
1.0
 70
     8
 71
     3
 72
    15
 73
    11
 74
     0
 42
0.000000001
 43
0.00000001
 40
0.0
 40
0.0
 40
0.0
 40
0.0
 40
0.1280675485958904
 40
0.2506083188676684
 40
0.3706301659145029
 40
0.4900722467299488
 40
0.6103747641546199
 40
0.7343130699115256
 40
0.8632165042449895
 40
1.0
 40
1.0
 40
1.0
 40
1.0
 10
54.26639561837366
 20
42.03914345723613
 30
0.0
 10
54.25053556349984
 20
42.03964213911345
 30
0.0
 10
54.21949989730137
 20
42.04061798216107
 30
0.0
 10
54.17419068424215
 20
42.0489038559735
 30
0.0
 10
54.13148714126406
 20
42.06284796863473
 30
0.0
 10
54.091209500354
 20
42.0821635811681
 30
0.0
 10
54.05361314042982
 20
42.10716710269966
 30
0.0
 10
54.01861347291817
 20
42.13745540136694
 30
0.0
 10
53.98605526229178
 20
42.17324225641358
 30
0.0
 10
53.967404059588
 20
42.2003618012807
 30
0.0
 10
53.95780186837366
 20
42.21432374569767
 30
0.0
  0
SPLINE
  5
B6
330
1F
100
AcDbEntity
  8
0
  6
Continuous
 62
     7
370
    25
100
AcDbSpline
210
0.0
220
0.0
230
1.0
 70
     8
 71
     3
 72
    19
 73
    15
 74
     0
 42
0.000000001
 43
0.00000001
 40
0.0
 40
0.0
 40
0.0
 40
0.0
 40
0.0902542493426766
 40
0.1785397915286843
 40
0.2660930338538198
 40
0.3546309779571733
 40
0.4418861533505626
 40
0.5257469151636484
 40
0.6081136336036366
 40
0.6901972728278825
 40
0.770821484330335
 40
0.8483261812554109
 40
0.9240117400247433
 40
1.0
 40
1.0
 40
1.0
 40
1.0
 10
54.65611917606597
 20
42.4772444187746
 30
0.0
 10
54.65552807738956
 20
42.45766610074242
 30
0.0
 10
54.65435877361465
 20
42.41893652462379
 30
0.0
 10
54.64368115798075
 20
42.36203807593073
 30
0.0
 10
54.6267846726861
 20
42.30716943917267
 30
0.0
 10
54.60343878962738
 20
42.25493119010853
 30
0.0
 10
54.57464422684362
 20
42.20640900471013
 30
0.0
 10
54.5403736253173
 20
42.16323635324708
 30
0.0
 10
54.50128821039415
 20
42.12599842004538
 30
0.0
 10
54.45811711140047
 20
42.09475797247676
 30
0.0
 10
54.41197903594892
 20
42.07029725859661
 30
0.0
 10
54.36449325431438
 20
42.05226024139102
 30
0.0
 10
54.31577240943341
 20
42.04127952096302
 30
0.0
 10
54.28287643264405
 20
42.0398564251872
 30
0.0
 10
54.26639561837366
 20
42.03914345723613
 30
0.0
  0
SPLINE
  5
B7
330
1F
100
AcDbEntity
  8
0
  6
Continuous
 62
     7
370
    25
100
AcDbSpline
210
0.0
220
0.0
230
1.0
 70
     8
 71
     3
 72
    23
 73
    19
 74
     0
 42
0.000000001
 43
0.00000001
 40
0.0
 40
0.0
 40
0.0
 40
0.0
 40
0.0726253460834355
 40
0.1419766113262345
 40
0.2089849284189386
 40
0.2739568703644447
 40
0.336889347396841
 40
0.3987449534945902
 40
0.4601158852788617
 40
0.5208249225900291
 40
0.5809944586324857
 40
0.6401519276014648
 40
0.6986224507562546
 40
0.7572710809271643
 40
0.8164266940046602
 40
0.8762540482034705
 40
0.9371652930625374
 40
1.0
 40
1.0
 40
1.0
 40
1.0
 10
54.27150379145059
 20
42.92375884185152
 30
0.0
 10
54.28660342744003
 20
42.92011189155966
 30
0.0
 10
54.31612198075032
 20
42.91298240203519
 30
0.0
 10
54.35829652111346
 20
42.89811201340566
 30
0.0
 10
54.39820660170948
 20
42.88191233260797
 30
0.0
 10
54.4351049190075
 20
42.86245985922307
 30
0.0
 10
54.46973302017866
 20
42.84124182169759
 30
0.0
 10
54.50130550209357
 20
42.81693208389651
 30
0.0
 10
54.53062534443661
 20
42.79065220279683
 30
0.0
 10
54.55664530338971
 20
42.76158436738178
 30
0.0
 10
54.58020718733544
 20
42.73110065525001
 30
0.0
 10
54.60029649762502
 20
42.69877153249969
 30
0.0
 10
54.61757827742409
 20
42.66524743521229
 30
0.0
 10
54.63181551965639
 20
42.63029609252004
 30
0.0
 10
54.64254074408473
 20
42.59381344750918
 30
0.0
 10
54.65032223219506
 20
42.55612932322883
 30
0.0
 10
54.6553755668584
 20
42.51714496603684
 30
0.0
 10
54.65586875103826
 20
42.4906817129233
 30
0.0
 10
54.65611917606597
 20
42.4772444187746
 30
0.0
  0
LINE
  5
B8
330
1F
100
AcDbEntity
  8
0
  6
Continuous
 62
     7
370
    25
100
AcDbLine
 10
54.2715037915
 20
42.7891434572
 30
0.0
 11
54.2715037915
 21
42.9237588419
 31
0.0
  0
LINE
  5
B9
330
1F
100
AcDbEntity
  8
0
  6
Continuous
 62
     7
370
    25
100
AcDbLine
 10
54.0094416635
 20
33.2664956709
 30
0.0
 11
51.7872099872
 21
33.2664956709
 31
0.0
  0
SPLINE
  5
BA
330
1F
100
AcDbEntity
  8
0
  6
Continuous
 62
     7
370
    25
100
AcDbSpline
210
0.0
220
0.0
230
1.0
 70
     8
 71
     3
 72
    16
 73
    12
 74
     0
 42
0.000000001
 43
0.00000001
 40
0.0
 40
0.0
 40
0.0
 40
0.0
 40
0.2499999999999999
 40
0.2499999999999999
 40
0.4999999999999999
 40
0.4999999999999999
 40
0.6249999999999999
 40
0.6249999999999999
 40
0.7499999999999998
 40
0.7499999999999998
 40
1.0
 40
1.0
 40
1.0
 40
1.0
 10
51.78720998724062
 20
37.30794755521134
 30
0.0
 10
51.59671551625585
 20
36.97800145290473
 30
0.0
 10
51.43971350304275
 20
36.64564971159503
 30
0.0
 10
51.22221469220472
 20
35.97401461732129
 30
0.0
 10
51.16243533113467
 20
35.63467973355083
 30
0.0
 10
51.16177883028071
 20
35.11928396728064
 30
0.0
 10
51.17639259676419
 20
34.94667720678016
 30
0.0
 10
51.23337845464102
 20
34.60524279426162
 30
0.0
 10
51.27569272390026
 20
34.43567029151764
 30
0.0
 10
51.43908754379044
 20
33.92997179196615
 30
0.0
 10
51.59647807110387
 20
33.59685304025815
 30
0.0
 10
51.78720998724087
 20
33.2664956708839
 30
0.0
  0
SPLINE
  5
BB
330
1F
100
AcDbEntity
  8
0
  6
Continuous
 62
     7
370
    25
100
AcDbSpline
210
0.0
220
0.0
230
1.0
 70
     8
 71
     3
 72
     8
 73
     4
 74
     0
 42
0.000000001
 43
0.00000001
 40
0.0
 40
0.0
 40
0.0
 40
0.0
 40
1.0
 40
1.0
 40
1.0
 40
1.0
 10
54.08982642125314
 20
36.98822066302827
 30
0.0
 10
54.06482600833044
 20
37.09494717783972
 30
0.0
 10
54.03795969687022
 20
37.20151680583052
 30
0.0
 10
54.0094416635238
 20
37.3079475552113
 30
0.0
  0
SPLINE
  5
BC
330
1F
100
AcDbEntity
  8
0
  6
Continuous
 62
     7
370
    25
100
AcDbSpline
210
0.0
220
0.0
230
1.0
 70
     8
 71
     3
 72
    10
 73
     6
 74
     0
 42
0.000000001
 43
0.00000001
 40
0.0
 40
0.0
 40
0.0
 40
0.0
 40
0.5
 40
0.5
 40
1.0
 40
1.0
 40
1.0
 40
1.0
 10
56.39244285526565
 20
37.30794755521134
 30
0.0
 10
56.58329406892194
 20
36.97738355647245
 30
0.0
 10
56.74052719007857
 20
36.64440489485398
 30
0.0
 10
56.95807122720685
 20
35.97148600914679
 30
0.0
 10
57.01765763760444
 20
35.63149374651019
 30
0.0
 10
57.01765763760444
 20
35.28722161304761
 30
0.0
  0
SPLINE
  5
BD
330
1F
100
AcDbEntity
  8
0
  6
Continuous
 62
     7
370
    25
100
AcDbSpline
210
0.0
220
0.0
230
1.0
 70
     8
 71
     3
 72
    12
 73
     8
 74
     0
 42
0.000000001
 43
0.00000001
 40
0.0
 40
0.0
 40
0.0
 40
0.0
 40
0.25
 40
0.25
 40
0.5
 40
0.5
 40
1.0
 40
1.0
 40
1.0
 40
1.0
 10
57.01765763760444
 20
35.28722161304761
 30
0.0
 10
57.01765763760444
 20
35.11572906625138
 30
0.0
 10
57.00287987914395
 20
34.94346746231907
 30
0.0
 10
56.9456916781487
 20
34.60269805754724
 30
0.0
 10
56.90333620842586
 20
34.43345309178322
 30
0.0
 10
56.73997563355324
 20
33.92872413010241
 30
0.0
 10
56.58281758406278
 20
33.59623437363808
 30
0.0
 10
56.39244285526541
 20
33.2664956708839
 30
0.0
  0
LINE
  5
BE
330
1F
100
AcDbEntity
  8
0
  6
Continuous
 62
     7
370
    25
100
AcDbLine
 10
56.3924428553
 20
33.2664956709
 30
0.0
 11
54.170211179
 21
33.2664956709
 31
0.0
  0
SPLINE
  5
BF
330
1F
100
AcDbEntity
  8
0
  6
Continuous
 62
     7
370
    25
100
AcDbSpline
210
0.0
220
0.0
230
1.0
 70
     8
 71
     3
 72
     8
 73
     4
 74
     0
 42
0.000000001
 43
0.00000001
 40
0.0
 40
0.0
 40
0.0
 40
0.0
 40
1.0
 40
1.0
 40
1.0
 40
1.0
 10
54.08982642125314
 20
33.58622256306694
 30
0.0
 10
54.11482683417584
 20
33.47949604825549
 30
0.0
 10
54.14169314563605
 20
33.3729264202647
 30
0.0
 10
54.17021117898247
 20
33.26649567088393
 30
0.0
  0
SPLINE
  5
C0
330
1F
100
AcDbEntity
  8
0
  6
Continuous
 62
     7
370
    25
100
AcDbSpline
210
0.0
220
0.0
230
1.0
 70
     8
 71
     3
 72
     8
 73
     4
 74
     0
 42
0.000000001
 43
0.00000001
 40
0.0
 40
0.0
 40
0.0
 40
0.0
 40
1.0
 40
1.0
 40
1.0
 40
1.0
 10
54.0094416635238
 20
33.26649567088392
 30
0.0
 10
54.03797547836189
 20
33.37298531759345
 30
0.0
 10
54.06484040016868
 20
33.47955748687023
 30
0.0
 10
54.08982642125314
 20
33.58622256306694
 30
0.0
  0
SPLINE
  5
C1
330
1F
100
AcDbEntity
  8
0
  6
Continuous
 62
     7
370
    25
100
AcDbSpline
210
0.0
220
0.0
230
1.0
 70
     8
 71
     3
 72
    16
 73
    12
 74
     0
 42
0.000000001
 43
0.00000001
 40
0.0
 40
0.0
 40
0.0
 40
0.0
 40
0.2500000000000001
 40
0.2500000000000001
 40
0.5000000000000001
 40
0.5000000000000001
 40
0.625
 40
0.625
 40
0.7499999999999999
 40
0.7499999999999999
 40
1.0
 40
1.0
 40
1.0
 40
1.0
 10
51.78720998724063
 20
49.43230320819348
 30
0.0
 10
51.59671551625585
 20
49.10235710588688
 30
0.0
 10
51.43971350304275
 20
48.77000536457718
 30
0.0
 10
51.22221469220472
 20
48.09837027030344
 30
0.0
 10
51.16243533113467
 20
47.75903538653298
 30
0.0
 10
51.16177883028071
 20
47.24363962026278
 30
0.0
 10
51.17639259676419
 20
47.0710328597623
 30
0.0
 10
51.23337845464102
 20
46.72959844724377
 30
0.0
 10
51.27569272390026
 20
46.56002594449978
 30
0.0
 10
51.43908754379044
 20
46.05432744494829
 30
0.0
 10
51.59647807110387
 20
45.72120869324029
 30
0.0
 10
51.78720998724087
 20
45.39085132386604
 30
0.0
  0
LINE
  5
C2
330
1F
100
AcDbEntity
  8
0
  6
Continuous
 62
     7
370
    25
100
AcDbLine
 10
54.0094416635
 20
49.4323032082
 30
0.0
 11
51.7872099872
 21
49.4323032082
 31
0.0
  0
SPLINE
  5
C3
330
1F
100
AcDbEntity
  8
0
  6
Continuous
 62
     7
370
    25
100
AcDbSpline
210
0.0
220
0.0
230
1.0
 70
     8
 71
     3
 72
     8
 73
     4
 74
     0
 42
0.000000001
 43
0.00000001
 40
0.0
 40
0.0
 40
0.0
 40
0.0
 40
1.0
 40
1.0
 40
1.0
 40
1.0
 10
54.08982642125314
 20
49.11257631601042
 30
0.0
 10
54.06482600833044
 20
49.21930283082186
 30
0.0
 10
54.03795969687022
 20
49.32587245881266
 30
0.0
 10
54.0094416635238
 20
49.43230320819345
 30
0.0
  0
SPLINE
  5
C4
330
1F
100
AcDbEntity
  8
0
  6
Continuous
 62
     7
370
    25
100
AcDbSpline
210
0.0
220
0.0
230
1.0
 70
     8
 71
     3
 72
     8
 73
     4
 74
     0
 42
0.000000001
 43
0.00000001
 40
0.0
 40
0.0
 40
0.0
 40
0.0
 40
1.0
 40
1.0
 40
1.0
 40
1.0
 10
54.17021117898248
 20
49.43230320819345
 30
0.0
 10
54.14167736414438
 20
49.32581356148391
 30
0.0
 10
54.11481244233759
 20
49.21924139220712
 30
0.0
 10
54.08982642125314
 20
49.11257631601042
 30
0.0
  0
LINE
  5
C5
330
1F
100
AcDbEntity
  8
0
  6
Continuous
 62
     7
370
    25
100
AcDbLine
 10
56.3924428553
 20
49.4323032082
 30
0.0
 11
54.170211179
 21
49.4323032082
 31
0.0
  0
SPLINE
  5
C6
330
1F
100
AcDbEntity
  8
0
  6
Continuous
 62
     7
370
    25
100
AcDbSpline
210
0.0
220
0.0
230
1.0
 70
     8
 71
     3
 72
    10
 73
     6
 74
     0
 42
0.000000001
 43
0.00000001
 40
0.0
 40
0.0
 40
0.0
 40
0.0
 40
0.5
 40
0.5
 40
1.0
 40
1.0
 40
1.0
 40
1.0
 10
56.39244285526565
 20
49.43230320819348
 30
0.0
 10
56.58329406892194
 20
49.10173920945459
 30
0.0
 10
56.74052719007857
 20
48.76876054783612
 30
0.0
 10
56.95807122720685
 20
48.09584166212893
 30
0.0
 10
57.01765763760444
 20
47.75584939949233
 30
0.0
 10
57.01765763760444
 20
47.41157726602975
 30
0.0
  0
SPLINE
  5
C7
330
1F
100
AcDbEntity
  8
0
  6
Continuous
 62
     7
370
    25
100
AcDbSpline
210
0.0
220
0.0
230
1.0
 70
     8
 71
     3
 72
    12
 73
     8
 74
     0
 42
0.000000001
 43
0.00000001
 40
0.0
 40
0.0
 40
0.0
 40
0.0
 40
0.2499999999999999
 40
0.2499999999999999
 40
0.4999999999999998
 40
0.4999999999999998
 40
1.0
 40
1.0
 40
1.0
 40
1.0
 10
57.01765763760444
 20
47.41157726602975
 30
0.0
 10
57.01765763760444
 20
47.24008471923353
 30
0.0
 10
57.00287987914395
 20
47.06782311530122
 30
0.0
 10
56.9456916781487
 20
46.72705371052939
 30
0.0
 10
56.90333620842586
 20
46.55780874476536
 30
0.0
 10
56.73997563355324
 20
46.05307978308456
 30
0.0
 10
56.58281758406278
 20
45.72059002662023
 30
0.0
 10
56.3924428552654
 20
45.39085132386604
 30
0.0
  0
SPLINE
  5
C8
330
1F
100
AcDbEntity
  8
0
  6
Continuous
 62
     7
370
    25
100
AcDbSpline
210
0.0
220
0.0
230
1.0
 70
     8
 71
     3
 72
     8
 73
     4
 74
     0
 42
0.000000001
 43
0.00000001
 40
0.0
 40
0.0
 40
0.0
 40
0.0
 40
1.0
 40
1.0
 40
1.0
 40
1.0
 10
54.08982642125314
 20
45.71057821604909
 30
0.0
 10
54.11482683417584
 20
45.60385170123764
 30
0.0
 10
54.14169314563605
 20
45.49728207324684
 30
0.0
 10
54.17021117898248
 20
45.39085132386606
 30
0.0
  0
SPLINE
  5
C9
330
1F
100
AcDbEntity
  8
0
  6
Continuous
 62
     7
370
    25
100
AcDbSpline
210
0.0
220
0.0
230
1.0
 70
     8
 71
     3
 72
     8
 73
     4
 74
     0
 42
0.000000001
 43
0.00000001
 40
0.0
 40
0.0
 40
0.0
 40
0.0
 40
1.0
 40
1.0
 40
1.0
 40
1.0
 10
54.0094416635238
 20
45.39085132386606
 30
0.0
 10
54.03797547836189
 20
45.49734097057559
 30
0.0
 10
54.06484040016868
 20
45.60391313985237
 30
0.0
 10
54.08982642125314
 20
45.71057821604909
 30
0.0
  0
LINE
  5
CA
330
1F
100
AcDbEntity
  8
0
  6
Continuous
 62
     7
370
    25
100
AcDbLine
 10
57.0176576376
 20
41.3493994395
 30
0.0
 11
57.0176576376
 21
35.287221613
 31
0.0
  0
LINE
  5
CB
330
1F
100
AcDbEntity
  8
0
  6
Continuous
 62
     7
370
    25
100
AcDbLine
 10
57.0176576376
 20
47.411577266
 30
0.0
 11
57.0176576376
 21
41.3493994395
 31
0.0
  0
LINE
  5
CC
330
1F
100
AcDbEntity
  8
0
  6
Continuous
 62
     7
370
    25
100
AcDbLine
 10
63.0176576376
 20
48.3493994395
 30
0.0
 11
63.0176576376
 21
34.3493994395
 31
0.0
  0
LINE
  5
CD
330
1F
100
AcDbEntity
  8
0
  6
Continuous
 62
     7
370
    25
100
AcDbLine
 10
57.0176576376
 20
48.3493994395
 30
0.0
 11
57.0176576376
 21
47.411577266
 31
0.0
  0
LINE
  5
CE
330
1F
100
AcDbEntity
  8
0
  6
Continuous
 62
     7
370
    25
100
AcDbLine
 10
57.0176576376
 20
35.287221613
 30
0.0
 11
57.0176576376
 21
34.3493994395
 31
0.0
  0
LINE
  5
CF
330
1F
100
AcDbEntity
  8
0
  6
Continuous
 62
     7
370
    25
100
AcDbLine
 10
54.0898264213
 20
44.7513975395
 30
0.0
 11
54.0898264213
 21
45.710578216
 31
0.0
  0
SPLINE
  5
D0
330
1F
100
AcDbEntity
  8
0
  6
Continuous
 62
     7
370
    25
100
AcDbSpline
210
0.0
220
0.0
230
1.0
 70
     8
 71
     3
 72
    23
 73
    19
 74
     0
 42
0.000000001
 43
0.00000001
 40
0.0
 40
0.0
 40
0.0
 40
0.0
 40
0.0611415679303346
 40
0.1200010135310723
 40
0.1782359705414083
 40
0.2364955434070171
 40
0.2948872487049731
 40
0.3546771928192958
 40
0.4166948132897783
 40
0.4806333779628393
 40
0.5458046334786407
 40
0.6097347883178743
 40
0.6729516883751544
 40
0.7360010960706834
 40
0.7998274385165249
 40
0.864767276939387
 40
0.9310835057306723
 40
1.0
 40
1.0
 40
1.0
 40
1.0
 10
53.53051821452751
 20
40.13125976988943
 30
0.0
 10
53.54075992497766
 20
40.13149286093247
 30
0.0
 10
53.56086107180644
 20
40.13195034284464
 30
0.0
 10
53.59028168540948
 20
40.13722491790083
 30
0.0
 10
53.61880649414301
 20
40.14434910934264
 30
0.0
 10
53.6457929306678
 20
40.15586245567998
 30
0.0
 10
53.67198727849816
 20
40.16957579094364
 30
0.0
 10
53.69664088360924
 20
40.18704567923901
 30
0.0
 10
53.72045218705323
 20
40.20707533377698
 30
0.0
 10
53.74254460078337
 20
40.23027161724185
 30
0.0
 10
53.76275212044791
 20
40.2555070970914
 30
0.0
 10
53.78058864298363
 20
40.28234319084463
 30
0.0
 10
53.79564231762923
 20
40.31041781489867
 30
0.0
 10
53.80820247409791
 20
40.33970384943404
 30
0.0
 10
53.81726654265333
 20
40.37053649733493
 30
0.0
 10
53.82440364457224
 20
40.40241807568635
 30
0.0
 10
53.82820165278253
 20
40.43575632133181
 30
0.0
 10
53.82886039490757
 20
40.45837486791897
 30
0.0
 10
53.8291960991429
 20
40.46990159681251
 30
0.0
  0
SPLINE
  5
D1
330
1F
100
AcDbEntity
  8
0
  6
Continuous
 62
     7
370
    25
100
AcDbSpline
210
0.0
220
0.0
230
1.0
 70
     8
 71
     3
 72
    23
 73
    19
 74
     0
 42
0.000000001
 43
0.00000001
 40
0.0
 40
0.0
 40
0.0
 40
0.0
 40
0.0679503475997537
 40
0.1332598223836998
 40
0.1978002967596474
 40
0.2608458295516822
 40
0.3233192927503671
 40
0.3862817224595722
 40
0.450061516233313
 40
0.5152075844858154
 40
0.5796407692199316
 40
0.6418172023841522
 40
0.7016924412115348
 40
0.7607690981778945
 40
0.8192540511346832
 40
0.8787376269055537
 40
0.9381582970160912
 40
1.0
 40
1.0
 40
1.0
 40
1.0
 10
53.23304225298904
 20
40.45818284681251
 30
0.0
 10
53.23337184203017
 20
40.44705475778912
 30
0.0
 10
53.23401821071896
 20
40.42523107006553
 30
0.0
 10
53.23790986471718
 20
40.39301413198083
 30
0.0
 10
53.24479335582781
 20
40.36212246596111
 30
0.0
 10
53.25457519304802
 20
40.33253458711781
 30
0.0
 10
53.26649423488407
 20
40.30400397765705
 30
0.0
 10
53.28170259491187
 20
40.27693542343261
 30
0.0
 10
53.29947984641947
 20
40.25096347950151
 30
0.0
 10
53.31981839963768
 20
40.22665346679637
 30
0.0
 10
53.34167617310629
 20
40.20400178103303
 30
0.0
 10
53.36568477457482
 20
40.18505172996221
 30
0.0
 10
53.38999989691989
 20
40.1679494481669
 30
0.0
 10
53.41609831893376
 20
40.15499506752482
 30
0.0
 10
53.44303471841263
 20
40.14413489787017
 30
0.0
 10
53.47121967915658
 20
40.13683414830288
 30
0.0
 10
53.50050789897203
 20
40.13205458264491
 30
0.0
 10
53.52038250886336
 20
40.13152821052388
 30
0.0
 10
53.53051821452751
 20
40.13125976988943
 30
0.0
  0
SPLINE
  5
D2
330
1F
100
AcDbEntity
  8
0
  6
Continuous
 62
     7
370
    25
100
AcDbSpline
210
0.0
220
0.0
230
1.0
 70
     8
 71
     3
 72
    23
 73
    19
 74
     0
 42
0.000000001
 43
0.00000001
 40
0.0
 40
0.0
 40
0.0
 40
0.0
 40
0.0618526459466917
 40
0.1212838306153701
 40
0.1807779320756125
 40
0.2392732340142805
 40
0.2986414352139417
 40
0.3581858222417117
 40
0.4207600867589709
 40
0.4852046730216432
 40
0.5503622689482871
 40
0.613649924530912
 40
0.6766234955168249
 40
0.7391080134690126
 40
0.8021647022429448
 40
0.8667165971324778
 40
0.9320376285055445
 40
1.0
 40
1.0
 40
1.0
 40
1.0
 10
53.53051821452751
 20
40.78510592373559
 30
0.0
 10
53.5203828946706
 20
40.78483679142812
 30
0.0
 10
53.50050904128982
 20
40.78430906303928
 30
0.0
 10
53.47121531587632
 20
40.77953936778608
 30
0.0
 10
53.44305100562535
 20
40.77220159613282
 30
0.0
 10
53.41599551092445
 20
40.76146104271103
 30
0.0
 10
53.39019641526105
 20
40.74798924825337
 30
0.0
 10
53.36547046012082
 20
40.73141071972145
 30
0.0
 10
53.34180057908074
 20
40.71200617163342
 30
0.0
 10
53.31978364252973
 20
40.68944876948808
 30
0.0
 10
53.29958917329031
 20
40.66512279825353
 30
0.0
 10
53.28160797996829
 20
40.6393964724484
 30
0.0
 10
53.26650858579433
 20
40.61235159180116
 30
0.0
 10
53.25457132454227
 20
40.58383383563007
 30
0.0
 10
53.24479442299997
 20
40.55424247480371
 30
0.0
 10
53.23790957388615
 20
40.52335176681736
 30
0.0
 10
53.2340182872404
 20
40.49113456957573
 30
0.0
 10
53.2333718678721
 20
40.46931091760514
 30
0.0
 10
53.23304225298904
 20
40.45818284681251
 30
0.0
  0
SPLINE
  5
D3
330
1F
100
AcDbEntity
  8
0
  6
Continuous
 62
     7
370
    25
100
AcDbSpline
210
0.0
220
0.0
230
1.0
 70
     8
 71
     3
 72
    23
 73
    19
 74
     0
 42
0.000000001
 43
0.00000001
 40
0.0
 40
0.0
 40
0.0
 40
0.0
 40
0.0705921865358071
 40
0.1385012886049299
 40
0.2037899961427012
 40
0.266787572669601
 40
0.3290979656467183
 40
0.3911745246039658
 40
0.4531677986176573
 40
0.5157967602265844
 40
0.5779688050530403
 40
0.6389663383752914
 40
0.698381066162843
 40
0.7573204555574266
 40
0.8164122397216688
 40
0.876279358230831
 40
0.936823465650193
 40
1.0
 40
1.0
 40
1.0
 40
1.0
 10
53.8291960991429
 20
40.46990159681251
 30
0.0
 10
53.8288582346883
 20
40.48132791465031
 30
0.0
 10
53.82819534741094
 20
40.50374625614402
 30
0.0
 10
53.82445135529198
 20
40.53659571235924
 30
0.0
 10
53.81735751667158
 20
40.56760164604495
 30
0.0
 10
53.80818147311531
 20
40.59711819552908
 30
0.0
 10
53.7956876477185
 20
40.62483772087659
 30
0.0
 10
53.78069151517418
 20
40.65107641950493
 30
0.0
 10
53.76286209390139
 20
40.67557392745185
 30
0.0
 10
53.74239817756533
 20
40.69790002598403
 30
0.0
 10
53.72032042328544
 20
40.71840089841839
 30
0.0
 10
53.69653149954679
 20
40.73603499649335
 30
0.0
 10
53.671758199566
 20
40.75126275760168
 30
0.0
 10
53.64576768438215
 20
40.76363965830465
 30
0.0
 10
53.61857662590747
 20
40.77327853660252
 30
0.0
 10
53.59030829505139
 20
40.7802505695452
 30
0.0
 10
53.56077361429634
 20
40.78413076874505
 30
0.0
 10
53.54074539581754
 20
40.78477629375381
 30
0.0
 10
53.53051821452751
 20
40.78510592373559
 30
0.0
  0
LINE
  5
D4
330
1F
100
AcDbEntity
  8
0
  6
Continuous
 62
     7
370
    25
100
AcDbLine
 10
67.5176576376
 20
48.3493994395
 30
0.0
 11
67.5176576376
 21
34.3493994395
 31
0.0
  0
LINE
  5
D5
330
1F
100
AcDbEntity
  8
0
  6
Continuous
 62
     7
370
    25
100
AcDbLine
 10
76.5176576376
 20
48.3493994395
 30
0.0
 11
76.5176576376
 21
34.3493994395
 31
0.0
  0
LINE
  5
D6
330
1F
100
AcDbEntity
  8
0
  6
Continuous
 62
     7
370
    25
100
AcDbLine
 10
72.0176576376
 20
48.3493994395
 30
0.0
 11
72.0176576376
 21
34.3493994395
 31
0.0
  0
LINE
  5
D7
330
1F
100
AcDbEntity
  8
0
  6
Continuous
 62
     7
370
    25
100
AcDbLine
 10
41.1064452914
 20
47.8053615537
 30
0.0
 11
41.1064452914
 21
34.8934373254
 31
0.0
  0
LINE
  5
D8
330
1F
100
AcDbEntity
  8
0
  6
Continuous
 62
     7
370
    25
100
AcDbLine
 10
51.0176576376
 20
34.5837119395
 30
0.0
 11
51.0176576376
 21
48.1150869395
 31
0.0
  0
LINE
  5
D9
330
1F
100
AcDbEntity
  8
0
  6
Continuous
 62
     7
370
    25
100
AcDbLine
 10
39.0176576376
 20
41.3493994395
 30
0.0
 11
39.0176576376
 21
46.5993994395
 31
0.0
  0
LINE
  5
DA
330
1F
100
AcDbEntity
  8
0
  6
Continuous
 62
     7
370
    25
100
AcDbLine
 10
39.0176576376
 20
36.0993994395
 30
0.0
 11
39.0176576376
 21
41.3493994395
 31
0.0
  0
LINE
  5
DB
330
1F
100
AcDbEntity
  8
0
  6
Continuous
 62
     7
370
    25
100
AcDbLine
 10
82.0176576376
 20
47.1629539097
 30
0.0
 11
82.0176576376
 21
35.5358449703
 31
0.0
  0
LINE
  5
DC
330
1F
100
AcDbEntity
  8
0
  6
Continuous
 62
     7
370
    25
100
AcDbLine
 10
54.0898264213
 20
49.112576316
 30
0.0
 11
54.0898264213
 21
49.1323032082
 31
0.0
  0
LINE
  5
DD
330
1F
100
AcDbEntity
  8
0
  6
Continuous
 62
     7
370
    25
100
AcDbLine
 10
54.0898264213
 20
33.5664956709
 30
0.0
 11
54.0898264213
 21
33.5862225631
 31
0.0
  0
LINE
  5
DE
330
1F
100
AcDbEntity
  8
0
  6
Continuous
 62
     8
370
    25
100
AcDbLine
 10
81.58521424
 20
35.0404298853
 30
0.0
 11
81.58521424
 21
47.6583689938
 31
0.0
  0
LINE
  5
DF
330
1F
100
AcDbEntity
  8
0
  6
Continuous
 62
     7
370
    18
100
AcDbLine
 10
39.8828833602
 20
47.0989377434
 30
0.0
 11
50.5176576376
 21
47.4312744395
 31
0.0
  0
LINE
  5
E0
330
1F
100
AcDbEntity
  8
0
  6
Continuous
 62
     7
370
    18
100
AcDbLine
 10
39.8828833602
 20
35.5998611357
 30
0.0
 11
50.5176576376
 21
35.2675244395
 31
0.0
  0
LINE
  5
E1
330
1F
100
AcDbEntity
  8
0
  6
Continuous
 62
     7
370
    18
100
AcDbLine
 10
50.5176576376
 20
34.5993369395
 30
0.0
 11
50.5176576376
 21
48.0994619395
 31
0.0
  0
LINE
  5
E2
330
1F
100
AcDbEntity
  8
0
  6
CENTERX2
 62
     7
370
    18
100
AcDbLine
 10
83.0176576376
 20
41.3493994395
 30
0.0
 11
37.9363999361
 21
41.3493994395
 31
0.0
  0
CIRCLE
  5
E3
330
1F
100
AcDbEntity
  8
0
  6
Continuous
 62
     7
370
    25
100
AcDbCircle
 10
100.6103679821
 20
41.3493994395
 30
0.0
 40
5.813554470200579
  0
CIRCLE
  5
E4
330
1F
100
AcDbEntity
  8
0
  6
Continuous
 62
     7
370
    25
100
AcDbCircle
 10
100.6103679821
 20
41.3493994395
 30
0.0
 40
6.308969554222728
  0
CIRCLE
  5
E5
330
1F
100
AcDbEntity
  8
0
  6
Continuous
 62
     7
370
    25
100
AcDbCircle
 10
100.6103679821
 20
41.3493994395
 30
0.0
 40
4.0
  0
CIRCLE
  5
E6
330
1F
100
AcDbEntity
  8
0
  6
Continuous
 62
     7
370
    25
100
AcDbCircle
 10
100.6103679821
 20
41.3493994395
 30
0.0
 40
3.499999999999986
  0
CIRCLE
  5
E7
330
1F
100
AcDbEntity
  8
0
  6
Continuous
 62
     7
370
    25
100
AcDbCircle
 10
100.6103679821
 20
41.3493994395
 30
0.0
 40
7.0
  0
SPLINE
  5
E8
330
1F
100
AcDbEntity
  8
0
  6
Continuous
 62
     7
370
    25
100
AcDbSpline
210
0.0
220
0.0
230
1.0
 70
    24
 71
     3
 72
    10
 73
     6
 74
     0
 42
0.000000001
 43
0.00000001
 40
0.0
 40
0.0
 40
0.0
 40
0.0
 40
0.5
 40
0.5
 40
1.0
 40
1.0
 40
1.0
 40
1.0
 10
107.610367982117
 20
37.30794755521129
 30
0.0
 10
107.610367982117
 20
37.96580891052739
 30
0.0
 10
107.610367982117
 20
38.63879027740079
 30
0.0
 10
107.610367982117
 20
39.98737669584004
 30
0.0
 10
107.610367982117
 20
40.66589933309715
 30
0.0
 10
107.610367982117
 20
41.34939943953868
 30
0.0
  0
SPLINE
  5
E9
330
1F
100
AcDbEntity
  8
0
  6
Continuous
 62
     7
370
    25
100
AcDbSpline
210
0.0
220
0.0
230
1.0
 70
    24
 71
     3
 72
    12
 73
     8
 74
     0
 42
0.000000001
 43
0.00000001
 40
0.0
 40
0.0
 40
0.0
 40
0.0
 40
0.2499999999999999
 40
0.2499999999999999
 40
0.4999999999999998
 40
0.4999999999999998
 40
1.0
 40
1.0
 40
1.0
 40
1.0
 10
104.110367982117
 20
35.28722161304761
 30
0.0
 10
104.4074017862874
 20
35.45871415984384
 30
0.0
 10
104.7057676364915
 20
35.63097576377614
 30
0.0
 10
105.2959975592213
 20
35.97174516854797
 30
0.0
 10
105.5891384388499
 20
36.140990134312
 30
0.0
 10
106.4633546445325
 20
36.6457190959928
 30
0.0
 10
107.0392437957249
 20
36.97820885245713
 30
0.0
 10
107.610367982117
 20
37.30794755521131
 30
0.0
  0
SPLINE
  5
EA
330
1F
100
AcDbEntity
  8
0
  6
Continuous
 62
     7
370
    25
100
AcDbSpline
210
0.0
220
0.0
230
1.0
 70
    24
 71
     3
 72
    10
 73
     6
 74
     0
 42
0.000000001
 43
0.00000001
 40
0.0
 40
0.0
 40
0.0
 40
0.0
 40
0.5
 40
0.5
 40
1.0
 40
1.0
 40
1.0
 40
1.0
 10
107.6103679821171
 20
45.39085132386603
 30
0.0
 10
107.0378143411482
 20
45.72141532260492
 30
0.0
 10
106.4610783813887
 20
46.05439398422338
 30
0.0
 10
105.2955486819712
 20
46.72731286993058
 30
0.0
 10
104.7066648089043
 20
47.06730513256717
 30
0.0
 10
104.110367982117
 20
47.41157726602975
 30
0.0
  0
SPLINE
  5
EB
330
1F
100
AcDbEntity
  8
0
  6
Continuous
 62
     7
370
    25
100
AcDbSpline
210
0.0
220
0.0
230
1.0
 70
    24
 71
     3
 72
    10
 73
     6
 74
     0
 42
0.000000001
 43
0.00000001
 40
0.0
 40
0.0
 40
0.0
 40
0.0
 40
0.4999999999999998
 40
0.4999999999999998
 40
1.0
 40
1.0
 40
1.0
 40
1.0
 10
107.610367982117
 20
41.34939943953868
 30
0.0
 10
107.610367982117
 20
42.03338033837136
 30
0.0
 10
107.610367982117
 20
42.72626460171873
 30
0.0
 10
107.610367982117
 20
44.07528164015991
 30
0.0
 10
107.610367982117
 20
44.73724166546965
 30
0.0
 10
107.610367982117
 20
45.39085132386606
 30
0.0
  0
SPLINE
  5
EC
330
1F
100
AcDbEntity
  8
0
  6
Continuous
 62
     7
370
    25
100
AcDbSpline
210
0.0
220
0.0
230
1.0
 70
    24
 71
     3
 72
    12
 73
     8
 74
     0
 42
0.000000001
 43
0.00000001
 40
0.0
 40
0.0
 40
0.0
 40
0.0
 40
0.25
 40
0.25
 40
0.5
 40
0.5
 40
1.0
 40
1.0
 40
1.0
 40
1.0
 10
97.11036798211698
 20
35.28722161304761
 30
0.0
 10
97.40740178628742
 20
35.11572906625138
 30
0.0
 10
97.7057676364915
 20
34.94346746231907
 30
0.0
 10
98.2959975592213
 20
34.60269805754724
 30
0.0
 10
98.58913843884986
 20
34.43345309178322
 30
0.0
 10
99.46335464453252
 20
33.92872413010241
 30
0.0
 10
100.0392437957249
 20
33.59623437363808
 30
0.0
 10
100.610367982117
 20
33.2664956708839
 30
0.0
  0
SPLINE
  5
ED
330
1F
100
AcDbEntity
  8
0
  6
Continuous
 62
     7
370
    25
100
AcDbSpline
210
0.0
220
0.0
230
1.0
 70
    24
 71
     3
 72
    10
 73
     6
 74
     0
 42
0.000000001
 43
0.00000001
 40
0.0
 40
0.0
 40
0.0
 40
0.0
 40
0.5
 40
0.5
 40
1.0
 40
1.0
 40
1.0
 40
1.0
 10
100.6103679821169
 20
33.26649567088388
 30
0.0
 10
101.1829216230858
 20
33.59705966962277
 30
0.0
 10
101.7596575828453
 20
33.93003833124124
 30
0.0
 10
102.9251872822628
 20
34.60295721694843
 30
0.0
 10
103.5140711553297
 20
34.94294947958502
 30
0.0
 10
104.110367982117
 20
35.28722161304761
 30
0.0
  0
SPLINE
  5
EE
330
1F
100
AcDbEntity
  8
0
  6
Continuous
 62
     7
370
    25
100
AcDbSpline
210
0.0
220
0.0
230
1.0
 70
    24
 71
     3
 72
    10
 73
     6
 74
     0
 42
0.000000001
 43
0.00000001
 40
0.0
 40
0.0
 40
0.0
 40
0.0
 40
0.5
 40
0.5
 40
1.0
 40
1.0
 40
1.0
 40
1.0
 10
100.610367982117
 20
49.43230320819348
 30
0.0
 10
100.0378143411482
 20
49.10173920945459
 30
0.0
 10
99.46107838138869
 20
48.76876054783612
 30
0.0
 10
98.2955486819712
 20
48.09584166212893
 30
0.0
 10
97.70666480890432
 20
47.75584939949233
 30
0.0
 10
97.11036798211698
 20
47.41157726602975
 30
0.0
  0
SPLINE
  5
EF
330
1F
100
AcDbEntity
  8
0
  6
Continuous
 62
     7
370
    25
100
AcDbSpline
210
0.0
220
0.0
230
1.0
 70
    24
 71
     3
 72
    12
 73
     8
 74
     0
 42
0.000000001
 43
0.00000001
 40
0.0
 40
0.0
 40
0.0
 40
0.0
 40
0.2500000000000001
 40
0.2500000000000001
 40
0.5000000000000001
 40
0.5000000000000001
 40
1.0
 40
1.0
 40
1.0
 40
1.0
 10
104.110367982117
 20
47.41157726602975
 30
0.0
 10
103.8133341779465
 20
47.58306981282598
 30
0.0
 10
103.5149683277425
 20
47.7553314167583
 30
0.0
 10
102.9247384050127
 20
48.09610082153011
 30
0.0
 10
102.6315975253841
 20
48.26534578729414
 30
0.0
 10
101.7573813197015
 20
48.77007474897496
 30
0.0
 10
101.1814921685091
 20
49.10256450543928
 30
0.0
 10
100.610367982117
 20
49.43230320819346
 30
0.0
  0
SPLINE
  5
F0
330
1F
100
AcDbEntity
  8
0
  6
Continuous
 62
     7
370
    25
100
AcDbSpline
210
0.0
220
0.0
230
1.0
 70
    24
 71
     3
 72
    10
 73
     6
 74
     0
 42
0.000000001
 43
0.00000001
 40
0.0
 40
0.0
 40
0.0
 40
0.0
 40
0.5
 40
0.5
 40
1.0
 40
1.0
 40
1.0
 40
1.0
 10
93.61036798211698
 20
41.34939943953868
 30
0.0
 10
93.61036798211698
 20
42.0333803383744
 30
0.0
 10
93.61036798211698
 20
42.72626460172175
 30
0.0
 10
93.61036798211698
 20
44.07528164015994
 30
0.0
 10
93.61036798211698
 20
44.73724166546931
 30
0.0
 10
93.61036798211698
 20
45.39085132386606
 30
0.0
  0
SPLINE
  5
F1
330
1F
100
AcDbEntity
  8
0
  6
Continuous
 62
     7
370
    25
100
AcDbSpline
210
0.0
220
0.0
230
1.0
 70
    24
 71
     3
 72
    12
 73
     8
 74
     0
 42
0.000000001
 43
0.00000001
 40
0.0
 40
0.0
 40
0.0
 40
0.0
 40
0.2499999999999999
 40
0.2499999999999999
 40
0.4999999999999998
 40
0.4999999999999998
 40
1.0
 40
1.0
 40
1.0
 40
1.0
 10
97.11036798211698
 20
47.41157726602975
 30
0.0
 10
96.81333417794654
 20
47.24008471923353
 30
0.0
 10
96.51496832774248
 20
47.06782311530122
 30
0.0
 10
95.92473840501268
 20
46.72705371052939
 30
0.0
 10
95.63159752538412
 20
46.55780874476536
 30
0.0
 10
94.75738131970147
 20
46.05307978308456
 30
0.0
 10
94.18149216850905
 20
45.72059002662023
 30
0.0
 10
93.61036798211695
 20
45.39085132386604
 30
0.0
  0
SPLINE
  5
F2
330
1F
100
AcDbEntity
  8
0
  6
Continuous
 62
     7
370
    25
100
AcDbSpline
210
0.0
220
0.0
230
1.0
 70
    24
 71
     3
 72
    10
 73
     6
 74
     0
 42
0.000000001
 43
0.00000001
 40
0.0
 40
0.0
 40
0.0
 40
0.0
 40
0.5
 40
0.5
 40
1.0
 40
1.0
 40
1.0
 40
1.0
 10
93.61036798211698
 20
37.30794755521129
 30
0.0
 10
93.61036798211698
 20
37.96580891052633
 30
0.0
 10
93.61036798211698
 20
38.63879027739879
 30
0.0
 10
93.61036798211698
 20
39.98737669583819
 30
0.0
 10
93.61036798211698
 20
40.66589933309589
 30
0.0
 10
93.61036798211698
 20
41.34939943953868
 30
0.0
  0
SPLINE
  5
F3
330
1F
100
AcDbEntity
  8
0
  6
Continuous
 62
     7
370
    25
100
AcDbSpline
210
0.0
220
0.0
230
1.0
 70
    24
 71
     3
 72
    10
 73
     6
 74
     0
 42
0.000000001
 43
0.00000001
 40
0.0
 40
0.0
 40
0.0
 40
0.0
 40
0.5
 40
0.5
 40
1.0
 40
1.0
 40
1.0
 40
1.0
 10
93.61036798211693
 20
37.30794755521134
 30
0.0
 10
94.1829216230858
 20
36.97738355647245
 30
0.0
 10
94.75965758284528
 20
36.64440489485398
 30
0.0
 10
95.92518728226278
 20
35.97148600914679
 30
0.0
 10
96.51407115532966
 20
35.63149374651019
 30
0.0
 10
97.11036798211698
 20
35.28722161304761
 30
0.0
  0
INSERT
  5
FF
330
1F
100
AcDbEntity
  8
0
  6
Continuous
 62
     7
370
    18
100
AcDbBlockReference
  2
SW_CENTERMARKSYMBOL_0
 10
100.6103679821
 20
41.3493994395
 30
0.0
  0
INSERT
  5
10B
330
1F
100
AcDbEntity
  8
0
  6
Continuous
 62
     7
370
    18
100
AcDbBlockReference
  2
SW_CENTERMARKSYMBOL_1
 10
100.6103679821
 20
41.3493994395
 30
0.0
  0
LINE
  5
10C
330
1F
100
AcDbEntity
  8
0
  6
Continuous
 62
     7
370
    25
100
AcDbLine
 10
51.1619952049
 20
77.244626958
 30
0.0
 11
51.0176576376
 21
76.994626958
 31
0.0
  0
LINE
  5
10D
330
1F
100
AcDbEntity
  8
0
  6
Continuous
 62
     7
370
    25
100
AcDbLine
 10
51.0176576376
 20
63.494626958
 30
0.0
 11
51.1619952049
 21
63.244626958
 31
0.0
  0
LINE
  5
10E
330
1F
100
AcDbEntity
  8
0
  6
Continuous
 62
     7
370
    25
100
AcDbLine
 10
76.5176576376
 20
63.244626958
 30
0.0
 11
81.58521424
 21
63.9356574038
 31
0.0
  0
LINE
  5
10F
330
1F
100
AcDbEntity
  8
0
  6
Continuous
 62
     7
370
    25
100
AcDbLine
 10
81.58521424
 20
76.5535965122
 30
0.0
 11
76.5176576376
 21
77.244626958
 31
0.0
  0
LINE
  5
110
330
1F
100
AcDbEntity
  8
0
  6
Continuous
 62
     7
370
    25
100
AcDbLine
 10
63.0176576376
 20
63.244626958
 30
0.0
 11
67.5176576376
 21
63.994626958
 31
0.0
  0
LINE
  5
111
330
1F
100
AcDbEntity
  8
0
  6
Continuous
 62
     7
370
    25
100
AcDbLine
 10
67.5176576376
 20
76.494626958
 30
0.0
 11
63.0176576376
 21
77.244626958
 31
0.0
  0
LINE
  5
112
330
1F
100
AcDbEntity
  8
0
  6
Continuous
 62
     7
370
    25
100
AcDbLine
 10
63.0176576376
 20
77.244626958
 30
0.0
 11
57.0176576376
 21
77.244626958
 31
0.0
  0
LINE
  5
113
330
1F
100
AcDbEntity
  8
0
  6
Continuous
 62
     7
370
    25
100
AcDbLine
 10
57.0176576376
 20
63.244626958
 30
0.0
 11
63.0176576376
 21
63.244626958
 31
0.0
  0
LINE
  5
114
330
1F
100
AcDbEntity
  8
0
  6
Continuous
 62
     7
370
    25
100
AcDbLine
 10
67.5176576376
 20
63.244626958
 30
0.0
 11
72.0176576376
 21
63.994626958
 31
0.0
  0
LINE
  5
115
330
1F
100
AcDbEntity
  8
0
  6
Continuous
 62
     7
370
    25
100
AcDbLine
 10
72.0176576376
 20
76.494626958
 30
0.0
 11
67.5176576376
 21
77.244626958
 31
0.0
  0
LINE
  5
116
330
1F
100
AcDbEntity
  8
0
  6
Continuous
 62
     7
370
    25
100
AcDbLine
 10
72.0176576376
 20
63.244626958
 30
0.0
 11
76.5176576376
 21
63.994626958
 31
0.0
  0
LINE
  5
117
330
1F
100
AcDbEntity
  8
0
  6
Continuous
 62
     7
370
    25
100
AcDbLine
 10
76.5176576376
 20
76.494626958
 30
0.0
 11
72.0176576376
 21
77.244626958
 31
0.0
  0
LINE
  5
118
330
1F
100
AcDbEntity
  8
0
  6
Continuous
 62
     7
370
    25
100
AcDbLine
 10
51.0176576376
 20
77.010314458
 30
0.0
 11
41.1064452914
 21
76.7005890722
 31
0.0
  0
LINE
  5
119
330
1F
100
AcDbEntity
  8
0
  6
Continuous
 62
     7
370
    25
100
AcDbLine
 10
41.1064452914
 20
63.7886648438
 30
0.0
 11
51.0176576376
 21
63.478939458
 31
0.0
  0
LINE
  5
11A
330
1F
100
AcDbEntity
  8
0
  6
Continuous
 62
     7
370
    25
100
AcDbLine
 10
41.1064452914
 20
76.7005890722
 30
0.0
 11
39.0176576376
 21
75.494626958
 31
0.0
  0
LINE
  5
11B
330
1F
100
AcDbEntity
  8
0
  6
Continuous
 62
     7
370
    25
100
AcDbLine
 10
39.0176576376
 20
64.994626958
 30
0.0
 11
41.1064452914
 21
63.7886648438
 31
0.0
  0
ARC
  5
11C
330
1F
100
AcDbEntity
  8
0
  6
Continuous
 62
     7
370
    25
100
AcDbCircle
 10
81.5176576376
 20
76.0581814282
 30
0.0
 40
0.5
100
AcDbArc
 50
0.0
 51
82.2348339816
  0
ARC
  5
11D
330
1F
100
AcDbEntity
  8
0
  6
Continuous
 62
     7
370
    25
100
AcDbCircle
 10
81.5176576376
 20
64.4310724878
 30
0.0
 40
0.5000000000000003
100
AcDbArc
 50
277.7651660184
 51
0.0
  0
LINE
  5
11E
330
1F
100
AcDbEntity
  8
0
  6
Continuous
 62
     7
370
    25
100
AcDbLine
 10
54.0094416635
 20
70.244626958
 30
0.0
 11
51.7872099872
 21
70.244626958
 31
0.0
  0
SPLINE
  5
11F
330
1F
100
AcDbEntity
  8
0
  6
Continuous
 62
     7
370
    25
100
AcDbSpline
210
0.0
220
0.0
230
1.0
 70
     8
 71
     3
 72
    16
 73
    12
 74
     0
 42
0.000000001
 43
0.00000001
 40
0.0
 40
0.0
 40
0.0
 40
0.0
 40
0.2500000000000002
 40
0.2500000000000002
 40
0.5000000000000003
 40
0.5000000000000003
 40
0.6250000000000003
 40
0.6250000000000003
 40
0.7500000000000002
 40
0.7500000000000002
 40
1.0
 40
1.0
 40
1.0
 40
1.0
 10
51.78720998724062
 20
77.24462695799505
 30
0.0
 10
51.59671551625585
 20
76.6731435450407
 30
0.0
 10
51.43971350304275
 20
76.09749344310832
 30
0.0
 10
51.22221469220472
 20
74.9341873356799
 30
0.0
 10
51.16243533113467
 20
74.34644207620897
 30
0.0
 10
51.16177883028071
 20
73.4537504230231
 30
0.0
 10
51.1763925967642
 20
73.15478674410639
 30
0.0
 10
51.23337845464102
 20
72.56340499417185
 30
0.0
 10
51.27569272390026
 20
72.26969680385265
 30
0.0
 10
51.43908754379045
 20
71.39380130931815
 30
0.0
 10
51.59647807110387
 20
70.81682270640596
 30
0.0
 10
51.78720998724087
 20
70.24462695799497
 30
0.0
  0
LINE
  5
120
330
1F
100
AcDbEntity
  8
0
  6
Continuous
 62
     7
370
    25
100
AcDbLine
 10
54.0094416635
 20
77.244626958
 30
0.0
 11
51.7872099872
 21
77.244626958
 31
0.0
  0
SPLINE
  5
121
330
1F
100
AcDbEntity
  8
0
  6
Continuous
 62
     7
370
    25
100
AcDbSpline
210
0.0
220
0.0
230
1.0
 70
     8
 71
     3
 72
     8
 73
     4
 74
     0
 42
0.000000001
 43
0.00000001
 40
0.0
 40
0.0
 40
0.0
 40
0.0
 40
1.0
 40
1.0
 40
1.0
 40
1.0
 10
54.08982642125314
 20
76.6908437361879
 30
0.0
 10
54.06482600833044
 20
76.87569948235608
 30
0.0
 10
54.03795969687022
 20
77.06028349257986
 30
0.0
 10
54.0094416635238
 20
77.244626957995
 30
0.0
  0
SPLINE
  5
122
330
1F
100
AcDbEntity
  8
0
  6
Continuous
 62
     7
370
    25
100
AcDbSpline
210
0.0
220
0.0
230
1.0
 70
     8
 71
     3
 72
     8
 73
     4
 74
     0
 42
0.000000001
 43
0.00000001
 40
0.0
 40
0.0
 40
0.0
 40
0.0
 40
1.0
 40
1.0
 40
1.0
 40
1.0
 10
54.17021117898248
 20
77.244626957995
 30
0.0
 10
54.14167736414438
 20
77.06018147941403
 30
0.0
 10
54.11481244233759
 20
76.87559306755381
 30
0.0
 10
54.08982642125314
 20
76.6908437361879
 30
0.0
  0
LINE
  5
123
330
1F
100
AcDbEntity
  8
0
  6
Continuous
 62
     7
370
    25
100
AcDbLine
 10
56.3924428553
 20
77.244626958
 30
0.0
 11
54.170211179
 21
77.244626958
 31
0.0
  0
SPLINE
  5
124
330
1F
100
AcDbEntity
  8
0
  6
Continuous
 62
     7
370
    25
100
AcDbSpline
210
0.0
220
0.0
230
1.0
 70
     8
 71
     3
 72
    10
 73
     6
 74
     0
 42
0.000000001
 43
0.00000001
 40
0.0
 40
0.0
 40
0.0
 40
0.0
 40
0.5
 40
0.5
 40
1.0
 40
1.0
 40
1.0
 40
1.0
 10
56.39244285526565
 20
77.24462695799505
 30
0.0
 10
56.58329406892194
 20
76.67207331702618
 30
0.0
 10
56.74052719007857
 20
76.0953373572667
 30
0.0
 10
56.95807122720685
 20
74.92980765784921
 30
0.0
 10
57.01765763760444
 20
74.34092378478232
 30
0.0
 10
57.01765763760444
 20
73.744626957995
 30
0.0
  0
SPLINE
  5
125
330
1F
100
AcDbEntity
  8
0
  6
Continuous
 62
     7
370
    25
100
AcDbSpline
210
0.0
220
0.0
230
1.0
 70
     8
 71
     3
 72
    12
 73
     8
 74
     0
 42
0.000000001
 43
0.00000001
 40
0.0
 40
0.0
 40
0.0
 40
0.0
 40
0.2500000000000001
 40
0.2500000000000001
 40
0.5000000000000001
 40
0.5000000000000001
 40
1.0
 40
1.0
 40
1.0
 40
1.0
 10
57.01765763760444
 20
73.744626957995
 30
0.0
 10
57.01765763760444
 20
73.44759315382456
 30
0.0
 10
57.00287987914395
 20
73.14922730362049
 30
0.0
 10
56.9456916781487
 20
72.55899738089067
 30
0.0
 10
56.90333620842586
 20
72.26585650126214
 30
0.0
 10
56.73997563355324
 20
71.39164029557946
 30
0.0
 10
56.58281758406277
 20
70.81575114438706
 30
0.0
 10
56.3924428552654
 20
70.24462695799497
 30
0.0
  0
LINE
  5
126
330
1F
100
AcDbEntity
  8
0
  6
Continuous
 62
     7
370
    25
100
AcDbLine
 10
56.3924428553
 20
70.244626958
 30
0.0
 11
54.170211179
 21
70.244626958
 31
0.0
  0
SPLINE
  5
127
330
1F
100
AcDbEntity
  8
0
  6
Continuous
 62
     7
370
    25
100
AcDbSpline
210
0.0
220
0.0
230
1.0
 70
     8
 71
     3
 72
     8
 73
     4
 74
     0
 42
0.000000001
 43
0.00000001
 40
0.0
 40
0.0
 40
0.0
 40
0.0
 40
1.0
 40
1.0
 40
1.0
 40
1.0
 10
54.08982642125314
 20
70.79841017980209
 30
0.0
 10
54.11482683417584
 20
70.61355443363392
 30
0.0
 10
54.14169314563605
 20
70.42897042341015
 30
0.0
 10
54.17021117898248
 20
70.244626957995
 30
0.0
  0
SPLINE
  5
128
330
1F
100
AcDbEntity
  8
0
  6
Continuous
 62
     7
370
    25
100
AcDbSpline
210
0.0
220
0.0
230
1.0
 70
     8
 71
     3
 72
     8
 73
     4
 74
     0
 42
0.000000001
 43
0.00000001
 40
0.0
 40
0.0
 40
0.0
 40
0.0
 40
1.0
 40
1.0
 40
1.0
 40
1.0
 10
54.0094416635238
 20
70.244626957995
 30
0.0
 10
54.03797547836189
 20
70.42907243657596
 30
0.0
 10
54.06484040016868
 20
70.6136608484362
 30
0.0
 10
54.08982642125314
 20
70.79841017980209
 30
0.0
  0
SPLINE
  5
129
330
1F
100
AcDbEntity
  8
0
  6
Continuous
 62
     7
370
    25
100
AcDbSpline
210
0.0
220
0.0
230
1.0
 70
     8
 71
     3
 72
    16
 73
    12
 74
     0
 42
0.000000001
 43
0.00000001
 40
0.0
 40
0.0
 40
0.0
 40
0.0
 40
0.2500000000000001
 40
0.2500000000000001
 40
0.5000000000000001
 40
0.5000000000000001
 40
0.625
 40
0.625
 40
0.7499999999999999
 40
0.7499999999999999
 40
1.0
 40
1.0
 40
1.0
 40
1.0
 10
51.78720998724063
 20
70.24462695799507
 30
0.0
 10
51.59671551625585
 20
69.67314354504072
 30
0.0
 10
51.43971350304275
 20
69.0974934431083
 30
0.0
 10
51.22221469220472
 20
67.9341873356799
 30
0.0
 10
51.16243533113467
 20
67.34644207620896
 30
0.0
 10
51.16177883028071
 20
66.4537504230231
 30
0.0
 10
51.17639259676419
 20
66.15478674410639
 30
0.0
 10
51.23337845464102
 20
65.56340499417186
 30
0.0
 10
51.27569272390026
 20
65.26969680385267
 30
0.0
 10
51.43908754379044
 20
64.39380130931814
 30
0.0
 10
51.59647807110387
 20
63.81682270640596
 30
0.0
 10
51.78720998724087
 20
63.24462695799496
 30
0.0
  0
SPLINE
  5
12A
330
1F
100
AcDbEntity
  8
0
  6
Continuous
 62
     7
370
    25
100
AcDbSpline
210
0.0
220
0.0
230
1.0
 70
    24
 71
     3
 72
    13
 73
     9
 74
     0
 42
0.000000001
 43
0.00000001
 40
0.0
 40
0.0
 40
0.0
 40
0.0
 40
0.1834904758871961
 40
0.3672889161322702
 40
0.5522822120671295
 40
0.7378141490942756
 40
0.9867807420007799
 40
1.0
 40
1.0
 40
1.0
 40
1.0
 10
51.78720998724112
 20
63.24462695799499
 30
0.0
 10
51.72007377818657
 20
63.24462695799499
 30
0.0
 10
51.58568868088029
 20
63.244626957995
 30
0.0
 10
51.42172008335553
 20
63.24462695799499
 30
0.0
 10
51.2897902829387
 20
63.24462695799499
 30
0.0
 10
51.19604840105826
 20
63.24462695799499
 30
0.0
 10
51.14923135470899
 20
63.244626957995
 30
0.0
 10
51.16344476969611
 20
63.24462695799499
 30
0.0
 10
51.16416140180694
 20
63.24462695799499
 30
0.0
  0
SPLINE
  5
12B
330
1F
100
AcDbEntity
  8
0
  6
Continuous
 62
     7
370
    25
100
AcDbSpline
210
0.0
220
0.0
230
1.0
 70
    24
 71
     3
 72
    13
 73
     9
 74
     0
 42
0.000000001
 43
0.00000001
 40
0.0
 40
0.0
 40
0.0
 40
0.0
 40
0.0049663475476172
 40
0.2621810103107987
 40
0.44542579803038
 40
0.6292319342147805
 40
0.8144401613383151
 40
1.0
 40
1.0
 40
1.0
 40
1.0
 10
51.16285227325615
 20
77.244626957995
 30
0.0
 10
51.16256725969725
 20
77.244626957995
 30
0.0
 10
51.14752096217025
 20
77.24462695799498
 30
0.0
 10
51.19487468050628
 20
77.244626957995
 30
0.0
 10
51.28872403964078
 20
77.244626957995
 30
0.0
 10
51.41962298187968
 20
77.244626957995
 30
0.0
 10
51.58373700873785
 20
77.24462695799498
 30
0.0
 10
51.71934279459937
 20
77.244626957995
 30
0.0
 10
51.78720998724112
 20
77.244626957995
 30
0.0
  0
LINE
  5
12C
330
1F
100
AcDbEntity
  8
0
  6
Continuous
 62
     7
370
    25
100
AcDbLine
 10
57.0176576376
 20
73.744626958
 30
0.0
 11
57.0176576376
 21
66.744626958
 31
0.0
  0
SPLINE
  5
12D
330
1F
100
AcDbEntity
  8
0
  6
Continuous
 62
     7
370
    25
100
AcDbSpline
210
0.0
220
0.0
230
1.0
 70
     8
 71
     3
 72
    10
 73
     6
 74
     0
 42
0.000000001
 43
0.00000001
 40
0.0
 40
0.0
 40
0.0
 40
0.0
 40
0.5
 40
0.5
 40
1.0
 40
1.0
 40
1.0
 40
1.0
 10
56.39244285526565
 20
70.24462695799507
 30
0.0
 10
56.58329406892194
 20
69.67207331702618
 30
0.0
 10
56.74052719007857
 20
69.0953373572667
 30
0.0
 10
56.95807122720685
 20
67.9298076578492
 30
0.0
 10
57.01765763760444
 20
67.34092378478232
 30
0.0
 10
57.01765763760444
 20
66.744626957995
 30
0.0
  0
LINE
  5
12E
330
1F
100
AcDbEntity
  8
0
  6
Continuous
 62
     7
370
    25
100
AcDbLine
 10
54.0898264213
 20
69.6908437362
 30
0.0
 11
54.0898264213
 21
70.7984101798
 31
0.0
  0
SPLINE
  5
12F
330
1F
100
AcDbEntity
  8
0
  6
Continuous
 62
     7
370
    25
100
AcDbSpline
210
0.0
220
0.0
230
1.0
 70
     8
 71
     3
 72
     8
 73
     4
 74
     0
 42
0.000000001
 43
0.00000001
 40
0.0
 40
0.0
 40
0.0
 40
0.0
 40
1.0
 40
1.0
 40
1.0
 40
1.0
 10
54.08982642125314
 20
69.69084373618789
 30
0.0
 10
54.06482600833044
 20
69.87569948235608
 30
0.0
 10
54.03795969687022
 20
70.06028349257986
 30
0.0
 10
54.0094416635238
 20
70.244626957995
 30
0.0
  0
SPLINE
  5
130
330
1F
100
AcDbEntity
  8
0
  6
Continuous
 62
     7
370
    25
100
AcDbSpline
210
0.0
220
0.0
230
1.0
 70
     8
 71
     3
 72
     8
 73
     4
 74
     0
 42
0.000000001
 43
0.00000001
 40
0.0
 40
0.0
 40
0.0
 40
0.0
 40
1.0
 40
1.0
 40
1.0
 40
1.0
 10
54.17021117898248
 20
70.244626957995
 30
0.0
 10
54.14167736414438
 20
70.06018147941404
 30
0.0
 10
54.11481244233759
 20
69.87559306755381
 30
0.0
 10
54.08982642125314
 20
69.69084373618789
 30
0.0
  0
LINE
  5
131
330
1F
100
AcDbEntity
  8
0
  6
Continuous
 62
     7
370
    25
100
AcDbLine
 10
54.0094416635
 20
63.244626958
 30
0.0
 11
51.7872099872
 21
63.244626958
 31
0.0
  0
SPLINE
  5
132
330
1F
100
AcDbEntity
  8
0
  6
Continuous
 62
     7
370
    25
100
AcDbSpline
210
0.0
220
0.0
230
1.0
 70
     8
 71
     3
 72
    12
 73
     8
 74
     0
 42
0.000000001
 43
0.00000001
 40
0.0
 40
0.0
 40
0.0
 40
0.0
 40
0.2499999999999999
 40
0.2499999999999999
 40
0.4999999999999998
 40
0.4999999999999998
 40
1.0
 40
1.0
 40
1.0
 40
1.0
 10
57.01765763760444
 20
66.744626957995
 30
0.0
 10
57.01765763760444
 20
66.44759315382456
 30
0.0
 10
57.00287987914395
 20
66.14922730362048
 30
0.0
 10
56.9456916781487
 20
65.55899738089067
 30
0.0
 10
56.90333620842586
 20
65.26585650126212
 30
0.0
 10
56.73997563355324
 20
64.39164029557946
 30
0.0
 10
56.58281758406278
 20
63.81575114438706
 30
0.0
 10
56.3924428552654
 20
63.24462695799496
 30
0.0
  0
LINE
  5
133
330
1F
100
AcDbEntity
  8
0
  6
Continuous
 62
     7
370
    25
100
AcDbLine
 10
56.3924428553
 20
63.244626958
 30
0.0
 11
54.170211179
 21
63.244626958
 31
0.0
  0
SPLINE
  5
134
330
1F
100
AcDbEntity
  8
0
  6
Continuous
 62
     7
370
    25
100
AcDbSpline
210
0.0
220
0.0
230
1.0
 70
     8
 71
     3
 72
     8
 73
     4
 74
     0
 42
0.000000001
 43
0.00000001
 40
0.0
 40
0.0
 40
0.0
 40
0.0
 40
1.0
 40
1.0
 40
1.0
 40
1.0
 10
54.08982642125314
 20
63.79841017980209
 30
0.0
 10
54.11482683417584
 20
63.61355443363391
 30
0.0
 10
54.14169314563605
 20
63.42897042341013
 30
0.0
 10
54.17021117898248
 20
63.24462695799499
 30
0.0
  0
SPLINE
  5
135
330
1F
100
AcDbEntity
  8
0
  6
Continuous
 62
     7
370
    25
100
AcDbSpline
210
0.0
220
0.0
230
1.0
 70
     8
 71
     3
 72
     8
 73
     4
 74
     0
 42
0.000000001
 43
0.00000001
 40
0.0
 40
0.0
 40
0.0
 40
0.0
 40
1.0
 40
1.0
 40
1.0
 40
1.0
 10
54.0094416635238
 20
63.24462695799499
 30
0.0
 10
54.03797547836189
 20
63.42907243657596
 30
0.0
 10
54.06484040016868
 20
63.61366084843618
 30
0.0
 10
54.08982642125314
 20
63.79841017980209
 30
0.0
  0
LINE
  5
136
330
1F
100
AcDbEntity
  8
0
  6
Continuous
 62
     7
370
    25
100
AcDbLine
 10
76.5176576376
 20
70.244626958
 30
0.0
 11
76.5176576376
 21
63.244626958
 31
0.0
  0
LINE
  5
137
330
1F
100
AcDbEntity
  8
0
  6
Continuous
 62
     7
370
    25
100
AcDbLine
 10
76.5176576376
 20
77.244626958
 30
0.0
 11
76.5176576376
 21
70.244626958
 31
0.0
  0
LINE
  5
138
330
1F
100
AcDbEntity
  8
0
  6
Continuous
 62
     7
370
    25
100
AcDbLine
 10
63.0176576376
 20
70.244626958
 30
0.0
 11
63.0176576376
 21
63.244626958
 31
0.0
  0
LINE
  5
139
330
1F
100
AcDbEntity
  8
0
  6
Continuous
 62
     7
370
    25
100
AcDbLine
 10
63.0176576376
 20
77.244626958
 30
0.0
 11
63.0176576376
 21
70.244626958
 31
0.0
  0
LINE
  5
13A
330
1F
100
AcDbEntity
  8
0
  6
Continuous
 62
     7
370
    25
100
AcDbLine
 10
57.0176576376
 20
77.244626958
 30
0.0
 11
57.0176576376
 21
73.744626958
 31
0.0
  0
LINE
  5
13B
330
1F
100
AcDbEntity
  8
0
  6
Continuous
 62
     7
370
    25
100
AcDbLine
 10
57.0176576376
 20
66.744626958
 30
0.0
 11
57.0176576376
 21
63.244626958
 31
0.0
  0
LINE
  5
13C
330
1F
100
AcDbEntity
  8
0
  6
Continuous
 62
     7
370
    25
100
AcDbLine
 10
67.5176576376
 20
70.244626958
 30
0.0
 11
67.5176576376
 21
63.244626958
 31
0.0
  0
LINE
  5
13D
330
1F
100
AcDbEntity
  8
0
  6
Continuous
 62
     7
370
    25
100
AcDbLine
 10
67.5176576376
 20
77.244626958
 30
0.0
 11
67.5176576376
 21
70.244626958
 31
0.0
  0
LINE
  5
13E
330
1F
100
AcDbEntity
  8
0
  6
Continuous
 62
     7
370
    25
100
AcDbLine
 10
72.0176576376
 20
70.244626958
 30
0.0
 11
72.0176576376
 21
63.244626958
 31
0.0
  0
LINE
  5
13F
330
1F
100
AcDbEntity
  8
0
  6
Continuous
 62
     7
370
    25
100
AcDbLine
 10
72.0176576376
 20
77.244626958
 30
0.0
 11
72.0176576376
 21
70.244626958
 31
0.0
  0
LINE
  5
140
330
1F
100
AcDbEntity
  8
0
  6
Continuous
 62
     7
370
    25
100
AcDbLine
 10
41.1064452914
 20
76.7005890722
 30
0.0
 11
41.1064452914
 21
63.7886648438
 31
0.0
  0
LINE
  5
141
330
1F
100
AcDbEntity
  8
0
  6
Continuous
 62
     7
370
    25
100
AcDbLine
 10
51.0176576376
 20
63.478939458
 30
0.0
 11
51.0176576376
 21
77.010314458
 31
0.0
  0
LINE
  5
142
330
1F
100
AcDbEntity
  8
0
  6
Continuous
 62
     7
370
    25
100
AcDbLine
 10
39.0176576376
 20
64.994626958
 30
0.0
 11
39.0176576376
 21
75.494626958
 31
0.0
  0
LINE
  5
143
330
1F
100
AcDbEntity
  8
0
  6
Continuous
 62
     7
370
    25
100
AcDbLine
 10
82.0176576376
 20
70.244626958
 30
0.0
 11
82.0176576376
 21
64.4310724878
 31
0.0
  0
LINE
  5
144
330
1F
100
AcDbEntity
  8
0
  6
Continuous
 62
     7
370
    25
100
AcDbLine
 10
82.0176576376
 20
76.0581814282
 30
0.0
 11
82.0176576376
 21
70.244626958
 31
0.0
  0
SPLINE
  5
145
330
1F
100
AcDbEntity
  8
0
  6
Continuous
 62
     7
370
    25
100
AcDbSpline
210
0.0
220
0.0
230
1.0
 70
    24
 71
     3
 72
    10
 73
     6
 74
     0
 42
0.000000001
 43
0.00000001
 40
0.0
 40
0.0
 40
0.0
 40
0.0
 40
0.4999999999999998
 40
0.4999999999999998
 40
1.0
 40
1.0
 40
1.0
 40
1.0
 10
57.01765763760444
 20
77.244626957995
 30
0.0
 10
57.01765763760444
 20
77.244626957995
 30
0.0
 10
56.95720841698635
 20
77.24462695799498
 30
0.0
 10
56.73817389327078
 20
77.244626957995
 30
0.0
 10
56.58112371137521
 20
77.244626957995
 30
0.0
 10
56.39244285526515
 20
77.244626957995
 30
0.0
  0
SPLINE
  5
146
330
1F
100
AcDbEntity
  8
0
  6
Continuous
 62
     7
370
    25
100
AcDbSpline
210
0.0
220
0.0
230
1.0
 70
    24
 71
     3
 72
    10
 73
     6
 74
     0
 42
0.000000001
 43
0.00000001
 40
0.0
 40
0.0
 40
0.0
 40
0.0
 40
0.5
 40
0.5
 40
1.0
 40
1.0
 40
1.0
 40
1.0
 10
57.01765763760444
 20
63.24462695799499
 30
0.0
 10
57.01765763760444
 20
63.244626957995
 30
0.0
 10
56.95720841698594
 20
63.24462695799499
 30
0.0
 10
56.73817389327071
 20
63.244626957995
 30
0.0
 10
56.58112371137531
 20
63.24462695799499
 30
0.0
 10
56.39244285526515
 20
63.24462695799499
 30
0.0
  0
SPLINE
  5
147
330
1F
100
AcDbEntity
  8
0
  6
Continuous
 62
     7
370
    25
100
AcDbSpline
210
0.0
220
0.0
230
1.0
 70
    24
 71
     3
 72
     8
 73
     4
 74
     0
 42
0.000000001
 43
0.00000001
 40
0.0
 40
0.0
 40
0.0
 40
0.0
 40
1.0
 40
1.0
 40
1.0
 40
1.0
 10
54.0094416635238
 20
77.244626957995
 30
0.0
 10
54.03797779383945
 20
77.244626957995
 30
0.0
 10
54.06484250902286
 20
77.244626957995
 30
0.0
 10
54.08982642125314
 20
77.244626957995
 30
0.0
  0
LINE
  5
148
330
1F
100
AcDbEntity
  8
0
  6
Continuous
 62
     7
370
    25
100
AcDbLine
 10
54.0898264213
 20
76.6908437362
 30
0.0
 11
54.0898264213
 21
77.244626958
 31
0.0
  0
SPLINE
  5
149
330
1F
100
AcDbEntity
  8
0
  6
Continuous
 62
     7
370
    25
100
AcDbSpline
210
0.0
220
0.0
230
1.0
 70
    24
 71
     3
 72
     8
 73
     4
 74
     0
 42
0.000000001
 43
0.00000001
 40
0.0
 40
0.0
 40
0.0
 40
0.0
 40
1.0
 40
1.0
 40
1.0
 40
1.0
 10
54.08982642125314
 20
77.244626957995
 30
0.0
 10
54.11482609324737
 20
77.244626957995
 30
0.0
 10
54.14169233403435
 20
77.244626957995
 30
0.0
 10
54.17021117898248
 20
77.244626957995
 30
0.0
  0
SPLINE
  5
14A
330
1F
100
AcDbEntity
  8
0
  6
Continuous
 62
     7
370
    25
100
AcDbSpline
210
0.0
220
0.0
230
1.0
 70
    24
 71
     3
 72
     8
 73
     4
 74
     0
 42
0.000000001
 43
0.00000001
 40
0.0
 40
0.0
 40
0.0
 40
0.0
 40
1.0
 40
1.0
 40
1.0
 40
1.0
 10
54.08982642125314
 20
63.24462695799499
 30
0.0
 10
54.06482674925891
 20
63.24462695799499
 30
0.0
 10
54.03796050847193
 20
63.24462695799499
 30
0.0
 10
54.0094416635238
 20
63.24462695799499
 30
0.0
  0
LINE
  5
14B
330
1F
100
AcDbEntity
  8
0
  6
Continuous
 62
     7
370
    25
100
AcDbLine
 10
54.0898264213
 20
63.244626958
 30
0.0
 11
54.0898264213
 21
63.7984101798
 31
0.0
  0
SPLINE
  5
14C
330
1F
100
AcDbEntity
  8
0
  6
Continuous
 62
     7
370
    25
100
AcDbSpline
210
0.0
220
0.0
230
1.0
 70
    24
 71
     3
 72
     8
 73
     4
 74
     0
 42
0.000000001
 43
0.00000001
 40
0.0
 40
0.0
 40
0.0
 40
0.0
 40
1.0
 40
1.0
 40
1.0
 40
1.0
 10
54.17021117898248
 20
63.24462695799499
 30
0.0
 10
54.14167504866683
 20
63.24462695799499
 30
0.0
 10
54.11481033348341
 20
63.24462695799499
 30
0.0
 10
54.08982642125314
 20
63.24462695799499
 30
0.0
  0
LINE
  5
14D
330
1F
100
AcDbEntity
  8
0
  6
Continuous
 62
     8
370
    25
100
AcDbLine
 10
81.58521424
 20
70.244626958
 30
0.0
 11
81.58521424
 21
76.5535965122
 31
0.0
  0
LINE
  5
14E
330
1F
100
AcDbEntity
  8
0
  6
Continuous
 62
     8
370
    25
100
AcDbLine
 10
81.58521424
 20
63.9356574038
 30
0.0
 11
81.58521424
 21
70.244626958
 31
0.0
  0
LINE
  5
14F
330
1F
100
AcDbEntity
  8
0
  6
Continuous
 62
     7
370
    18
100
AcDbLine
 10
39.8828833602
 20
75.9941652618
 30
0.0
 11
50.5176576376
 21
76.326501958
 31
0.0
  0
LINE
  5
150
330
1F
100
AcDbEntity
  8
0
  6
Continuous
 62
     7
370
    18
100
AcDbLine
 10
39.8828833602
 20
64.4950886542
 30
0.0
 11
50.5176576376
 21
64.162751958
 31
0.0
  0
LINE
  5
151
330
1F
100
AcDbEntity
  8
0
  6
Continuous
 62
     7
370
    18
100
AcDbLine
 10
50.5176576376
 20
63.494564458
 30
0.0
 11
50.5176576376
 21
76.994689458
 31
0.0
  0
LINE
  5
152
330
1F
100
AcDbEntity
  8
0
  6
CENTERX2
 62
     7
370
    18
100
AcDbLine
 10
83.0176576376
 20
70.244626958
 30
0.0
 11
37.9363999361
 21
70.244626958
 31
0.0
  0
ENDSEC
  0
SECTION
  2
OBJECTS
  0
DICTIONARY
  5
C
330
0
100
AcDbDictionary
281
     1
  3
ACAD_GROUP
350
D
  3
ACAD_LAYOUT
350
1A
  3
ACAD_MLINESTYLE
350
17
  3
ACAD_PLOTSETTINGS
350
19
  3
ACAD_PLOTSTYLENAME
350
E
  3
ACAD_SCALELIST
350
47
  0
DICTIONARY
  5
D
102
{ACAD_REACTORS
330
C
102
}
330
C
100
AcDbDictionary
281
     1
  0
DICTIONARY
  5
1A
102
{ACAD_REACTORS
330
C
102
}
330
C
100
AcDbDictionary
281
     1
  3
Layout1
350
1E
  3
Layout2
350
26
  3
Model
350
22
  0
DICTIONARY
  5
17
102
{ACAD_REACTORS
330
C
102
}
330
C
100
AcDbDictionary
281
     1
  3
Standard
350
18
  0
DICTIONARY
  5
19
102
{ACAD_REACTORS
330
C
102
}
330
C
100
AcDbDictionary
281
     1
  0
ACDBDICTIONARYWDFLT
  5
E
102
{ACAD_REACTORS
330
C
102
}
330
C
100
AcDbDictionary
281
     1
  3
Normal
350
F
100
AcDbDictionaryWithDefault
340
F
  0
DICTIONARY
  5
47
102
{ACAD_REACTORS
330
C
102
}
330
C
100
AcDbDictionary
281
     1
  3
A0
350
48
  3
A1
350
49
  3
A2
350
4A
  3
A3
350
4B
  3
A4
350
4C
  3
A5
350
4D
  3
A6
350
4E
  3
A7
350
4F
  3
A8
350
50
  3
A9
350
51
  3
B0
350
52
  3
B1
350
53
  3
B2
350
54
  3
B3
350
55
  3
B4
350
56
  3
B5
350
57
  3
B6
350
58
  3
B7
350
59
  3
B8
350
5A
  3
B9
350
5B
  3
C0
350
5C
  3
C1
350
5D
  3
C2
350
5E
  3
C3
350
5F
  3
C4
350
60
  3
C5
350
61
  3
C6
350
62
  3
C7
350
63
  3
C8
350
64
  3
C9
350
65
  3
D0
350
66
  3
D1
350
67
  3
D2
350
68
  0
LAYOUT
  5
1E
102
{ACAD_REACTORS
330
1A
102
}
330
1A
100
AcDbPlotSettings
  1

  2
none_device
  4

  6

 40
0.0
 41
0.0
 42
0.0
 43
0.0
 44
0.0
 45
0.0
 46
0.0
 47
0.0
 48
0.0
 49
0.0
140
0.0
141
0.0
142
1.0
143
1.0
 70
   688
 72
     1
 73
     0
 74
     5
  7

 75
    16
147
1.0
148
0.0
149
0.0
100
AcDbLayout
  1
Layout1
 70
     1
 71
     1
 10
0.0
 20
0.0
 11
420.0
 21
297.0
 12
0.0
 22
0.0
 32
0.0
 14
1.0000000000E+20
 24
1.0000000000E+20
 34
1.0000000000E+20
 15
-1.0000000000E+20
 25
-1.0000000000E+20
 35
-1.0000000000E+20
146
0.0
 13
0.0
 23
0.0
 33
0.0
 16
1.0
 26
0.0
 36
0.0
 17
0.0
 27
1.0
 37
0.0
 76
     0
330
1B
  0
LAYOUT
  5
26
102
{ACAD_REACTORS
330
1A
102
}
330
1A
100
AcDbPlotSettings
  1

  2
none_device
  4

  6

 40
0.0
 41
0.0
 42
0.0
 43
0.0
 44
0.0
 45
0.0
 46
0.0
 47
0.0
 48
0.0
 49
0.0
140
0.0
141
0.0
142
1.0
143
1.0
 70
   688
 72
     1
 73
     0
 74
     5
  7

 75
    16
147
1.0
148
0.0
149
0.0
100
AcDbLayout
  1
Layout2
 70
     1
 71
     2
 10
0.0
 20
0.0
 11
0.0
 21
0.0
 12
0.0
 22
0.0
 32
0.0
 14
0.0
 24
0.0
 34
0.0
 15
0.0
 25
0.0
 35
0.0
146
0.0
 13
0.0
 23
0.0
 33
0.0
 16
1.0
 26
0.0
 36
0.0
 17
0.0
 27
1.0
 37
0.0
 76
     0
330
23
  0
LAYOUT
  5
22
102
{ACAD_REACTORS
330
1A
102
}
330
1A
100
AcDbPlotSettings
  1

  2
none_device
  4
Letter_(8.50_x_11.00_Inches)
  6

 40
6.35
 41
6.35
 42
6.35000508
 43
6.35000508
 44
215.9
 45
279.4
 46
0.0
 47
0.0
 48
0.0
 49
0.0
140
0.0
141
0.0
142
1.0
143
1.0
 70
  1712
 72
     1
 73
     0
 74
     0
  7

 75
     0
147
1.0
148
0.0
149
0.0
100
AcDbLayout
  1
Model
 70
     1
 71
     0
 10
0.0
 20
0.0
 11
215.9
 21
139.7
 12
0.0
 22
0.0
 32
0.0
 14
0.0
 24
0.0
 34
0.0
 15
215.9
 25
139.7
 35
0.0
146
0.0
 13
0.0
 23
0.0
 33
0.0
 16
1.0
 26
0.0
 36
0.0
 17
0.0
 27
1.0
 37
0.0
 76
     0
330
1F
331
29
  0
MLINESTYLE
  5
18
102
{ACAD_REACTORS
330
17
102
}
330
17
100
AcDbMlineStyle
  2
Standard
 70
     0
  3

 62
   256
 51
90.0
 52
90.0
 71
     2
 49
0.5
 62
   256
  6
BYLAYER
 49
-0.5
 62
   256
  6
BYLAYER
  0
ACDBPLACEHOLDER
  5
F
102
{ACAD_REACTORS
330
E
102
}
330
E
  0
SCALE
  5
48
102
{ACAD_REACTORS
330
47
102
}
330
47
100
AcDbScale
 70
     0
300
1:1
140
1.0
141
1.0
290
     1
  0
SCALE
  5
49
102
{ACAD_REACTORS
330
47
102
}
330
47
100
AcDbScale
 70
     0
300
1:2
140
1.0
141
2.0
290
     0
  0
SCALE
  5
4A
102
{ACAD_REACTORS
330
47
102
}
330
47
100
AcDbScale
 70
     0
300
1:4
140
1.0
141
4.0
290
     0
  0
SCALE
  5
4B
102
{ACAD_REACTORS
330
47
102
}
330
47
100
AcDbScale
 70
     0
300
1:5
140
1.0
141
5.0
290
     0
  0
SCALE
  5
4C
102
{ACAD_REACTORS
330
47
102
}
330
47
100
AcDbScale
 70
     0
300
1:8
140
1.0
141
8.0
290
     0
  0
SCALE
  5
4D
102
{ACAD_REACTORS
330
47
102
}
330
47
100
AcDbScale
 70
     0
300
1:10
140
1.0
141
10.0
290
     0
  0
SCALE
  5
4E
102
{ACAD_REACTORS
330
47
102
}
330
47
100
AcDbScale
 70
     0
300
1:16
140
1.0
141
16.0
290
     0
  0
SCALE
  5
4F
102
{ACAD_REACTORS
330
47
102
}
330
47
100
AcDbScale
 70
     0
300
1:20
140
1.0
141
20.0
290
     0
  0
SCALE
  5
50
102
{ACAD_REACTORS
330
47
102
}
330
47
100
AcDbScale
 70
     0
300
1:30
140
1.0
141
30.0
290
     0
  0
SCALE
  5
51
102
{ACAD_REACTORS
330
47
102
}
330
47
100
AcDbScale
 70
     0
300
1:40
140
1.0
141
40.0
290
     0
  0
SCALE
  5
52
102
{ACAD_REACTORS
330
47
102
}
330
47
100
AcDbScale
 70
     0
300
1:50
140
1.0
141
50.0
290
     0
  0
SCALE
  5
53
102
{ACAD_REACTORS
330
47
102
}
330
47
100
AcDbScale
 70
     0
300
1:100
140
1.0
141
100.0
290
     0
  0
SCALE
  5
54
102
{ACAD_REACTORS
330
47
102
}
330
47
100
AcDbScale
 70
     0
300
2:1
140
2.0
141
1.0
290
     0
  0
SCALE
  5
55
102
{ACAD_REACTORS
330
47
102
}
330
47
100
AcDbScale
 70
     0
300
4:1
140
4.0
141
1.0
290
     0
  0
SCALE
  5
56
102
{ACAD_REACTORS
330
47
102
}
330
47
100
AcDbScale
 70
     0
300
8:1
140
8.0
141
1.0
290
     0
  0
SCALE
  5
57
102
{ACAD_REACTORS
330
47
102
}
330
47
100
AcDbScale
 70
     0
300
10:1
140
10.0
141
1.0
290
     0
  0
SCALE
  5
58
102
{ACAD_REACTORS
330
47
102
}
330
47
100
AcDbScale
 70
     0
300
100:1
140
100.0
141
1.0
290
     0
  0
SCALE
  5
59
102
{ACAD_REACTORS
330
47
102
}
330
47
100
AcDbScale
 70
     0
300
1/128" = 1'-0"
140
0.0078125
141
12.0
290
     0
  0
SCALE
  5
5A
102
{ACAD_REACTORS
330
47
102
}
330
47
100
AcDbScale
 70
     0
300
1/64" = 1'-0"
140
0.015625
141
12.0
290
     0
  0
SCALE
  5
5B
102
{ACAD_REACTORS
330
47
102
}
330
47
100
AcDbScale
 70
     0
300
1/32" = 1'-0"
140
0.03125
141
12.0
290
     0
  0
SCALE
  5
5C
102
{ACAD_REACTORS
330
47
102
}
330
47
100
AcDbScale
 70
     0
300
1/16" = 1'-0"
140
0.0625
141
12.0
290
     0
  0
SCALE
  5
5D
102
{ACAD_REACTORS
330
47
102
}
330
47
100
AcDbScale
 70
     0
300
3/32" = 1'-0"
140
0.09375
141
12.0
290
     0
  0
SCALE
  5
5E
102
{ACAD_REACTORS
330
47
102
}
330
47
100
AcDbScale
 70
     0
300
1/8" = 1'-0"
140
0.125
141
12.0
290
     0
  0
SCALE
  5
5F
102
{ACAD_REACTORS
330
47
102
}
330
47
100
AcDbScale
 70
     0
300
3/16" = 1'-0"
140
0.1875
141
12.0
290
     0
  0
SCALE
  5
60
102
{ACAD_REACTORS
330
47
102
}
330
47
100
AcDbScale
 70
     0
300
1/4" = 1'-0"
140
0.25
141
12.0
290
     0
  0
SCALE
  5
61
102
{ACAD_REACTORS
330
47
102
}
330
47
100
AcDbScale
 70
     0
300
3/8" = 1'-0"
140
0.375
141
12.0
290
     0
  0
SCALE
  5
62
102
{ACAD_REACTORS
330
47
102
}
330
47
100
AcDbScale
 70
     0
300
1/2" = 1'-0"
140
0.5
141
12.0
290
     0
  0
SCALE
  5
63
102
{ACAD_REACTORS
330
47
102
}
330
47
100
AcDbScale
 70
     0
300
3/4" = 1'-0"
140
0.75
141
12.0
290
     0
  0
SCALE
  5
64
102
{ACAD_REACTORS
330
47
102
}
330
47
100
AcDbScale
 70
     0
300
1" = 1'-0"
140
1.0
141
12.0
290
     0
  0
SCALE
  5
65
102
{ACAD_REACTORS
330
47
102
}
330
47
100
AcDbScale
 70
     0
300
1-1/2" = 1'-0"
140
1.5
141
12.0
290
     0
  0
SCALE
  5
66
102
{ACAD_REACTORS
330
47
102
}
330
47
100
AcDbScale
 70
     0
300
3" = 1'-0"
140
3.0
141
12.0
290
     0
  0
SCALE
  5
67
102
{ACAD_REACTORS
330
47
102
}
330
47
100
AcDbScale
 70
     0
300
6" = 1'-0"
140
6.0
141
12.0
290
     0
  0
SCALE
  5
68
102
{ACAD_REACTORS
330
47
102
}
330
47
100
AcDbScale
 70
     0
300
1'-0" = 1'-0"
140
12.0
141
12.0
290
     0
  0
ENDSEC
  0
EOF
