  0
SECTION
  2
HEADER
  9
$ACADVER
  1
AC1015
  9
$ACADMAINTVER
 70
     6
  9
$DWGCODEPAGE
  3
DOS932
  9
$INSBASE
 10
0.0
 20
0.0
 30
0.0
  9
$EXTMIN
 10
0.0
 20
0.0
 30
0.0
  9
$EXTMAX
 10
215.9
 20
139.7
 30
0.0
  9
$LIMMIN
 10
0.0
 20
0.0
  9
$LIMMAX
 10
215.9
 20
139.7
  9
$ORTHOMODE
 70
     0
  9
$REGENMODE
 70
     1
  9
$FILLMODE
 70
     1
  9
$QTEXTMODE
 70
     0
  9
$MIRRTEXT
 70
     1
  9
$LTSCALE
 40
0.5
  9
$ATTMODE
 70
     1
  9
$TEXTSIZE
 40
1.75
  9
$TRACEWID
 40
1.0
  9
$TEXTSTYLE
  7
Standard
  9
$CLAYER
  8
0
  9
$CELTYPE
  6
ByLayer
  9
$CECOLOR
 62
   256
  9
$CELTSCALE
 40
1.0
  9
$DISPSILH
 70
     0
  9
$DIMSCALE
 40
1.0
  9
$DIMASZ
 40
1.651
  9
$DIMEXO
 40
0.5
  9
$DIMDLI
 40
3.75
  9
$DIMRND
 40
0.0
  9
$DIMDLE
 40
0.0
  9
$DIMEXE
 40
0.5
  9
$DIMTP
 40
0.0
  9
$DIMTM
 40
0.0
  9
$DIMTXT
 40
1.75
  9
$DIMCEN
 40
2.5
  9
$DIMTSZ
 40
0.0
  9
$DIMTOL
 70
     0
  9
$DIMLIM
 70
     0
  9
$DIMTIH
 70
     1
  9
$DIMTOH
 70
     1
  9
$DIMSE1
 70
     0
  9
$DIMSE2
 70
     0
  9
$DIMTAD
 70
     1
  9
$DIMZIN
 70
     1
  9
$DIMBLK
  1

  9
$DIMASO
 70
     1
  9
$DIMSHO
 70
     1
  9
$DIMPOST
  1

  9
$DIMAPOST
  1

  9
$DIMALT
 70
     0
  9
$DIMALTD
 70
     3
  9
$DIMALTF
 40
0.0393700787
  9
$DIMLFAC
 40
1.0
  9
$DIMTOFL
 70
     1
  9
$DIMTVP
 40
0.0
  9
$DIMTIX
 70
     0
  9
$DIMSOXD
 70
     0
  9
$DIMSAH
 70
     0
  9
$DIMBLK1
  1

  9
$DIMBLK2
  1

  9
$DIMSTYLE
  2
ISO-25
  9
$DIMCLRD
 70
     0
  9
$DIMCLRE
 70
     0
  9
$DIMCLRT
 70
     0
  9
$DIMTFAC
 40
1.0
  9
$DIMGAP
 40
0.762
  9
$DIMJUST
 70
     0
  9
$DIMSD1
 70
     0
  9
$DIMSD2
 70
     0
  9
$DIMTOLJ
 70
     0
  9
$DIMTZIN
 70
     1
  9
$DIMALTZ
 70
     0
  9
$DIMALTTZ
 70
     0
  9
$DIMUPT
 70
     0
  9
$DIMDEC
 70
     2
  9
$DIMTDEC
 70
     2
  9
$DIMALTU
 70
     2
  9
$DIMALTTD
 70
     3
  9
$DIMTXSTY
  7
Standard
  9
$DIMAUNIT
 70
     0
  9
$DIMADEC
 70
     2
  9
$DIMALTRND
 40
0.0
  9
$DIMAZIN
 70
     0
  9
$DIMDSEP
 70
    44
  9
$DIMATFIT
 70
     3
  9
$DIMFRAC
 70
     0
  9
$DIMLDRBLK
  1

  9
$DIMLUNIT
 70
     2
  9
$DIMLWD
 70
    -2
  9
$DIMLWE
 70
    -2
  9
$DIMTMOVE
 70
     0
  9
$LUNITS
 70
     2
  9
$LUPREC
 70
     2
  9
$SKETCHINC
 40
1.0
  9
$FILLETRAD
 40
10.0
  9
$AUNITS
 70
     0
  9
$AUPREC
 70
     2
  9
$MENU
  1
.
  9
$ELEVATION
 40
0.0
  9
$PELEVATION
 40
0.0
  9
$THICKNESS
 40
0.0
  9
$LIMCHECK
 70
     0
  9
$CHAMFERA
 40
0.0
  9
$CHAMFERB
 40
0.0
  9
$CHAMFERC
 40
0.0
  9
$CHAMFERD
 40
0.0
  9
$SKPOLY
 70
     0
  9
$TDCREATE
 40
2460081.709128704
  9
$TDUCREATE
 40
2460081.334128704
  9
$TDUPDATE
 40
2460081.709129271
  9
$TDUUPDATE
 40
2460081.334129271
  9
$TDINDWG
 40
0.0000000116
  9
$TDUSRTIMER
 40
0.0000000116
  9
$USRTIMER
 70
     1
  9
$ANGBASE
 50
0.0
  9
$ANGDIR
 70
     0
  9
$PDMODE
 70
     0
  9
$PDSIZE
 40
-1.0
  9
$PLINEWID
 40
0.0
  9
$SPLFRAME
 70
     0
  9
$SPLINETYPE
 70
     6
  9
$SPLINESEGS
 70
     8
  9
$HANDSEED
  5
146
  9
$SURFTAB1
 70
     6
  9
$SURFTAB2
 70
     6
  9
$SURFTYPE
 70
     6
  9
$SURFU
 70
     6
  9
$SURFV
 70
     6
  9
$UCSBASE
  2

  9
$UCSNAME
  2

  9
$UCSORG
 10
0.0
 20
0.0
 30
0.0
  9
$UCSXDIR
 10
1.0
 20
0.0
 30
0.0
  9
$UCSYDIR
 10
0.0
 20
1.0
 30
0.0
  9
$UCSORTHOREF
  2

  9
$UCSORTHOVIEW
 70
     0
  9
$UCSORGTOP
 10
0.0
 20
0.0
 30
0.0
  9
$UCSORGBOTTOM
 10
0.0
 20
0.0
 30
0.0
  9
$UCSORGLEFT
 10
0.0
 20
0.0
 30
0.0
  9
$UCSORGRIGHT
 10
0.0
 20
0.0
 30
0.0
  9
$UCSORGFRONT
 10
0.0
 20
0.0
 30
0.0
  9
$UCSORGBACK
 10
0.0
 20
0.0
 30
0.0
  9
$PUCSBASE
  2

  9
$PUCSNAME
  2

  9
$PUCSORG
 10
0.0
 20
0.0
 30
0.0
  9
$PUCSXDIR
 10
1.0
 20
0.0
 30
0.0
  9
$PUCSYDIR
 10
0.0
 20
1.0
 30
0.0
  9
$PUCSORTHOREF
  2

  9
$PUCSORTHOVIEW
 70
     0
  9
$PUCSORGTOP
 10
0.0
 20
0.0
 30
0.0
  9
$PUCSORGBOTTOM
 10
0.0
 20
0.0
 30
0.0
  9
$PUCSORGLEFT
 10
0.0
 20
0.0
 30
0.0
  9
$PUCSORGRIGHT
 10
0.0
 20
0.0
 30
0.0
  9
$PUCSORGFRONT
 10
0.0
 20
0.0
 30
0.0
  9
$PUCSORGBACK
 10
0.0
 20
0.0
 30
0.0
  9
$USERI1
 70
     0
  9
$USERI2
 70
     0
  9
$USERI3
 70
     0
  9
$USERI4
 70
     0
  9
$USERI5
 70
     0
  9
$USERR1
 40
0.0
  9
$USERR2
 40
0.0
  9
$USERR3
 40
0.0
  9
$USERR4
 40
0.0
  9
$USERR5
 40
0.0
  9
$WORLDVIEW
 70
     1
  9
$SHADEDGE
 70
     3
  9
$SHADEDIF
 70
    70
  9
$TILEMODE
 70
     1
  9
$MAXACTVP
 70
    64
  9
$PINSBASE
 10
0.0
 20
0.0
 30
0.0
  9
$PLIMCHECK
 70
     0
  9
$PEXTMIN
 10
1.0000000000E+20
 20
1.0000000000E+20
 30
1.0000000000E+20
  9
$PEXTMAX
 10
-1.0000000000E+20
 20
-1.0000000000E+20
 30
-1.0000000000E+20
  9
$PLIMMIN
 10
0.0
 20
0.0
  9
$PLIMMAX
 10
420.0
 20
297.0
  9
$UNITMODE
 70
     0
  9
$VISRETAIN
 70
     1
  9
$PLINEGEN
 70
     0
  9
$PSLTSCALE
 70
     1
  9
$TREEDEPTH
 70
  3020
  9
$CMLSTYLE
  2
Standard
  9
$CMLJUST
 70
     0
  9
$CMLSCALE
 40
20.0
  9
$PROXYGRAPHICS
 70
     1
  9
$MEASUREMENT
 70
     1
  9
$CELWEIGHT
370
    -1
  9
$ENDCAPS
280
     0
  9
$JOINSTYLE
280
     0
  9
$LWDISPLAY
290
     1
  9
$INSUNITS
 70
     4
  9
$HYPERLINKBASE
  1

  9
$STYLESHEET
  1

  9
$XEDIT
290
     1
  9
$CEPSNTYPE
380
     0
  9
$PSTYLEMODE
290
     1
  9
$FINGERPRINTGUID
  2
{6CBAF16E-5730-402D-8A2A-C4628026F480}
  9
$VERSIONGUID
  2
{FAEB1C32-E019-11D5-929B-00C0DF256EC4}
  9
$EXTNAMES
290
     1
  9
$PSVPSCALE
 40
0.0
  9
$OLESTARTUP
290
     0
  0
ENDSEC
  0
SECTION
  2
CLASSES
  0
CLASS
  1
ACDBDICTIONARYWDFLT
  2
AcDbDictionaryWithDefault
  3
ObjectDBX Classes
 90
        0
280
     0
281
     0
  0
CLASS
  1
VISUALSTYLE
  2
AcDbVisualStyle
  3
ObjectDBX Classes
 90
     4095
280
     0
281
     0
  0
CLASS
  1
MATERIAL
  2
AcDbMaterial
  3
ObjectDBX Classes
 90
     1153
280
     0
281
     0
  0
CLASS
  1
SCALE
  2
AcDbScale
  3
ObjectDBX Classes
 90
     1153
280
     0
281
     0
  0
CLASS
  1
TABLESTYLE
  2
AcDbTableStyle
  3
ObjectDBX Classes
 90
     4095
280
     0
281
     0
  0
CLASS
  1
MLEADERSTYLE
  2
AcDbMLeaderStyle
  3
ACDB_MLEADERSTYLE_CLASS
 90
     4095
280
     0
281
     0
  0
CLASS
  1
SUN
  2
AcDbSun
  3
SCENEOE
 90
     1153
280
     0
281
     0
  0
CLASS
  1
ACDBPLACEHOLDER
  2
AcDbPlaceHolder
  3
ObjectDBX Classes
 90
        0
280
     0
281
     0
  0
CLASS
  1
LAYOUT
  2
AcDbLayout
  3
ObjectDBX Classes
 90
        0
280
     0
281
     0
  0
ENDSEC
  0
SECTION
  2
TABLES
  0
TABLE
  2
VPORT
  5
8
330
0
100
AcDbSymbolTable
 70
     1
  0
VPORT
  5
29
330
8
100
AcDbSymbolTableRecord
100
AcDbViewportTableRecord
  2
*Active
 70
     0
 10
0.0
 20
0.0
 11
1.0
 21
1.0
 12
107.95
 22
69.85
 13
0.0
 23
0.0
 14
10.0
 24
10.0
 15
10.0
 25
10.0
 16
0.0
 26
0.0
 36
1.0
 17
0.0
 27
0.0
 37
0.0
 40
139.7
 41
1.5454545455
 42
50.0
 43
0.0
 44
0.0
 50
0.0
 51
0.0
 71
     0
 72
  2000
 73
     1
 74
     3
 75
     0
 76
     0
 77
     0
 78
     0
281
     0
 65
     1
110
0.0
120
0.0
130
0.0
111
1.0
121
0.0
131
0.0
112
0.0
122
1.0
132
0.0
 79
     0
146
0.0
  0
ENDTAB
  0
TABLE
  2
LTYPE
  5
5
330
0
100
AcDbSymbolTable
 70
     6
  0
LTYPE
  5
14
330
5
100
AcDbSymbolTableRecord
100
AcDbLinetypeTableRecord
  2
ByBlock
 70
     0
  3

 72
    65
 73
     0
 40
0.0
  0
LTYPE
  5
15
330
5
100
AcDbSymbolTableRecord
100
AcDbLinetypeTableRecord
  2
ByLayer
 70
     0
  3

 72
    65
 73
     0
 40
0.0
  0
LTYPE
  5
16
330
5
100
AcDbSymbolTableRecord
100
AcDbLinetypeTableRecord
  2
Continuous
 70
     0
  3
Solid line
 72
    65
 73
     0
 40
0.0
  0
LTYPE
  5
6E
330
5
100
AcDbSymbolTableRecord
100
AcDbLinetypeTableRecord
  2
HIDDEN
 70
     0
  3
Hidden __ __ __ __ __ __ __ __ __ __ __ __ __ __
 72
    65
 73
     2
 40
1.905
 49
1.27
 74
     0
 49
-0.635
 74
     0
  0
LTYPE
  5
6F
330
5
100
AcDbSymbolTableRecord
100
AcDbLinetypeTableRecord
  2
PHANTOM
 70
     0
  3
Phantom ______  __  __  ______  __  __  ______
 72
    65
 73
     6
 40
12.7
 49
6.35
 74
     0
 49
-1.27
 74
     0
 49
1.27
 74
     0
 49
-1.27
 74
     0
 49
1.27
 74
     0
 49
-1.27
 74
     0
  0
LTYPE
  5
70
330
5
100
AcDbSymbolTableRecord
100
AcDbLinetypeTableRecord
  2
CENTER
 70
     0
  3
Center ____ _ ____ _ ____ _ ____ _ ____ _ ____
 72
    65
 73
     4
 40
10.16
 49
6.35
 74
     0
 49
-1.27
 74
     0
 49
1.27
 74
     0
 49
-1.27
 74
     0
  0
LTYPE
  5
71
330
5
100
AcDbSymbolTableRecord
100
AcDbLinetypeTableRecord
  2
CENTERX2
 70
     0
  3
Center (2x) ________  __  ________  __  _____
 72
    65
 73
     4
 40
20.32
 49
12.7
 74
     0
 49
-2.54
 74
     0
 49
2.54
 74
     0
 49
-2.54
 74
     0
  0
LTYPE
  5
72
330
5
100
AcDbSymbolTableRecord
100
AcDbLinetypeTableRecord
  2
DOT2
 70
     0
  3
Dot (.5x) ........................................
 72
    65
 73
     2
 40
0.635
 49
0.0
 74
     0
 49
-0.635
 74
     0
  0
ENDTAB
  0
TABLE
  2
LAYER
  5
2
330
0
100
AcDbSymbolTable
 70
     1
  0
LAYER
  5
10
330
2
100
AcDbSymbolTableRecord
100
AcDbLayerTableRecord
  2
0
 70
     0
 62
     7
  6
Continuous
370
    -3
390
F
  0
ENDTAB
  0
TABLE
  2
STYLE
  5
3
330
0
100
AcDbSymbolTable
 70
     2
  0
STYLE
  5
11
330
3
100
AcDbSymbolTableRecord
100
AcDbTextStyleTableRecord
  2
Standard
 70
     0
 40
0.0
 41
1.0
 50
0.0
 71
     0
 42
1.75
  3
txt
  4
bigfont
  0
STYLE
  5
73
330
3
100
AcDbSymbolTableRecord
100
AcDbTextStyleTableRecord
  2
SLDTEXTSTYLE0
 70
     0
 40
0.0
 41
0.7
 50
0.0
 71
     0
 42
1.75
  3
TXT
  4
bigfont
  0
ENDTAB
  0
TABLE
  2
VIEW
  5
6
330
0
100
AcDbSymbolTable
 70
     0
  0
ENDTAB
  0
TABLE
  2
UCS
  5
7
330
0
100
AcDbSymbolTable
 70
     0
  0
ENDTAB
  0
TABLE
  2
APPID
  5
9
330
0
100
AcDbSymbolTable
 70
     1
  0
APPID
  5
12
330
9
100
AcDbSymbolTableRecord
100
AcDbRegAppTableRecord
  2
ACAD
 70
     0
  0
ENDTAB
  0
TABLE
  2
DIMSTYLE
  5
A
330
0
100
AcDbSymbolTable
 70
     1
100
AcDbDimStyleTable
  0
DIMSTYLE
105
27
330
A
100
AcDbSymbolTableRecord
100
AcDbDimStyleTableRecord
  2
ISO-25
 70
     0
 41
2.5
 42
0.625
 43
3.75
 44
1.25
 73
     0
 74
     0
 77
     1
 78
     8
140
2.5
141
2.5
143
0.0393700787
147
0.625
171
     3
172
     1
178
     0
271
     2
272
     2
274
     3
278
    44
283
     0
284
     8
340
11
  0
ENDTAB
  0
TABLE
  2
BLOCK_RECORD
  5
1
330
0
100
AcDbSymbolTable
 70
     3
  0
BLOCK_RECORD
  5
1F
330
1
100
AcDbSymbolTableRecord
100
AcDbBlockTableRecord
  2
*Model_Space
340
22
  0
BLOCK_RECORD
  5
1B
330
1
100
AcDbSymbolTableRecord
100
AcDbBlockTableRecord
  2
*Paper_Space
340
1E
  0
BLOCK_RECORD
  5
23
330
1
100
AcDbSymbolTableRecord
100
AcDbBlockTableRecord
  2
*Paper_Space0
340
26
  0
BLOCK_RECORD
  5
E9
330
1
100
AcDbSymbolTableRecord
100
AcDbBlockTableRecord
  2
SW_CENTERMARKSYMBOL_0
340
0
102
{BLKREFS
331
F4
102
}
  0
BLOCK_RECORD
  5
F5
330
1
100
AcDbSymbolTableRecord
100
AcDbBlockTableRecord
  2
SW_CENTERMARKSYMBOL_1
340
0
102
{BLKREFS
331
100
102
}
  0
ENDTAB
  0
ENDSEC
  0
SECTION
  2
BLOCKS
  0
BLOCK
  5
20
330
1F
100
AcDbEntity
  8
0
100
AcDbBlockBegin
  2
*Model_Space
 70
     0
 10
0.0
 20
0.0
 30
0.0
  3
*Model_Space
  1

  0
ENDBLK
  5
21
330
1F
100
AcDbEntity
  8
0
100
AcDbBlockEnd
  0
BLOCK
  5
1C
330
1B
100
AcDbEntity
 67
     1
  8
0
100
AcDbBlockBegin
  2
*Paper_Space
 70
     0
 10
0.0
 20
0.0
 30
0.0
  3
*Paper_Space
  1

  0
ENDBLK
  5
1D
330
1B
100
AcDbEntity
 67
     1
  8
0
100
AcDbBlockEnd
  0
BLOCK
  5
24
330
23
100
AcDbEntity
  8
0
100
AcDbBlockBegin
  2
*Paper_Space0
 70
     0
 10
0.0
 20
0.0
 30
0.0
  3
*Paper_Space0
  1

  0
ENDBLK
  5
25
330
23
100
AcDbEntity
  8
0
100
AcDbBlockEnd
  0
BLOCK
  5
EA
330
E9
100
AcDbEntity
  8
0
100
AcDbBlockBegin
  2
SW_CENTERMARKSYMBOL_0
 70
     0
 10
0.0
 20
0.0
 30
0.0
  3
SW_CENTERMARKSYMBOL_0
  1

  0
LINE
  5
EC
330
E9
100
AcDbEntity
  8
0
  6
Continuous
 62
     0
370
    18
100
AcDbLine
 10
0.0
 20
0.0
 30
0.0
 11
0.0
 21
2.5
 31
0.0
  0
LINE
  5
ED
330
E9
100
AcDbEntity
  8
0
  6
Continuous
 62
     0
370
    18
100
AcDbLine
 10
0.0
 20
0.0
 30
0.0
 11
-2.5
 21
0.0
 31
0.0
  0
LINE
  5
EE
330
E9
100
AcDbEntity
  8
0
  6
Continuous
 62
     0
370
    18
100
AcDbLine
 10
0.0
 20
0.0
 30
0.0
 11
0.0
 21
-2.5
 31
0.0
  0
LINE
  5
EF
330
E9
100
AcDbEntity
  8
0
  6
Continuous
 62
     0
370
    18
100
AcDbLine
 10
0.0
 20
0.0
 30
0.0
 11
2.5
 21
0.0
 31
0.0
  0
LINE
  5
F0
330
E9
100
AcDbEntity
  8
0
  6
Continuous
 62
     0
370
    18
100
AcDbLine
 10
0.0
 20
5.0
 30
0.0
 11
0.0
 21
6.0
 31
0.0
  0
LINE
  5
F1
330
E9
100
AcDbEntity
  8
0
  6
Continuous
 62
     0
370
    18
100
AcDbLine
 10
-5.0
 20
0.0
 30
0.0
 11
-6.0
 21
0.0
 31
0.0
  0
LINE
  5
F2
330
E9
100
AcDbEntity
  8
0
  6
Continuous
 62
     0
370
    18
100
AcDbLine
 10
0.0
 20
-5.0
 30
0.0
 11
0.0
 21
-6.0
 31
0.0
  0
LINE
  5
F3
330
E9
100
AcDbEntity
  8
0
  6
Continuous
 62
     0
370
    18
100
AcDbLine
 10
5.0
 20
0.0
 30
0.0
 11
6.0
 21
0.0
 31
0.0
  0
ENDBLK
  5
EB
330
E9
100
AcDbEntity
  8
0
100
AcDbBlockEnd
  0
BLOCK
  5
F6
330
F5
100
AcDbEntity
  8
0
100
AcDbBlockBegin
  2
SW_CENTERMARKSYMBOL_1
 70
     0
 10
0.0
 20
0.0
 30
0.0
  3
SW_CENTERMARKSYMBOL_1
  1

  0
LINE
  5
F8
330
F5
100
AcDbEntity
  8
0
  6
Continuous
 62
     0
370
    18
100
AcDbLine
 10
0.0
 20
0.0
 30
0.0
 11
0.0
 21
2.5
 31
0.0
  0
LINE
  5
F9
330
F5
100
AcDbEntity
  8
0
  6
Continuous
 62
     0
370
    18
100
AcDbLine
 10
0.0
 20
0.0
 30
0.0
 11
-2.5
 21
0.0
 31
0.0
  0
LINE
  5
FA
330
F5
100
AcDbEntity
  8
0
  6
Continuous
 62
     0
370
    18
100
AcDbLine
 10
0.0
 20
0.0
 30
0.0
 11
0.0
 21
-2.5
 31
0.0
  0
LINE
  5
FB
330
F5
100
AcDbEntity
  8
0
  6
Continuous
 62
     0
370
    18
100
AcDbLine
 10
0.0
 20
0.0
 30
0.0
 11
2.5
 21
0.0
 31
0.0
  0
LINE
  5
FC
330
F5
100
AcDbEntity
  8
0
  6
Continuous
 62
     0
370
    18
100
AcDbLine
 10
0.0
 20
5.0
 30
0.0
 11
0.0
 21
9.25
 31
0.0
  0
LINE
  5
FD
330
F5
100
AcDbEntity
  8
0
  6
Continuous
 62
     0
370
    18
100
AcDbLine
 10
-5.0
 20
0.0
 30
0.0
 11
-9.25
 21
0.0
 31
0.0
  0
LINE
  5
FE
330
F5
100
AcDbEntity
  8
0
  6
Continuous
 62
     0
370
    18
100
AcDbLine
 10
0.0
 20
-5.0
 30
0.0
 11
0.0
 21
-9.25
 31
0.0
  0
LINE
  5
FF
330
F5
100
AcDbEntity
  8
0
  6
Continuous
 62
     0
370
    18
100
AcDbLine
 10
5.0
 20
0.0
 30
0.0
 11
9.25
 21
0.0
 31
0.0
  0
ENDBLK
  5
F7
330
F5
100
AcDbEntity
  8
0
100
AcDbBlockEnd
  0
ENDSEC
  0
SECTION
  2
ENTITIES
  0
MTEXT
  5
74
330
1F
100
AcDbEntity
  8
0
  6
Continuous
 62
     7
370
     0
100
AcDbMText
 10
77.3835097328
 20
57.4851419746
 30
0.0
 40
2.1166666667
 41
0.0
 71
     1
 72
     1
  1
エースニップル　HN-8213
  7
SLDTEXTSTYLE0
 73
     1
 44
1.0
  0
LINE
  5
75
330
1F
100
AcDbEntity
  8
0
  6
Continuous
 62
     7
370
    25
100
AcDbLine
 10
57.3787426432
 20
33.8916778947
 30
0.0
 11
58.1482949929
 21
35.2245816633
 31
0.0
  0
LINE
  5
76
330
1F
100
AcDbEntity
  8
0
  6
Continuous
 62
     7
370
    25
100
AcDbLine
 10
58.1482949929
 20
48.7245816633
 30
0.0
 11
57.3787426432
 21
50.057485432
 31
0.0
  0
LINE
  5
77
330
1F
100
AcDbEntity
  8
0
  6
Continuous
 62
     7
370
    25
100
AcDbLine
 10
52.9178473425
 20
50.057485432
 30
0.0
 11
52.1482949929
 21
48.7245816633
 31
0.0
  0
LINE
  5
78
330
1F
100
AcDbEntity
  8
0
  6
Continuous
 62
     7
370
    25
100
AcDbLine
 10
52.1482949929
 20
35.2245816633
 30
0.0
 11
52.9178473425
 21
33.8916778947
 31
0.0
  0
LINE
  5
79
330
1F
100
AcDbEntity
  8
0
  6
Continuous
 62
     7
370
    25
100
AcDbLine
 10
52.1482949929
 20
48.7090191633
 30
0.0
 11
43.2370826466
 21
48.4305437775
 31
0.0
  0
LINE
  5
7A
330
1F
100
AcDbEntity
  8
0
  6
Continuous
 62
     7
370
    25
100
AcDbLine
 10
43.2370826466
 20
35.5186195492
 30
0.0
 11
52.1482949929
 21
35.2401441633
 31
0.0
  0
LINE
  5
7B
330
1F
100
AcDbEntity
  8
0
  6
Continuous
 62
     7
370
    25
100
AcDbLine
 10
77.6482949929
 20
35.4745816633
 30
0.0
 11
82.7158515952
 21
36.1656121091
 31
0.0
  0
LINE
  5
7C
330
1F
100
AcDbEntity
  8
0
  6
Continuous
 62
     7
370
    25
100
AcDbLine
 10
82.7158515952
 20
47.7835512176
 30
0.0
 11
77.6482949929
 21
48.4745816633
 31
0.0
  0
LINE
  5
7D
330
1F
100
AcDbEntity
  8
0
  6
Continuous
 62
     7
370
    25
100
AcDbLine
 10
68.6482949929
 20
35.4745816633
 30
0.0
 11
73.1482949929
 21
36.2245816633
 31
0.0
  0
LINE
  5
7E
330
1F
100
AcDbEntity
  8
0
  6
Continuous
 62
     7
370
    25
100
AcDbLine
 10
73.1482949929
 20
47.7245816633
 30
0.0
 11
68.6482949929
 21
48.4745816633
 31
0.0
  0
LINE
  5
7F
330
1F
100
AcDbEntity
  8
0
  6
Continuous
 62
     7
370
    25
100
AcDbLine
 10
64.1482949929
 20
35.4745816633
 30
0.0
 11
68.6482949929
 21
36.2245816633
 31
0.0
  0
LINE
  5
80
330
1F
100
AcDbEntity
  8
0
  6
Continuous
 62
     7
370
    25
100
AcDbLine
 10
68.6482949929
 20
47.7245816633
 30
0.0
 11
64.1482949929
 21
48.4745816633
 31
0.0
  0
LINE
  5
81
330
1F
100
AcDbEntity
  8
0
  6
Continuous
 62
     7
370
    25
100
AcDbLine
 10
64.1482949929
 20
48.4745816633
 30
0.0
 11
58.1482949929
 21
48.4745816633
 31
0.0
  0
LINE
  5
82
330
1F
100
AcDbEntity
  8
0
  6
Continuous
 62
     7
370
    25
100
AcDbLine
 10
58.1482949929
 20
35.4745816633
 30
0.0
 11
64.1482949929
 21
35.4745816633
 31
0.0
  0
LINE
  5
83
330
1F
100
AcDbEntity
  8
0
  6
Continuous
 62
     7
370
    25
100
AcDbLine
 10
73.1482949929
 20
35.4745816633
 30
0.0
 11
77.6482949929
 21
36.2245816633
 31
0.0
  0
LINE
  5
84
330
1F
100
AcDbEntity
  8
0
  6
Continuous
 62
     7
370
    25
100
AcDbLine
 10
77.6482949929
 20
47.7245816633
 30
0.0
 11
73.1482949929
 21
48.4745816633
 31
0.0
  0
LINE
  5
85
330
1F
100
AcDbEntity
  8
0
  6
Continuous
 62
     7
370
    25
100
AcDbLine
 10
43.2370826466
 20
48.4305437775
 30
0.0
 11
41.1482949929
 21
47.2245816633
 31
0.0
  0
LINE
  5
86
330
1F
100
AcDbEntity
  8
0
  6
Continuous
 62
     7
370
    25
100
AcDbLine
 10
41.1482949929
 20
36.7245816633
 30
0.0
 11
43.2370826466
 21
35.5186195492
 31
0.0
  0
ARC
  5
87
330
1F
100
AcDbEntity
  8
0
  6
Continuous
 62
     7
370
    25
100
AcDbCircle
 10
82.6482949929
 20
47.2881361335
 30
0.0
 40
0.5
100
AcDbArc
 50
0.0
 51
82.2348339816
  0
ARC
  5
88
330
1F
100
AcDbEntity
  8
0
  6
Continuous
 62
     7
370
    25
100
AcDbCircle
 10
82.6482949929
 20
36.6610271931
 30
0.0
 40
0.5000000000000054
100
AcDbArc
 50
277.7651660184
 51
0.0
  0
LINE
  5
89
330
1F
100
AcDbEntity
  8
0
  6
Continuous
 62
     7
370
    25
100
AcDbLine
 10
55.2286797506
 20
50.057485432
 30
0.0
 11
55.1482949929
 21
49.757485432
 31
0.0
  0
LINE
  5
8A
330
1F
100
AcDbEntity
  8
0
  6
Continuous
 62
     7
370
    25
100
AcDbLine
 10
55.1482949929
 20
49.757485432
 30
0.0
 11
55.0679102351
 21
50.057485432
 31
0.0
  0
LINE
  5
8B
330
1F
100
AcDbEntity
  8
0
  6
Continuous
 62
     7
370
    25
100
AcDbLine
 10
55.0679102351
 20
33.8916778947
 30
0.0
 11
55.1482949929
 21
34.1916778947
 31
0.0
  0
LINE
  5
8C
330
1F
100
AcDbEntity
  8
0
  6
Continuous
 62
     7
370
    25
100
AcDbLine
 10
55.1482949929
 20
34.1916778947
 30
0.0
 11
55.2286797506
 21
33.8916778947
 31
0.0
  0
LINE
  5
8D
330
1F
100
AcDbEntity
  8
0
  6
Continuous
 62
     7
370
    25
100
AcDbLine
 10
55.0679102351
 20
33.8916778947
 30
0.0
 11
52.9178473425
 21
33.8916778947
 31
0.0
  0
SPLINE
  5
8E
330
1F
100
AcDbEntity
  8
0
  6
Continuous
 62
     7
370
    25
100
AcDbSpline
210
0.0
220
0.0
230
1.0
 70
     8
 71
     3
 72
    16
 73
    12
 74
     0
 42
0.000000001
 43
0.00000001
 40
0.0
 40
0.0
 40
0.0
 40
0.0
 40
0.2499999999999999
 40
0.2499999999999999
 40
0.4999999999999999
 40
0.4999999999999999
 40
0.6249999999999999
 40
0.6249999999999999
 40
0.7499999999999998
 40
0.7499999999999998
 40
1.0
 40
1.0
 40
1.0
 40
1.0
 10
52.91784734251455
 20
37.93312977900931
 30
0.0
 10
52.72735287152976
 20
37.60318367670271
 30
0.0
 10
52.57035085831667
 20
37.27083193539301
 30
0.0
 10
52.35285204747865
 20
36.59919684111927
 30
0.0
 10
52.29307268640859
 20
36.2598619573488
 30
0.0
 10
52.29241618555462
 20
35.74446619107861
 30
0.0
 10
52.30702995203811
 20
35.57185943057813
 30
0.0
 10
52.36401580991494
 20
35.23042501805959
 30
0.0
 10
52.40633007917418
 20
35.06085251531561
 30
0.0
 10
52.56972489906436
 20
34.55515401576412
 30
0.0
 10
52.72711542637779
 20
34.22203526405612
 30
0.0
 10
52.91784734251479
 20
33.89167789468186
 30
0.0
  0
LINE
  5
8F
330
1F
100
AcDbEntity
  8
0
  6
Continuous
 62
     7
370
    25
100
AcDbLine
 10
55.0679102351
 20
37.933129779
 30
0.0
 11
52.9178473425
 21
37.933129779
 31
0.0
  0
SPLINE
  5
90
330
1F
100
AcDbEntity
  8
0
  6
Continuous
 62
     7
370
    25
100
AcDbSpline
210
0.0
220
0.0
230
1.0
 70
     8
 71
     3
 72
     8
 73
     4
 74
     0
 42
0.000000001
 43
0.00000001
 40
0.0
 40
0.0
 40
0.0
 40
0.0
 40
1.0
 40
1.0
 40
1.0
 40
1.0
 10
55.14829499287835
 20
37.61340288682624
 30
0.0
 10
55.12329457995565
 20
37.72012940163768
 30
0.0
 10
55.09642826849544
 20
37.82669902962849
 30
0.0
 10
55.06791023514901
 20
37.93312977900927
 30
0.0
  0
SPLINE
  5
91
330
1F
100
AcDbEntity
  8
0
  6
Continuous
 62
     7
370
    25
100
AcDbSpline
210
0.0
220
0.0
230
1.0
 70
     8
 71
     3
 72
     8
 73
     4
 74
     0
 42
0.000000001
 43
0.00000001
 40
0.0
 40
0.0
 40
0.0
 40
0.0
 40
1.0
 40
1.0
 40
1.0
 40
1.0
 10
55.22867975060769
 20
37.93312977900927
 30
0.0
 10
55.20014593576959
 20
37.82664013229974
 30
0.0
 10
55.17328101396281
 20
37.72006796302296
 30
0.0
 10
55.14829499287835
 20
37.61340288682624
 30
0.0
  0
LINE
  5
92
330
1F
100
AcDbEntity
  8
0
  6
Continuous
 62
     7
370
    25
100
AcDbLine
 10
57.3787426432
 20
37.933129779
 30
0.0
 11
55.2286797506
 21
37.933129779
 31
0.0
  0
SPLINE
  5
93
330
1F
100
AcDbEntity
  8
0
  6
Continuous
 62
     7
370
    25
100
AcDbSpline
210
0.0
220
0.0
230
1.0
 70
     8
 71
     3
 72
    16
 73
    12
 74
     0
 42
0.000000001
 43
0.00000001
 40
0.0
 40
0.0
 40
0.0
 40
0.0
 40
0.2499999999999999
 40
0.2499999999999999
 40
0.4999999999999999
 40
0.4999999999999999
 40
0.6249999999999999
 40
0.6249999999999999
 40
0.7499999999999998
 40
0.7499999999999998
 40
1.0
 40
1.0
 40
1.0
 40
1.0
 10
57.37874264324216
 20
37.93312977900931
 30
0.0
 10
57.56923711422694
 20
37.60318367670271
 30
0.0
 10
57.72623912744004
 20
37.27083193539301
 30
0.0
 10
57.94373793827805
 20
36.59919684111927
 30
0.0
 10
58.00351729934812
 20
36.2598619573488
 30
0.0
 10
58.00417380020208
 20
35.74446619107861
 30
0.0
 10
57.9895600337186
 20
35.57185943057813
 30
0.0
 10
57.93257417584176
 20
35.23042501805959
 30
0.0
 10
57.89025990658253
 20
35.06085251531561
 30
0.0
 10
57.72686508669234
 20
34.55515401576412
 30
0.0
 10
57.56947455937891
 20
34.22203526405612
 30
0.0
 10
57.37874264324191
 20
33.89167789468186
 30
0.0
  0
LINE
  5
94
330
1F
100
AcDbEntity
  8
0
  6
Continuous
 62
     7
370
    25
100
AcDbLine
 10
57.3787426432
 20
33.8916778947
 30
0.0
 11
55.2286797506
 21
33.8916778947
 31
0.0
  0
SPLINE
  5
95
330
1F
100
AcDbEntity
  8
0
  6
Continuous
 62
     7
370
    25
100
AcDbSpline
210
0.0
220
0.0
230
1.0
 70
     8
 71
     3
 72
     8
 73
     4
 74
     0
 42
0.000000001
 43
0.00000001
 40
0.0
 40
0.0
 40
0.0
 40
0.0
 40
1.0
 40
1.0
 40
1.0
 40
1.0
 10
55.14829499287835
 20
34.2114047868649
 30
0.0
 10
55.17329540580105
 20
34.10467827205346
 30
0.0
 10
55.20016171726127
 20
33.99810864406266
 30
0.0
 10
55.22867975060769
 20
33.89167789468189
 30
0.0
  0
SPLINE
  5
96
330
1F
100
AcDbEntity
  8
0
  6
Continuous
 62
     7
370
    25
100
AcDbSpline
210
0.0
220
0.0
230
1.0
 70
     8
 71
     3
 72
     8
 73
     4
 74
     0
 42
0.000000001
 43
0.00000001
 40
0.0
 40
0.0
 40
0.0
 40
0.0
 40
1.0
 40
1.0
 40
1.0
 40
1.0
 10
55.06791023514901
 20
33.89167789468188
 30
0.0
 10
55.09644404998711
 20
33.99816754139141
 30
0.0
 10
55.1233089717939
 20
34.1047397106682
 30
0.0
 10
55.14829499287835
 20
34.2114047868649
 30
0.0
  0
SPLINE
  5
97
330
1F
100
AcDbEntity
  8
0
  6
Continuous
 62
     7
370
    25
100
AcDbSpline
210
0.0
220
0.0
230
1.0
 70
     8
 71
     3
 72
    14
 73
    10
 74
     0
 42
0.000000001
 43
0.00000001
 40
0.0
 40
0.0
 40
0.0
 40
0.0
 40
0.2500000000000001
 40
0.2500000000000001
 40
0.5000000000000001
 40
0.5000000000000001
 40
0.7500000000000002
 40
0.7500000000000002
 40
1.0
 40
1.0
 40
1.0
 40
1.0
 10
52.91784734251502
 20
37.93312977900926
 30
0.0
 10
52.72800282731679
 20
38.59077047073249
 30
0.0
 10
52.5688362019045
 20
39.26416698899332
 30
0.0
 10
52.35124993270186
 20
40.61384520287405
 30
0.0
 10
52.29256126727302
 20
41.29256878438771
 30
0.0
 10
52.29270398531769
 20
42.65912698380263
 30
0.0
 10
52.35309534532819
 20
43.35162480443805
 30
0.0
 10
52.5722040271239
 20
44.70090966124488
 30
0.0
 10
52.72925466756107
 20
45.36272935775281
 30
0.0
 10
52.91784734251504
 20
46.01603354766403
 30
0.0
  0
LINE
  5
98
330
1F
100
AcDbEntity
  8
0
  6
Continuous
 62
     7
370
    25
100
AcDbLine
 10
55.0679102351
 20
46.0160335477
 30
0.0
 11
52.9178473425
 21
46.0160335477
 31
0.0
  0
SPLINE
  5
99
330
1F
100
AcDbEntity
  8
0
  6
Continuous
 62
     7
370
    25
100
AcDbSpline
210
0.0
220
0.0
230
1.0
 70
     8
 71
     3
 72
     8
 73
     4
 74
     0
 42
0.000000001
 43
0.00000001
 40
0.0
 40
0.0
 40
0.0
 40
0.0
 40
1.0
 40
1.0
 40
1.0
 40
1.0
 10
55.14829499287835
 20
45.37657976329798
 30
0.0
 10
55.12329532088413
 20
45.59002646688828
 30
0.0
 10
55.09642908009714
 20
45.80316599102489
 30
0.0
 10
55.06791023514901
 20
46.01603354766403
 30
0.0
  0
SPLINE
  5
9A
330
1F
100
AcDbEntity
  8
0
  6
Continuous
 62
     7
370
    25
100
AcDbSpline
210
0.0
220
0.0
230
1.0
 70
     8
 71
     3
 72
     8
 73
     4
 74
     0
 42
0.000000001
 43
0.00000001
 40
0.0
 40
0.0
 40
0.0
 40
0.0
 40
1.0
 40
1.0
 40
1.0
 40
1.0
 10
55.22867975060769
 20
46.01603354766403
 30
0.0
 10
55.20014362029205
 20
45.80303697128527
 30
0.0
 10
55.17327890510863
 20
45.58989191033631
 30
0.0
 10
55.14829499287835
 20
45.37657976329798
 30
0.0
  0
LINE
  5
9B
330
1F
100
AcDbEntity
  8
0
  6
Continuous
 62
     7
370
    25
100
AcDbLine
 10
57.3787426432
 20
46.0160335477
 30
0.0
 11
55.2286797506
 21
46.0160335477
 31
0.0
  0
SPLINE
  5
9C
330
1F
100
AcDbEntity
  8
0
  6
Continuous
 62
     7
370
    25
100
AcDbSpline
210
0.0
220
0.0
230
1.0
 70
     8
 71
     3
 72
    14
 73
    10
 74
     0
 42
0.000000001
 43
0.00000001
 40
0.0
 40
0.0
 40
0.0
 40
0.0
 40
0.2500000000000001
 40
0.2500000000000001
 40
0.5000000000000001
 40
0.5000000000000001
 40
0.7500000000000002
 40
0.7500000000000002
 40
1.0
 40
1.0
 40
1.0
 40
1.0
 10
57.37874264324169
 20
37.93312977900926
 30
0.0
 10
57.56858715843992
 20
38.59077047073249
 30
0.0
 10
57.72775378385222
 20
39.26416698899332
 30
0.0
 10
57.94534005305484
 20
40.61384520287405
 30
0.0
 10
58.00402871848368
 20
41.29256878438771
 30
0.0
 10
58.00388600043902
 20
42.65912698380263
 30
0.0
 10
57.94349464042851
 20
43.35162480443805
 30
0.0
 10
57.72438595863281
 20
44.70090966124488
 30
0.0
 10
57.56733531819564
 20
45.36272935775281
 30
0.0
 10
57.37874264324167
 20
46.01603354766403
 30
0.0
  0
SPLINE
  5
9D
330
1F
100
AcDbEntity
  8
0
  6
Continuous
 62
     7
370
    25
100
AcDbSpline
210
0.0
220
0.0
230
1.0
 70
     8
 71
     3
 72
     8
 73
     4
 74
     0
 42
0.000000001
 43
0.00000001
 40
0.0
 40
0.0
 40
0.0
 40
0.0
 40
1.0
 40
1.0
 40
1.0
 40
1.0
 10
55.14829499287835
 20
38.57258356337531
 30
0.0
 10
55.17329466487258
 20
38.35913685978501
 30
0.0
 10
55.20016090565957
 20
38.1459973356484
 30
0.0
 10
55.22867975060769
 20
37.93312977900927
 30
0.0
  0
SPLINE
  5
9E
330
1F
100
AcDbEntity
  8
0
  6
Continuous
 62
     7
370
    25
100
AcDbSpline
210
0.0
220
0.0
230
1.0
 70
     8
 71
     3
 72
     8
 73
     4
 74
     0
 42
0.000000001
 43
0.00000001
 40
0.0
 40
0.0
 40
0.0
 40
0.0
 40
1.0
 40
1.0
 40
1.0
 40
1.0
 10
55.06791023514901
 20
37.93312977900927
 30
0.0
 10
55.09644636546466
 20
38.14612635538803
 30
0.0
 10
55.12331108064807
 20
38.35927141633699
 30
0.0
 10
55.14829499287835
 20
38.57258356337532
 30
0.0
  0
LINE
  5
9F
330
1F
100
AcDbEntity
  8
0
  6
Continuous
 62
     7
370
    25
100
AcDbLine
 10
55.102261339
 20
41.3772352629
 30
0.0
 11
55.7867565313
 21
40.9295189168
 31
0.0
  0
SPLINE
  5
A0
330
1F
100
AcDbEntity
  8
0
  6
Continuous
 62
     7
370
    25
100
AcDbSpline
210
0.0
220
0.0
230
1.0
 70
     8
 71
     3
 72
    19
 73
    15
 74
     0
 42
0.000000001
 43
0.00000001
 40
0.0
 40
0.0
 40
0.0
 40
0.0
 40
0.0978059775289525
 40
0.1996122522918966
 40
0.3052960258330041
 40
0.4158173591641854
 40
0.474240566618493
 40
0.5372869128296534
 40
0.6033858352934854
 40
0.6743111580696056
 40
0.749530467357482
 40
0.8286083142695116
 40
0.9120427387714447
 40
0.9999999999999999
 40
0.9999999999999999
 40
0.9999999999999999
 40
0.9999999999999999
 10
54.66656422364759
 20
41.54490353214893
 30
0.0
 10
54.68200627761091
 20
41.54435991144843
 30
0.0
 10
54.71352197071587
 20
41.54325043577874
 30
0.0
 10
54.76139144477827
 20
41.53662921280574
 30
0.0
 10
54.81018025796056
 20
41.52448508090671
 30
0.0
 10
54.85153982360659
 20
41.51134247593716
 30
0.0
 10
54.88579303741179
 20
41.49830104449212
 30
0.0
 10
54.91284189551885
 20
41.4862087291754
 30
0.0
 10
54.94140635819613
 20
41.47268804723593
 30
0.0
 10
54.97094595770172
 20
41.45683992511671
 30
0.0
 10
55.00230470437464
 20
41.44003963671701
 30
0.0
 10
55.03432128809133
 20
41.42041499336867
 30
0.0
 10
55.06816505335095
 20
41.39993637648833
 30
0.0
 10
55.09069770655267
 20
41.38493426381978
 30
0.0
 10
55.1022613390322
 20
41.37723526291816
 30
0.0
  0
SPLINE
  5
A1
330
1F
100
AcDbEntity
  8
0
  6
Continuous
 62
     7
370
    25
100
AcDbSpline
210
0.0
220
0.0
230
1.0
 70
     8
 71
     3
 72
    19
 73
    15
 74
     0
 42
0.000000001
 43
0.00000001
 40
0.0
 40
0.0
 40
0.0
 40
0.0
 40
0.0843261511037433
 40
0.1670353409858406
 40
0.2495407139852792
 40
0.3327066655796642
 40
0.4158726171740492
 40
0.4977774155681174
 40
0.5803136056784763
 40
0.6645325781316563
 40
0.7495711764063215
 40
0.8324741628544073
 40
0.9156738488962566
 40
1.0
 40
1.0
 40
1.0
 40
1.0
 10
54.20983345441682
 20
41.09057660907201
 30
0.0
 10
54.21048839808196
 20
41.11076091324374
 30
0.0
 10
54.21178572681099
 20
41.15074248581357
 30
0.0
 10
54.22334258151383
 20
41.20955648356191
 30
0.0
 10
54.24207410542799
 20
41.26606942078025
 30
0.0
 10
54.26788056947553
 20
41.31988405848568
 30
0.0
 10
54.30047552290703
 20
41.36973876746753
 30
0.0
 10
54.33972122629518
 20
41.41432720089107
 30
0.0
 10
54.38475030454456
 20
41.45349422623263
 30
0.0
 10
54.43570089038575
 20
41.48591759357255
 30
0.0
 10
54.49009803162357
 20
41.51234272595645
 30
0.0
 10
54.5473356403682
 20
41.53098075395337
 30
0.0
 10
54.60626178703068
 20
41.54303401530876
 30
0.0
 10
54.64637350600653
 20
41.5442775725897
 30
0.0
 10
54.66656422364759
 20
41.54490353214893
 30
0.0
  0
SPLINE
  5
A2
330
1F
100
AcDbEntity
  8
0
  6
Continuous
 62
     7
370
    25
100
AcDbSpline
210
0.0
220
0.0
230
1.0
 70
     8
 71
     3
 72
    19
 73
    15
 74
     0
 42
0.000000001
 43
0.00000001
 40
0.0
 40
0.0
 40
0.0
 40
0.0
 40
0.0859901205637198
 40
0.1691084375726415
 40
0.2505285789581879
 40
0.332255696176845
 40
0.4135763652356403
 40
0.4941261456201216
 40
0.576305934120417
 40
0.6607126719045473
 40
0.7461272722239103
 40
0.8300149859609743
 40
0.9144197259288509
 40
1.0
 40
1.0
 40
1.0
 40
1.0
 10
54.66926855057066
 20
40.62182660907201
 30
0.0
 10
54.64828972728454
 20
40.62260940707515
 30
0.0
 10
54.60703270839946
 20
40.6241488600539
 30
0.0
 10
54.54669095925771
 20
40.63535542388718
 30
0.0
 10
54.48966606403687
 20
40.65469544918334
 30
0.0
 10
54.43573392431388
 20
40.68057008386369
 30
0.0
 10
54.38646369884817
 20
40.71414038781636
 30
0.0
 10
54.34193662681788
 20
40.75392304367185
 30
0.0
 10
54.30312474241648
 20
40.80029410874633
 30
0.0
 10
54.26982964355872
 20
40.85215550598249
 30
0.0
 10
54.24337672944102
 20
40.90828564377951
 30
0.0
 10
54.22381955009996
 20
40.96713992930536
 30
0.0
 10
54.21213363842008
 20
41.02821530788707
 30
0.0
 10
54.21060370916803
 20
41.06969389340156
 30
0.0
 10
54.20983345441682
 20
41.09057660907201
 30
0.0
  0
SPLINE
  5
A3
330
1F
100
AcDbEntity
  8
0
  6
Continuous
 62
     7
370
    25
100
AcDbSpline
210
0.0
220
0.0
230
1.0
 70
     8
 71
     3
 72
    23
 73
    19
 74
     0
 42
0.000000001
 43
0.00000001
 40
0.0
 40
0.0
 40
0.0
 40
0.0
 40
0.0652308037420294
 40
0.1284048960032227
 40
0.1900670715964781
 40
0.25094336576828
 40
0.3115458328521431
 40
0.3728628021568291
 40
0.4350236738562383
 40
0.4990717247070431
 40
0.563091075049662
 40
0.625510106330375
 40
0.6866800359296492
 40
0.7472825030135124
 40
0.8085634952159588
 40
0.8707421035159856
 40
0.9343409515059125
 40
1.0
 40
1.0
 40
1.0
 40
1.0
 10
55.11367960826297
 20
41.06683862830278
 30
0.0
 10
55.11326984610763
 20
41.05159327273056
 30
0.0
 10
55.11246324149872
 20
41.02158324396373
 30
0.0
 10
55.10625587691651
 20
40.97752318588916
 30
0.0
 10
55.0964736860921
 20
40.93518507047209
 30
0.0
 10
55.08221414782858
 20
40.89474437950548
 30
0.0
 10
55.06399885310189
 20
40.85605595870852
 30
0.0
 10
55.04216790869596
 20
40.81889778894772
 30
0.0
 10
55.01559404568592
 20
40.78396835604506
 30
0.0
 10
54.9859090646357
 20
40.75081785066853
 30
0.0
 10
54.95303035699492
 20
40.72072052321441
 30
0.0
 10
54.91814406983518
 20
40.69407364226119
 30
0.0
 10
54.88128654940738
 20
40.671690731518
 30
0.0
 10
54.84247646400739
 20
40.65353047939746
 30
0.0
 10
54.80177363848144
 20
40.63942838856979
 30
0.0
 10
54.75923015012927
 20
40.6291479692654
 30
0.0
 10
54.71481666236065
 20
40.62307100091403
 30
0.0
 10
54.68461173010371
 20
40.62224579060756
 30
0.0
 10
54.66926855057066
 20
40.62182660907201
 30
0.0
  0
SPLINE
  5
A4
330
1F
100
AcDbEntity
  8
0
  6
Continuous
 62
     7
370
    25
100
AcDbSpline
210
0.0
220
0.0
230
1.0
 70
     8
 71
     3
 72
     9
 73
     5
 74
     0
 42
0.000000001
 43
0.00000001
 40
0.0
 40
0.0
 40
0.0
 40
0.0
 40
0.5126593363417812
 40
1.0
 40
1.0
 40
1.0
 40
1.0
 10
55.09925653133989
 20
41.22218718599509
 30
0.0
 10
55.10346247162001
 20
41.1957999244308
 30
0.0
 10
55.11166663368623
 20
41.14432858724113
 30
0.0
 10
55.11302003887841
 20
41.09222891644496
 30
0.0
 10
55.11367960826297
 20
41.06683862830278
 30
0.0
  0
LINE
  5
A5
330
1F
100
AcDbEntity
  8
0
  6
Continuous
 62
     7
370
    25
100
AcDbLine
 10
55.7053262429
 20
40.8258530514
 30
0.0
 11
55.0992565313
 21
41.222187186
 31
0.0
  0
LINE
  5
A6
330
1F
100
AcDbEntity
  8
0
  6
Continuous
 62
     7
370
    25
100
AcDbLine
 10
55.7867565313
 20
40.9295189168
 30
0.0
 11
55.7053262429
 21
40.8258530514
 31
0.0
  0
LINE
  5
A7
330
1F
100
AcDbEntity
  8
0
  6
Continuous
 62
     7
370
    25
100
AcDbLine
 10
55.594448839
 20
42.2732859371
 30
0.0
 11
55.7482949929
 21
42.1852450717
 31
0.0
  0
LINE
  5
A8
330
1F
100
AcDbEntity
  8
0
  6
Continuous
 62
     7
370
    25
100
AcDbLine
 10
55.594448839
 20
42.0425167063
 30
0.0
 11
55.594448839
 21
42.2732859371
 31
0.0
  0
LINE
  5
A9
330
1F
100
AcDbEntity
  8
0
  6
Continuous
 62
     7
370
    25
100
AcDbLine
 10
54.2482949929
 20
42.0425167063
 30
0.0
 11
55.594448839
 21
42.0425167063
 31
0.0
  0
LINE
  5
AA
330
1F
100
AcDbEntity
  8
0
  6
Continuous
 62
     7
370
    25
100
AcDbLine
 10
54.2482949929
 20
41.9079013217
 30
0.0
 11
54.2482949929
 21
42.0425167063
 31
0.0
  0
LINE
  5
AB
330
1F
100
AcDbEntity
  8
0
  6
Continuous
 62
     7
370
    25
100
AcDbLine
 10
55.7482949929
 20
41.9079013217
 30
0.0
 11
54.2482949929
 21
41.9079013217
 31
0.0
  0
LINE
  5
AC
330
1F
100
AcDbEntity
  8
0
  6
Continuous
 62
     7
370
    25
100
AcDbLine
 10
55.7482949929
 20
42.1852450717
 30
0.0
 11
55.7482949929
 21
41.9079013217
 31
0.0
  0
SPLINE
  5
AD
330
1F
100
AcDbEntity
  8
0
  6
Continuous
 62
     7
370
    25
100
AcDbSpline
210
0.0
220
0.0
230
1.0
 70
     8
 71
     3
 72
    19
 73
    15
 74
     0
 42
0.000000001
 43
0.00000001
 40
0.0
 40
0.0
 40
0.0
 40
0.0
 40
0.1227280999764553
 40
0.239716523588393
 40
0.3518621792202463
 40
0.4632019818032239
 40
0.5202611541541643
 40
0.5794324380306665
 40
0.6405963441586369
 40
0.70529822908802
 40
0.7732361059084537
 40
0.844648929340316
 40
0.9200459817773698
 40
1.0
 40
1.0
 40
1.0
 40
1.0
 10
55.63291037749374
 20
43.10062375795718
 30
0.0
 10
55.63231523614596
 20
43.11770360864244
 30
0.0
 10
55.63115278667463
 20
43.15106452949485
 30
0.0
 10
55.62093537979447
 20
43.19914877310207
 30
0.0
 10
55.6047469518629
 20
43.24380344213112
 30
0.0
 10
55.58519947314969
 20
43.2778212922094
 30
0.0
 10
55.5659699907869
 20
43.30298389700105
 30
0.0
 10
55.54942686713984
 20
43.32130959898591
 30
0.0
 10
55.53067035326466
 20
43.33897745290833
 30
0.0
 10
55.50918597909489
 20
43.35529415615748
 30
0.0
 10
55.48571250530221
 20
43.37123744014433
 30
0.0
 10
55.4601206487332
 20
43.38665507033861
 30
0.0
 10
55.43204554610333
 20
43.40105183210151
 30
0.0
 10
55.41230232472634
 20
43.40981537671182
 30
0.0
 10
55.40214114672451
 20
43.4143256810341
 30
0.0
  0
SPLINE
  5
AE
330
1F
100
AcDbEntity
  8
0
  6
Continuous
 62
     7
370
    25
100
AcDbSpline
210
0.0
220
0.0
230
1.0
 70
     8
 71
     3
 72
    23
 73
    19
 74
     0
 42
0.000000001
 43
0.00000001
 40
0.0
 40
0.0
 40
0.0
 40
0.0
 40
0.0552698294993248
 40
0.1099567044850938
 40
0.1632335040550556
 40
0.2180575651623568
 40
0.2732775387226747
 40
0.330881045495497
 40
0.3904799376860887
 40
0.4536559730386417
 40
0.5189026226022311
 40
0.5833461108214766
 40
0.6485466930814431
 40
0.7150552190344909
 40
0.7825206438000536
 40
0.852335294426451
 40
0.9249348997257087
 40
0.9999999999999999
 40
0.9999999999999999
 40
0.9999999999999999
 40
0.9999999999999999
 10
55.39763393518605
 20
42.79894106564949
 30
0.0
 10
55.40546727336443
 20
42.79911864967099
 30
0.0
 10
55.42105132815553
 20
42.79947194465944
 30
0.0
 10
55.44381893841092
 20
42.80392822424729
 30
0.0
 10
55.46589180388092
 20
42.81062310926098
 30
0.0
 10
55.48716977101757
 20
42.81983304618296
 30
0.0
 10
55.50752933260201
 20
42.832137916463
 30
0.0
 10
55.52699546582898
 20
42.8469078599239
 30
0.0
 10
55.5458944029323
 20
42.86415000530921
 30
0.0
 10
55.56332199563591
 20
42.88431497566857
 30
0.0
 10
55.5797606783283
 20
42.90614570672154
 30
0.0
 10
55.59397130800529
 20
42.92984761190549
 30
0.0
 10
55.60601622822276
 20
42.95489791676917
 30
0.0
 10
55.61596789999282
 20
42.98131965685047
 30
0.0
 10
55.62344914636162
 20
43.00921867678422
 30
0.0
 10
55.62882201561532
 20
43.03845836798498
 30
0.0
 10
55.63218090870902
 20
43.06909601956352
 30
0.0
 10
55.6326645296277
 20
43.08999818032093
 30
0.0
 10
55.63291037749374
 20
43.10062375795718
 30
0.0
  0
SPLINE
  5
AF
330
1F
100
AcDbEntity
  8
0
  6
Continuous
 62
     7
370
    25
100
AcDbSpline
210
0.0
220
0.0
230
1.0
 70
     8
 71
     3
 72
    19
 73
    15
 74
     0
 42
0.000000001
 43
0.00000001
 40
0.0
 40
0.0
 40
0.0
 40
0.0
 40
0.1101423815503176
 40
0.2157418685830274
 40
0.3179605426392306
 40
0.4180517606815226
 40
0.5115631470355316
 40
0.5965727584443461
 40
0.6733290469034968
 40
0.7440491927238595
 40
0.8107168223002833
 40
0.8740854521098849
 40
0.9367096168966699
 40
1.0
 40
1.0
 40
1.0
 40
1.0
 10
55.15214114672451
 20
43.18355645026487
 30
0.0
 10
55.15245743569311
 20
43.1649993207327
 30
0.0
 10
55.15307696808507
 20
43.12865046260511
 30
0.0
 10
55.16051821519567
 20
43.0755456831265
 30
0.0
 10
55.17092754101554
 20
43.02470413349486
 30
0.0
 10
55.18650371265702
 20
42.97728632942007
 30
0.0
 10
55.20519956435702
 20
42.9342076113218
 30
0.0
 10
55.22628050247963
 20
42.89662817596879
 30
0.0
 10
55.25016425952045
 20
42.86543864127812
 30
0.0
 10
55.27653738406866
 20
42.84056108297668
 30
0.0
 10
55.30515317346016
 20
42.82230183852477
 30
0.0
 10
55.33466610082098
 20
42.80859646706933
 30
0.0
 10
55.36576283402297
 20
42.80056182301653
 30
0.0
 10
55.3869728271909
 20
42.79948322041331
 30
0.0
 10
55.39763393518604
 20
42.79894106564949
 30
0.0
  0
LINE
  5
B0
330
1F
100
AcDbEntity
  8
0
  6
Continuous
 62
     7
370
    25
100
AcDbLine
 10
54.9982949929
 20
43.1835564503
 30
0.0
 11
55.1521411467
 21
43.1835564503
 31
0.0
  0
SPLINE
  5
B1
330
1F
100
AcDbEntity
  8
0
  6
Continuous
 62
     7
370
    25
100
AcDbSpline
210
0.0
220
0.0
230
1.0
 70
     8
 71
     3
 72
    23
 73
    19
 74
     0
 42
0.000000001
 43
0.00000001
 40
0.0
 40
0.0
 40
0.0
 40
0.0
 40
0.0669051223273616
 40
0.1334773340846825
 40
0.2010229080576287
 40
0.2712178684297488
 40
0.3428591616573978
 40
0.4138109980627169
 40
0.4855518488903453
 40
0.5598002749200529
 40
0.5998999649035781
 40
0.6436094423977958
 40
0.6919106424505659
 40
0.7447030291556902
 40
0.8015038302285953
 40
0.8628660266331954
 40
0.9293326711591618
 40
1.0
 40
1.0
 40
1.0
 40
1.0
 10
54.68098730057066
 20
42.72201798872641
 30
0.0
 10
54.6949636044532
 20
42.72267382059143
 30
0.0
 10
54.72284666807681
 20
42.72398222099346
 30
0.0
 10
54.76386824903685
 20
42.73397178661853
 30
0.0
 10
54.80339349140885
 20
42.75040204806828
 30
0.0
 10
54.84074235761291
 20
42.77340721846155
 30
0.0
 10
54.87537442562823
 20
42.80139805212936
 30
0.0
 10
54.90615384458478
 20
42.83410359939581
 30
0.0
 10
54.93180671537684
 20
42.87160408688464
 30
0.0
 10
54.94946518961259
 20
42.90634094806936
 30
0.0
 10
54.96123382007826
 20
42.93718394982434
 30
0.0
 10
54.96948576344322
 20
42.96352632380645
 30
0.0
 10
54.97608222074719
 20
42.99304350211359
 30
0.0
 10
54.98246298147084
 20
43.02538113745046
 30
0.0
 10
54.98781220633894
 20
43.06067561364543
 30
0.0
 10
54.99229239182822
 20
43.09895872879547
 30
0.0
 10
54.99587161267225
 20
43.14024588448957
 30
0.0
 10
54.99747087000659
 20
43.16882775529805
 30
0.0
 10
54.99829499287835
 20
43.18355645026487
 30
0.0
  0
SPLINE
  5
B2
330
1F
100
AcDbEntity
  8
0
  6
Continuous
 62
     7
370
    25
100
AcDbSpline
210
0.0
220
0.0
230
1.0
 70
     8
 71
     3
 72
    23
 73
    19
 74
     0
 42
0.000000001
 43
0.00000001
 40
0.0
 40
0.0
 40
0.0
 40
0.0
 40
0.0760618905628339
 40
0.1487324608035359
 40
0.2183745247439722
 40
0.2857225935927383
 40
0.3510576941824569
 40
0.414934915729319
 40
0.4784859417740854
 40
0.542169035281216
 40
0.6047501165431387
 40
0.6641185017301124
 40
0.7214996756099116
 40
0.7776159163852547
 40
0.832666108697549
 40
0.8878580281135741
 40
0.9434676608977686
 40
1.0
 40
1.0
 40
1.0
 40
1.0
 10
54.36367960826296
 20
43.10392904641871
 30
0.0
 10
54.36394313837223
 20
43.08989164098293
 30
0.0
 10
54.36445844875112
 20
43.06244270645983
 30
0.0
 10
54.36921117777414
 20
43.02239327859613
 30
0.0
 10
54.37610278290003
 20
42.98428060148122
 30
0.0
 10
54.38688259326207
 20
42.94849361486957
 30
0.0
 10
54.39981475658644
 20
42.91454534569304
 30
0.0
 10
54.41674533185914
 20
42.88319361739897
 30
0.0
 10
54.43586567949491
 20
42.85351672790986
 30
0.0
 10
54.45810632121087
 20
42.82638407293557
 30
0.0
 10
54.48214604753559
 20
42.8019226577647
 30
0.0
 10
54.5076500547977
 20
42.7807852924119
 30
0.0
 10
54.53382755280064
 20
42.76247791654836
 30
0.0
 10
54.56128920965928
 20
42.74776184156735
 30
0.0
 10
54.58976564859619
 20
42.73612073555056
 30
0.0
 10
54.61936345717451
 20
42.72820074016764
 30
0.0
 10
54.64983340332638
 20
42.72269258157491
 30
0.0
 10
54.67054586065579
 20
42.72224408309398
 30
0.0
 10
54.68098730057066
 20
42.72201798872641
 30
0.0
  0
SPLINE
  5
B3
330
1F
100
AcDbEntity
  8
0
  6
Continuous
 62
     7
370
    25
100
AcDbSpline
210
0.0
220
0.0
230
1.0
 70
     8
 71
     3
 72
    15
 73
    11
 74
     0
 42
0.000000001
 43
0.00000001
 40
0.0
 40
0.0
 40
0.0
 40
0.0
 40
0.1182713048357256
 40
0.2361775330837632
 40
0.355662932948509
 40
0.4759041646706825
 40
0.6001273417110832
 40
0.7286081161551193
 40
0.8613134756739422
 40
1.0
 40
1.0
 40
1.0
 40
1.0
 10
54.44480941595528
 20
43.35453000795718
 30
0.0
 10
54.43833441571863
 20
43.34613147516068
 30
0.0
 10
54.42540440209671
 20
43.3293603339261
 30
0.0
 10
54.40890370415195
 20
43.30203109202677
 30
0.0
 10
54.39460612186563
 20
43.27328899799002
 30
0.0
 10
54.38368453798721
 20
43.24251128046678
 30
0.0
 10
54.37443696907756
 20
43.21036209312933
 30
0.0
 10
54.36838531802079
 20
43.17632179374427
 30
0.0
 10
54.36423324458799
 20
43.14069070069637
 30
0.0
 10
54.36386684537696
 20
43.11636165920363
 30
0.0
 10
54.36367960826296
 20
43.10392904641871
 30
0.0
  0
SPLINE
  5
B4
330
1F
100
AcDbEntity
  8
0
  6
Continuous
 62
     7
370
    25
100
AcDbSpline
210
0.0
220
0.0
230
1.0
 70
     8
 71
     3
 72
    15
 73
    11
 74
     0
 42
0.000000001
 43
0.00000001
 40
0.0
 40
0.0
 40
0.0
 40
0.0
 40
0.1497703860319681
 40
0.2913164099952446
 40
0.4259663731047426
 40
0.5521595739695285
 40
0.6715274135235928
 40
0.7861216286916589
 40
0.8953250730704446
 40
1.0
 40
1.0
 40
1.0
 40
1.0
 10
54.65214114672451
 20
43.47201798872641
 30
0.0
 10
54.64059156960938
 20
43.46851086382343
 30
0.0
 10
54.6181266389159
 20
43.46168920125576
 30
0.0
 10
54.58579507934095
 20
43.45007735924072
 30
0.0
 10
54.55615591367318
 20
43.43684809978195
 30
0.0
 10
54.52899171853977
 20
43.42265614608078
 30
0.0
 10
54.50403497462654
 20
43.40775109778532
 30
0.0
 10
54.48194560218337
 20
43.39107327272686
 30
0.0
 10
54.46175337266489
 20
43.37385792480659
 30
0.0
 10
54.45037711040479
 20
43.36088105908458
 30
0.0
 10
54.44480941595528
 20
43.35453000795718
 30
0.0
  0
LINE
  5
B5
330
1F
100
AcDbEntity
  8
0
  6
Continuous
 62
     7
370
    25
100
AcDbLine
 10
54.6521411467
 20
43.6066333733
 30
0.0
 11
54.6521411467
 21
43.4720179887
 31
0.0
  0
SPLINE
  5
B6
330
1F
100
AcDbEntity
  8
0
  6
Continuous
 62
     7
370
    25
100
AcDbSpline
210
0.0
220
0.0
230
1.0
 70
     8
 71
     3
 72
    23
 73
    19
 74
     0
 42
0.000000001
 43
0.00000001
 40
0.0
 40
0.0
 40
0.0
 40
0.0
 40
0.0655411703374033
 40
0.1289631677825933
 40
0.1903771361885609
 40
0.2500923616690527
 40
0.308548432459201
 40
0.3663979630552958
 40
0.42454218926668
 40
0.4831699964229055
 40
0.5422433998311199
 40
0.6017393520173299
 40
0.6625060022496068
 40
0.7248555134488469
 40
0.7891278292811811
 40
0.8563463998785099
 40
0.9262952349869055
 40
1.0
 40
1.0
 40
1.0
 40
1.0
 10
54.20983345441682
 20
43.10633289257256
 30
0.0
 10
54.21020554581331
 20
43.12236973555105
 30
0.0
 10
54.21093769760355
 20
43.1539248948668
 30
0.0
 10
54.21594281240208
 20
43.20031496560379
 30
0.0
 10
54.22508424321828
 20
43.24459569390287
 30
0.0
 10
54.23738565980375
 20
43.28682695012716
 30
0.0
 10
54.2529821206954
 20
43.32704625143868
 30
0.0
 10
54.27240441984739
 20
43.36513086794341
 30
0.0
 10
54.29525220644103
 20
43.40131510802346
 30
0.0
 10
54.32179517264385
 20
43.43525751565685
 30
0.0
 10
54.35148717539674
 20
43.46695404467381
 30
0.0
 10
54.38485532252575
 20
43.49556235505815
 30
0.0
 10
54.42128278134906
 20
43.52155940917618
 30
0.0
 10
54.46119266257708
 20
43.54424911148111
 30
0.0
 10
54.50406920141041
 20
43.56466494831648
 30
0.0
 10
54.55046141500254
 20
43.58145678687961
 30
0.0
 10
54.59995456728355
 20
43.59623631629517
 30
0.0
 10
54.63444502735891
 20
43.60310780097205
 30
0.0
 10
54.65214114672451
 20
43.60663337334179
 30
0.0
  0
SPLINE
  5
B7
330
1F
100
AcDbEntity
  8
0
  6
Continuous
 62
     7
370
    25
100
AcDbSpline
210
0.0
220
0.0
230
1.0
 70
     8
 71
     3
 72
    19
 73
    15
 74
     0
 42
0.000000001
 43
0.00000001
 40
0.0
 40
0.0
 40
0.0
 40
0.0
 40
0.079641704194991
 40
0.1589086132578561
 40
0.2395997983184508
 40
0.3224093988203484
 40
0.405827748173513
 40
0.4876442139503137
 40
0.5697199979738974
 40
0.6530646649976934
 40
0.7374573001733065
 40
0.8224924079539125
 40
0.9097550737466981
 40
1.0
 40
1.0
 40
1.0
 40
1.0
 10
54.69390797364758
 20
42.58740260411102
 30
0.0
 10
54.67290464264426
 20
42.58817337482253
 30
0.0
 10
54.63099682264883
 20
42.58971128898628
 30
0.0
 10
54.56906655660617
 20
42.60340191868933
 30
0.0
 10
54.5086333825439
 20
42.62474852298955
 30
0.0
 10
54.4505927236189
 20
42.65453246668998
 30
0.0
 10
54.39640133325928
 20
42.69138302907962
 30
0.0
 10
54.34813474922273
 20
42.73546717461902
 30
0.0
 10
54.30636664297539
 20
42.7857132247616
 30
0.0
 10
54.27158093671884
 20
42.84179232913245
 30
0.0
 10
54.24375387264152
 20
42.90252290828074
 30
0.0
 10
54.22444492699755
 20
42.96748532740045
 30
0.0
 10
54.21186769216982
 20
43.03573495523695
 30
0.0
 10
54.21051908619786
 20
43.08253813729275
 30
0.0
 10
54.20983345441682
 20
43.10633289257256
 30
0.0
  0
SPLINE
  5
B8
330
1F
100
AcDbEntity
  8
0
  6
Continuous
 62
     7
370
    25
100
AcDbSpline
210
0.0
220
0.0
230
1.0
 70
     8
 71
     3
 72
    15
 73
    11
 74
     0
 42
0.000000001
 43
0.00000001
 40
0.0
 40
0.0
 40
0.0
 40
0.0
 40
0.1281455049994643
 40
0.2541925386280419
 40
0.3781411397135888
 40
0.5013808330744057
 40
0.6239569784447038
 40
0.7470758858273289
 40
0.8728647202442611
 40
1.0
 40
1.0
 40
1.0
 40
1.0
 10
54.96043441595527
 20
42.67694587334179
 30
0.0
 10
54.95055357553028
 20
42.66972521715424
 30
0.0
 10
54.93095370028362
 20
42.6554021480237
 30
0.0
 10
54.89942270371802
 20
42.63777269935978
 30
0.0
 10
54.86764660448252
 20
42.62159649193868
 30
0.0
 10
54.83437600733869
 20
42.60969127152858
 30
0.0
 10
54.80067962271816
 20
42.59941753809052
 30
0.0
 10
54.76583587635226
 20
42.59265776357819
 30
0.0
 10
54.73017581332468
 20
42.58831825873249
 30
0.0
 10
54.70604008251568
 20
42.58770890362189
 30
0.0
 10
54.69390797364758
 20
42.58740260411102
 30
0.0
  0
SPLINE
  5
B9
330
1F
100
AcDbEntity
  8
0
  6
Continuous
 62
     7
370
    25
100
AcDbSpline
210
0.0
220
0.0
230
1.0
 70
     8
 71
     3
 72
    11
 73
     7
 74
     0
 42
0.000000001
 43
0.00000001
 40
0.0
 40
0.0
 40
0.0
 40
0.0
 40
0.253879600326656
 40
0.5030089172783633
 40
0.7502910806899731
 40
1.0
 40
1.0
 40
1.0
 40
1.0
 10
55.08843922364758
 20
42.83950596949563
 30
0.0
 10
55.08073429298695
 20
42.82354950324992
 30
0.0
 10
55.06546859686829
 20
42.79193512856398
 30
0.0
 10
55.03553041507519
 20
42.74884204447845
 30
0.0
 10
55.00096340906638
 20
42.70972295503975
 30
0.0
 10
54.97398798638913
 20
42.68790707546669
 30
0.0
 10
54.96043441595527
 20
42.67694587334179
 30
0.0
  0
SPLINE
  5
BA
330
1F
100
AcDbEntity
  8
0
  6
Continuous
 62
     7
370
    25
100
AcDbSpline
210
0.0
220
0.0
230
1.0
 70
     8
 71
     3
 72
    15
 73
    11
 74
     0
 42
0.000000001
 43
0.00000001
 40
0.0
 40
0.0
 40
0.0
 40
0.0
 40
0.1280675485958904
 40
0.2506083188676684
 40
0.3706301659145029
 40
0.4900722467299488
 40
0.6103747641546199
 40
0.7343130699115256
 40
0.8632165042449895
 40
1.0
 40
1.0
 40
1.0
 40
1.0
 10
55.39703297364758
 20
42.6643256810341
 30
0.0
 10
55.38117291877376
 20
42.66482436291141
 30
0.0
 10
55.35013725257529
 20
42.66580020595904
 30
0.0
 10
55.30482803951607
 20
42.67408607977147
 30
0.0
 10
55.26212449653798
 20
42.68803019243271
 30
0.0
 10
55.22184685562792
 20
42.70734580496607
 30
0.0
 10
55.18425049570373
 20
42.73234932649763
 30
0.0
 10
55.14925082819209
 20
42.76263762516491
 30
0.0
 10
55.1166926175657
 20
42.79842448021154
 30
0.0
 10
55.09804141486192
 20
42.82554402507867
 30
0.0
 10
55.08843922364758
 20
42.83950596949563
 30
0.0
  0
SPLINE
  5
BB
330
1F
100
AcDbEntity
  8
0
  6
Continuous
 62
     7
370
    25
100
AcDbSpline
210
0.0
220
0.0
230
1.0
 70
     8
 71
     3
 72
    19
 73
    15
 74
     0
 42
0.000000001
 43
0.00000001
 40
0.0
 40
0.0
 40
0.0
 40
0.0
 40
0.0902542493426766
 40
0.1785397915286843
 40
0.2660930338538198
 40
0.3546309779571733
 40
0.4418861533505626
 40
0.5257469151636484
 40
0.6081136336036366
 40
0.6901972728278825
 40
0.770821484330335
 40
0.8483261812554109
 40
0.9240117400247433
 40
1.0
 40
1.0
 40
1.0
 40
1.0
 10
55.78675653133989
 20
43.10242664257257
 30
0.0
 10
55.78616543266348
 20
43.08284832454039
 30
0.0
 10
55.78499612888857
 20
43.04411874842175
 30
0.0
 10
55.77431851325467
 20
42.98722029972869
 30
0.0
 10
55.75742202796002
 20
42.93235166297064
 30
0.0
 10
55.7340761449013
 20
42.8801134139065
 30
0.0
 10
55.70528158211754
 20
42.8315912285081
 30
0.0
 10
55.67101098059122
 20
42.78841857704504
 30
0.0
 10
55.63192556566807
 20
42.75118064384336
 30
0.0
 10
55.58875446667439
 20
42.71994019627473
 30
0.0
 10
55.54261639122285
 20
42.69547948239457
 30
0.0
 10
55.49513060958829
 20
42.67744246518899
 30
0.0
 10
55.44640976470733
 20
42.66646174476099
 30
0.0
 10
55.41351378791797
 20
42.66503864898517
 30
0.0
 10
55.39703297364758
 20
42.6643256810341
 30
0.0
  0
SPLINE
  5
BC
330
1F
100
AcDbEntity
  8
0
  6
Continuous
 62
     7
370
    25
100
AcDbSpline
210
0.0
220
0.0
230
1.0
 70
     8
 71
     3
 72
    23
 73
    19
 74
     0
 42
0.000000001
 43
0.00000001
 40
0.0
 40
0.0
 40
0.0
 40
0.0
 40
0.0726253460834355
 40
0.1419766113262345
 40
0.2089849284189386
 40
0.2739568703644447
 40
0.336889347396841
 40
0.3987449534945902
 40
0.4601158852788617
 40
0.5208249225900291
 40
0.5809944586324857
 40
0.6401519276014648
 40
0.6986224507562546
 40
0.7572710809271643
 40
0.8164266940046602
 40
0.8762540482034705
 40
0.9371652930625374
 40
1.0
 40
1.0
 40
1.0
 40
1.0
 10
55.40214114672451
 20
43.54894106564949
 30
0.0
 10
55.41724078271395
 20
43.54529411535763
 30
0.0
 10
55.44675933602424
 20
43.53816462583316
 30
0.0
 10
55.48893387638737
 20
43.52329423720363
 30
0.0
 10
55.52884395698339
 20
43.50709455640594
 30
0.0
 10
55.56574227428142
 20
43.48764208302104
 30
0.0
 10
55.60037037545257
 20
43.46642404549556
 30
0.0
 10
55.63194285736748
 20
43.44211430769447
 30
0.0
 10
55.66126269971054
 20
43.41583442659479
 30
0.0
 10
55.68728265866363
 20
43.38676659117974
 30
0.0
 10
55.71084454260936
 20
43.35628287904797
 30
0.0
 10
55.73093385289894
 20
43.32395375629766
 30
0.0
 10
55.74821563269801
 20
43.29042965901026
 30
0.0
 10
55.76245287493031
 20
43.255478316318
 30
0.0
 10
55.77317809935864
 20
43.21899567130715
 30
0.0
 10
55.78095958746898
 20
43.1813115470268
 30
0.0
 10
55.78601292213231
 20
43.14232718983481
 30
0.0
 10
55.78650610631217
 20
43.11586393672127
 30
0.0
 10
55.78675653133989
 20
43.10242664257257
 30
0.0
  0
LINE
  5
BD
330
1F
100
AcDbEntity
  8
0
  6
Continuous
 62
     7
370
    25
100
AcDbLine
 10
55.4021411467
 20
43.414325681
 30
0.0
 11
55.4021411467
 21
43.5489410656
 31
0.0
  0
LINE
  5
BE
330
1F
100
AcDbEntity
  8
0
  6
Continuous
 62
     7
370
    25
100
AcDbLine
 10
55.1482949929
 20
37.6134028868
 30
0.0
 11
55.1482949929
 21
38.5725835634
 31
0.0
  0
LINE
  5
BF
330
1F
100
AcDbEntity
  8
0
  6
Continuous
 62
     7
370
    25
100
AcDbLine
 10
55.1482949929
 20
45.3765797633
 30
0.0
 11
55.1482949929
 21
46.3357604398
 31
0.0
  0
SPLINE
  5
C0
330
1F
100
AcDbEntity
  8
0
  6
Continuous
 62
     7
370
    25
100
AcDbSpline
210
0.0
220
0.0
230
1.0
 70
     8
 71
     3
 72
     8
 73
     4
 74
     0
 42
0.000000001
 43
0.00000001
 40
0.0
 40
0.0
 40
0.0
 40
0.0
 40
1.0
 40
1.0
 40
1.0
 40
1.0
 10
55.14829499287835
 20
46.33576043984706
 30
0.0
 10
55.17329540580105
 20
46.22903392503561
 30
0.0
 10
55.20016171726127
 20
46.12246429704481
 30
0.0
 10
55.22867975060769
 20
46.01603354766403
 30
0.0
  0
SPLINE
  5
C1
330
1F
100
AcDbEntity
  8
0
  6
Continuous
 62
     7
370
    25
100
AcDbSpline
210
0.0
220
0.0
230
1.0
 70
     8
 71
     3
 72
    16
 73
    12
 74
     0
 42
0.000000001
 43
0.00000001
 40
0.0
 40
0.0
 40
0.0
 40
0.0
 40
0.2500000000000001
 40
0.2500000000000001
 40
0.5000000000000001
 40
0.5000000000000001
 40
0.625
 40
0.625
 40
0.7499999999999999
 40
0.7499999999999999
 40
1.0
 40
1.0
 40
1.0
 40
1.0
 10
52.91784734251455
 20
50.05748543199145
 30
0.0
 10
52.72735287152976
 20
49.72753932968485
 30
0.0
 10
52.57035085831667
 20
49.39518758837514
 30
0.0
 10
52.35285204747865
 20
48.72355249410141
 30
0.0
 10
52.29307268640859
 20
48.38421761033094
 30
0.0
 10
52.29241618555463
 20
47.86882184406075
 30
0.0
 10
52.30702995203811
 20
47.69621508356027
 30
0.0
 10
52.36401580991494
 20
47.35478067104174
 30
0.0
 10
52.40633007917418
 20
47.18520816829775
 30
0.0
 10
52.56972489906436
 20
46.67950966874626
 30
0.0
 10
52.72711542637779
 20
46.34639091703826
 30
0.0
 10
52.91784734251479
 20
46.01603354766401
 30
0.0
  0
LINE
  5
C2
330
1F
100
AcDbEntity
  8
0
  6
Continuous
 62
     7
370
    25
100
AcDbLine
 10
55.0679102351
 20
50.057485432
 30
0.0
 11
52.9178473425
 21
50.057485432
 31
0.0
  0
SPLINE
  5
C3
330
1F
100
AcDbEntity
  8
0
  6
Continuous
 62
     7
370
    25
100
AcDbSpline
210
0.0
220
0.0
230
1.0
 70
     8
 71
     3
 72
     8
 73
     4
 74
     0
 42
0.000000001
 43
0.00000001
 40
0.0
 40
0.0
 40
0.0
 40
0.0
 40
1.0
 40
1.0
 40
1.0
 40
1.0
 10
55.14829499287835
 20
49.73775853980838
 30
0.0
 10
55.12329457995565
 20
49.84448505461983
 30
0.0
 10
55.09642826849544
 20
49.95105468261063
 30
0.0
 10
55.06791023514901
 20
50.05748543199142
 30
0.0
  0
SPLINE
  5
C4
330
1F
100
AcDbEntity
  8
0
  6
Continuous
 62
     7
370
    25
100
AcDbSpline
210
0.0
220
0.0
230
1.0
 70
     8
 71
     3
 72
     8
 73
     4
 74
     0
 42
0.000000001
 43
0.00000001
 40
0.0
 40
0.0
 40
0.0
 40
0.0
 40
1.0
 40
1.0
 40
1.0
 40
1.0
 10
55.22867975060769
 20
50.05748543199142
 30
0.0
 10
55.20014593576959
 20
49.95099578528188
 30
0.0
 10
55.17328101396281
 20
49.84442361600509
 30
0.0
 10
55.14829499287835
 20
49.73775853980838
 30
0.0
  0
LINE
  5
C5
330
1F
100
AcDbEntity
  8
0
  6
Continuous
 62
     7
370
    25
100
AcDbLine
 10
57.3787426432
 20
50.057485432
 30
0.0
 11
55.2286797506
 21
50.057485432
 31
0.0
  0
SPLINE
  5
C6
330
1F
100
AcDbEntity
  8
0
  6
Continuous
 62
     7
370
    25
100
AcDbSpline
210
0.0
220
0.0
230
1.0
 70
     8
 71
     3
 72
    16
 73
    12
 74
     0
 42
0.000000001
 43
0.00000001
 40
0.0
 40
0.0
 40
0.0
 40
0.0
 40
0.2500000000000001
 40
0.2500000000000001
 40
0.5000000000000001
 40
0.5000000000000001
 40
0.625
 40
0.625
 40
0.7499999999999999
 40
0.7499999999999999
 40
1.0
 40
1.0
 40
1.0
 40
1.0
 10
57.37874264324216
 20
50.05748543199145
 30
0.0
 10
57.56923711422694
 20
49.72753932968485
 30
0.0
 10
57.72623912744004
 20
49.39518758837514
 30
0.0
 10
57.94373793827805
 20
48.72355249410141
 30
0.0
 10
58.00351729934811
 20
48.38421761033094
 30
0.0
 10
58.00417380020208
 20
47.86882184406075
 30
0.0
 10
57.9895600337186
 20
47.69621508356027
 30
0.0
 10
57.93257417584176
 20
47.35478067104174
 30
0.0
 10
57.89025990658253
 20
47.18520816829775
 30
0.0
 10
57.72686508669234
 20
46.67950966874626
 30
0.0
 10
57.56947455937891
 20
46.34639091703826
 30
0.0
 10
57.37874264324191
 20
46.01603354766401
 30
0.0
  0
SPLINE
  5
C7
330
1F
100
AcDbEntity
  8
0
  6
Continuous
 62
     7
370
    25
100
AcDbSpline
210
0.0
220
0.0
230
1.0
 70
     8
 71
     3
 72
     8
 73
     4
 74
     0
 42
0.000000001
 43
0.00000001
 40
0.0
 40
0.0
 40
0.0
 40
0.0
 40
1.0
 40
1.0
 40
1.0
 40
1.0
 10
55.06791023514901
 20
46.01603354766403
 30
0.0
 10
55.09644404998711
 20
46.12252319437356
 30
0.0
 10
55.1233089717939
 20
46.22909536365034
 30
0.0
 10
55.14829499287835
 20
46.33576043984706
 30
0.0
  0
LINE
  5
C8
330
1F
100
AcDbEntity
  8
0
  6
Continuous
 62
     7
370
    25
100
AcDbLine
 10
58.1482949929
 20
48.7245816633
 30
0.0
 11
58.1482949929
 21
35.2245816633
 31
0.0
  0
SPLINE
  5
C9
330
1F
100
AcDbEntity
  8
0
  6
Continuous
 62
     7
370
    25
100
AcDbSpline
210
0.0
220
0.0
230
1.0
 70
     8
 71
     3
 72
    23
 73
    19
 74
     0
 42
0.000000001
 43
0.00000001
 40
0.0
 40
0.0
 40
0.0
 40
0.0
 40
0.0611415679303346
 40
0.1200010135310723
 40
0.1782359705414083
 40
0.2364955434070171
 40
0.2948872487049731
 40
0.3546771928192958
 40
0.4166948132897783
 40
0.4806333779628393
 40
0.5458046334786407
 40
0.6097347883178743
 40
0.6729516883751544
 40
0.7360010960706834
 40
0.7998274385165249
 40
0.864767276939387
 40
0.9310835057306723
 40
1.0
 40
1.0
 40
1.0
 40
1.0
 10
54.66115556980143
 20
40.7564419936874
 30
0.0
 10
54.67139728025158
 20
40.75667508473044
 30
0.0
 10
54.69149842708036
 20
40.75713256664261
 30
0.0
 10
54.7209190406834
 20
40.7624071416988
 30
0.0
 10
54.74944384941693
 20
40.76953133314061
 30
0.0
 10
54.77643028594171
 20
40.78104467947795
 30
0.0
 10
54.80262463377208
 20
40.7947580147416
 30
0.0
 10
54.82727823888315
 20
40.81222790303698
 30
0.0
 10
54.85108954232715
 20
40.83225755757496
 30
0.0
 10
54.87318195605728
 20
40.85545384103981
 30
0.0
 10
54.89338947572183
 20
40.88068932088937
 30
0.0
 10
54.91122599825755
 20
40.9075254146426
 30
0.0
 10
54.92627967290315
 20
40.93560003869664
 30
0.0
 10
54.93883982937183
 20
40.964886073232
 30
0.0
 10
54.94790389792725
 20
40.9957187211329
 30
0.0
 10
54.95504099984615
 20
41.02760029948432
 30
0.0
 10
54.95883900805644
 20
41.06093854512978
 30
0.0
 10
54.9594977501815
 20
41.08355709171694
 30
0.0
 10
54.95983345441682
 20
41.09508382061048
 30
0.0
  0
SPLINE
  5
CA
330
1F
100
AcDbEntity
  8
0
  6
Continuous
 62
     7
370
    25
100
AcDbSpline
210
0.0
220
0.0
230
1.0
 70
     8
 71
     3
 72
    23
 73
    19
 74
     0
 42
0.000000001
 43
0.00000001
 40
0.0
 40
0.0
 40
0.0
 40
0.0
 40
0.0679503475997537
 40
0.1332598223836998
 40
0.1978002967596474
 40
0.2608458295516822
 40
0.3233192927503671
 40
0.3862817224595722
 40
0.450061516233313
 40
0.5152075844858154
 40
0.5796407692199316
 40
0.6418172023841522
 40
0.7016924412115348
 40
0.7607690981778945
 40
0.8192540511346832
 40
0.8787376269055537
 40
0.9381582970160912
 40
1.0
 40
1.0
 40
1.0
 40
1.0
 10
54.36367960826296
 20
41.08336507061047
 30
0.0
 10
54.36400919730409
 20
41.07223698158709
 30
0.0
 10
54.36465556599288
 20
41.0504132938635
 30
0.0
 10
54.3685472199911
 20
41.0181963557788
 30
0.0
 10
54.37543071110173
 20
40.98730468975908
 30
0.0
 10
54.38521254832193
 20
40.95771681091578
 30
0.0
 10
54.39713159015798
 20
40.92918620145502
 30
0.0
 10
54.41233995018579
 20
40.90211764723058
 30
0.0
 10
54.43011720169338
 20
40.87614570329949
 30
0.0
 10
54.45045575491159
 20
40.85183569059434
 30
0.0
 10
54.47231352838021
 20
40.82918400483099
 30
0.0
 10
54.49632212984874
 20
40.81023395376018
 30
0.0
 10
54.52063725219381
 20
40.79313167196487
 30
0.0
 10
54.54673567420767
 20
40.78017729132279
 30
0.0
 10
54.57367207368655
 20
40.76931712166814
 30
0.0
 10
54.60185703443049
 20
40.76201637210085
 30
0.0
 10
54.63114525424595
 20
40.75723680644288
 30
0.0
 10
54.65101986413728
 20
40.75671043432185
 30
0.0
 10
54.66115556980143
 20
40.7564419936874
 30
0.0
  0
SPLINE
  5
CB
330
1F
100
AcDbEntity
  8
0
  6
Continuous
 62
     7
370
    25
100
AcDbSpline
210
0.0
220
0.0
230
1.0
 70
     8
 71
     3
 72
    23
 73
    19
 74
     0
 42
0.000000001
 43
0.00000001
 40
0.0
 40
0.0
 40
0.0
 40
0.0
 40
0.0618526459466917
 40
0.1212838306153701
 40
0.1807779320756125
 40
0.2392732340142805
 40
0.2986414352139417
 40
0.3581858222417117
 40
0.4207600867589709
 40
0.4852046730216432
 40
0.5503622689482871
 40
0.613649924530912
 40
0.6766234955168249
 40
0.7391080134690126
 40
0.8021647022429448
 40
0.8667165971324778
 40
0.9320376285055445
 40
1.0
 40
1.0
 40
1.0
 40
1.0
 10
54.66115556980143
 20
41.41028814753355
 30
0.0
 10
54.65102024994452
 20
41.41001901522609
 30
0.0
 10
54.63114639656374
 20
41.40949128683724
 30
0.0
 10
54.60185267115024
 20
41.40472159158404
 30
0.0
 10
54.57368836089927
 20
41.39738381993079
 30
0.0
 10
54.54663286619837
 20
41.386643266509
 30
0.0
 10
54.52083377053496
 20
41.37317147205133
 30
0.0
 10
54.49610781539473
 20
41.35659294351942
 30
0.0
 10
54.47243793435465
 20
41.33718839543138
 30
0.0
 10
54.45042099780365
 20
41.31463099328605
 30
0.0
 10
54.43022652856423
 20
41.29030502205151
 30
0.0
 10
54.41224533524221
 20
41.26457869624637
 30
0.0
 10
54.39714594106825
 20
41.23753381559913
 30
0.0
 10
54.38520867981619
 20
41.20901605942804
 30
0.0
 10
54.37543177827389
 20
41.17942469860169
 30
0.0
 10
54.36854692916007
 20
41.14853399061533
 30
0.0
 10
54.36465564251431
 20
41.1163167933737
 30
0.0
 10
54.36400922314602
 20
41.0944931414031
 30
0.0
 10
54.36367960826296
 20
41.08336507061047
 30
0.0
  0
SPLINE
  5
CC
330
1F
100
AcDbEntity
  8
0
  6
Continuous
 62
     7
370
    25
100
AcDbSpline
210
0.0
220
0.0
230
1.0
 70
     8
 71
     3
 72
    23
 73
    19
 74
     0
 42
0.000000001
 43
0.00000001
 40
0.0
 40
0.0
 40
0.0
 40
0.0
 40
0.0705921865358071
 40
0.1385012886049299
 40
0.2037899961427012
 40
0.266787572669601
 40
0.3290979656467183
 40
0.3911745246039658
 40
0.4531677986176573
 40
0.5157967602265844
 40
0.5779688050530403
 40
0.6389663383752914
 40
0.698381066162843
 40
0.7573204555574266
 40
0.8164122397216688
 40
0.876279358230831
 40
0.936823465650193
 40
1.0
 40
1.0
 40
1.0
 40
1.0
 10
54.95983345441682
 20
41.09508382061048
 30
0.0
 10
54.95949558996222
 20
41.10651013844829
 30
0.0
 10
54.95883270268486
 20
41.12892847994198
 30
0.0
 10
54.9550887105659
 20
41.16177793615721
 30
0.0
 10
54.9479948719455
 20
41.19278386984292
 30
0.0
 10
54.93881882838923
 20
41.22230041932706
 30
0.0
 10
54.92632500299241
 20
41.25001994467456
 30
0.0
 10
54.9113288704481
 20
41.2762586433029
 30
0.0
 10
54.89349944917531
 20
41.30075615124982
 30
0.0
 10
54.87303553283925
 20
41.323082249782
 30
0.0
 10
54.85095777855936
 20
41.34358312221636
 30
0.0
 10
54.82716885482071
 20
41.36121722029132
 30
0.0
 10
54.80239555483992
 20
41.37644498139965
 30
0.0
 10
54.77640503965607
 20
41.38882188210262
 30
0.0
 10
54.74921398118138
 20
41.39846076040048
 30
0.0
 10
54.72094565032531
 20
41.40543279334317
 30
0.0
 10
54.69141096957026
 20
41.40931299254301
 30
0.0
 10
54.67138275109146
 20
41.40995851755179
 30
0.0
 10
54.66115556980143
 20
41.41028814753355
 30
0.0
  0
LINE
  5
CD
330
1F
100
AcDbEntity
  8
0
  6
Continuous
 62
     7
370
    25
100
AcDbLine
 10
52.1482949929
 20
48.7245816633
 30
0.0
 11
52.1482949929
 21
35.2245816633
 31
0.0
  0
LINE
  5
CE
330
1F
100
AcDbEntity
  8
0
  6
Continuous
 62
     7
370
    25
100
AcDbLine
 10
43.2370826466
 20
48.4305437775
 30
0.0
 11
43.2370826466
 21
35.5186195492
 31
0.0
  0
LINE
  5
CF
330
1F
100
AcDbEntity
  8
0
  6
Continuous
 62
     7
370
    25
100
AcDbLine
 10
77.6482949929
 20
48.4745816633
 30
0.0
 11
77.6482949929
 21
35.4745816633
 31
0.0
  0
LINE
  5
D0
330
1F
100
AcDbEntity
  8
0
  6
Continuous
 62
     7
370
    25
100
AcDbLine
 10
68.6482949929
 20
48.4745816633
 30
0.0
 11
68.6482949929
 21
35.4745816633
 31
0.0
  0
LINE
  5
D1
330
1F
100
AcDbEntity
  8
0
  6
Continuous
 62
     7
370
    25
100
AcDbLine
 10
64.1482949929
 20
48.4745816633
 30
0.0
 11
64.1482949929
 21
35.4745816633
 31
0.0
  0
LINE
  5
D2
330
1F
100
AcDbEntity
  8
0
  6
Continuous
 62
     7
370
    25
100
AcDbLine
 10
73.1482949929
 20
48.4745816633
 30
0.0
 11
73.1482949929
 21
35.4745816633
 31
0.0
  0
LINE
  5
D3
330
1F
100
AcDbEntity
  8
0
  6
Continuous
 62
     7
370
    25
100
AcDbLine
 10
41.1482949929
 20
41.9745816633
 30
0.0
 11
41.1482949929
 21
47.2245816633
 31
0.0
  0
LINE
  5
D4
330
1F
100
AcDbEntity
  8
0
  6
Continuous
 62
     7
370
    25
100
AcDbLine
 10
41.1482949929
 20
36.7245816633
 30
0.0
 11
41.1482949929
 21
41.9745816633
 31
0.0
  0
LINE
  5
D5
330
1F
100
AcDbEntity
  8
0
  6
Continuous
 62
     7
370
    25
100
AcDbLine
 10
83.1482949929
 20
47.2881361335
 30
0.0
 11
83.1482949929
 21
36.6610271955
 31
0.0
  0
LINE
  5
D6
330
1F
100
AcDbEntity
  8
0
  6
Continuous
 62
     7
370
    25
100
AcDbLine
 10
55.1482949929
 20
49.7377585398
 30
0.0
 11
55.1482949929
 21
49.757485432
 31
0.0
  0
LINE
  5
D7
330
1F
100
AcDbEntity
  8
0
  6
Continuous
 62
     7
370
    25
100
AcDbLine
 10
55.1482949929
 20
34.1916778947
 30
0.0
 11
55.1482949929
 21
34.2114047869
 31
0.0
  0
LINE
  5
D8
330
1F
100
AcDbEntity
  8
0
  6
Continuous
 62
     8
370
    25
100
AcDbLine
 10
82.7158515952
 20
36.1656121091
 30
0.0
 11
82.7158515952
 21
47.7835512176
 31
0.0
  0
LINE
  5
D9
330
1F
100
AcDbEntity
  8
0
  6
Continuous
 62
     7
370
    18
100
AcDbLine
 10
42.0135207154
 20
47.7241199672
 30
0.0
 11
51.6482949929
 21
48.0252066633
 31
0.0
  0
LINE
  5
DA
330
1F
100
AcDbEntity
  8
0
  6
Continuous
 62
     7
370
    18
100
AcDbLine
 10
42.0135207154
 20
36.2250433595
 30
0.0
 11
51.6482949929
 21
35.9239566633
 31
0.0
  0
LINE
  5
DB
330
1F
100
AcDbEntity
  8
0
  6
Continuous
 62
     7
370
    18
100
AcDbLine
 10
51.6482949929
 20
35.2557691633
 30
0.0
 11
51.6482949929
 21
48.6933941633
 31
0.0
  0
LINE
  5
DC
330
1F
100
AcDbEntity
  8
0
  6
CENTERX2
 62
     7
370
    18
100
AcDbLine
 10
84.1482949929
 20
41.9745816633
 30
0.0
 11
40.0167995249
 21
41.9745816633
 31
0.0
  0
CIRCLE
  5
DD
330
1F
100
AcDbEntity
  8
0
  6
Continuous
 62
     7
370
    25
100
AcDbCircle
 10
100.5989739877
 20
41.9745816633
 30
0.0
 40
5.313554470200579
  0
CIRCLE
  5
DE
330
1F
100
AcDbEntity
  8
0
  6
Continuous
 62
     7
370
    25
100
AcDbCircle
 10
100.5989739877
 20
41.9745816633
 30
0.0
 40
5.808969554222728
  0
CIRCLE
  5
DF
330
1F
100
AcDbEntity
  8
0
  6
Continuous
 62
     7
370
    25
100
AcDbCircle
 10
100.5989739877
 20
41.9745816633
 30
0.0
 40
4.000000000000007
  0
CIRCLE
  5
E0
330
1F
100
AcDbEntity
  8
0
  6
Continuous
 62
     7
370
    25
100
AcDbCircle
 10
100.5989739877
 20
41.9745816633
 30
0.0
 40
3.499999999999986
  0
CIRCLE
  5
E1
330
1F
100
AcDbEntity
  8
0
  6
Continuous
 62
     7
370
    25
100
AcDbCircle
 10
100.5989739877
 20
41.9745816633
 30
0.0
 40
6.5
  0
SPLINE
  5
E2
330
1F
100
AcDbEntity
  8
0
  6
Continuous
 62
     7
370
    25
100
AcDbSpline
210
0.0
220
0.0
230
1.0
 70
    24
 71
     3
 72
    14
 73
    10
 74
     0
 42
0.000000001
 43
0.00000001
 40
0.0
 40
0.0
 40
0.0
 40
0.0
 40
0.25
 40
0.25
 40
0.5
 40
0.5
 40
0.75
 40
0.75
 40
1.0
 40
1.0
 40
1.0
 40
1.0
 10
107.5989739877351
 20
37.93312977900926
 30
0.0
 10
107.5989739877351
 20
38.59077047073249
 30
0.0
 10
107.5989739877351
 20
39.26416698899332
 30
0.0
 10
107.5989739877351
 20
40.61384520287405
 30
0.0
 10
107.5989739877351
 20
41.29256878438771
 30
0.0
 10
107.5989739877351
 20
42.65912698380263
 30
0.0
 10
107.5989739877351
 20
43.35162480443805
 30
0.0
 10
107.5989739877351
 20
44.70090966124488
 30
0.0
 10
107.5989739877351
 20
45.36272935775281
 30
0.0
 10
107.5989739877351
 20
46.01603354766403
 30
0.0
  0
SPLINE
  5
E3
330
1F
100
AcDbEntity
  8
0
  6
Continuous
 62
     7
370
    25
100
AcDbSpline
210
0.0
220
0.0
230
1.0
 70
    24
 71
     3
 72
    16
 73
    12
 74
     0
 42
0.000000001
 43
0.00000001
 40
0.0
 40
0.0
 40
0.0
 40
0.0
 40
0.2500000000000001
 40
0.2500000000000001
 40
0.5
 40
0.5
 40
0.625
 40
0.625
 40
0.7499999999999999
 40
0.7499999999999999
 40
1.0
 40
1.0
 40
1.0
 40
1.0
 10
100.5989739877351
 20
33.89167789468185
 30
0.0
 10
101.1704574006894
 20
34.22162399698844
 30
0.0
 10
101.7461075026218
 20
34.55397573829815
 30
0.0
 10
102.9094136100502
 20
35.22561083257188
 30
0.0
 10
103.4971588695212
 20
35.56494571634235
 30
0.0
 10
104.389850522707
 20
36.08034148261254
 30
0.0
 10
104.6888142016237
 20
36.25294824311303
 30
0.0
 10
105.2801959515583
 20
36.59438265563156
 30
0.0
 10
105.5739041418774
 20
36.76395515837554
 30
0.0
 10
106.449799636412
 20
37.26965365792703
 30
0.0
 10
107.0267782393242
 20
37.60277240963504
 30
0.0
 10
107.5989739877352
 20
37.93312977900928
 30
0.0
  0
SPLINE
  5
E4
330
1F
100
AcDbEntity
  8
0
  6
Continuous
 62
     7
370
    25
100
AcDbSpline
210
0.0
220
0.0
230
1.0
 70
    24
 71
     3
 72
    16
 73
    12
 74
     0
 42
0.000000001
 43
0.00000001
 40
0.0
 40
0.0
 40
0.0
 40
0.0
 40
0.2499999999999999
 40
0.2499999999999999
 40
0.4999999999999999
 40
0.4999999999999999
 40
0.6249999999999999
 40
0.6249999999999999
 40
0.7499999999999998
 40
0.7499999999999998
 40
1.0
 40
1.0
 40
1.0
 40
1.0
 10
93.59897398773506
 20
37.93312977900931
 30
0.0
 10
94.1704574006894
 20
37.60318367670271
 30
0.0
 10
94.7461075026218
 20
37.27083193539301
 30
0.0
 10
95.90941361005022
 20
36.59919684111927
 30
0.0
 10
96.49715886952114
 20
36.2598619573488
 30
0.0
 10
97.38985052270702
 20
35.74446619107861
 30
0.0
 10
97.68881420162373
 20
35.57185943057813
 30
0.0
 10
98.28019595155827
 20
35.23042501805959
 30
0.0
 10
98.57390414187745
 20
35.06085251531561
 30
0.0
 10
99.44979963641197
 20
34.55515401576412
 30
0.0
 10
100.0267782393242
 20
34.22203526405612
 30
0.0
 10
100.5989739877351
 20
33.89167789468186
 30
0.0
  0
SPLINE
  5
E5
330
1F
100
AcDbEntity
  8
0
  6
Continuous
 62
     7
370
    25
100
AcDbSpline
210
0.0
220
0.0
230
1.0
 70
    24
 71
     3
 72
    14
 73
    10
 74
     0
 42
0.000000001
 43
0.00000001
 40
0.0
 40
0.0
 40
0.0
 40
0.0
 40
0.2500000000000001
 40
0.2500000000000001
 40
0.5000000000000001
 40
0.5000000000000001
 40
0.7500000000000002
 40
0.7500000000000002
 40
1.0
 40
1.0
 40
1.0
 40
1.0
 10
93.59897398773512
 20
37.93312977900926
 30
0.0
 10
93.59897398773512
 20
38.59077047073249
 30
0.0
 10
93.59897398773512
 20
39.26416698899332
 30
0.0
 10
93.59897398773512
 20
40.61384520287405
 30
0.0
 10
93.59897398773512
 20
41.29256878438771
 30
0.0
 10
93.59897398773512
 20
42.65912698380263
 30
0.0
 10
93.59897398773512
 20
43.35162480443805
 30
0.0
 10
93.59897398773512
 20
44.70090966124488
 30
0.0
 10
93.59897398773512
 20
45.36272935775281
 30
0.0
 10
93.59897398773512
 20
46.01603354766403
 30
0.0
  0
SPLINE
  5
E6
330
1F
100
AcDbEntity
  8
0
  6
Continuous
 62
     7
370
    25
100
AcDbSpline
210
0.0
220
0.0
230
1.0
 70
    24
 71
     3
 72
    16
 73
    12
 74
     0
 42
0.000000001
 43
0.00000001
 40
0.0
 40
0.0
 40
0.0
 40
0.0
 40
0.2500000000000001
 40
0.2500000000000001
 40
0.5000000000000001
 40
0.5000000000000001
 40
0.625
 40
0.625
 40
0.7499999999999999
 40
0.7499999999999999
 40
1.0
 40
1.0
 40
1.0
 40
1.0
 10
100.5989739877352
 20
50.05748543199145
 30
0.0
 10
100.0274905747808
 20
49.72753932968485
 30
0.0
 10
99.45184047284845
 20
49.39518758837514
 30
0.0
 10
98.28853436542002
 20
48.72355249410141
 30
0.0
 10
97.7007891059491
 20
48.38421761033094
 30
0.0
 10
96.80809745276322
 20
47.86882184406075
 30
0.0
 10
96.50913377384651
 20
47.69621508356027
 30
0.0
 10
95.91775202391197
 20
47.35478067104174
 30
0.0
 10
95.62404383359278
 20
47.18520816829775
 30
0.0
 10
94.74814833905828
 20
46.67950966874626
 30
0.0
 10
94.17116973614608
 20
46.34639091703826
 30
0.0
 10
93.59897398773509
 20
46.01603354766401
 30
0.0
  0
SPLINE
  5
E7
330
1F
100
AcDbEntity
  8
0
  6
Continuous
 62
     7
370
    25
100
AcDbSpline
210
0.0
220
0.0
230
1.0
 70
    24
 71
     3
 72
    16
 73
    12
 74
     0
 42
0.000000001
 43
0.00000001
 40
0.0
 40
0.0
 40
0.0
 40
0.0
 40
0.25
 40
0.25
 40
0.5
 40
0.5
 40
0.625
 40
0.625
 40
0.75
 40
0.75
 40
1.0
 40
1.0
 40
1.0
 40
1.0
 10
107.5989739877352
 20
46.01603354766399
 30
0.0
 10
107.0274905747808
 20
46.34597964997059
 30
0.0
 10
106.4518404728484
 20
46.6783313912803
 30
0.0
 10
105.28853436542
 20
47.34996648555403
 30
0.0
 10
104.7007891059491
 20
47.6893013693245
 30
0.0
 10
103.8080974527632
 20
48.20469713559469
 30
0.0
 10
103.5091337738465
 20
48.37730389609517
 30
0.0
 10
102.917752023912
 20
48.71873830861371
 30
0.0
 10
102.6240438335928
 20
48.88831081135769
 30
0.0
 10
101.7481483390583
 20
49.39400931090918
 30
0.0
 10
101.1711697361461
 20
49.72712806261718
 30
0.0
 10
100.5989739877351
 20
50.05748543199143
 30
0.0
  0
CIRCLE
  5
E8
330
1F
100
AcDbEntity
  8
0
  6
Continuous
 62
     7
370
    25
100
AcDbCircle
 10
100.5989739877
 20
41.9745816633
 30
0.0
 40
6.75
  0
INSERT
  5
F4
330
1F
100
AcDbEntity
  8
0
  6
Continuous
 62
     7
370
    18
100
AcDbBlockReference
  2
SW_CENTERMARKSYMBOL_0
 10
100.5989739877
 20
41.9745816633
 30
0.0
  0
INSERT
  5
100
330
1F
100
AcDbEntity
  8
0
  6
Continuous
 62
     7
370
    18
100
AcDbBlockReference
  2
SW_CENTERMARKSYMBOL_1
 10
100.5989739877
 20
41.9745816633
 30
0.0
  0
LINE
  5
101
330
1F
100
AcDbEntity
  8
0
  6
Continuous
 62
     7
370
    25
100
AcDbLine
 10
52.2926325602
 20
75.8751535958
 30
0.0
 11
52.1482949929
 21
75.6251535958
 31
0.0
  0
LINE
  5
102
330
1F
100
AcDbEntity
  8
0
  6
Continuous
 62
     7
370
    25
100
AcDbLine
 10
52.1482949929
 20
62.1251535958
 30
0.0
 11
52.2926325602
 21
61.8751535958
 31
0.0
  0
LINE
  5
103
330
1F
100
AcDbEntity
  8
0
  6
Continuous
 62
     7
370
    25
100
AcDbLine
 10
58.0039574256
 20
61.8751535958
 30
0.0
 11
58.1482949929
 21
62.1251535958
 31
0.0
  0
LINE
  5
104
330
1F
100
AcDbEntity
  8
0
  6
Continuous
 62
     7
370
    25
100
AcDbLine
 10
58.1482949929
 20
75.6251535958
 30
0.0
 11
58.0039574256
 21
75.8751535958
 31
0.0
  0
LINE
  5
105
330
1F
100
AcDbEntity
  8
0
  6
Continuous
 62
     7
370
    25
100
AcDbLine
 10
52.1482949929
 20
75.6095910958
 30
0.0
 11
43.2370826466
 21
75.33111571
 31
0.0
  0
LINE
  5
106
330
1F
100
AcDbEntity
  8
0
  6
Continuous
 62
     7
370
    25
100
AcDbLine
 10
43.2370826466
 20
62.4191914816
 30
0.0
 11
52.1482949929
 21
62.1407160958
 31
0.0
  0
LINE
  5
107
330
1F
100
AcDbEntity
  8
0
  6
Continuous
 62
     7
370
    25
100
AcDbLine
 10
64.1482949929
 20
62.3751535958
 30
0.0
 11
68.6482949929
 21
63.1251535958
 31
0.0
  0
LINE
  5
108
330
1F
100
AcDbEntity
  8
0
  6
Continuous
 62
     7
370
    25
100
AcDbLine
 10
68.6482949929
 20
74.6251535958
 30
0.0
 11
64.1482949929
 21
75.3751535958
 31
0.0
  0
LINE
  5
109
330
1F
100
AcDbEntity
  8
0
  6
Continuous
 62
     7
370
    25
100
AcDbLine
 10
77.6482949929
 20
62.3751535958
 30
0.0
 11
82.7158515952
 21
63.0661840416
 31
0.0
  0
LINE
  5
10A
330
1F
100
AcDbEntity
  8
0
  6
Continuous
 62
     7
370
    25
100
AcDbLine
 10
82.7158515952
 20
74.68412315
 30
0.0
 11
77.6482949929
 21
75.3751535958
 31
0.0
  0
LINE
  5
10B
330
1F
100
AcDbEntity
  8
0
  6
Continuous
 62
     7
370
    25
100
AcDbLine
 10
68.6482949929
 20
62.3751535958
 30
0.0
 11
73.1482949929
 21
63.1251535958
 31
0.0
  0
LINE
  5
10C
330
1F
100
AcDbEntity
  8
0
  6
Continuous
 62
     7
370
    25
100
AcDbLine
 10
73.1482949929
 20
74.6251535958
 30
0.0
 11
68.6482949929
 21
75.3751535958
 31
0.0
  0
LINE
  5
10D
330
1F
100
AcDbEntity
  8
0
  6
Continuous
 62
     7
370
    25
100
AcDbLine
 10
64.1482949929
 20
75.3751535958
 30
0.0
 11
58.1482949929
 21
75.3751535958
 31
0.0
  0
LINE
  5
10E
330
1F
100
AcDbEntity
  8
0
  6
Continuous
 62
     7
370
    25
100
AcDbLine
 10
58.1482949929
 20
62.3751535958
 30
0.0
 11
64.1482949929
 21
62.3751535958
 31
0.0
  0
LINE
  5
10F
330
1F
100
AcDbEntity
  8
0
  6
Continuous
 62
     7
370
    25
100
AcDbLine
 10
73.1482949929
 20
62.3751535958
 30
0.0
 11
77.6482949929
 21
63.1251535958
 31
0.0
  0
LINE
  5
110
330
1F
100
AcDbEntity
  8
0
  6
Continuous
 62
     7
370
    25
100
AcDbLine
 10
77.6482949929
 20
74.6251535958
 30
0.0
 11
73.1482949929
 21
75.3751535958
 31
0.0
  0
LINE
  5
111
330
1F
100
AcDbEntity
  8
0
  6
Continuous
 62
     7
370
    25
100
AcDbLine
 10
43.2370826466
 20
75.33111571
 30
0.0
 11
41.1482949929
 21
74.1251535958
 31
0.0
  0
LINE
  5
112
330
1F
100
AcDbEntity
  8
0
  6
Continuous
 62
     7
370
    25
100
AcDbLine
 10
41.1482949929
 20
63.6251535958
 30
0.0
 11
43.2370826466
 21
62.4191914816
 31
0.0
  0
ARC
  5
113
330
1F
100
AcDbEntity
  8
0
  6
Continuous
 62
     7
370
    25
100
AcDbCircle
 10
82.6482949929
 20
74.188708066
 30
0.0
 40
0.5
100
AcDbArc
 50
0.0
 51
82.2348339816
  0
ARC
  5
114
330
1F
100
AcDbEntity
  8
0
  6
Continuous
 62
     7
370
    25
100
AcDbCircle
 10
82.6482949929
 20
63.5615991256
 30
0.0
 40
0.5
100
AcDbArc
 50
277.7651660184
 51
0.0
  0
SPLINE
  5
115
330
1F
100
AcDbEntity
  8
0
  6
Continuous
 62
     7
370
    25
100
AcDbSpline
210
0.0
220
0.0
230
1.0
 70
     8
 71
     3
 72
    16
 73
    12
 74
     0
 42
0.000000001
 43
0.00000001
 40
0.0
 40
0.0
 40
0.0
 40
0.0
 40
0.2500000000000002
 40
0.2500000000000002
 40
0.5000000000000003
 40
0.5000000000000003
 40
0.6250000000000003
 40
0.6250000000000003
 40
0.7500000000000002
 40
0.7500000000000002
 40
1.0
 40
1.0
 40
1.0
 40
1.0
 10
52.91784734251453
 20
75.87515359578494
 30
0.0
 10
52.72735287152975
 20
75.30367018283059
 30
0.0
 10
52.57035085831667
 20
74.72802008089819
 30
0.0
 10
52.35285204747863
 20
73.56471397346978
 30
0.0
 10
52.29307268640858
 20
72.97696871399884
 30
0.0
 10
52.29241618555462
 20
72.08427706081298
 30
0.0
 10
52.30702995203811
 20
71.78531338189627
 30
0.0
 10
52.36401580991493
 20
71.19393163196173
 30
0.0
 10
52.40633007917417
 20
70.90022344164254
 30
0.0
 10
52.56972489906436
 20
70.02432794710803
 30
0.0
 10
52.72711542637779
 20
69.44734934419584
 30
0.0
 10
52.91784734251478
 20
68.87515359578485
 30
0.0
  0
SPLINE
  5
116
330
1F
100
AcDbEntity
  8
0
  6
Continuous
 62
     7
370
    25
100
AcDbSpline
210
0.0
220
0.0
230
1.0
 70
     8
 71
     3
 72
    16
 73
    12
 74
     0
 42
0.000000001
 43
0.00000001
 40
0.0
 40
0.0
 40
0.0
 40
0.0
 40
0.2500000000000001
 40
0.2500000000000001
 40
0.5000000000000001
 40
0.5000000000000001
 40
0.625
 40
0.625
 40
0.7499999999999999
 40
0.7499999999999999
 40
1.0
 40
1.0
 40
1.0
 40
1.0
 10
52.91784734251454
 20
68.87515359578494
 30
0.0
 10
52.72735287152975
 20
68.3036701828306
 30
0.0
 10
52.57035085831667
 20
67.72802008089819
 30
0.0
 10
52.35285204747863
 20
66.56471397346978
 30
0.0
 10
52.29307268640858
 20
65.97696871399884
 30
0.0
 10
52.29241618555462
 20
65.08427706081298
 30
0.0
 10
52.3070299520381
 20
64.78531338189627
 30
0.0
 10
52.36401580991493
 20
64.19393163196175
 30
0.0
 10
52.40633007917417
 20
63.90022344164255
 30
0.0
 10
52.56972489906435
 20
63.02432794710802
 30
0.0
 10
52.72711542637779
 20
62.44734934419584
 30
0.0
 10
52.91784734251478
 20
61.87515359578484
 30
0.0
  0
SPLINE
  5
117
330
1F
100
AcDbEntity
  8
0
  6
Continuous
 62
     7
370
    25
100
AcDbSpline
210
0.0
220
0.0
230
1.0
 70
    24
 71
     3
 72
    13
 73
     9
 74
     0
 42
0.000000001
 43
0.00000001
 40
0.0
 40
0.0
 40
0.0
 40
0.0
 40
0.1834903465277777
 40
0.3672886571963209
 40
0.5522818227122849
 40
0.7378136289407977
 40
0.986780046327709
 40
1.0
 40
1.0
 40
1.0
 40
1.0
 10
52.91784734251503
 20
61.87515359578487
 30
0.0
 10
52.85071113357702
 20
61.87515359578487
 30
0.0
 10
52.71632603650401
 20
61.87515359578487
 30
0.0
 10
52.55235743722366
 20
61.87515359578487
 30
0.0
 10
52.42042764352883
 20
61.87515359578487
 30
0.0
 10
52.32668573354753
 20
61.87515359578487
 30
0.0
 10
52.27986870567276
 20
61.87515359578487
 30
0.0
 10
52.29408219399269
 20
61.87515359578487
 30
0.0
 10
52.29479886609259
 20
61.87515359578487
 30
0.0
  0
SPLINE
  5
118
330
1F
100
AcDbEntity
  8
0
  6
Continuous
 62
     7
370
    25
100
AcDbSpline
210
0.0
220
0.0
230
1.0
 70
    24
 71
     3
 72
    13
 73
     9
 74
     0
 42
0.000000001
 43
0.00000001
 40
0.0
 40
0.0
 40
0.0
 40
0.0
 40
0.0049671102188261
 40
0.2621815758326778
 40
0.4454262230991967
 40
0.6292322184002734
 40
0.8144403035658128
 40
1.0
 40
1.0
 40
1.0
 40
1.0
 10
52.29348975811551
 20
75.87515359578488
 30
0.0
 10
52.29320469979454
 20
75.87515359578488
 30
0.0
 10
52.27815831738984
 20
75.87515359578488
 30
0.0
 10
52.32551200963209
 20
75.87515359578487
 30
0.0
 10
52.41936140091711
 20
75.87515359578488
 30
0.0
 10
52.55026033553734
 20
75.87515359578488
 30
0.0
 10
52.71437436441801
 20
75.87515359578488
 30
0.0
 10
52.84998015000879
 20
75.87515359578488
 30
0.0
 10
52.91784734251503
 20
75.87515359578488
 30
0.0
  0
LINE
  5
119
330
1F
100
AcDbEntity
  8
0
  6
Continuous
 62
     7
370
    25
100
AcDbLine
 10
52.1482949929
 20
75.6251535958
 30
0.0
 11
52.1482949929
 21
62.1251535958
 31
0.0
  0
LINE
  5
11A
330
1F
100
AcDbEntity
  8
0
  6
Continuous
 62
     7
370
    25
100
AcDbLine
 10
55.0679102351
 20
68.8751535958
 30
0.0
 11
52.9178473425
 21
68.8751535958
 31
0.0
  0
LINE
  5
11B
330
1F
100
AcDbEntity
  8
0
  6
Continuous
 62
     7
370
    25
100
AcDbLine
 10
55.0679102351
 20
75.8751535958
 30
0.0
 11
52.9178473425
 21
75.8751535958
 31
0.0
  0
SPLINE
  5
11C
330
1F
100
AcDbEntity
  8
0
  6
Continuous
 62
     7
370
    25
100
AcDbSpline
210
0.0
220
0.0
230
1.0
 70
     8
 71
     3
 72
     8
 73
     4
 74
     0
 42
0.000000001
 43
0.00000001
 40
0.0
 40
0.0
 40
0.0
 40
0.0
 40
1.0
 40
1.0
 40
1.0
 40
1.0
 10
55.14829499287835
 20
75.32137037397777
 30
0.0
 10
55.12329457995565
 20
75.50622612014595
 30
0.0
 10
55.09642826849543
 20
75.69081013036974
 30
0.0
 10
55.06791023514901
 20
75.87515359578487
 30
0.0
  0
SPLINE
  5
11D
330
1F
100
AcDbEntity
  8
0
  6
Continuous
 62
     7
370
    25
100
AcDbSpline
210
0.0
220
0.0
230
1.0
 70
     8
 71
     3
 72
     8
 73
     4
 74
     0
 42
0.000000001
 43
0.00000001
 40
0.0
 40
0.0
 40
0.0
 40
0.0
 40
1.0
 40
1.0
 40
1.0
 40
1.0
 10
55.22867975060768
 20
75.87515359578488
 30
0.0
 10
55.20014593576958
 20
75.69070811720391
 30
0.0
 10
55.1732810139628
 20
75.50611970534368
 30
0.0
 10
55.14829499287835
 20
75.32137037397777
 30
0.0
  0
LINE
  5
11E
330
1F
100
AcDbEntity
  8
0
  6
Continuous
 62
     7
370
    25
100
AcDbLine
 10
57.3787426432
 20
75.8751535958
 30
0.0
 11
55.2286797506
 21
75.8751535958
 31
0.0
  0
SPLINE
  5
11F
330
1F
100
AcDbEntity
  8
0
  6
Continuous
 62
     7
370
    25
100
AcDbSpline
210
0.0
220
0.0
230
1.0
 70
     8
 71
     3
 72
    16
 73
    12
 74
     0
 42
0.000000001
 43
0.00000001
 40
0.0
 40
0.0
 40
0.0
 40
0.0
 40
0.25
 40
0.25
 40
0.5
 40
0.5
 40
0.625
 40
0.625
 40
0.75
 40
0.75
 40
1.0
 40
1.0
 40
1.0
 40
1.0
 10
57.37874264324215
 20
75.87515359578494
 30
0.0
 10
57.56923711422694
 20
75.30367018283059
 30
0.0
 10
57.72623912744003
 20
74.72802008089819
 30
0.0
 10
57.94373793827805
 20
73.56471397346978
 30
0.0
 10
58.0035172993481
 20
72.97696871399884
 30
0.0
 10
58.00417380020207
 20
72.08427706081298
 30
0.0
 10
57.98956003371859
 20
71.78531338189627
 30
0.0
 10
57.93257417584176
 20
71.19393163196173
 30
0.0
 10
57.89025990658251
 20
70.90022344164254
 30
0.0
 10
57.72686508669234
 20
70.02432794710803
 30
0.0
 10
57.5694745593789
 20
69.44734934419584
 30
0.0
 10
57.37874264324191
 20
68.87515359578485
 30
0.0
  0
LINE
  5
120
330
1F
100
AcDbEntity
  8
0
  6
Continuous
 62
     7
370
    25
100
AcDbLine
 10
57.3787426432
 20
68.8751535958
 30
0.0
 11
55.2286797506
 21
68.8751535958
 31
0.0
  0
SPLINE
  5
121
330
1F
100
AcDbEntity
  8
0
  6
Continuous
 62
     7
370
    25
100
AcDbSpline
210
0.0
220
0.0
230
1.0
 70
     8
 71
     3
 72
     8
 73
     4
 74
     0
 42
0.000000001
 43
0.00000001
 40
0.0
 40
0.0
 40
0.0
 40
0.0
 40
1.0
 40
1.0
 40
1.0
 40
1.0
 10
55.14829499287835
 20
69.42893681759197
 30
0.0
 10
55.17329540580104
 20
69.24408107142379
 30
0.0
 10
55.20016171726126
 20
69.05949706120003
 30
0.0
 10
55.22867975060768
 20
68.87515359578488
 30
0.0
  0
SPLINE
  5
122
330
1F
100
AcDbEntity
  8
0
  6
Continuous
 62
     7
370
    25
100
AcDbSpline
210
0.0
220
0.0
230
1.0
 70
     8
 71
     3
 72
     8
 73
     4
 74
     0
 42
0.000000001
 43
0.00000001
 40
0.0
 40
0.0
 40
0.0
 40
0.0
 40
1.0
 40
1.0
 40
1.0
 40
1.0
 10
55.06791023514901
 20
68.87515359578488
 30
0.0
 10
55.09644404998711
 20
69.05959907436585
 30
0.0
 10
55.12330897179389
 20
69.24418748622607
 30
0.0
 10
55.14829499287835
 20
69.42893681759197
 30
0.0
  0
SPLINE
  5
123
330
1F
100
AcDbEntity
  8
0
  6
Continuous
 62
     7
370
    25
100
AcDbSpline
210
0.0
220
0.0
230
1.0
 70
    24
 71
     3
 72
    13
 73
     9
 74
     0
 42
0.000000001
 43
0.00000001
 40
0.0
 40
0.0
 40
0.0
 40
0.0
 40
0.0049671102188261
 40
0.2621815758326778
 40
0.4454262230991967
 40
0.6292322184002734
 40
0.8144403035658128
 40
1.0
 40
1.0
 40
1.0
 40
1.0
 10
58.00310022764117
 20
75.87515359578488
 30
0.0
 10
58.00338528596215
 20
75.87515359578488
 30
0.0
 10
58.01843166836686
 20
75.87515359578488
 30
0.0
 10
57.9710779761246
 20
75.87515359578487
 30
0.0
 10
57.87722858483959
 20
75.87515359578488
 30
0.0
 10
57.74632965021936
 20
75.87515359578488
 30
0.0
 10
57.58221562133869
 20
75.87515359578488
 30
0.0
 10
57.44660983574791
 20
75.87515359578488
 30
0.0
 10
57.37874264324166
 20
75.87515359578488
 30
0.0
  0
SPLINE
  5
124
330
1F
100
AcDbEntity
  8
0
  6
Continuous
 62
     7
370
    25
100
AcDbSpline
210
0.0
220
0.0
230
1.0
 70
    24
 71
     3
 72
    13
 73
     9
 74
     0
 42
0.000000001
 43
0.00000001
 40
0.0
 40
0.0
 40
0.0
 40
0.0
 40
0.1834903465277777
 40
0.3672886571963209
 40
0.5522818227122849
 40
0.7378136289407977
 40
0.986780046327709
 40
1.0
 40
1.0
 40
1.0
 40
1.0
 10
57.37874264324166
 20
61.87515359578487
 30
0.0
 10
57.44587885217967
 20
61.87515359578487
 30
0.0
 10
57.58026394925268
 20
61.87515359578487
 30
0.0
 10
57.74423254853304
 20
61.87515359578487
 30
0.0
 10
57.87616234222786
 20
61.87515359578487
 30
0.0
 10
57.96990425220917
 20
61.87515359578487
 30
0.0
 10
58.01672128008393
 20
61.87515359578487
 30
0.0
 10
58.002507791764
 20
61.87515359578487
 30
0.0
 10
58.00179111966411
 20
61.87515359578487
 30
0.0
  0
SPLINE
  5
125
330
1F
100
AcDbEntity
  8
0
  6
Continuous
 62
     7
370
    25
100
AcDbSpline
210
0.0
220
0.0
230
1.0
 70
     8
 71
     3
 72
    16
 73
    12
 74
     0
 42
0.000000001
 43
0.00000001
 40
0.0
 40
0.0
 40
0.0
 40
0.0
 40
0.2500000000000001
 40
0.2500000000000001
 40
0.5000000000000001
 40
0.5000000000000001
 40
0.625
 40
0.625
 40
0.7499999999999999
 40
0.7499999999999999
 40
1.0
 40
1.0
 40
1.0
 40
1.0
 10
57.37874264324215
 20
68.87515359578494
 30
0.0
 10
57.56923711422694
 20
68.3036701828306
 30
0.0
 10
57.72623912744003
 20
67.72802008089819
 30
0.0
 10
57.94373793827805
 20
66.56471397346978
 30
0.0
 10
58.0035172993481
 20
65.97696871399884
 30
0.0
 10
58.00417380020207
 20
65.08427706081298
 30
0.0
 10
57.98956003371859
 20
64.78531338189627
 30
0.0
 10
57.93257417584176
 20
64.19393163196175
 30
0.0
 10
57.89025990658251
 20
63.90022344164255
 30
0.0
 10
57.72686508669234
 20
63.02432794710802
 30
0.0
 10
57.5694745593789
 20
62.44734934419584
 30
0.0
 10
57.37874264324191
 20
61.87515359578484
 30
0.0
  0
LINE
  5
126
330
1F
100
AcDbEntity
  8
0
  6
Continuous
 62
     7
370
    25
100
AcDbLine
 10
58.1482949929
 20
75.6251535958
 30
0.0
 11
58.1482949929
 21
62.1251535958
 31
0.0
  0
SPLINE
  5
127
330
1F
100
AcDbEntity
  8
0
  6
Continuous
 62
     7
370
    25
100
AcDbSpline
210
0.0
220
0.0
230
1.0
 70
     8
 71
     3
 72
     8
 73
     4
 74
     0
 42
0.000000001
 43
0.00000001
 40
0.0
 40
0.0
 40
0.0
 40
0.0
 40
1.0
 40
1.0
 40
1.0
 40
1.0
 10
55.22867975060768
 20
68.87515359578488
 30
0.0
 10
55.20014593576959
 20
68.69070811720391
 30
0.0
 10
55.1732810139628
 20
68.50611970534369
 30
0.0
 10
55.14829499287835
 20
68.32137037397777
 30
0.0
  0
LINE
  5
128
330
1F
100
AcDbEntity
  8
0
  6
Continuous
 62
     7
370
    25
100
AcDbLine
 10
55.1482949929
 20
68.321370374
 30
0.0
 11
55.1482949929
 21
69.4289368176
 31
0.0
  0
SPLINE
  5
129
330
1F
100
AcDbEntity
  8
0
  6
Continuous
 62
     7
370
    25
100
AcDbSpline
210
0.0
220
0.0
230
1.0
 70
     8
 71
     3
 72
     8
 73
     4
 74
     0
 42
0.000000001
 43
0.00000001
 40
0.0
 40
0.0
 40
0.0
 40
0.0
 40
1.0
 40
1.0
 40
1.0
 40
1.0
 10
55.14829499287835
 20
68.32137037397779
 30
0.0
 10
55.12329457995565
 20
68.50622612014597
 30
0.0
 10
55.09642826849543
 20
68.69081013036974
 30
0.0
 10
55.06791023514901
 20
68.87515359578488
 30
0.0
  0
LINE
  5
12A
330
1F
100
AcDbEntity
  8
0
  6
Continuous
 62
     7
370
    25
100
AcDbLine
 10
55.0679102351
 20
61.8751535958
 30
0.0
 11
52.9178473425
 21
61.8751535958
 31
0.0
  0
LINE
  5
12B
330
1F
100
AcDbEntity
  8
0
  6
Continuous
 62
     7
370
    25
100
AcDbLine
 10
57.3787426432
 20
61.8751535958
 30
0.0
 11
55.2286797506
 21
61.8751535958
 31
0.0
  0
SPLINE
  5
12C
330
1F
100
AcDbEntity
  8
0
  6
Continuous
 62
     7
370
    25
100
AcDbSpline
210
0.0
220
0.0
230
1.0
 70
     8
 71
     3
 72
     8
 73
     4
 74
     0
 42
0.000000001
 43
0.00000001
 40
0.0
 40
0.0
 40
0.0
 40
0.0
 40
1.0
 40
1.0
 40
1.0
 40
1.0
 10
55.14829499287835
 20
62.42893681759197
 30
0.0
 10
55.17329540580104
 20
62.24408107142379
 30
0.0
 10
55.20016171726126
 20
62.05949706120001
 30
0.0
 10
55.22867975060768
 20
61.87515359578487
 30
0.0
  0
SPLINE
  5
12D
330
1F
100
AcDbEntity
  8
0
  6
Continuous
 62
     7
370
    25
100
AcDbSpline
210
0.0
220
0.0
230
1.0
 70
     8
 71
     3
 72
     8
 73
     4
 74
     0
 42
0.000000001
 43
0.00000001
 40
0.0
 40
0.0
 40
0.0
 40
0.0
 40
1.0
 40
1.0
 40
1.0
 40
1.0
 10
55.06791023514901
 20
61.87515359578487
 30
0.0
 10
55.09644404998711
 20
62.05959907436584
 30
0.0
 10
55.12330897179389
 20
62.24418748622607
 30
0.0
 10
55.14829499287835
 20
62.42893681759197
 30
0.0
  0
LINE
  5
12E
330
1F
100
AcDbEntity
  8
0
  6
Continuous
 62
     7
370
    25
100
AcDbLine
 10
43.2370826466
 20
75.33111571
 30
0.0
 11
43.2370826466
 21
62.4191914816
 31
0.0
  0
LINE
  5
12F
330
1F
100
AcDbEntity
  8
0
  6
Continuous
 62
     7
370
    25
100
AcDbLine
 10
64.1482949929
 20
68.8751535958
 30
0.0
 11
64.1482949929
 21
62.3751535958
 31
0.0
  0
LINE
  5
130
330
1F
100
AcDbEntity
  8
0
  6
Continuous
 62
     7
370
    25
100
AcDbLine
 10
64.1482949929
 20
75.3751535958
 30
0.0
 11
64.1482949929
 21
68.8751535958
 31
0.0
  0
LINE
  5
131
330
1F
100
AcDbEntity
  8
0
  6
Continuous
 62
     7
370
    25
100
AcDbLine
 10
77.6482949929
 20
68.8751535958
 30
0.0
 11
77.6482949929
 21
62.3751535958
 31
0.0
  0
LINE
  5
132
330
1F
100
AcDbEntity
  8
0
  6
Continuous
 62
     7
370
    25
100
AcDbLine
 10
77.6482949929
 20
75.3751535958
 30
0.0
 11
77.6482949929
 21
68.8751535958
 31
0.0
  0
LINE
  5
133
330
1F
100
AcDbEntity
  8
0
  6
Continuous
 62
     7
370
    25
100
AcDbLine
 10
68.6482949929
 20
68.8751535958
 30
0.0
 11
68.6482949929
 21
62.3751535958
 31
0.0
  0
LINE
  5
134
330
1F
100
AcDbEntity
  8
0
  6
Continuous
 62
     7
370
    25
100
AcDbLine
 10
68.6482949929
 20
75.3751535958
 30
0.0
 11
68.6482949929
 21
68.8751535958
 31
0.0
  0
LINE
  5
135
330
1F
100
AcDbEntity
  8
0
  6
Continuous
 62
     7
370
    25
100
AcDbLine
 10
73.1482949929
 20
68.8751535958
 30
0.0
 11
73.1482949929
 21
62.3751535958
 31
0.0
  0
LINE
  5
136
330
1F
100
AcDbEntity
  8
0
  6
Continuous
 62
     7
370
    25
100
AcDbLine
 10
73.1482949929
 20
75.3751535958
 30
0.0
 11
73.1482949929
 21
68.8751535958
 31
0.0
  0
LINE
  5
137
330
1F
100
AcDbEntity
  8
0
  6
Continuous
 62
     7
370
    25
100
AcDbLine
 10
41.1482949929
 20
63.6251535958
 30
0.0
 11
41.1482949929
 21
74.1251535958
 31
0.0
  0
LINE
  5
138
330
1F
100
AcDbEntity
  8
0
  6
Continuous
 62
     7
370
    25
100
AcDbLine
 10
83.1482949929
 20
68.8751535958
 30
0.0
 11
83.1482949929
 21
63.5615991256
 31
0.0
  0
LINE
  5
139
330
1F
100
AcDbEntity
  8
0
  6
Continuous
 62
     7
370
    25
100
AcDbLine
 10
83.1482949929
 20
74.188708066
 30
0.0
 11
83.1482949929
 21
68.8751535958
 31
0.0
  0
SPLINE
  5
13A
330
1F
100
AcDbEntity
  8
0
  6
Continuous
 62
     7
370
    25
100
AcDbSpline
210
0.0
220
0.0
230
1.0
 70
    24
 71
     3
 72
     8
 73
     4
 74
     0
 42
0.000000001
 43
0.00000001
 40
0.0
 40
0.0
 40
0.0
 40
0.0
 40
1.0
 40
1.0
 40
1.0
 40
1.0
 10
55.06791023514901
 20
75.87515359578488
 30
0.0
 10
55.09644636546465
 20
75.87515359578488
 30
0.0
 10
55.12331108064807
 20
75.87515359578488
 30
0.0
 10
55.14829499287835
 20
75.87515359578488
 30
0.0
  0
LINE
  5
13B
330
1F
100
AcDbEntity
  8
0
  6
Continuous
 62
     7
370
    25
100
AcDbLine
 10
55.1482949929
 20
75.321370374
 30
0.0
 11
55.1482949929
 21
75.8751535958
 31
0.0
  0
SPLINE
  5
13C
330
1F
100
AcDbEntity
  8
0
  6
Continuous
 62
     7
370
    25
100
AcDbSpline
210
0.0
220
0.0
230
1.0
 70
    24
 71
     3
 72
     8
 73
     4
 74
     0
 42
0.000000001
 43
0.00000001
 40
0.0
 40
0.0
 40
0.0
 40
0.0
 40
1.0
 40
1.0
 40
1.0
 40
1.0
 10
55.14829499287835
 20
75.87515359578488
 30
0.0
 10
55.17329466487257
 20
75.87515359578488
 30
0.0
 10
55.20016090565956
 20
75.87515359578488
 30
0.0
 10
55.22867975060768
 20
75.87515359578488
 30
0.0
  0
SPLINE
  5
13D
330
1F
100
AcDbEntity
  8
0
  6
Continuous
 62
     7
370
    25
100
AcDbSpline
210
0.0
220
0.0
230
1.0
 70
    24
 71
     3
 72
     8
 73
     4
 74
     0
 42
0.000000001
 43
0.00000001
 40
0.0
 40
0.0
 40
0.0
 40
0.0
 40
1.0
 40
1.0
 40
1.0
 40
1.0
 10
55.14829499287835
 20
61.87515359578487
 30
0.0
 10
55.12329532088412
 20
61.87515359578487
 30
0.0
 10
55.09642908009713
 20
61.87515359578487
 30
0.0
 10
55.06791023514901
 20
61.87515359578487
 30
0.0
  0
LINE
  5
13E
330
1F
100
AcDbEntity
  8
0
  6
Continuous
 62
     7
370
    25
100
AcDbLine
 10
55.1482949929
 20
61.8751535958
 30
0.0
 11
55.1482949929
 21
62.4289368176
 31
0.0
  0
SPLINE
  5
13F
330
1F
100
AcDbEntity
  8
0
  6
Continuous
 62
     7
370
    25
100
AcDbSpline
210
0.0
220
0.0
230
1.0
 70
    24
 71
     3
 72
     8
 73
     4
 74
     0
 42
0.000000001
 43
0.00000001
 40
0.0
 40
0.0
 40
0.0
 40
0.0
 40
1.0
 40
1.0
 40
1.0
 40
1.0
 10
55.22867975060768
 20
61.87515359578487
 30
0.0
 10
55.20014362029204
 20
61.87515359578487
 30
0.0
 10
55.17327890510862
 20
61.87515359578487
 30
0.0
 10
55.14829499287835
 20
61.87515359578487
 30
0.0
  0
LINE
  5
140
330
1F
100
AcDbEntity
  8
0
  6
Continuous
 62
     8
370
    25
100
AcDbLine
 10
82.7158515952
 20
68.8751535958
 30
0.0
 11
82.7158515952
 21
74.68412315
 31
0.0
  0
LINE
  5
141
330
1F
100
AcDbEntity
  8
0
  6
Continuous
 62
     8
370
    25
100
AcDbLine
 10
82.7158515952
 20
63.0661840416
 30
0.0
 11
82.7158515952
 21
68.8751535958
 31
0.0
  0
LINE
  5
142
330
1F
100
AcDbEntity
  8
0
  6
Continuous
 62
     7
370
    18
100
AcDbLine
 10
42.0135207154
 20
74.6246918996
 30
0.0
 11
51.6482949929
 21
74.9257785958
 31
0.0
  0
LINE
  5
143
330
1F
100
AcDbEntity
  8
0
  6
Continuous
 62
     7
370
    18
100
AcDbLine
 10
42.0135207154
 20
63.125615292
 30
0.0
 11
51.6482949929
 21
62.8245285958
 31
0.0
  0
LINE
  5
144
330
1F
100
AcDbEntity
  8
0
  6
Continuous
 62
     7
370
    18
100
AcDbLine
 10
51.6482949929
 20
62.1563410958
 30
0.0
 11
51.6482949929
 21
75.5939660958
 31
0.0
  0
LINE
  5
145
330
1F
100
AcDbEntity
  8
0
  6
CENTERX2
 62
     7
370
    18
100
AcDbLine
 10
84.1482949929
 20
68.8751535958
 30
0.0
 11
40.3148668039
 21
68.8751535958
 31
0.0
  0
ENDSEC
  0
SECTION
  2
OBJECTS
  0
DICTIONARY
  5
C
330
0
100
AcDbDictionary
281
     1
  3
ACAD_GROUP
350
D
  3
ACAD_LAYOUT
350
1A
  3
ACAD_MLINESTYLE
350
17
  3
ACAD_PLOTSETTINGS
350
19
  3
ACAD_PLOTSTYLENAME
350
E
  3
ACAD_SCALELIST
350
47
  0
DICTIONARY
  5
D
102
{ACAD_REACTORS
330
C
102
}
330
C
100
AcDbDictionary
281
     1
  0
DICTIONARY
  5
1A
102
{ACAD_REACTORS
330
C
102
}
330
C
100
AcDbDictionary
281
     1
  3
Layout1
350
1E
  3
Layout2
350
26
  3
Model
350
22
  0
DICTIONARY
  5
17
102
{ACAD_REACTORS
330
C
102
}
330
C
100
AcDbDictionary
281
     1
  3
Standard
350
18
  0
DICTIONARY
  5
19
102
{ACAD_REACTORS
330
C
102
}
330
C
100
AcDbDictionary
281
     1
  0
ACDBDICTIONARYWDFLT
  5
E
102
{ACAD_REACTORS
330
C
102
}
330
C
100
AcDbDictionary
281
     1
  3
Normal
350
F
100
AcDbDictionaryWithDefault
340
F
  0
DICTIONARY
  5
47
102
{ACAD_REACTORS
330
C
102
}
330
C
100
AcDbDictionary
281
     1
  3
A0
350
48
  3
A1
350
49
  3
A2
350
4A
  3
A3
350
4B
  3
A4
350
4C
  3
A5
350
4D
  3
A6
350
4E
  3
A7
350
4F
  3
A8
350
50
  3
A9
350
51
  3
B0
350
52
  3
B1
350
53
  3
B2
350
54
  3
B3
350
55
  3
B4
350
56
  3
B5
350
57
  3
B6
350
58
  3
B7
350
59
  3
B8
350
5A
  3
B9
350
5B
  3
C0
350
5C
  3
C1
350
5D
  3
C2
350
5E
  3
C3
350
5F
  3
C4
350
60
  3
C5
350
61
  3
C6
350
62
  3
C7
350
63
  3
C8
350
64
  3
C9
350
65
  3
D0
350
66
  3
D1
350
67
  3
D2
350
68
  0
LAYOUT
  5
1E
102
{ACAD_REACTORS
330
1A
102
}
330
1A
100
AcDbPlotSettings
  1

  2
none_device
  4

  6

 40
0.0
 41
0.0
 42
0.0
 43
0.0
 44
0.0
 45
0.0
 46
0.0
 47
0.0
 48
0.0
 49
0.0
140
0.0
141
0.0
142
1.0
143
1.0
 70
   688
 72
     1
 73
     0
 74
     5
  7

 75
    16
147
1.0
148
0.0
149
0.0
100
AcDbLayout
  1
Layout1
 70
     1
 71
     1
 10
0.0
 20
0.0
 11
420.0
 21
297.0
 12
0.0
 22
0.0
 32
0.0
 14
1.0000000000E+20
 24
1.0000000000E+20
 34
1.0000000000E+20
 15
-1.0000000000E+20
 25
-1.0000000000E+20
 35
-1.0000000000E+20
146
0.0
 13
0.0
 23
0.0
 33
0.0
 16
1.0
 26
0.0
 36
0.0
 17
0.0
 27
1.0
 37
0.0
 76
     0
330
1B
  0
LAYOUT
  5
26
102
{ACAD_REACTORS
330
1A
102
}
330
1A
100
AcDbPlotSettings
  1

  2
none_device
  4

  6

 40
0.0
 41
0.0
 42
0.0
 43
0.0
 44
0.0
 45
0.0
 46
0.0
 47
0.0
 48
0.0
 49
0.0
140
0.0
141
0.0
142
1.0
143
1.0
 70
   688
 72
     1
 73
     0
 74
     5
  7

 75
    16
147
1.0
148
0.0
149
0.0
100
AcDbLayout
  1
Layout2
 70
     1
 71
     2
 10
0.0
 20
0.0
 11
0.0
 21
0.0
 12
0.0
 22
0.0
 32
0.0
 14
0.0
 24
0.0
 34
0.0
 15
0.0
 25
0.0
 35
0.0
146
0.0
 13
0.0
 23
0.0
 33
0.0
 16
1.0
 26
0.0
 36
0.0
 17
0.0
 27
1.0
 37
0.0
 76
     0
330
23
  0
LAYOUT
  5
22
102
{ACAD_REACTORS
330
1A
102
}
330
1A
100
AcDbPlotSettings
  1

  2
none_device
  4
Letter_(8.50_x_11.00_Inches)
  6

 40
6.35
 41
6.35
 42
6.35000508
 43
6.35000508
 44
215.9
 45
279.4
 46
0.0
 47
0.0
 48
0.0
 49
0.0
140
0.0
141
0.0
142
1.0
143
1.0
 70
  1712
 72
     1
 73
     0
 74
     0
  7

 75
     0
147
1.0
148
0.0
149
0.0
100
AcDbLayout
  1
Model
 70
     1
 71
     0
 10
0.0
 20
0.0
 11
215.9
 21
139.7
 12
0.0
 22
0.0
 32
0.0
 14
0.0
 24
0.0
 34
0.0
 15
215.9
 25
139.7
 35
0.0
146
0.0
 13
0.0
 23
0.0
 33
0.0
 16
1.0
 26
0.0
 36
0.0
 17
0.0
 27
1.0
 37
0.0
 76
     0
330
1F
331
29
  0
MLINESTYLE
  5
18
102
{ACAD_REACTORS
330
17
102
}
330
17
100
AcDbMlineStyle
  2
Standard
 70
     0
  3

 62
   256
 51
90.0
 52
90.0
 71
     2
 49
0.5
 62
   256
  6
BYLAYER
 49
-0.5
 62
   256
  6
BYLAYER
  0
ACDBPLACEHOLDER
  5
F
102
{ACAD_REACTORS
330
E
102
}
330
E
  0
SCALE
  5
48
102
{ACAD_REACTORS
330
47
102
}
330
47
100
AcDbScale
 70
     0
300
1:1
140
1.0
141
1.0
290
     1
  0
SCALE
  5
49
102
{ACAD_REACTORS
330
47
102
}
330
47
100
AcDbScale
 70
     0
300
1:2
140
1.0
141
2.0
290
     0
  0
SCALE
  5
4A
102
{ACAD_REACTORS
330
47
102
}
330
47
100
AcDbScale
 70
     0
300
1:4
140
1.0
141
4.0
290
     0
  0
SCALE
  5
4B
102
{ACAD_REACTORS
330
47
102
}
330
47
100
AcDbScale
 70
     0
300
1:5
140
1.0
141
5.0
290
     0
  0
SCALE
  5
4C
102
{ACAD_REACTORS
330
47
102
}
330
47
100
AcDbScale
 70
     0
300
1:8
140
1.0
141
8.0
290
     0
  0
SCALE
  5
4D
102
{ACAD_REACTORS
330
47
102
}
330
47
100
AcDbScale
 70
     0
300
1:10
140
1.0
141
10.0
290
     0
  0
SCALE
  5
4E
102
{ACAD_REACTORS
330
47
102
}
330
47
100
AcDbScale
 70
     0
300
1:16
140
1.0
141
16.0
290
     0
  0
SCALE
  5
4F
102
{ACAD_REACTORS
330
47
102
}
330
47
100
AcDbScale
 70
     0
300
1:20
140
1.0
141
20.0
290
     0
  0
SCALE
  5
50
102
{ACAD_REACTORS
330
47
102
}
330
47
100
AcDbScale
 70
     0
300
1:30
140
1.0
141
30.0
290
     0
  0
SCALE
  5
51
102
{ACAD_REACTORS
330
47
102
}
330
47
100
AcDbScale
 70
     0
300
1:40
140
1.0
141
40.0
290
     0
  0
SCALE
  5
52
102
{ACAD_REACTORS
330
47
102
}
330
47
100
AcDbScale
 70
     0
300
1:50
140
1.0
141
50.0
290
     0
  0
SCALE
  5
53
102
{ACAD_REACTORS
330
47
102
}
330
47
100
AcDbScale
 70
     0
300
1:100
140
1.0
141
100.0
290
     0
  0
SCALE
  5
54
102
{ACAD_REACTORS
330
47
102
}
330
47
100
AcDbScale
 70
     0
300
2:1
140
2.0
141
1.0
290
     0
  0
SCALE
  5
55
102
{ACAD_REACTORS
330
47
102
}
330
47
100
AcDbScale
 70
     0
300
4:1
140
4.0
141
1.0
290
     0
  0
SCALE
  5
56
102
{ACAD_REACTORS
330
47
102
}
330
47
100
AcDbScale
 70
     0
300
8:1
140
8.0
141
1.0
290
     0
  0
SCALE
  5
57
102
{ACAD_REACTORS
330
47
102
}
330
47
100
AcDbScale
 70
     0
300
10:1
140
10.0
141
1.0
290
     0
  0
SCALE
  5
58
102
{ACAD_REACTORS
330
47
102
}
330
47
100
AcDbScale
 70
     0
300
100:1
140
100.0
141
1.0
290
     0
  0
SCALE
  5
59
102
{ACAD_REACTORS
330
47
102
}
330
47
100
AcDbScale
 70
     0
300
1/128" = 1'-0"
140
0.0078125
141
12.0
290
     0
  0
SCALE
  5
5A
102
{ACAD_REACTORS
330
47
102
}
330
47
100
AcDbScale
 70
     0
300
1/64" = 1'-0"
140
0.015625
141
12.0
290
     0
  0
SCALE
  5
5B
102
{ACAD_REACTORS
330
47
102
}
330
47
100
AcDbScale
 70
     0
300
1/32" = 1'-0"
140
0.03125
141
12.0
290
     0
  0
SCALE
  5
5C
102
{ACAD_REACTORS
330
47
102
}
330
47
100
AcDbScale
 70
     0
300
1/16" = 1'-0"
140
0.0625
141
12.0
290
     0
  0
SCALE
  5
5D
102
{ACAD_REACTORS
330
47
102
}
330
47
100
AcDbScale
 70
     0
300
3/32" = 1'-0"
140
0.09375
141
12.0
290
     0
  0
SCALE
  5
5E
102
{ACAD_REACTORS
330
47
102
}
330
47
100
AcDbScale
 70
     0
300
1/8" = 1'-0"
140
0.125
141
12.0
290
     0
  0
SCALE
  5
5F
102
{ACAD_REACTORS
330
47
102
}
330
47
100
AcDbScale
 70
     0
300
3/16" = 1'-0"
140
0.1875
141
12.0
290
     0
  0
SCALE
  5
60
102
{ACAD_REACTORS
330
47
102
}
330
47
100
AcDbScale
 70
     0
300
1/4" = 1'-0"
140
0.25
141
12.0
290
     0
  0
SCALE
  5
61
102
{ACAD_REACTORS
330
47
102
}
330
47
100
AcDbScale
 70
     0
300
3/8" = 1'-0"
140
0.375
141
12.0
290
     0
  0
SCALE
  5
62
102
{ACAD_REACTORS
330
47
102
}
330
47
100
AcDbScale
 70
     0
300
1/2" = 1'-0"
140
0.5
141
12.0
290
     0
  0
SCALE
  5
63
102
{ACAD_REACTORS
330
47
102
}
330
47
100
AcDbScale
 70
     0
300
3/4" = 1'-0"
140
0.75
141
12.0
290
     0
  0
SCALE
  5
64
102
{ACAD_REACTORS
330
47
102
}
330
47
100
AcDbScale
 70
     0
300
1" = 1'-0"
140
1.0
141
12.0
290
     0
  0
SCALE
  5
65
102
{ACAD_REACTORS
330
47
102
}
330
47
100
AcDbScale
 70
     0
300
1-1/2" = 1'-0"
140
1.5
141
12.0
290
     0
  0
SCALE
  5
66
102
{ACAD_REACTORS
330
47
102
}
330
47
100
AcDbScale
 70
     0
300
3" = 1'-0"
140
3.0
141
12.0
290
     0
  0
SCALE
  5
67
102
{ACAD_REACTORS
330
47
102
}
330
47
100
AcDbScale
 70
     0
300
6" = 1'-0"
140
6.0
141
12.0
290
     0
  0
SCALE
  5
68
102
{ACAD_REACTORS
330
47
102
}
330
47
100
AcDbScale
 70
     0
300
1'-0" = 1'-0"
140
12.0
141
12.0
290
     0
  0
ENDSEC
  0
EOF
