  0
SECTION
  2
HEADER
  9
$ACADVER
  1
AC1015
  9
$ACADMAINTVER
 70
     6
  9
$DWGCODEPAGE
  3
DOS932
  9
$INSBASE
 10
0.0
 20
0.0
 30
0.0
  9
$EXTMIN
 10
0.0
 20
0.0
 30
0.0
  9
$EXTMAX
 10
215.9
 20
139.7
 30
0.0
  9
$LIMMIN
 10
0.0
 20
0.0
  9
$LIMMAX
 10
215.9
 20
139.7
  9
$ORTHOMODE
 70
     0
  9
$REGENMODE
 70
     1
  9
$FILLMODE
 70
     1
  9
$QTEXTMODE
 70
     0
  9
$MIRRTEXT
 70
     1
  9
$LTSCALE
 40
0.5
  9
$ATTMODE
 70
     1
  9
$TEXTSIZE
 40
1.75
  9
$TRACEWID
 40
1.0
  9
$TEXTSTYLE
  7
Standard
  9
$CLAYER
  8
0
  9
$CELTYPE
  6
ByLayer
  9
$CECOLOR
 62
   256
  9
$CELTSCALE
 40
1.0
  9
$DISPSILH
 70
     0
  9
$DIMSCALE
 40
1.0
  9
$DIMASZ
 40
1.651
  9
$DIMEXO
 40
0.5
  9
$DIMDLI
 40
3.75
  9
$DIMRND
 40
0.0
  9
$DIMDLE
 40
0.0
  9
$DIMEXE
 40
0.5
  9
$DIMTP
 40
0.0
  9
$DIMTM
 40
0.0
  9
$DIMTXT
 40
1.75
  9
$DIMCEN
 40
2.5
  9
$DIMTSZ
 40
0.0
  9
$DIMTOL
 70
     0
  9
$DIMLIM
 70
     0
  9
$DIMTIH
 70
     1
  9
$DIMTOH
 70
     1
  9
$DIMSE1
 70
     0
  9
$DIMSE2
 70
     0
  9
$DIMTAD
 70
     1
  9
$DIMZIN
 70
     1
  9
$DIMBLK
  1

  9
$DIMASO
 70
     1
  9
$DIMSHO
 70
     1
  9
$DIMPOST
  1

  9
$DIMAPOST
  1

  9
$DIMALT
 70
     0
  9
$DIMALTD
 70
     3
  9
$DIMALTF
 40
0.0393700787
  9
$DIMLFAC
 40
1.0
  9
$DIMTOFL
 70
     1
  9
$DIMTVP
 40
0.0
  9
$DIMTIX
 70
     0
  9
$DIMSOXD
 70
     0
  9
$DIMSAH
 70
     0
  9
$DIMBLK1
  1

  9
$DIMBLK2
  1

  9
$DIMSTYLE
  2
ISO-25
  9
$DIMCLRD
 70
     0
  9
$DIMCLRE
 70
     0
  9
$DIMCLRT
 70
     0
  9
$DIMTFAC
 40
1.0
  9
$DIMGAP
 40
0.762
  9
$DIMJUST
 70
     0
  9
$DIMSD1
 70
     0
  9
$DIMSD2
 70
     0
  9
$DIMTOLJ
 70
     0
  9
$DIMTZIN
 70
     1
  9
$DIMALTZ
 70
     0
  9
$DIMALTTZ
 70
     0
  9
$DIMUPT
 70
     0
  9
$DIMDEC
 70
     2
  9
$DIMTDEC
 70
     2
  9
$DIMALTU
 70
     2
  9
$DIMALTTD
 70
     3
  9
$DIMTXSTY
  7
Standard
  9
$DIMAUNIT
 70
     0
  9
$DIMADEC
 70
     2
  9
$DIMALTRND
 40
0.0
  9
$DIMAZIN
 70
     0
  9
$DIMDSEP
 70
    44
  9
$DIMATFIT
 70
     3
  9
$DIMFRAC
 70
     0
  9
$DIMLDRBLK
  1

  9
$DIMLUNIT
 70
     2
  9
$DIMLWD
 70
    -2
  9
$DIMLWE
 70
    -2
  9
$DIMTMOVE
 70
     0
  9
$LUNITS
 70
     2
  9
$LUPREC
 70
     2
  9
$SKETCHINC
 40
1.0
  9
$FILLETRAD
 40
10.0
  9
$AUNITS
 70
     0
  9
$AUPREC
 70
     2
  9
$MENU
  1
.
  9
$ELEVATION
 40
0.0
  9
$PELEVATION
 40
0.0
  9
$THICKNESS
 40
0.0
  9
$LIMCHECK
 70
     0
  9
$CHAMFERA
 40
0.0
  9
$CHAMFERB
 40
0.0
  9
$CHAMFERC
 40
0.0
  9
$CHAMFERD
 40
0.0
  9
$SKPOLY
 70
     0
  9
$TDCREATE
 40
2460081.708134456
  9
$TDUCREATE
 40
2460081.333134456
  9
$TDUPDATE
 40
2460081.708134954
  9
$TDUUPDATE
 40
2460081.333134954
  9
$TDINDWG
 40
0.0000000116
  9
$TDUSRTIMER
 40
0.0000000116
  9
$USRTIMER
 70
     1
  9
$ANGBASE
 50
0.0
  9
$ANGDIR
 70
     0
  9
$PDMODE
 70
     0
  9
$PDSIZE
 40
-1.0
  9
$PLINEWID
 40
0.0
  9
$SPLFRAME
 70
     0
  9
$SPLINETYPE
 70
     6
  9
$SPLINESEGS
 70
     8
  9
$HANDSEED
  5
147
  9
$SURFTAB1
 70
     6
  9
$SURFTAB2
 70
     6
  9
$SURFTYPE
 70
     6
  9
$SURFU
 70
     6
  9
$SURFV
 70
     6
  9
$UCSBASE
  2

  9
$UCSNAME
  2

  9
$UCSORG
 10
0.0
 20
0.0
 30
0.0
  9
$UCSXDIR
 10
1.0
 20
0.0
 30
0.0
  9
$UCSYDIR
 10
0.0
 20
1.0
 30
0.0
  9
$UCSORTHOREF
  2

  9
$UCSORTHOVIEW
 70
     0
  9
$UCSORGTOP
 10
0.0
 20
0.0
 30
0.0
  9
$UCSORGBOTTOM
 10
0.0
 20
0.0
 30
0.0
  9
$UCSORGLEFT
 10
0.0
 20
0.0
 30
0.0
  9
$UCSORGRIGHT
 10
0.0
 20
0.0
 30
0.0
  9
$UCSORGFRONT
 10
0.0
 20
0.0
 30
0.0
  9
$UCSORGBACK
 10
0.0
 20
0.0
 30
0.0
  9
$PUCSBASE
  2

  9
$PUCSNAME
  2

  9
$PUCSORG
 10
0.0
 20
0.0
 30
0.0
  9
$PUCSXDIR
 10
1.0
 20
0.0
 30
0.0
  9
$PUCSYDIR
 10
0.0
 20
1.0
 30
0.0
  9
$PUCSORTHOREF
  2

  9
$PUCSORTHOVIEW
 70
     0
  9
$PUCSORGTOP
 10
0.0
 20
0.0
 30
0.0
  9
$PUCSORGBOTTOM
 10
0.0
 20
0.0
 30
0.0
  9
$PUCSORGLEFT
 10
0.0
 20
0.0
 30
0.0
  9
$PUCSORGRIGHT
 10
0.0
 20
0.0
 30
0.0
  9
$PUCSORGFRONT
 10
0.0
 20
0.0
 30
0.0
  9
$PUCSORGBACK
 10
0.0
 20
0.0
 30
0.0
  9
$USERI1
 70
     0
  9
$USERI2
 70
     0
  9
$USERI3
 70
     0
  9
$USERI4
 70
     0
  9
$USERI5
 70
     0
  9
$USERR1
 40
0.0
  9
$USERR2
 40
0.0
  9
$USERR3
 40
0.0
  9
$USERR4
 40
0.0
  9
$USERR5
 40
0.0
  9
$WORLDVIEW
 70
     1
  9
$SHADEDGE
 70
     3
  9
$SHADEDIF
 70
    70
  9
$TILEMODE
 70
     1
  9
$MAXACTVP
 70
    64
  9
$PINSBASE
 10
0.0
 20
0.0
 30
0.0
  9
$PLIMCHECK
 70
     0
  9
$PEXTMIN
 10
1.0000000000E+20
 20
1.0000000000E+20
 30
1.0000000000E+20
  9
$PEXTMAX
 10
-1.0000000000E+20
 20
-1.0000000000E+20
 30
-1.0000000000E+20
  9
$PLIMMIN
 10
0.0
 20
0.0
  9
$PLIMMAX
 10
420.0
 20
297.0
  9
$UNITMODE
 70
     0
  9
$VISRETAIN
 70
     1
  9
$PLINEGEN
 70
     0
  9
$PSLTSCALE
 70
     1
  9
$TREEDEPTH
 70
  3020
  9
$CMLSTYLE
  2
Standard
  9
$CMLJUST
 70
     0
  9
$CMLSCALE
 40
20.0
  9
$PROXYGRAPHICS
 70
     1
  9
$MEASUREMENT
 70
     1
  9
$CELWEIGHT
370
    -1
  9
$ENDCAPS
280
     0
  9
$JOINSTYLE
280
     0
  9
$LWDISPLAY
290
     1
  9
$INSUNITS
 70
     4
  9
$HYPERLINKBASE
  1

  9
$STYLESHEET
  1

  9
$XEDIT
290
     1
  9
$CEPSNTYPE
380
     0
  9
$PSTYLEMODE
290
     1
  9
$FINGERPRINTGUID
  2
{CAA395E7-0AEE-403A-B6F1-5ECCC82B0B7C}
  9
$VERSIONGUID
  2
{FAEB1C32-E019-11D5-929B-00C0DF256EC4}
  9
$EXTNAMES
290
     1
  9
$PSVPSCALE
 40
0.0
  9
$OLESTARTUP
290
     0
  0
ENDSEC
  0
SECTION
  2
CLASSES
  0
CLASS
  1
ACDBDICTIONARYWDFLT
  2
AcDbDictionaryWithDefault
  3
ObjectDBX Classes
 90
        0
280
     0
281
     0
  0
CLASS
  1
VISUALSTYLE
  2
AcDbVisualStyle
  3
ObjectDBX Classes
 90
     4095
280
     0
281
     0
  0
CLASS
  1
MATERIAL
  2
AcDbMaterial
  3
ObjectDBX Classes
 90
     1153
280
     0
281
     0
  0
CLASS
  1
SCALE
  2
AcDbScale
  3
ObjectDBX Classes
 90
     1153
280
     0
281
     0
  0
CLASS
  1
TABLESTYLE
  2
AcDbTableStyle
  3
ObjectDBX Classes
 90
     4095
280
     0
281
     0
  0
CLASS
  1
MLEADERSTYLE
  2
AcDbMLeaderStyle
  3
ACDB_MLEADERSTYLE_CLASS
 90
     4095
280
     0
281
     0
  0
CLASS
  1
SUN
  2
AcDbSun
  3
SCENEOE
 90
     1153
280
     0
281
     0
  0
CLASS
  1
ACDBPLACEHOLDER
  2
AcDbPlaceHolder
  3
ObjectDBX Classes
 90
        0
280
     0
281
     0
  0
CLASS
  1
LAYOUT
  2
AcDbLayout
  3
ObjectDBX Classes
 90
        0
280
     0
281
     0
  0
ENDSEC
  0
SECTION
  2
TABLES
  0
TABLE
  2
VPORT
  5
8
330
0
100
AcDbSymbolTable
 70
     1
  0
VPORT
  5
29
330
8
100
AcDbSymbolTableRecord
100
AcDbViewportTableRecord
  2
*Active
 70
     0
 10
0.0
 20
0.0
 11
1.0
 21
1.0
 12
107.95
 22
69.85
 13
0.0
 23
0.0
 14
10.0
 24
10.0
 15
10.0
 25
10.0
 16
0.0
 26
0.0
 36
1.0
 17
0.0
 27
0.0
 37
0.0
 40
139.7
 41
1.5454545455
 42
50.0
 43
0.0
 44
0.0
 50
0.0
 51
0.0
 71
     0
 72
  2000
 73
     1
 74
     3
 75
     0
 76
     0
 77
     0
 78
     0
281
     0
 65
     1
110
0.0
120
0.0
130
0.0
111
1.0
121
0.0
131
0.0
112
0.0
122
1.0
132
0.0
 79
     0
146
0.0
  0
ENDTAB
  0
TABLE
  2
LTYPE
  5
5
330
0
100
AcDbSymbolTable
 70
     6
  0
LTYPE
  5
14
330
5
100
AcDbSymbolTableRecord
100
AcDbLinetypeTableRecord
  2
ByBlock
 70
     0
  3

 72
    65
 73
     0
 40
0.0
  0
LTYPE
  5
15
330
5
100
AcDbSymbolTableRecord
100
AcDbLinetypeTableRecord
  2
ByLayer
 70
     0
  3

 72
    65
 73
     0
 40
0.0
  0
LTYPE
  5
16
330
5
100
AcDbSymbolTableRecord
100
AcDbLinetypeTableRecord
  2
Continuous
 70
     0
  3
Solid line
 72
    65
 73
     0
 40
0.0
  0
LTYPE
  5
6E
330
5
100
AcDbSymbolTableRecord
100
AcDbLinetypeTableRecord
  2
HIDDEN
 70
     0
  3
Hidden __ __ __ __ __ __ __ __ __ __ __ __ __ __
 72
    65
 73
     2
 40
1.905
 49
1.27
 74
     0
 49
-0.635
 74
     0
  0
LTYPE
  5
6F
330
5
100
AcDbSymbolTableRecord
100
AcDbLinetypeTableRecord
  2
PHANTOM
 70
     0
  3
Phantom ______  __  __  ______  __  __  ______
 72
    65
 73
     6
 40
12.7
 49
6.35
 74
     0
 49
-1.27
 74
     0
 49
1.27
 74
     0
 49
-1.27
 74
     0
 49
1.27
 74
     0
 49
-1.27
 74
     0
  0
LTYPE
  5
70
330
5
100
AcDbSymbolTableRecord
100
AcDbLinetypeTableRecord
  2
CENTER
 70
     0
  3
Center ____ _ ____ _ ____ _ ____ _ ____ _ ____
 72
    65
 73
     4
 40
10.16
 49
6.35
 74
     0
 49
-1.27
 74
     0
 49
1.27
 74
     0
 49
-1.27
 74
     0
  0
LTYPE
  5
71
330
5
100
AcDbSymbolTableRecord
100
AcDbLinetypeTableRecord
  2
CENTERX2
 70
     0
  3
Center (2x) ________  __  ________  __  _____
 72
    65
 73
     4
 40
20.32
 49
12.7
 74
     0
 49
-2.54
 74
     0
 49
2.54
 74
     0
 49
-2.54
 74
     0
  0
LTYPE
  5
72
330
5
100
AcDbSymbolTableRecord
100
AcDbLinetypeTableRecord
  2
DOT2
 70
     0
  3
Dot (.5x) ........................................
 72
    65
 73
     2
 40
0.635
 49
0.0
 74
     0
 49
-0.635
 74
     0
  0
ENDTAB
  0
TABLE
  2
LAYER
  5
2
330
0
100
AcDbSymbolTable
 70
     1
  0
LAYER
  5
10
330
2
100
AcDbSymbolTableRecord
100
AcDbLayerTableRecord
  2
0
 70
     0
 62
     7
  6
Continuous
370
    -3
390
F
  0
ENDTAB
  0
TABLE
  2
STYLE
  5
3
330
0
100
AcDbSymbolTable
 70
     2
  0
STYLE
  5
11
330
3
100
AcDbSymbolTableRecord
100
AcDbTextStyleTableRecord
  2
Standard
 70
     0
 40
0.0
 41
1.0
 50
0.0
 71
     0
 42
1.75
  3
txt
  4
bigfont
  0
STYLE
  5
73
330
3
100
AcDbSymbolTableRecord
100
AcDbTextStyleTableRecord
  2
SLDTEXTSTYLE0
 70
     0
 40
0.0
 41
0.7
 50
0.0
 71
     0
 42
1.75
  3
TXT
  4
bigfont
  0
ENDTAB
  0
TABLE
  2
VIEW
  5
6
330
0
100
AcDbSymbolTable
 70
     0
  0
ENDTAB
  0
TABLE
  2
UCS
  5
7
330
0
100
AcDbSymbolTable
 70
     0
  0
ENDTAB
  0
TABLE
  2
APPID
  5
9
330
0
100
AcDbSymbolTable
 70
     1
  0
APPID
  5
12
330
9
100
AcDbSymbolTableRecord
100
AcDbRegAppTableRecord
  2
ACAD
 70
     0
  0
ENDTAB
  0
TABLE
  2
DIMSTYLE
  5
A
330
0
100
AcDbSymbolTable
 70
     1
100
AcDbDimStyleTable
  0
DIMSTYLE
105
27
330
A
100
AcDbSymbolTableRecord
100
AcDbDimStyleTableRecord
  2
ISO-25
 70
     0
 41
2.5
 42
0.625
 43
3.75
 44
1.25
 73
     0
 74
     0
 77
     1
 78
     8
140
2.5
141
2.5
143
0.0393700787
147
0.625
171
     3
172
     1
178
     0
271
     2
272
     2
274
     3
278
    44
283
     0
284
     8
340
11
  0
ENDTAB
  0
TABLE
  2
BLOCK_RECORD
  5
1
330
0
100
AcDbSymbolTable
 70
     3
  0
BLOCK_RECORD
  5
1F
330
1
100
AcDbSymbolTableRecord
100
AcDbBlockTableRecord
  2
*Model_Space
340
22
  0
BLOCK_RECORD
  5
1B
330
1
100
AcDbSymbolTableRecord
100
AcDbBlockTableRecord
  2
*Paper_Space
340
1E
  0
BLOCK_RECORD
  5
23
330
1
100
AcDbSymbolTableRecord
100
AcDbBlockTableRecord
  2
*Paper_Space0
340
26
  0
BLOCK_RECORD
  5
EA
330
1
100
AcDbSymbolTableRecord
100
AcDbBlockTableRecord
  2
SW_CENTERMARKSYMBOL_0
340
0
102
{BLKREFS
331
F5
102
}
  0
BLOCK_RECORD
  5
F6
330
1
100
AcDbSymbolTableRecord
100
AcDbBlockTableRecord
  2
SW_CENTERMARKSYMBOL_1
340
0
102
{BLKREFS
331
101
102
}
  0
ENDTAB
  0
ENDSEC
  0
SECTION
  2
BLOCKS
  0
BLOCK
  5
20
330
1F
100
AcDbEntity
  8
0
100
AcDbBlockBegin
  2
*Model_Space
 70
     0
 10
0.0
 20
0.0
 30
0.0
  3
*Model_Space
  1

  0
ENDBLK
  5
21
330
1F
100
AcDbEntity
  8
0
100
AcDbBlockEnd
  0
BLOCK
  5
1C
330
1B
100
AcDbEntity
 67
     1
  8
0
100
AcDbBlockBegin
  2
*Paper_Space
 70
     0
 10
0.0
 20
0.0
 30
0.0
  3
*Paper_Space
  1

  0
ENDBLK
  5
1D
330
1B
100
AcDbEntity
 67
     1
  8
0
100
AcDbBlockEnd
  0
BLOCK
  5
24
330
23
100
AcDbEntity
  8
0
100
AcDbBlockBegin
  2
*Paper_Space0
 70
     0
 10
0.0
 20
0.0
 30
0.0
  3
*Paper_Space0
  1

  0
ENDBLK
  5
25
330
23
100
AcDbEntity
  8
0
100
AcDbBlockEnd
  0
BLOCK
  5
EB
330
EA
100
AcDbEntity
  8
0
100
AcDbBlockBegin
  2
SW_CENTERMARKSYMBOL_0
 70
     0
 10
0.0
 20
0.0
 30
0.0
  3
SW_CENTERMARKSYMBOL_0
  1

  0
LINE
  5
ED
330
EA
100
AcDbEntity
  8
0
  6
Continuous
 62
     0
370
    18
100
AcDbLine
 10
0.0
 20
0.0
 30
0.0
 11
0.0
 21
2.5
 31
0.0
  0
LINE
  5
EE
330
EA
100
AcDbEntity
  8
0
  6
Continuous
 62
     0
370
    18
100
AcDbLine
 10
0.0
 20
0.0
 30
0.0
 11
-2.5
 21
0.0
 31
0.0
  0
LINE
  5
EF
330
EA
100
AcDbEntity
  8
0
  6
Continuous
 62
     0
370
    18
100
AcDbLine
 10
0.0
 20
0.0
 30
0.0
 11
0.0
 21
-2.5
 31
0.0
  0
LINE
  5
F0
330
EA
100
AcDbEntity
  8
0
  6
Continuous
 62
     0
370
    18
100
AcDbLine
 10
0.0
 20
0.0
 30
0.0
 11
2.5
 21
0.0
 31
0.0
  0
LINE
  5
F1
330
EA
100
AcDbEntity
  8
0
  6
Continuous
 62
     0
370
    18
100
AcDbLine
 10
0.0
 20
5.0
 30
0.0
 11
0.0
 21
6.0
 31
0.0
  0
LINE
  5
F2
330
EA
100
AcDbEntity
  8
0
  6
Continuous
 62
     0
370
    18
100
AcDbLine
 10
-5.0
 20
0.0
 30
0.0
 11
-6.0
 21
0.0
 31
0.0
  0
LINE
  5
F3
330
EA
100
AcDbEntity
  8
0
  6
Continuous
 62
     0
370
    18
100
AcDbLine
 10
0.0
 20
-5.0
 30
0.0
 11
0.0
 21
-6.0
 31
0.0
  0
LINE
  5
F4
330
EA
100
AcDbEntity
  8
0
  6
Continuous
 62
     0
370
    18
100
AcDbLine
 10
5.0
 20
0.0
 30
0.0
 11
6.0
 21
0.0
 31
0.0
  0
ENDBLK
  5
EC
330
EA
100
AcDbEntity
  8
0
100
AcDbBlockEnd
  0
BLOCK
  5
F7
330
F6
100
AcDbEntity
  8
0
100
AcDbBlockBegin
  2
SW_CENTERMARKSYMBOL_1
 70
     0
 10
0.0
 20
0.0
 30
0.0
  3
SW_CENTERMARKSYMBOL_1
  1

  0
LINE
  5
F9
330
F6
100
AcDbEntity
  8
0
  6
Continuous
 62
     0
370
    18
100
AcDbLine
 10
0.0
 20
0.0
 30
0.0
 11
0.0
 21
2.5
 31
0.0
  0
LINE
  5
FA
330
F6
100
AcDbEntity
  8
0
  6
Continuous
 62
     0
370
    18
100
AcDbLine
 10
0.0
 20
0.0
 30
0.0
 11
-2.5
 21
0.0
 31
0.0
  0
LINE
  5
FB
330
F6
100
AcDbEntity
  8
0
  6
Continuous
 62
     0
370
    18
100
AcDbLine
 10
0.0
 20
0.0
 30
0.0
 11
0.0
 21
-2.5
 31
0.0
  0
LINE
  5
FC
330
F6
100
AcDbEntity
  8
0
  6
Continuous
 62
     0
370
    18
100
AcDbLine
 10
0.0
 20
0.0
 30
0.0
 11
2.5
 21
0.0
 31
0.0
  0
LINE
  5
FD
330
F6
100
AcDbEntity
  8
0
  6
Continuous
 62
     0
370
    18
100
AcDbLine
 10
0.0
 20
5.0
 30
0.0
 11
0.0
 21
9.25
 31
0.0
  0
LINE
  5
FE
330
F6
100
AcDbEntity
  8
0
  6
Continuous
 62
     0
370
    18
100
AcDbLine
 10
-5.0
 20
0.0
 30
0.0
 11
-9.25
 21
0.0
 31
0.0
  0
LINE
  5
FF
330
F6
100
AcDbEntity
  8
0
  6
Continuous
 62
     0
370
    18
100
AcDbLine
 10
0.0
 20
-5.0
 30
0.0
 11
0.0
 21
-9.25
 31
0.0
  0
LINE
  5
100
330
F6
100
AcDbEntity
  8
0
  6
Continuous
 62
     0
370
    18
100
AcDbLine
 10
5.0
 20
0.0
 30
0.0
 11
9.25
 21
0.0
 31
0.0
  0
ENDBLK
  5
F8
330
F6
100
AcDbEntity
  8
0
100
AcDbBlockEnd
  0
ENDSEC
  0
SECTION
  2
ENTITIES
  0
MTEXT
  5
74
330
1F
100
AcDbEntity
  8
0
  6
Continuous
 62
     7
370
     0
100
AcDbMText
 10
77.3835097328
 20
57.4851419746
 30
0.0
 40
2.1166666667
 41
0.0
 71
     1
 72
     1
  1
エースニップル　HN-8212
  7
SLDTEXTSTYLE0
 73
     1
 44
1.0
  0
LINE
  5
75
330
1F
100
AcDbEntity
  8
0
  6
Continuous
 62
     7
370
    25
100
AcDbLine
 10
58.526858468
 20
35.2114219694
 30
0.0
 11
59.2964108176
 21
36.544325738
 31
0.0
  0
LINE
  5
76
330
1F
100
AcDbEntity
  8
0
  6
Continuous
 62
     7
370
    25
100
AcDbLine
 10
59.2964108176
 20
50.044325738
 30
0.0
 11
58.526858468
 21
51.3772295067
 31
0.0
  0
LINE
  5
77
330
1F
100
AcDbEntity
  8
0
  6
Continuous
 62
     7
370
    25
100
AcDbLine
 10
55.0659631673
 20
51.3772295067
 30
0.0
 11
54.2964108176
 21
50.044325738
 31
0.0
  0
LINE
  5
78
330
1F
100
AcDbEntity
  8
0
  6
Continuous
 62
     7
370
    25
100
AcDbLine
 10
54.2964108176
 20
36.544325738
 30
0.0
 11
55.0659631673
 21
35.2114219694
 31
0.0
  0
LINE
  5
79
330
1F
100
AcDbEntity
  8
0
  6
Continuous
 62
     7
370
    25
100
AcDbLine
 10
54.2964108176
 20
50.060013238
 30
0.0
 11
44.3851984714
 21
49.7502878522
 31
0.0
  0
LINE
  5
7A
330
1F
100
AcDbEntity
  8
0
  6
Continuous
 62
     7
370
    25
100
AcDbLine
 10
44.3851984714
 20
36.8383636239
 30
0.0
 11
54.2964108176
 21
36.528638238
 31
0.0
  0
LINE
  5
7B
330
1F
100
AcDbEntity
  8
0
  6
Continuous
 62
     7
370
    25
100
AcDbLine
 10
44.3851984714
 20
49.7502878522
 30
0.0
 11
42.2964108176
 21
48.544325738
 31
0.0
  0
LINE
  5
7C
330
1F
100
AcDbEntity
  8
0
  6
Continuous
 62
     7
370
    25
100
AcDbLine
 10
42.2964108176
 20
38.044325738
 30
0.0
 11
44.3851984714
 21
36.8383636239
 31
0.0
  0
LINE
  5
7D
330
1F
100
AcDbEntity
  8
0
  6
Continuous
 62
     7
370
    25
100
AcDbLine
 10
67.7964108176
 20
37.294325738
 30
0.0
 11
72.2964108176
 21
38.044325738
 31
0.0
  0
LINE
  5
7E
330
1F
100
AcDbEntity
  8
0
  6
Continuous
 62
     7
370
    25
100
AcDbLine
 10
72.2964108176
 20
48.544325738
 30
0.0
 11
67.7964108176
 21
49.294325738
 31
0.0
  0
LINE
  5
7F
330
1F
100
AcDbEntity
  8
0
  6
Continuous
 62
     7
370
    25
100
AcDbLine
 10
76.7964108176
 20
37.294325738
 30
0.0
 11
81.86396742
 21
37.9853561838
 31
0.0
  0
LINE
  5
80
330
1F
100
AcDbEntity
  8
0
  6
Continuous
 62
     7
370
    25
100
AcDbLine
 10
81.86396742
 20
48.6032952923
 30
0.0
 11
76.7964108176
 21
49.294325738
 31
0.0
  0
LINE
  5
81
330
1F
100
AcDbEntity
  8
0
  6
Continuous
 62
     7
370
    25
100
AcDbLine
 10
72.2964108176
 20
37.294325738
 30
0.0
 11
76.7964108176
 21
38.044325738
 31
0.0
  0
LINE
  5
82
330
1F
100
AcDbEntity
  8
0
  6
Continuous
 62
     7
370
    25
100
AcDbLine
 10
76.7964108176
 20
48.544325738
 30
0.0
 11
72.2964108176
 21
49.294325738
 31
0.0
  0
LINE
  5
83
330
1F
100
AcDbEntity
  8
0
  6
Continuous
 62
     7
370
    25
100
AcDbLine
 10
63.2964108176
 20
37.294325738
 30
0.0
 11
67.7964108176
 21
38.044325738
 31
0.0
  0
LINE
  5
84
330
1F
100
AcDbEntity
  8
0
  6
Continuous
 62
     7
370
    25
100
AcDbLine
 10
67.7964108176
 20
48.544325738
 30
0.0
 11
63.2964108176
 21
49.294325738
 31
0.0
  0
LINE
  5
85
330
1F
100
AcDbEntity
  8
0
  6
Continuous
 62
     7
370
    25
100
AcDbLine
 10
63.2964108176
 20
49.294325738
 30
0.0
 11
59.2964108176
 21
49.294325738
 31
0.0
  0
LINE
  5
86
330
1F
100
AcDbEntity
  8
0
  6
Continuous
 62
     7
370
    25
100
AcDbLine
 10
59.2964108176
 20
37.294325738
 30
0.0
 11
63.2964108176
 21
37.294325738
 31
0.0
  0
ARC
  5
87
330
1F
100
AcDbEntity
  8
0
  6
Continuous
 62
     7
370
    25
100
AcDbCircle
 10
81.7964108176
 20
48.1078802082
 30
0.0
 40
0.5
100
AcDbArc
 50
0.0
 51
82.2348339816
  0
ARC
  5
88
330
1F
100
AcDbEntity
  8
0
  6
Continuous
 62
     7
370
    25
100
AcDbCircle
 10
81.7964108176
 20
38.4807712678
 30
0.0
 40
0.5
100
AcDbArc
 50
277.7651660184
 51
0.0
  0
LINE
  5
89
330
1F
100
AcDbEntity
  8
0
  6
Continuous
 62
     7
370
    25
100
AcDbLine
 10
56.8767955754
 20
51.3772295067
 30
0.0
 11
56.7964108176
 21
51.0772295067
 31
0.0
  0
LINE
  5
8A
330
1F
100
AcDbEntity
  8
0
  6
Continuous
 62
     7
370
    25
100
AcDbLine
 10
56.7964108176
 20
51.0772295067
 30
0.0
 11
56.7160260599
 21
51.3772295067
 31
0.0
  0
LINE
  5
8B
330
1F
100
AcDbEntity
  8
0
  6
Continuous
 62
     7
370
    25
100
AcDbLine
 10
56.7160260599
 20
35.2114219694
 30
0.0
 11
56.7964108176
 21
35.5114219694
 31
0.0
  0
LINE
  5
8C
330
1F
100
AcDbEntity
  8
0
  6
Continuous
 62
     7
370
    25
100
AcDbLine
 10
56.7964108176
 20
35.5114219694
 30
0.0
 11
56.8767955754
 21
35.2114219694
 31
0.0
  0
SPLINE
  5
8D
330
1F
100
AcDbEntity
  8
0
  6
Continuous
 62
     7
370
    25
100
AcDbSpline
210
0.0
220
0.0
230
1.0
 70
     8
 71
     3
 72
     8
 73
     4
 74
     0
 42
0.000000001
 43
0.00000001
 40
0.0
 40
0.0
 40
0.0
 40
0.0
 40
1.0
 40
1.0
 40
1.0
 40
1.0
 10
56.79641081764841
 20
46.69632383800148
 30
0.0
 10
56.77141114565418
 20
46.90977054159178
 30
0.0
 10
56.7445449048672
 20
47.12291006572838
 30
0.0
 10
56.71602605991907
 20
47.33577762236753
 30
0.0
  0
SPLINE
  5
8E
330
1F
100
AcDbEntity
  8
0
  6
Continuous
 62
     7
370
    25
100
AcDbSpline
210
0.0
220
0.0
230
1.0
 70
     8
 71
     3
 72
     8
 73
     4
 74
     0
 42
0.000000001
 43
0.00000001
 40
0.0
 40
0.0
 40
0.0
 40
0.0
 40
1.0
 40
1.0
 40
1.0
 40
1.0
 10
56.71602605991907
 20
47.33577762236753
 30
0.0
 10
56.74455987475717
 20
47.44226726907706
 30
0.0
 10
56.77142479656396
 20
47.54883943835384
 30
0.0
 10
56.79641081764841
 20
47.65550451455056
 30
0.0
  0
LINE
  5
8F
330
1F
100
AcDbEntity
  8
0
  6
Continuous
 62
     7
370
    25
100
AcDbLine
 10
56.7964108176
 20
46.696323838
 30
0.0
 11
56.7964108176
 21
47.6555045146
 31
0.0
  0
LINE
  5
90
330
1F
100
AcDbEntity
  8
0
  6
Continuous
 62
     7
370
    25
100
AcDbLine
 10
56.7160260599
 20
39.2528738537
 30
0.0
 11
55.0659631673
 21
39.2528738537
 31
0.0
  0
SPLINE
  5
91
330
1F
100
AcDbEntity
  8
0
  6
Continuous
 62
     7
370
    25
100
AcDbSpline
210
0.0
220
0.0
230
1.0
 70
     8
 71
     3
 72
    14
 73
    10
 74
     0
 42
0.000000001
 43
0.00000001
 40
0.0
 40
0.0
 40
0.0
 40
0.0
 40
0.2500000000000001
 40
0.2500000000000001
 40
0.5000000000000001
 40
0.5000000000000001
 40
0.7500000000000002
 40
0.7500000000000002
 40
1.0
 40
1.0
 40
1.0
 40
1.0
 10
55.06596316728507
 20
39.25287385371276
 30
0.0
 10
54.87611865208684
 20
39.91051454543598
 30
0.0
 10
54.71695202667454
 20
40.58391106369682
 30
0.0
 10
54.49936575747192
 20
41.93358927757755
 30
0.0
 10
54.44067709204308
 20
42.6123128590912
 30
0.0
 10
54.44081981008773
 20
43.97887105850613
 30
0.0
 10
54.50121117009825
 20
44.67136887914155
 30
0.0
 10
54.72031985189395
 20
46.02065373594836
 30
0.0
 10
54.87737049233112
 20
46.68247343245631
 30
0.0
 10
55.0659631672851
 20
47.33577762236753
 30
0.0
  0
LINE
  5
92
330
1F
100
AcDbEntity
  8
0
  6
Continuous
 62
     7
370
    25
100
AcDbLine
 10
56.7160260599
 20
47.3357776224
 30
0.0
 11
55.0659631673
 21
47.3357776224
 31
0.0
  0
SPLINE
  5
93
330
1F
100
AcDbEntity
  8
0
  6
Continuous
 62
     7
370
    25
100
AcDbSpline
210
0.0
220
0.0
230
1.0
 70
     8
 71
     3
 72
     8
 73
     4
 74
     0
 42
0.000000001
 43
0.00000001
 40
0.0
 40
0.0
 40
0.0
 40
0.0
 40
1.0
 40
1.0
 40
1.0
 40
1.0
 10
56.87679557537774
 20
47.33577762236753
 30
0.0
 10
56.84825944506211
 20
47.12278104598877
 30
0.0
 10
56.82139472987868
 20
46.90963598503981
 30
0.0
 10
56.79641081764841
 20
46.69632383800148
 30
0.0
  0
LINE
  5
94
330
1F
100
AcDbEntity
  8
0
  6
Continuous
 62
     7
370
    25
100
AcDbLine
 10
58.526858468
 20
47.3357776224
 30
0.0
 11
56.8767955754
 21
47.3357776224
 31
0.0
  0
SPLINE
  5
95
330
1F
100
AcDbEntity
  8
0
  6
Continuous
 62
     7
370
    25
100
AcDbSpline
210
0.0
220
0.0
230
1.0
 70
     8
 71
     3
 72
    14
 73
    10
 74
     0
 42
0.000000001
 43
0.00000001
 40
0.0
 40
0.0
 40
0.0
 40
0.0
 40
0.2500000000000001
 40
0.2500000000000001
 40
0.5000000000000001
 40
0.5000000000000001
 40
0.7500000000000002
 40
0.7500000000000002
 40
1.0
 40
1.0
 40
1.0
 40
1.0
 10
58.52685846801174
 20
39.25287385371276
 30
0.0
 10
58.71670298320997
 20
39.91051454543598
 30
0.0
 10
58.87586960862227
 20
40.58391106369682
 30
0.0
 10
59.09345587782489
 20
41.93358927757755
 30
0.0
 10
59.15214454325373
 20
42.6123128590912
 30
0.0
 10
59.15200182520908
 20
43.97887105850613
 30
0.0
 10
59.09161046519856
 20
44.67136887914155
 30
0.0
 10
58.87250178340287
 20
46.02065373594836
 30
0.0
 10
58.71545114296569
 20
46.68247343245631
 30
0.0
 10
58.52685846801172
 20
47.33577762236753
 30
0.0
  0
LINE
  5
96
330
1F
100
AcDbEntity
  8
0
  6
Continuous
 62
     7
370
    25
100
AcDbLine
 10
58.526858468
 20
39.2528738537
 30
0.0
 11
56.8767955754
 21
39.2528738537
 31
0.0
  0
SPLINE
  5
97
330
1F
100
AcDbEntity
  8
0
  6
Continuous
 62
     7
370
    25
100
AcDbSpline
210
0.0
220
0.0
230
1.0
 70
     8
 71
     3
 72
     8
 73
     4
 74
     0
 42
0.000000001
 43
0.00000001
 40
0.0
 40
0.0
 40
0.0
 40
0.0
 40
1.0
 40
1.0
 40
1.0
 40
1.0
 10
56.79641081764841
 20
39.89232763807881
 30
0.0
 10
56.82141048964264
 20
39.6788809344885
 30
0.0
 10
56.84827673042962
 20
39.4657414103519
 30
0.0
 10
56.87679557537774
 20
39.25287385371277
 30
0.0
  0
SPLINE
  5
98
330
1F
100
AcDbEntity
  8
0
  6
Continuous
 62
     7
370
    25
100
AcDbSpline
210
0.0
220
0.0
230
1.0
 70
     8
 71
     3
 72
     8
 73
     4
 74
     0
 42
0.000000001
 43
0.00000001
 40
0.0
 40
0.0
 40
0.0
 40
0.0
 40
1.0
 40
1.0
 40
1.0
 40
1.0
 10
56.71602605991907
 20
39.25287385371276
 30
0.0
 10
56.74456219023472
 20
39.46587043009153
 30
0.0
 10
56.77142690541813
 20
39.67901549104049
 30
0.0
 10
56.79641081764841
 20
39.89232763807881
 30
0.0
  0
LINE
  5
99
330
1F
100
AcDbEntity
  8
0
  6
Continuous
 62
     7
370
    25
100
AcDbLine
 10
56.7503771638
 20
42.6969793376
 30
0.0
 11
57.4348723561
 21
42.2492629915
 31
0.0
  0
SPLINE
  5
9A
330
1F
100
AcDbEntity
  8
0
  6
Continuous
 62
     7
370
    25
100
AcDbSpline
210
0.0
220
0.0
230
1.0
 70
     8
 71
     3
 72
    19
 73
    15
 74
     0
 42
0.000000001
 43
0.00000001
 40
0.0
 40
0.0
 40
0.0
 40
0.0
 40
0.0978059775289525
 40
0.1996122522918966
 40
0.3052960258330041
 40
0.4158173591641854
 40
0.474240566618493
 40
0.5372869128296534
 40
0.6033858352934854
 40
0.6743111580696056
 40
0.749530467357482
 40
0.8286083142695116
 40
0.9120427387714447
 40
0.9999999999999999
 40
0.9999999999999999
 40
0.9999999999999999
 40
0.9999999999999999
 10
56.31468004841764
 20
42.86464760685243
 30
0.0
 10
56.33012210238096
 20
42.86410398615193
 30
0.0
 10
56.36163779548592
 20
42.86299451048223
 30
0.0
 10
56.40950726954832
 20
42.85637328750924
 30
0.0
 10
56.45829608273062
 20
42.8442291556102
 30
0.0
 10
56.49965564837664
 20
42.83108655064066
 30
0.0
 10
56.53390886218184
 20
42.81804511919562
 30
0.0
 10
56.5609577202889
 20
42.8059528038789
 30
0.0
 10
56.58952218296617
 20
42.79243212193943
 30
0.0
 10
56.61906178247177
 20
42.7765839998202
 30
0.0
 10
56.65042052914469
 20
42.75978371142051
 30
0.0
 10
56.68243711286137
 20
42.74015906807217
 30
0.0
 10
56.716280878121
 20
42.71968045119182
 30
0.0
 10
56.73881353132271
 20
42.70467833852327
 30
0.0
 10
56.75037716380226
 20
42.69697933762166
 30
0.0
  0
SPLINE
  5
9B
330
1F
100
AcDbEntity
  8
0
  6
Continuous
 62
     7
370
    25
100
AcDbSpline
210
0.0
220
0.0
230
1.0
 70
     8
 71
     3
 72
    19
 73
    15
 74
     0
 42
0.000000001
 43
0.00000001
 40
0.0
 40
0.0
 40
0.0
 40
0.0
 40
0.0843261511037433
 40
0.1670353409858406
 40
0.2495407139852792
 40
0.3327066655796642
 40
0.4158726171740492
 40
0.4977774155681174
 40
0.5803136056784763
 40
0.6645325781316563
 40
0.7495711764063215
 40
0.8324741628544073
 40
0.9156738488962566
 40
1.0
 40
1.0
 40
1.0
 40
1.0
 10
55.85794927918686
 20
42.41032068377551
 30
0.0
 10
55.85860422285202
 20
42.43050498794724
 30
0.0
 10
55.85990155158105
 20
42.47048656051707
 30
0.0
 10
55.87145840628389
 20
42.52930055826541
 30
0.0
 10
55.89018993019804
 20
42.58581349548375
 30
0.0
 10
55.91599639424557
 20
42.63962813318918
 30
0.0
 10
55.94859134767708
 20
42.68948284217103
 30
0.0
 10
55.98783705106523
 20
42.73407127559457
 30
0.0
 10
56.03286612931461
 20
42.77323830093613
 30
0.0
 10
56.08381671515581
 20
42.80566166827604
 30
0.0
 10
56.13821385639361
 20
42.83208680065994
 30
0.0
 10
56.19545146513826
 20
42.85072482865687
 30
0.0
 10
56.25437761180072
 20
42.86277809001226
 30
0.0
 10
56.29448933077658
 20
42.8640216472932
 30
0.0
 10
56.31468004841764
 20
42.86464760685243
 30
0.0
  0
SPLINE
  5
9C
330
1F
100
AcDbEntity
  8
0
  6
Continuous
 62
     7
370
    25
100
AcDbSpline
210
0.0
220
0.0
230
1.0
 70
     8
 71
     3
 72
    19
 73
    15
 74
     0
 42
0.000000001
 43
0.00000001
 40
0.0
 40
0.0
 40
0.0
 40
0.0
 40
0.0859901205637198
 40
0.1691084375726415
 40
0.2505285789581879
 40
0.332255696176845
 40
0.4135763652356403
 40
0.4941261456201216
 40
0.576305934120417
 40
0.6607126719045473
 40
0.7461272722239103
 40
0.8300149859609743
 40
0.9144197259288509
 40
1.0
 40
1.0
 40
1.0
 40
1.0
 10
56.31738437534072
 20
41.9415706837755
 30
0.0
 10
56.29640555205459
 20
41.94235348177865
 30
0.0
 10
56.25514853316951
 20
41.9438929347574
 30
0.0
 10
56.19480678402776
 20
41.95509949859067
 30
0.0
 10
56.13778188880692
 20
41.97443952388684
 30
0.0
 10
56.08384974908394
 20
42.00031415856719
 30
0.0
 10
56.03457952361822
 20
42.03388446251986
 30
0.0
 10
55.99005245158794
 20
42.07366711837535
 30
0.0
 10
55.95124056718653
 20
42.12003818344982
 30
0.0
 10
55.91794546832877
 20
42.17189958068598
 30
0.0
 10
55.89149255421107
 20
42.22802971848301
 30
0.0
 10
55.87193537487001
 20
42.28688400400886
 30
0.0
 10
55.86024946319013
 20
42.34795938259057
 30
0.0
 10
55.85871953393809
 20
42.38943796810506
 30
0.0
 10
55.85794927918686
 20
42.41032068377551
 30
0.0
  0
SPLINE
  5
9D
330
1F
100
AcDbEntity
  8
0
  6
Continuous
 62
     7
370
    25
100
AcDbSpline
210
0.0
220
0.0
230
1.0
 70
     8
 71
     3
 72
    23
 73
    19
 74
     0
 42
0.000000001
 43
0.00000001
 40
0.0
 40
0.0
 40
0.0
 40
0.0
 40
0.0652308037420294
 40
0.1284048960032227
 40
0.1900670715964781
 40
0.25094336576828
 40
0.3115458328521431
 40
0.3728628021568291
 40
0.4350236738562383
 40
0.4990717247070431
 40
0.563091075049662
 40
0.625510106330375
 40
0.6866800359296492
 40
0.7472825030135124
 40
0.8085634952159588
 40
0.8707421035159856
 40
0.9343409515059125
 40
1.0
 40
1.0
 40
1.0
 40
1.0
 10
56.76179543303302
 20
42.38658270300628
 30
0.0
 10
56.76138567087769
 20
42.37133734743406
 30
0.0
 10
56.76057906626878
 20
42.34132731866723
 30
0.0
 10
56.75437170168656
 20
42.29726726059265
 30
0.0
 10
56.74458951086215
 20
42.25492914517558
 30
0.0
 10
56.73032997259864
 20
42.21448845420898
 30
0.0
 10
56.71211467787194
 20
42.17580003341202
 30
0.0
 10
56.69028373346602
 20
42.13864186365122
 30
0.0
 10
56.66370987045597
 20
42.10371243074856
 30
0.0
 10
56.63402488940575
 20
42.07056192537203
 30
0.0
 10
56.60114618176497
 20
42.04046459791791
 30
0.0
 10
56.56625989460524
 20
42.01381771696468
 30
0.0
 10
56.52940237417744
 20
41.99143480622149
 30
0.0
 10
56.49059228877744
 20
41.97327455410096
 30
0.0
 10
56.44988946325149
 20
41.95917246327329
 30
0.0
 10
56.40734597489933
 20
41.94889204396889
 30
0.0
 10
56.3629324871307
 20
41.94281507561752
 30
0.0
 10
56.33272755487376
 20
41.94198986531106
 30
0.0
 10
56.31738437534072
 20
41.9415706837755
 30
0.0
  0
SPLINE
  5
9E
330
1F
100
AcDbEntity
  8
0
  6
Continuous
 62
     7
370
    25
100
AcDbSpline
210
0.0
220
0.0
230
1.0
 70
     8
 71
     3
 72
     9
 73
     5
 74
     0
 42
0.000000001
 43
0.00000001
 40
0.0
 40
0.0
 40
0.0
 40
0.0
 40
0.5126593363417812
 40
1.0
 40
1.0
 40
1.0
 40
1.0
 10
56.74737235610994
 20
42.54193126069858
 30
0.0
 10
56.75157829639006
 20
42.5155439991343
 30
0.0
 10
56.75978245845628
 20
42.46407266194462
 30
0.0
 10
56.76113586364846
 20
42.41197299114845
 30
0.0
 10
56.76179543303302
 20
42.38658270300628
 30
0.0
  0
LINE
  5
9F
330
1F
100
AcDbEntity
  8
0
  6
Continuous
 62
     7
370
    25
100
AcDbLine
 10
57.3534420676
 20
42.1455971261
 30
0.0
 11
56.7473723561
 21
42.5419312607
 31
0.0
  0
LINE
  5
A0
330
1F
100
AcDbEntity
  8
0
  6
Continuous
 62
     7
370
    25
100
AcDbLine
 10
57.4348723561
 20
42.2492629915
 30
0.0
 11
57.3534420676
 21
42.1455971261
 31
0.0
  0
LINE
  5
A1
330
1F
100
AcDbEntity
  8
0
  6
Continuous
 62
     7
370
    25
100
AcDbLine
 10
57.2425646638
 20
43.5930300118
 30
0.0
 11
57.3964108176
 21
43.5049891464
 31
0.0
  0
LINE
  5
A2
330
1F
100
AcDbEntity
  8
0
  6
Continuous
 62
     7
370
    25
100
AcDbLine
 10
57.2425646638
 20
43.362260781
 30
0.0
 11
57.2425646638
 21
43.5930300118
 31
0.0
  0
LINE
  5
A3
330
1F
100
AcDbEntity
  8
0
  6
Continuous
 62
     7
370
    25
100
AcDbLine
 10
55.8964108176
 20
43.362260781
 30
0.0
 11
57.2425646638
 21
43.362260781
 31
0.0
  0
LINE
  5
A4
330
1F
100
AcDbEntity
  8
0
  6
Continuous
 62
     7
370
    25
100
AcDbLine
 10
55.8964108176
 20
43.2276453964
 30
0.0
 11
55.8964108176
 21
43.362260781
 31
0.0
  0
LINE
  5
A5
330
1F
100
AcDbEntity
  8
0
  6
Continuous
 62
     7
370
    25
100
AcDbLine
 10
57.3964108176
 20
43.2276453964
 30
0.0
 11
55.8964108176
 21
43.2276453964
 31
0.0
  0
LINE
  5
A6
330
1F
100
AcDbEntity
  8
0
  6
Continuous
 62
     7
370
    25
100
AcDbLine
 10
57.3964108176
 20
43.5049891464
 30
0.0
 11
57.3964108176
 21
43.2276453964
 31
0.0
  0
SPLINE
  5
A7
330
1F
100
AcDbEntity
  8
0
  6
Continuous
 62
     7
370
    25
100
AcDbSpline
210
0.0
220
0.0
230
1.0
 70
     8
 71
     3
 72
    19
 73
    15
 74
     0
 42
0.000000001
 43
0.00000001
 40
0.0
 40
0.0
 40
0.0
 40
0.0
 40
0.1227280999764553
 40
0.239716523588393
 40
0.3518621792202463
 40
0.4632019818032239
 40
0.5202611541541643
 40
0.5794324380306665
 40
0.6405963441586369
 40
0.70529822908802
 40
0.7732361059084537
 40
0.844648929340316
 40
0.9200459817773698
 40
1.0
 40
1.0
 40
1.0
 40
1.0
 10
57.28102620226379
 20
44.42036783266068
 30
0.0
 10
57.28043106091601
 20
44.43744768334594
 30
0.0
 10
57.27926861144469
 20
44.47080860419835
 30
0.0
 10
57.26905120456453
 20
44.51889284780557
 30
0.0
 10
57.25286277663295
 20
44.56354751683462
 30
0.0
 10
57.23331529791974
 20
44.5975653669129
 30
0.0
 10
57.21408581555696
 20
44.62272797170454
 30
0.0
 10
57.1975426919099
 20
44.64105367368941
 30
0.0
 10
57.17878617803471
 20
44.65872152761182
 30
0.0
 10
57.15730180386495
 20
44.67503823086098
 30
0.0
 10
57.13382833007226
 20
44.69098151484783
 30
0.0
 10
57.10823647350324
 20
44.70639914504211
 30
0.0
 10
57.08016137087338
 20
44.720795906805
 30
0.0
 10
57.0604181494964
 20
44.72955945141532
 30
0.0
 10
57.05025697149456
 20
44.7340697557376
 30
0.0
  0
SPLINE
  5
A8
330
1F
100
AcDbEntity
  8
0
  6
Continuous
 62
     7
370
    25
100
AcDbSpline
210
0.0
220
0.0
230
1.0
 70
     8
 71
     3
 72
    23
 73
    19
 74
     0
 42
0.000000001
 43
0.00000001
 40
0.0
 40
0.0
 40
0.0
 40
0.0
 40
0.0552698294993248
 40
0.1099567044850938
 40
0.1632335040550556
 40
0.2180575651623568
 40
0.2732775387226747
 40
0.330881045495497
 40
0.3904799376860887
 40
0.4536559730386417
 40
0.5189026226022311
 40
0.5833461108214766
 40
0.6485466930814431
 40
0.7150552190344909
 40
0.7825206438000536
 40
0.852335294426451
 40
0.9249348997257087
 40
0.9999999999999999
 40
0.9999999999999999
 40
0.9999999999999999
 40
0.9999999999999999
 10
57.0457497599561
 20
44.11868514035299
 30
0.0
 10
57.05358309813448
 20
44.11886272437449
 30
0.0
 10
57.06916715292559
 20
44.11921601936294
 30
0.0
 10
57.09193476318097
 20
44.12367229895079
 30
0.0
 10
57.11400762865098
 20
44.13036718396448
 30
0.0
 10
57.13528559578762
 20
44.13957712088646
 30
0.0
 10
57.15564515737206
 20
44.15188199116649
 30
0.0
 10
57.17511129059903
 20
44.1666519346274
 30
0.0
 10
57.19401022770236
 20
44.18389408001272
 30
0.0
 10
57.21143782040596
 20
44.20405905037207
 30
0.0
 10
57.22787650309835
 20
44.22588978142504
 30
0.0
 10
57.24208713277535
 20
44.24959168660898
 30
0.0
 10
57.25413205299281
 20
44.27464199147266
 30
0.0
 10
57.26408372476287
 20
44.30106373155397
 30
0.0
 10
57.27156497113167
 20
44.32896275148772
 30
0.0
 10
57.27693784038537
 20
44.35820244268847
 30
0.0
 10
57.28029673347906
 20
44.38884009426702
 30
0.0
 10
57.28078035439774
 20
44.40974225502443
 30
0.0
 10
57.28102620226379
 20
44.42036783266068
 30
0.0
  0
SPLINE
  5
A9
330
1F
100
AcDbEntity
  8
0
  6
Continuous
 62
     7
370
    25
100
AcDbSpline
210
0.0
220
0.0
230
1.0
 70
     8
 71
     3
 72
    19
 73
    15
 74
     0
 42
0.000000001
 43
0.00000001
 40
0.0
 40
0.0
 40
0.0
 40
0.0
 40
0.1101423815503176
 40
0.2157418685830274
 40
0.3179605426392306
 40
0.4180517606815226
 40
0.5115631470355316
 40
0.5965727584443461
 40
0.6733290469034968
 40
0.7440491927238595
 40
0.8107168223002833
 40
0.8740854521098849
 40
0.9367096168966699
 40
1.0
 40
1.0
 40
1.0
 40
1.0
 10
56.80025697149456
 20
44.50330052496837
 30
0.0
 10
56.80057326046316
 20
44.4847433954362
 30
0.0
 10
56.80119279285512
 20
44.44839453730861
 30
0.0
 10
56.80863403996572
 20
44.39528975783
 30
0.0
 10
56.8190433657856
 20
44.34444820819837
 30
0.0
 10
56.83461953742707
 20
44.29703040412356
 30
0.0
 10
56.85331538912708
 20
44.2539516860253
 30
0.0
 10
56.87439632724967
 20
44.21637225067229
 30
0.0
 10
56.89828008429049
 20
44.18518271598163
 30
0.0
 10
56.92465320883871
 20
44.16030515768018
 30
0.0
 10
56.95326899823022
 20
44.14204591322826
 30
0.0
 10
56.98278192559103
 20
44.12834054177284
 30
0.0
 10
57.01387865879303
 20
44.12030589772003
 30
0.0
 10
57.03508865196095
 20
44.11922729511681
 30
0.0
 10
57.0457497599561
 20
44.11868514035299
 30
0.0
  0
LINE
  5
AA
330
1F
100
AcDbEntity
  8
0
  6
Continuous
 62
     7
370
    25
100
AcDbLine
 10
56.6464108176
 20
44.503300525
 30
0.0
 11
56.8002569715
 21
44.503300525
 31
0.0
  0
SPLINE
  5
AB
330
1F
100
AcDbEntity
  8
0
  6
Continuous
 62
     7
370
    25
100
AcDbSpline
210
0.0
220
0.0
230
1.0
 70
     8
 71
     3
 72
    23
 73
    19
 74
     0
 42
0.000000001
 43
0.00000001
 40
0.0
 40
0.0
 40
0.0
 40
0.0
 40
0.0669051223273616
 40
0.1334773340846825
 40
0.2010229080576287
 40
0.2712178684297488
 40
0.3428591616573978
 40
0.4138109980627169
 40
0.4855518488903453
 40
0.5598002749200529
 40
0.5998999649035781
 40
0.6436094423977958
 40
0.6919106424505659
 40
0.7447030291556902
 40
0.8015038302285953
 40
0.8628660266331954
 40
0.9293326711591618
 40
1.0
 40
1.0
 40
1.0
 40
1.0
 10
56.32910312534072
 20
44.04176206342991
 30
0.0
 10
56.34307942922326
 20
44.04241789529493
 30
0.0
 10
56.37096249284686
 20
44.04372629569695
 30
0.0
 10
56.41198407380691
 20
44.05371586132202
 30
0.0
 10
56.45150931617891
 20
44.07014612277177
 30
0.0
 10
56.48885818238296
 20
44.09315129316504
 30
0.0
 10
56.52349025039828
 20
44.12114212683286
 30
0.0
 10
56.55426966935482
 20
44.15384767409931
 30
0.0
 10
56.57992254014689
 20
44.19134816158814
 30
0.0
 10
56.59758101438264
 20
44.22608502277285
 30
0.0
 10
56.60934964484831
 20
44.25692802452783
 30
0.0
 10
56.61760158821328
 20
44.28327039850995
 30
0.0
 10
56.62419804551725
 20
44.31278757681709
 30
0.0
 10
56.63057880624089
 20
44.34512521215396
 30
0.0
 10
56.63592803110899
 20
44.38041968834893
 30
0.0
 10
56.64040821659827
 20
44.41870280349897
 30
0.0
 10
56.64398743744231
 20
44.45998995919307
 30
0.0
 10
56.64558669477665
 20
44.48857183000155
 30
0.0
 10
56.64641081764841
 20
44.50330052496837
 30
0.0
  0
SPLINE
  5
AC
330
1F
100
AcDbEntity
  8
0
  6
Continuous
 62
     7
370
    25
100
AcDbSpline
210
0.0
220
0.0
230
1.0
 70
     8
 71
     3
 72
    23
 73
    19
 74
     0
 42
0.000000001
 43
0.00000001
 40
0.0
 40
0.0
 40
0.0
 40
0.0
 40
0.0760618905628339
 40
0.1487324608035359
 40
0.2183745247439722
 40
0.2857225935927383
 40
0.3510576941824569
 40
0.414934915729319
 40
0.4784859417740854
 40
0.542169035281216
 40
0.6047501165431387
 40
0.6641185017301124
 40
0.7214996756099116
 40
0.7776159163852547
 40
0.832666108697549
 40
0.8878580281135741
 40
0.9434676608977686
 40
1.0
 40
1.0
 40
1.0
 40
1.0
 10
56.01179543303302
 20
44.42367312112221
 30
0.0
 10
56.01205896314228
 20
44.40963571568642
 30
0.0
 10
56.01257427352118
 20
44.38218678116333
 30
0.0
 10
56.0173270025442
 20
44.34213735329963
 30
0.0
 10
56.02421860767008
 20
44.30402467618472
 30
0.0
 10
56.03499841803212
 20
44.26823768957307
 30
0.0
 10
56.04793058135649
 20
44.23428942039654
 30
0.0
 10
56.06486115662919
 20
44.20293769210247
 30
0.0
 10
56.08398150426496
 20
44.17326080261336
 30
0.0
 10
56.10622214598092
 20
44.14612814763907
 30
0.0
 10
56.13026187230565
 20
44.12166673246819
 30
0.0
 10
56.15576587956775
 20
44.1005293671154
 30
0.0
 10
56.1819433775707
 20
44.08222199125186
 30
0.0
 10
56.20940503442934
 20
44.06750591627085
 30
0.0
 10
56.23788147336624
 20
44.05586481025405
 30
0.0
 10
56.26747928194457
 20
44.04794481487114
 30
0.0
 10
56.29794922809643
 20
44.04243665627841
 30
0.0
 10
56.31866168542584
 20
44.04198815779748
 30
0.0
 10
56.32910312534072
 20
44.04176206342991
 30
0.0
  0
SPLINE
  5
AD
330
1F
100
AcDbEntity
  8
0
  6
Continuous
 62
     7
370
    25
100
AcDbSpline
210
0.0
220
0.0
230
1.0
 70
     8
 71
     3
 72
    15
 73
    11
 74
     0
 42
0.000000001
 43
0.00000001
 40
0.0
 40
0.0
 40
0.0
 40
0.0
 40
0.1182713048357256
 40
0.2361775330837632
 40
0.355662932948509
 40
0.4759041646706825
 40
0.6001273417110832
 40
0.7286081161551193
 40
0.8613134756739422
 40
1.0
 40
1.0
 40
1.0
 40
1.0
 10
56.09292524072533
 20
44.67427408266067
 30
0.0
 10
56.08645024048868
 20
44.66587554986418
 30
0.0
 10
56.07352022686676
 20
44.6491044086296
 30
0.0
 10
56.05701952892201
 20
44.62177516673027
 30
0.0
 10
56.04272194663567
 20
44.59303307269352
 30
0.0
 10
56.03180036275726
 20
44.56225535517028
 30
0.0
 10
56.02255279384762
 20
44.53010616783283
 30
0.0
 10
56.01650114279084
 20
44.49606586844777
 30
0.0
 10
56.01234906935804
 20
44.46043477539988
 30
0.0
 10
56.01198267014701
 20
44.43610573390713
 30
0.0
 10
56.01179543303302
 20
44.42367312112221
 30
0.0
  0
SPLINE
  5
AE
330
1F
100
AcDbEntity
  8
0
  6
Continuous
 62
     7
370
    25
100
AcDbSpline
210
0.0
220
0.0
230
1.0
 70
     8
 71
     3
 72
    15
 73
    11
 74
     0
 42
0.000000001
 43
0.00000001
 40
0.0
 40
0.0
 40
0.0
 40
0.0
 40
0.1497703860319681
 40
0.2913164099952446
 40
0.4259663731047426
 40
0.5521595739695285
 40
0.6715274135235928
 40
0.7861216286916589
 40
0.8953250730704446
 40
1.0
 40
1.0
 40
1.0
 40
1.0
 10
56.30025697149456
 20
44.79176206342991
 30
0.0
 10
56.28870739437942
 20
44.78825493852693
 30
0.0
 10
56.26624246368595
 20
44.78143327595926
 30
0.0
 10
56.23391090411101
 20
44.76982143394422
 30
0.0
 10
56.20427173844324
 20
44.75659217448545
 30
0.0
 10
56.17710754330982
 20
44.74240022078428
 30
0.0
 10
56.15215079939659
 20
44.72749517248882
 30
0.0
 10
56.13006142695342
 20
44.71081734743036
 30
0.0
 10
56.10986919743494
 20
44.69360199951009
 30
0.0
 10
56.09849293517485
 20
44.68062513378808
 30
0.0
 10
56.09292524072533
 20
44.67427408266067
 30
0.0
  0
LINE
  5
AF
330
1F
100
AcDbEntity
  8
0
  6
Continuous
 62
     7
370
    25
100
AcDbLine
 10
56.3002569715
 20
44.926377448
 30
0.0
 11
56.3002569715
 21
44.7917620634
 31
0.0
  0
SPLINE
  5
B0
330
1F
100
AcDbEntity
  8
0
  6
Continuous
 62
     7
370
    25
100
AcDbSpline
210
0.0
220
0.0
230
1.0
 70
     8
 71
     3
 72
    23
 73
    19
 74
     0
 42
0.000000001
 43
0.00000001
 40
0.0
 40
0.0
 40
0.0
 40
0.0
 40
0.0655411703374033
 40
0.1289631677825933
 40
0.1903771361885609
 40
0.2500923616690527
 40
0.308548432459201
 40
0.3663979630552958
 40
0.42454218926668
 40
0.4831699964229055
 40
0.5422433998311199
 40
0.6017393520173299
 40
0.6625060022496068
 40
0.7248555134488469
 40
0.7891278292811811
 40
0.8563463998785099
 40
0.9262952349869055
 40
1.0
 40
1.0
 40
1.0
 40
1.0
 10
55.85794927918686
 20
44.42607696727606
 30
0.0
 10
55.85832137058337
 20
44.44211381025455
 30
0.0
 10
55.8590535223736
 20
44.4736689695703
 30
0.0
 10
55.86405863717214
 20
44.5200590403073
 30
0.0
 10
55.87320006798834
 20
44.56433976860637
 30
0.0
 10
55.88550148457381
 20
44.60657102483066
 30
0.0
 10
55.90109794546545
 20
44.64679032614218
 30
0.0
 10
55.92052024461744
 20
44.68487494264692
 30
0.0
 10
55.94336803121109
 20
44.72105918272696
 30
0.0
 10
55.9699109974139
 20
44.75500159036034
 30
0.0
 10
55.99960300016679
 20
44.78669811937731
 30
0.0
 10
56.0329711472958
 20
44.81530642976165
 30
0.0
 10
56.06939860611911
 20
44.84130348387968
 30
0.0
 10
56.10930848734714
 20
44.86399318618462
 30
0.0
 10
56.15218502618047
 20
44.88440902301998
 30
0.0
 10
56.1985772397726
 20
44.90120086158311
 30
0.0
 10
56.2480703920536
 20
44.91598039099866
 30
0.0
 10
56.28256085212896
 20
44.92285187567555
 30
0.0
 10
56.30025697149456
 20
44.92637744804529
 30
0.0
  0
SPLINE
  5
B1
330
1F
100
AcDbEntity
  8
0
  6
Continuous
 62
     7
370
    25
100
AcDbSpline
210
0.0
220
0.0
230
1.0
 70
     8
 71
     3
 72
    19
 73
    15
 74
     0
 42
0.000000001
 43
0.00000001
 40
0.0
 40
0.0
 40
0.0
 40
0.0
 40
0.079641704194991
 40
0.1589086132578561
 40
0.2395997983184508
 40
0.3224093988203484
 40
0.405827748173513
 40
0.4876442139503137
 40
0.5697199979738974
 40
0.6530646649976934
 40
0.7374573001733065
 40
0.8224924079539125
 40
0.9097550737466981
 40
1.0
 40
1.0
 40
1.0
 40
1.0
 10
56.34202379841764
 20
43.90714667881452
 30
0.0
 10
56.32102046741431
 20
43.90791744952603
 30
0.0
 10
56.27911264741889
 20
43.90945536368978
 30
0.0
 10
56.21718238137622
 20
43.92314599339283
 30
0.0
 10
56.15674920731396
 20
43.94449259769305
 30
0.0
 10
56.09870854838896
 20
43.97427654139348
 30
0.0
 10
56.04451715802934
 20
44.01112710378312
 30
0.0
 10
55.99625057399279
 20
44.05521124932253
 30
0.0
 10
55.95448246774544
 20
44.1054572994651
 30
0.0
 10
55.91969676148889
 20
44.16153640383595
 30
0.0
 10
55.89186969741158
 20
44.22226698298424
 30
0.0
 10
55.87256075176761
 20
44.28722940210395
 30
0.0
 10
55.85998351693987
 20
44.35547902994044
 30
0.0
 10
55.85863491096791
 20
44.40228221199625
 30
0.0
 10
55.85794927918686
 20
44.42607696727606
 30
0.0
  0
SPLINE
  5
B2
330
1F
100
AcDbEntity
  8
0
  6
Continuous
 62
     7
370
    25
100
AcDbSpline
210
0.0
220
0.0
230
1.0
 70
     8
 71
     3
 72
    15
 73
    11
 74
     0
 42
0.000000001
 43
0.00000001
 40
0.0
 40
0.0
 40
0.0
 40
0.0
 40
0.1281455049994643
 40
0.2541925386280419
 40
0.3781411397135888
 40
0.5013808330744057
 40
0.6239569784447038
 40
0.7470758858273289
 40
0.8728647202442611
 40
1.0
 40
1.0
 40
1.0
 40
1.0
 10
56.60855024072533
 20
43.99668994804529
 30
0.0
 10
56.59866940030032
 20
43.98946929185774
 30
0.0
 10
56.57906952505366
 20
43.9751462227272
 30
0.0
 10
56.54753852848808
 20
43.95751677406327
 30
0.0
 10
56.51576242925258
 20
43.94134056664218
 30
0.0
 10
56.48249183210874
 20
43.92943534623208
 30
0.0
 10
56.44879544748822
 20
43.91916161279401
 30
0.0
 10
56.41395170112231
 20
43.91240183828168
 30
0.0
 10
56.37829163809474
 20
43.90806233343599
 30
0.0
 10
56.35415590728574
 20
43.90745297832539
 30
0.0
 10
56.34202379841764
 20
43.90714667881452
 30
0.0
  0
SPLINE
  5
B3
330
1F
100
AcDbEntity
  8
0
  6
Continuous
 62
     7
370
    25
100
AcDbSpline
210
0.0
220
0.0
230
1.0
 70
     8
 71
     3
 72
    11
 73
     7
 74
     0
 42
0.000000001
 43
0.00000001
 40
0.0
 40
0.0
 40
0.0
 40
0.0
 40
0.253879600326656
 40
0.5030089172783633
 40
0.7502910806899731
 40
1.0
 40
1.0
 40
1.0
 40
1.0
 10
56.73655504841764
 20
44.15925004419913
 30
0.0
 10
56.728850117757
 20
44.14329357795342
 30
0.0
 10
56.71358442163834
 20
44.11167920326747
 30
0.0
 10
56.68364623984524
 20
44.06858611918195
 30
0.0
 10
56.64907923383642
 20
44.02946702974325
 30
0.0
 10
56.62210381115919
 20
44.00765115017019
 30
0.0
 10
56.60855024072533
 20
43.99668994804529
 30
0.0
  0
SPLINE
  5
B4
330
1F
100
AcDbEntity
  8
0
  6
Continuous
 62
     7
370
    25
100
AcDbSpline
210
0.0
220
0.0
230
1.0
 70
     8
 71
     3
 72
    15
 73
    11
 74
     0
 42
0.000000001
 43
0.00000001
 40
0.0
 40
0.0
 40
0.0
 40
0.0
 40
0.1280675485958904
 40
0.2506083188676684
 40
0.3706301659145029
 40
0.4900722467299488
 40
0.6103747641546199
 40
0.7343130699115256
 40
0.8632165042449895
 40
1.0
 40
1.0
 40
1.0
 40
1.0
 10
57.04514879841764
 20
43.9840697557376
 30
0.0
 10
57.02928874354382
 20
43.98456843761491
 30
0.0
 10
56.99825307734535
 20
43.98554428066254
 30
0.0
 10
56.95294386428612
 20
43.99383015447496
 30
0.0
 10
56.91024032130804
 20
44.0077742671362
 30
0.0
 10
56.86996268039797
 20
44.02708987966957
 30
0.0
 10
56.83236632047378
 20
44.05209340120112
 30
0.0
 10
56.79736665296214
 20
44.08238169986841
 30
0.0
 10
56.76480844233574
 20
44.11816855491504
 30
0.0
 10
56.74615723963196
 20
44.14528809978216
 30
0.0
 10
56.73655504841764
 20
44.15925004419913
 30
0.0
  0
SPLINE
  5
B5
330
1F
100
AcDbEntity
  8
0
  6
Continuous
 62
     7
370
    25
100
AcDbSpline
210
0.0
220
0.0
230
1.0
 70
     8
 71
     3
 72
    19
 73
    15
 74
     0
 42
0.000000001
 43
0.00000001
 40
0.0
 40
0.0
 40
0.0
 40
0.0
 40
0.0902542493426766
 40
0.1785397915286843
 40
0.2660930338538198
 40
0.3546309779571733
 40
0.4418861533505626
 40
0.5257469151636484
 40
0.6081136336036366
 40
0.6901972728278825
 40
0.770821484330335
 40
0.8483261812554109
 40
0.9240117400247433
 40
1.0
 40
1.0
 40
1.0
 40
1.0
 10
57.43487235610994
 20
44.42217071727606
 30
0.0
 10
57.43428125743354
 20
44.40259239924389
 30
0.0
 10
57.43311195365861
 20
44.36386282312525
 30
0.0
 10
57.42243433802472
 20
44.30696437443219
 30
0.0
 10
57.40553785273006
 20
44.25209573767413
 30
0.0
 10
57.38219196967135
 20
44.19985748860999
 30
0.0
 10
57.3533974068876
 20
44.1513353032116
 30
0.0
 10
57.31912680536127
 20
44.10816265174854
 30
0.0
 10
57.28004139043812
 20
44.07092471854685
 30
0.0
 10
57.23687029144445
 20
44.03968427097823
 30
0.0
 10
57.1907322159929
 20
44.01522355709807
 30
0.0
 10
57.14324643435835
 20
43.99718653989248
 30
0.0
 10
57.09452558947739
 20
43.98620581946449
 30
0.0
 10
57.06162961268802
 20
43.98478272368868
 30
0.0
 10
57.04514879841764
 20
43.9840697557376
 30
0.0
  0
SPLINE
  5
B6
330
1F
100
AcDbEntity
  8
0
  6
Continuous
 62
     7
370
    25
100
AcDbSpline
210
0.0
220
0.0
230
1.0
 70
     8
 71
     3
 72
    23
 73
    19
 74
     0
 42
0.000000001
 43
0.00000001
 40
0.0
 40
0.0
 40
0.0
 40
0.0
 40
0.0726253460834355
 40
0.1419766113262345
 40
0.2089849284189386
 40
0.2739568703644447
 40
0.336889347396841
 40
0.3987449534945902
 40
0.4601158852788617
 40
0.5208249225900291
 40
0.5809944586324857
 40
0.6401519276014648
 40
0.6986224507562546
 40
0.7572710809271643
 40
0.8164266940046602
 40
0.8762540482034705
 40
0.9371652930625374
 40
1.0
 40
1.0
 40
1.0
 40
1.0
 10
57.05025697149456
 20
44.86868514035299
 30
0.0
 10
57.06535660748401
 20
44.86503819006113
 30
0.0
 10
57.09487516079429
 20
44.85790870053666
 30
0.0
 10
57.13704970115742
 20
44.84303831190713
 30
0.0
 10
57.17695978175345
 20
44.82683863110944
 30
0.0
 10
57.21385809905148
 20
44.80738615772454
 30
0.0
 10
57.24848620022262
 20
44.78616812019906
 30
0.0
 10
57.28005868213754
 20
44.76185838239797
 30
0.0
 10
57.30937852448059
 20
44.73557850129829
 30
0.0
 10
57.33539848343368
 20
44.70651066588324
 30
0.0
 10
57.3589603673794
 20
44.67602695375147
 30
0.0
 10
57.379049677669
 20
44.64369783100116
 30
0.0
 10
57.39633145746806
 20
44.61017373371376
 30
0.0
 10
57.41056869970036
 20
44.57522239102151
 30
0.0
 10
57.4212939241287
 20
44.53873974601064
 30
0.0
 10
57.42907541223903
 20
44.50105562173029
 30
0.0
 10
57.43412874690236
 20
44.46207126453831
 30
0.0
 10
57.43462193108223
 20
44.43560801142476
 30
0.0
 10
57.43487235610994
 20
44.42217071727606
 30
0.0
  0
LINE
  5
B7
330
1F
100
AcDbEntity
  8
0
  6
Continuous
 62
     7
370
    25
100
AcDbLine
 10
57.0502569715
 20
44.7340697557
 30
0.0
 11
57.0502569715
 21
44.8686851404
 31
0.0
  0
LINE
  5
B8
330
1F
100
AcDbEntity
  8
0
  6
Continuous
 62
     7
370
    25
100
AcDbLine
 10
56.7160260599
 20
35.2114219694
 30
0.0
 11
55.0659631673
 21
35.2114219694
 31
0.0
  0
SPLINE
  5
B9
330
1F
100
AcDbEntity
  8
0
  6
Continuous
 62
     7
370
    25
100
AcDbSpline
210
0.0
220
0.0
230
1.0
 70
     8
 71
     3
 72
    16
 73
    12
 74
     0
 42
0.000000001
 43
0.00000001
 40
0.0
 40
0.0
 40
0.0
 40
0.0
 40
0.2499999999999999
 40
0.2499999999999999
 40
0.4999999999999999
 40
0.4999999999999999
 40
0.6249999999999999
 40
0.6249999999999999
 40
0.7499999999999998
 40
0.7499999999999998
 40
1.0
 40
1.0
 40
1.0
 40
1.0
 10
55.0659631672846
 20
39.2528738537128
 30
0.0
 10
54.87546869629981
 20
38.9229277514062
 30
0.0
 10
54.71846668308672
 20
38.5905760100965
 30
0.0
 10
54.5009678722487
 20
37.91894091582277
 30
0.0
 10
54.44118851117864
 20
37.57960603205229
 30
0.0
 10
54.44053201032468
 20
37.06421026578211
 30
0.0
 10
54.45514577680816
 20
36.89160350528162
 30
0.0
 10
54.51213163468499
 20
36.55016909276308
 30
0.0
 10
54.55444590394423
 20
36.3805965900191
 30
0.0
 10
54.71784072383441
 20
35.87489809046762
 30
0.0
 10
54.87523125114785
 20
35.54177933875961
 30
0.0
 10
55.06596316728484
 20
35.21142196938536
 30
0.0
  0
SPLINE
  5
BA
330
1F
100
AcDbEntity
  8
0
  6
Continuous
 62
     7
370
    25
100
AcDbSpline
210
0.0
220
0.0
230
1.0
 70
     8
 71
     3
 72
     8
 73
     4
 74
     0
 42
0.000000001
 43
0.00000001
 40
0.0
 40
0.0
 40
0.0
 40
0.0
 40
1.0
 40
1.0
 40
1.0
 40
1.0
 10
56.79641081764841
 20
38.93314696152974
 30
0.0
 10
56.77141040472571
 20
39.03987347634119
 30
0.0
 10
56.7445440932655
 20
39.14644310433199
 30
0.0
 10
56.71602605991907
 20
39.25287385371276
 30
0.0
  0
SPLINE
  5
BB
330
1F
100
AcDbEntity
  8
0
  6
Continuous
 62
     7
370
    25
100
AcDbSpline
210
0.0
220
0.0
230
1.0
 70
     8
 71
     3
 72
     8
 73
     4
 74
     0
 42
0.000000001
 43
0.00000001
 40
0.0
 40
0.0
 40
0.0
 40
0.0
 40
1.0
 40
1.0
 40
1.0
 40
1.0
 10
56.87679557537774
 20
39.25287385371277
 30
0.0
 10
56.84826176053965
 20
39.14638420700324
 30
0.0
 10
56.82139683873286
 20
39.03981203772646
 30
0.0
 10
56.79641081764841
 20
38.93314696152974
 30
0.0
  0
SPLINE
  5
BC
330
1F
100
AcDbEntity
  8
0
  6
Continuous
 62
     7
370
    25
100
AcDbSpline
210
0.0
220
0.0
230
1.0
 70
     8
 71
     3
 72
    16
 73
    12
 74
     0
 42
0.000000001
 43
0.00000001
 40
0.0
 40
0.0
 40
0.0
 40
0.0
 40
0.2499999999999999
 40
0.2499999999999999
 40
0.4999999999999999
 40
0.4999999999999999
 40
0.6249999999999999
 40
0.6249999999999999
 40
0.7499999999999998
 40
0.7499999999999998
 40
1.0
 40
1.0
 40
1.0
 40
1.0
 10
58.52685846801221
 20
39.2528738537128
 30
0.0
 10
58.717352938997
 20
38.9229277514062
 30
0.0
 10
58.87435495221009
 20
38.5905760100965
 30
0.0
 10
59.09185376304811
 20
37.91894091582277
 30
0.0
 10
59.15163312411817
 20
37.57960603205229
 30
0.0
 10
59.15228962497213
 20
37.06421026578211
 30
0.0
 10
59.13767585848866
 20
36.89160350528162
 30
0.0
 10
59.08069000061182
 20
36.55016909276308
 30
0.0
 10
59.03837573135258
 20
36.3805965900191
 30
0.0
 10
58.87498091146239
 20
35.87489809046762
 30
0.0
 10
58.71759038414897
 20
35.54177933875961
 30
0.0
 10
58.52685846801197
 20
35.21142196938536
 30
0.0
  0
LINE
  5
BD
330
1F
100
AcDbEntity
  8
0
  6
Continuous
 62
     7
370
    25
100
AcDbLine
 10
58.526858468
 20
35.2114219694
 30
0.0
 11
56.8767955754
 21
35.2114219694
 31
0.0
  0
SPLINE
  5
BE
330
1F
100
AcDbEntity
  8
0
  6
Continuous
 62
     7
370
    25
100
AcDbSpline
210
0.0
220
0.0
230
1.0
 70
     8
 71
     3
 72
     8
 73
     4
 74
     0
 42
0.000000001
 43
0.00000001
 40
0.0
 40
0.0
 40
0.0
 40
0.0
 40
1.0
 40
1.0
 40
1.0
 40
1.0
 10
56.79641081764841
 20
35.5311488615684
 30
0.0
 10
56.82141123057111
 20
35.42442234675696
 30
0.0
 10
56.84827754203133
 20
35.31785271876616
 30
0.0
 10
56.87679557537774
 20
35.21142196938538
 30
0.0
  0
SPLINE
  5
BF
330
1F
100
AcDbEntity
  8
0
  6
Continuous
 62
     7
370
    25
100
AcDbSpline
210
0.0
220
0.0
230
1.0
 70
     8
 71
     3
 72
     8
 73
     4
 74
     0
 42
0.000000001
 43
0.00000001
 40
0.0
 40
0.0
 40
0.0
 40
0.0
 40
1.0
 40
1.0
 40
1.0
 40
1.0
 10
56.71602605991907
 20
35.21142196938538
 30
0.0
 10
56.74455987475717
 20
35.31791161609491
 30
0.0
 10
56.77142479656396
 20
35.4244837853717
 30
0.0
 10
56.79641081764841
 20
35.5311488615684
 30
0.0
  0
SPLINE
  5
C0
330
1F
100
AcDbEntity
  8
0
  6
Continuous
 62
     7
370
    25
100
AcDbSpline
210
0.0
220
0.0
230
1.0
 70
     8
 71
     3
 72
    16
 73
    12
 74
     0
 42
0.000000001
 43
0.00000001
 40
0.0
 40
0.0
 40
0.0
 40
0.0
 40
0.2499999999999999
 40
0.2499999999999999
 40
0.4999999999999998
 40
0.4999999999999998
 40
0.6249999999999998
 40
0.6249999999999998
 40
0.7499999999999999
 40
0.7499999999999999
 40
1.0
 40
1.0
 40
1.0
 40
1.0
 10
55.0659631672846
 20
51.37722950669495
 30
0.0
 10
54.87546869629981
 20
51.04728340438835
 30
0.0
 10
54.71846668308672
 20
50.71493166307864
 30
0.0
 10
54.5009678722487
 20
50.04329656880491
 30
0.0
 10
54.44118851117864
 20
49.70396168503444
 30
0.0
 10
54.44053201032468
 20
49.18856591876425
 30
0.0
 10
54.45514577680816
 20
49.01595915826377
 30
0.0
 10
54.51213163468499
 20
48.67452474574523
 30
0.0
 10
54.55444590394423
 20
48.50495224300125
 30
0.0
 10
54.71784072383442
 20
47.99925374344976
 30
0.0
 10
54.87523125114785
 20
47.66613499174176
 30
0.0
 10
55.06596316728484
 20
47.33577762236751
 30
0.0
  0
LINE
  5
C1
330
1F
100
AcDbEntity
  8
0
  6
Continuous
 62
     7
370
    25
100
AcDbLine
 10
56.7160260599
 20
51.3772295067
 30
0.0
 11
55.0659631673
 21
51.3772295067
 31
0.0
  0
SPLINE
  5
C2
330
1F
100
AcDbEntity
  8
0
  6
Continuous
 62
     7
370
    25
100
AcDbSpline
210
0.0
220
0.0
230
1.0
 70
     8
 71
     3
 72
     8
 73
     4
 74
     0
 42
0.000000001
 43
0.00000001
 40
0.0
 40
0.0
 40
0.0
 40
0.0
 40
1.0
 40
1.0
 40
1.0
 40
1.0
 10
56.79641081764841
 20
51.05750261451188
 30
0.0
 10
56.77141040472571
 20
51.16422912932333
 30
0.0
 10
56.7445440932655
 20
51.27079875731413
 30
0.0
 10
56.71602605991907
 20
51.3772295066949
 30
0.0
  0
SPLINE
  5
C3
330
1F
100
AcDbEntity
  8
0
  6
Continuous
 62
     7
370
    25
100
AcDbSpline
210
0.0
220
0.0
230
1.0
 70
     8
 71
     3
 72
     8
 73
     4
 74
     0
 42
0.000000001
 43
0.00000001
 40
0.0
 40
0.0
 40
0.0
 40
0.0
 40
1.0
 40
1.0
 40
1.0
 40
1.0
 10
56.87679557537774
 20
51.3772295066949
 30
0.0
 10
56.84826176053965
 20
51.27073985998538
 30
0.0
 10
56.82139683873286
 20
51.16416769070859
 30
0.0
 10
56.79641081764841
 20
51.05750261451188
 30
0.0
  0
LINE
  5
C4
330
1F
100
AcDbEntity
  8
0
  6
Continuous
 62
     7
370
    25
100
AcDbLine
 10
58.526858468
 20
51.3772295067
 30
0.0
 11
56.8767955754
 21
51.3772295067
 31
0.0
  0
SPLINE
  5
C5
330
1F
100
AcDbEntity
  8
0
  6
Continuous
 62
     7
370
    25
100
AcDbSpline
210
0.0
220
0.0
230
1.0
 70
     8
 71
     3
 72
    16
 73
    12
 74
     0
 42
0.000000001
 43
0.00000001
 40
0.0
 40
0.0
 40
0.0
 40
0.0
 40
0.2499999999999999
 40
0.2499999999999999
 40
0.4999999999999998
 40
0.4999999999999998
 40
0.6249999999999998
 40
0.6249999999999998
 40
0.7499999999999999
 40
0.7499999999999999
 40
1.0
 40
1.0
 40
1.0
 40
1.0
 10
58.52685846801221
 20
51.37722950669495
 30
0.0
 10
58.717352938997
 20
51.04728340438835
 30
0.0
 10
58.87435495221008
 20
50.71493166307864
 30
0.0
 10
59.09185376304811
 20
50.04329656880491
 30
0.0
 10
59.15163312411817
 20
49.70396168503444
 30
0.0
 10
59.15228962497213
 20
49.18856591876425
 30
0.0
 10
59.13767585848865
 20
49.01595915826377
 30
0.0
 10
59.08069000061182
 20
48.67452474574523
 30
0.0
 10
59.03837573135258
 20
48.50495224300125
 30
0.0
 10
58.87498091146239
 20
47.99925374344976
 30
0.0
 10
58.71759038414897
 20
47.66613499174176
 30
0.0
 10
58.52685846801197
 20
47.33577762236751
 30
0.0
  0
SPLINE
  5
C6
330
1F
100
AcDbEntity
  8
0
  6
Continuous
 62
     7
370
    25
100
AcDbSpline
210
0.0
220
0.0
230
1.0
 70
     8
 71
     3
 72
     8
 73
     4
 74
     0
 42
0.000000001
 43
0.00000001
 40
0.0
 40
0.0
 40
0.0
 40
0.0
 40
1.0
 40
1.0
 40
1.0
 40
1.0
 10
56.79641081764841
 20
47.65550451455056
 30
0.0
 10
56.82141123057111
 20
47.5487779997391
 30
0.0
 10
56.84827754203133
 20
47.44220837174831
 30
0.0
 10
56.87679557537774
 20
47.33577762236753
 30
0.0
  0
LINE
  5
C7
330
1F
100
AcDbEntity
  8
0
  6
Continuous
 62
     7
370
    25
100
AcDbLine
 10
56.7964108176
 20
38.9331469615
 30
0.0
 11
56.7964108176
 21
39.8923276381
 31
0.0
  0
SPLINE
  5
C8
330
1F
100
AcDbEntity
  8
0
  6
Continuous
 62
     7
370
    25
100
AcDbSpline
210
0.0
220
0.0
230
1.0
 70
     8
 71
     3
 72
    23
 73
    19
 74
     0
 42
0.000000001
 43
0.00000001
 40
0.0
 40
0.0
 40
0.0
 40
0.0
 40
0.0611415679303346
 40
0.1200010135310723
 40
0.1782359705414083
 40
0.2364955434070171
 40
0.2948872487049731
 40
0.3546771928192958
 40
0.4166948132897783
 40
0.4806333779628393
 40
0.5458046334786407
 40
0.6097347883178743
 40
0.6729516883751544
 40
0.7360010960706834
 40
0.7998274385165249
 40
0.864767276939387
 40
0.9310835057306723
 40
1.0
 40
1.0
 40
1.0
 40
1.0
 10
56.30927139457148
 20
42.07618606839089
 30
0.0
 10
56.31951310502163
 20
42.07641915943393
 30
0.0
 10
56.33961425185041
 20
42.07687664134611
 30
0.0
 10
56.36903486545346
 20
42.08215121640229
 30
0.0
 10
56.39755967418699
 20
42.08927540784411
 30
0.0
 10
56.42454611071177
 20
42.10078875418144
 30
0.0
 10
56.45074045854214
 20
42.1145020894451
 30
0.0
 10
56.47539406365321
 20
42.13197197774048
 30
0.0
 10
56.4992053670972
 20
42.15200163227846
 30
0.0
 10
56.52129778082734
 20
42.17519791574331
 30
0.0
 10
56.54150530049187
 20
42.20043339559287
 30
0.0
 10
56.55934182302759
 20
42.2272694893461
 30
0.0
 10
56.5743954976732
 20
42.25534411340013
 30
0.0
 10
56.58695565414189
 20
42.2846301479355
 30
0.0
 10
56.5960197226973
 20
42.3154627958364
 30
0.0
 10
56.60315682461621
 20
42.34734437418781
 30
0.0
 10
56.6069548328265
 20
42.38068261983328
 30
0.0
 10
56.60761357495154
 20
42.40330116642043
 30
0.0
 10
56.60794927918687
 20
42.41482789531397
 30
0.0
  0
SPLINE
  5
C9
330
1F
100
AcDbEntity
  8
0
  6
Continuous
 62
     7
370
    25
100
AcDbSpline
210
0.0
220
0.0
230
1.0
 70
     8
 71
     3
 72
    23
 73
    19
 74
     0
 42
0.000000001
 43
0.00000001
 40
0.0
 40
0.0
 40
0.0
 40
0.0
 40
0.0679503475997537
 40
0.1332598223836998
 40
0.1978002967596474
 40
0.2608458295516822
 40
0.3233192927503671
 40
0.3862817224595722
 40
0.450061516233313
 40
0.5152075844858154
 40
0.5796407692199316
 40
0.6418172023841522
 40
0.7016924412115348
 40
0.7607690981778945
 40
0.8192540511346832
 40
0.8787376269055537
 40
0.9381582970160912
 40
1.0
 40
1.0
 40
1.0
 40
1.0
 10
56.01179543303302
 20
42.40310914531397
 30
0.0
 10
56.01212502207415
 20
42.39198105629058
 30
0.0
 10
56.01277139076293
 20
42.37015736856699
 30
0.0
 10
56.01666304476115
 20
42.33794043048229
 30
0.0
 10
56.02354653587179
 20
42.30704876446258
 30
0.0
 10
56.03332837309199
 20
42.27746088561928
 30
0.0
 10
56.04524741492804
 20
42.24893027615852
 30
0.0
 10
56.06045577495584
 20
42.22186172193408
 30
0.0
 10
56.07823302646344
 20
42.19588977800298
 30
0.0
 10
56.09857157968164
 20
42.17157976529784
 30
0.0
 10
56.12042935315025
 20
42.14892807953449
 30
0.0
 10
56.1444379546188
 20
42.12997802846368
 30
0.0
 10
56.16875307696386
 20
42.11287574666837
 30
0.0
 10
56.19485149897773
 20
42.09992136602629
 30
0.0
 10
56.2217878984566
 20
42.08906119637164
 30
0.0
 10
56.24997285920055
 20
42.08176044680435
 30
0.0
 10
56.279261079016
 20
42.07698088114638
 30
0.0
 10
56.29913568890734
 20
42.07645450902534
 30
0.0
 10
56.30927139457148
 20
42.07618606839089
 30
0.0
  0
SPLINE
  5
CA
330
1F
100
AcDbEntity
  8
0
  6
Continuous
 62
     7
370
    25
100
AcDbSpline
210
0.0
220
0.0
230
1.0
 70
     8
 71
     3
 72
    23
 73
    19
 74
     0
 42
0.000000001
 43
0.00000001
 40
0.0
 40
0.0
 40
0.0
 40
0.0
 40
0.0618526459466917
 40
0.1212838306153701
 40
0.1807779320756125
 40
0.2392732340142805
 40
0.2986414352139417
 40
0.3581858222417117
 40
0.4207600867589709
 40
0.4852046730216432
 40
0.5503622689482871
 40
0.613649924530912
 40
0.6766234955168249
 40
0.7391080134690126
 40
0.8021647022429448
 40
0.8667165971324778
 40
0.9320376285055445
 40
1.0
 40
1.0
 40
1.0
 40
1.0
 10
56.30927139457148
 20
42.73003222223705
 30
0.0
 10
56.29913607471457
 20
42.72976308992959
 30
0.0
 10
56.27926222133379
 20
42.72923536154074
 30
0.0
 10
56.24996849592029
 20
42.72446566628754
 30
0.0
 10
56.22180418566932
 20
42.71712789463428
 30
0.0
 10
56.19474869096842
 20
42.7063873412125
 30
0.0
 10
56.16894959530502
 20
42.69291554675483
 30
0.0
 10
56.14422364016479
 20
42.67633701822292
 30
0.0
 10
56.12055375912471
 20
42.65693247013488
 30
0.0
 10
56.09853682257369
 20
42.63437506798955
 30
0.0
 10
56.07834235333429
 20
42.61004909675501
 30
0.0
 10
56.06036116001227
 20
42.58432277094987
 30
0.0
 10
56.0452617658383
 20
42.55727789030263
 30
0.0
 10
56.03332450458624
 20
42.52876013413154
 30
0.0
 10
56.02354760304394
 20
42.49916877330518
 30
0.0
 10
56.01666275393012
 20
42.46827806531883
 30
0.0
 10
56.01277146728437
 20
42.4360608680772
 30
0.0
 10
56.01212504791608
 20
42.4142372161066
 30
0.0
 10
56.01179543303302
 20
42.40310914531397
 30
0.0
  0
SPLINE
  5
CB
330
1F
100
AcDbEntity
  8
0
  6
Continuous
 62
     7
370
    25
100
AcDbSpline
210
0.0
220
0.0
230
1.0
 70
     8
 71
     3
 72
    23
 73
    19
 74
     0
 42
0.000000001
 43
0.00000001
 40
0.0
 40
0.0
 40
0.0
 40
0.0
 40
0.0705921865358071
 40
0.1385012886049299
 40
0.2037899961427012
 40
0.266787572669601
 40
0.3290979656467183
 40
0.3911745246039658
 40
0.4531677986176573
 40
0.5157967602265844
 40
0.5779688050530403
 40
0.6389663383752914
 40
0.698381066162843
 40
0.7573204555574266
 40
0.8164122397216688
 40
0.876279358230831
 40
0.936823465650193
 40
1.0
 40
1.0
 40
1.0
 40
1.0
 10
56.60794927918687
 20
42.41482789531397
 30
0.0
 10
56.60761141473227
 20
42.42625421315179
 30
0.0
 10
56.60694852745491
 20
42.44867255464548
 30
0.0
 10
56.60320453533595
 20
42.48152201086071
 30
0.0
 10
56.59611069671556
 20
42.51252794454641
 30
0.0
 10
56.58693465315928
 20
42.54204449403056
 30
0.0
 10
56.57444082776247
 20
42.56976401937806
 30
0.0
 10
56.55944469521815
 20
42.5960027180064
 30
0.0
 10
56.54161527394535
 20
42.62050022595331
 30
0.0
 10
56.5211513576093
 20
42.6428263244855
 30
0.0
 10
56.49907360332941
 20
42.66332719691986
 30
0.0
 10
56.47528467959076
 20
42.68096129499482
 30
0.0
 10
56.45051137960997
 20
42.69618905610314
 30
0.0
 10
56.42452086442613
 20
42.70856595680612
 30
0.0
 10
56.39732980595144
 20
42.71820483510398
 30
0.0
 10
56.36906147509536
 20
42.72517686804667
 30
0.0
 10
56.33952679434031
 20
42.72905706724652
 30
0.0
 10
56.31949857586151
 20
42.72970259225528
 30
0.0
 10
56.30927139457148
 20
42.73003222223705
 30
0.0
  0
LINE
  5
CC
330
1F
100
AcDbEntity
  8
0
  6
Continuous
 62
     7
370
    25
100
AcDbLine
 10
59.2964108176
 20
50.044325738
 30
0.0
 11
59.2964108176
 21
36.544325738
 31
0.0
  0
LINE
  5
CD
330
1F
100
AcDbEntity
  8
0
  6
Continuous
 62
     7
370
    25
100
AcDbLine
 10
44.3851984714
 20
49.7502878522
 30
0.0
 11
44.3851984714
 21
36.8383636239
 31
0.0
  0
LINE
  5
CE
330
1F
100
AcDbEntity
  8
0
  6
Continuous
 62
     7
370
    25
100
AcDbLine
 10
54.2964108176
 20
43.294325738
 30
0.0
 11
54.2964108176
 21
36.528638238
 31
0.0
  0
LINE
  5
CF
330
1F
100
AcDbEntity
  8
0
  6
Continuous
 62
     7
370
    25
100
AcDbLine
 10
54.2964108176
 20
50.060013238
 30
0.0
 11
54.2964108176
 21
43.294325738
 31
0.0
  0
LINE
  5
D0
330
1F
100
AcDbEntity
  8
0
  6
Continuous
 62
     7
370
    25
100
AcDbLine
 10
42.2964108176
 20
43.294325738
 30
0.0
 11
42.2964108176
 21
48.544325738
 31
0.0
  0
LINE
  5
D1
330
1F
100
AcDbEntity
  8
0
  6
Continuous
 62
     7
370
    25
100
AcDbLine
 10
42.2964108176
 20
38.044325738
 30
0.0
 11
42.2964108176
 21
43.294325738
 31
0.0
  0
LINE
  5
D2
330
1F
100
AcDbEntity
  8
0
  6
Continuous
 62
     7
370
    25
100
AcDbLine
 10
67.7964108176
 20
49.294325738
 30
0.0
 11
67.7964108176
 21
37.294325738
 31
0.0
  0
LINE
  5
D3
330
1F
100
AcDbEntity
  8
0
  6
Continuous
 62
     7
370
    25
100
AcDbLine
 10
76.7964108176
 20
49.294325738
 30
0.0
 11
76.7964108176
 21
37.294325738
 31
0.0
  0
LINE
  5
D4
330
1F
100
AcDbEntity
  8
0
  6
Continuous
 62
     7
370
    25
100
AcDbLine
 10
72.2964108176
 20
49.294325738
 30
0.0
 11
72.2964108176
 21
37.294325738
 31
0.0
  0
LINE
  5
D5
330
1F
100
AcDbEntity
  8
0
  6
Continuous
 62
     7
370
    25
100
AcDbLine
 10
63.2964108176
 20
49.294325738
 30
0.0
 11
63.2964108176
 21
37.294325738
 31
0.0
  0
LINE
  5
D6
330
1F
100
AcDbEntity
  8
0
  6
Continuous
 62
     7
370
    25
100
AcDbLine
 10
82.2964108176
 20
48.1078802082
 30
0.0
 11
82.2964108176
 21
38.4807712678
 31
0.0
  0
LINE
  5
D7
330
1F
100
AcDbEntity
  8
0
  6
Continuous
 62
     7
370
    25
100
AcDbLine
 10
56.7964108176
 20
51.0575026145
 30
0.0
 11
56.7964108176
 21
51.0772295067
 31
0.0
  0
LINE
  5
D8
330
1F
100
AcDbEntity
  8
0
  6
Continuous
 62
     7
370
    25
100
AcDbLine
 10
56.7964108176
 20
35.5114219694
 30
0.0
 11
56.7964108176
 21
35.5311488616
 31
0.0
  0
LINE
  5
D9
330
1F
100
AcDbEntity
  8
0
  6
Continuous
 62
     8
370
    25
100
AcDbLine
 10
81.86396742
 20
37.9853561838
 30
0.0
 11
81.86396742
 21
48.6032952923
 31
0.0
  0
LINE
  5
DA
330
1F
100
AcDbEntity
  8
0
  6
Continuous
 62
     7
370
    18
100
AcDbLine
 10
43.1616365402
 20
49.0438640419
 30
0.0
 11
53.7964108176
 21
49.376200738
 31
0.0
  0
LINE
  5
DB
330
1F
100
AcDbEntity
  8
0
  6
Continuous
 62
     7
370
    18
100
AcDbLine
 10
43.1616365402
 20
37.5447874342
 30
0.0
 11
53.7964108176
 21
37.212450738
 31
0.0
  0
LINE
  5
DC
330
1F
100
AcDbEntity
  8
0
  6
Continuous
 62
     7
370
    18
100
AcDbLine
 10
53.7964108176
 20
36.544263238
 30
0.0
 11
53.7964108176
 21
50.044388238
 31
0.0
  0
LINE
  5
DD
330
1F
100
AcDbEntity
  8
0
  6
CENTERX2
 62
     7
370
    18
100
AcDbLine
 10
83.2964108176
 20
43.294325738
 30
0.0
 11
41.2054895113
 21
43.294325738
 31
0.0
  0
CIRCLE
  5
DE
330
1F
100
AcDbEntity
  8
0
  6
Continuous
 62
     7
370
    25
100
AcDbCircle
 10
100.8189453173
 20
43.294325738
 30
0.0
 40
4.813554470200579
  0
CIRCLE
  5
DF
330
1F
100
AcDbEntity
  8
0
  6
Continuous
 62
     7
370
    25
100
AcDbCircle
 10
100.8189453173
 20
43.294325738
 30
0.0
 40
5.308969554222728
  0
CIRCLE
  5
E0
330
1F
100
AcDbEntity
  8
0
  6
Continuous
 62
     7
370
    25
100
AcDbCircle
 10
100.8189453173
 20
43.294325738
 30
0.0
 40
4.0
  0
CIRCLE
  5
E1
330
1F
100
AcDbEntity
  8
0
  6
Continuous
 62
     7
370
    25
100
AcDbCircle
 10
100.8189453173
 20
43.294325738
 30
0.0
 40
3.499999999999986
  0
CIRCLE
  5
E2
330
1F
100
AcDbEntity
  8
0
  6
Continuous
 62
     7
370
    25
100
AcDbCircle
 10
100.8189453173
 20
43.294325738
 30
0.0
 40
6.0
  0
SPLINE
  5
E3
330
1F
100
AcDbEntity
  8
0
  6
Continuous
 62
     7
370
    25
100
AcDbSpline
210
0.0
220
0.0
230
1.0
 70
    24
 71
     3
 72
    14
 73
    10
 74
     0
 42
0.000000001
 43
0.00000001
 40
0.0
 40
0.0
 40
0.0
 40
0.0
 40
0.25
 40
0.25
 40
0.5
 40
0.5
 40
0.75
 40
0.75
 40
1.0
 40
1.0
 40
1.0
 40
1.0
 10
107.8189453172713
 20
39.25287385371276
 30
0.0
 10
107.8189453172713
 20
39.91051454543598
 30
0.0
 10
107.8189453172713
 20
40.58391106369682
 30
0.0
 10
107.8189453172713
 20
41.93358927757755
 30
0.0
 10
107.8189453172713
 20
42.6123128590912
 30
0.0
 10
107.8189453172713
 20
43.97887105850614
 30
0.0
 10
107.8189453172713
 20
44.67136887914155
 30
0.0
 10
107.8189453172713
 20
46.02065373594837
 30
0.0
 10
107.8189453172713
 20
46.68247343245631
 30
0.0
 10
107.8189453172713
 20
47.33577762236753
 30
0.0
  0
SPLINE
  5
E4
330
1F
100
AcDbEntity
  8
0
  6
Continuous
 62
     7
370
    25
100
AcDbSpline
210
0.0
220
0.0
230
1.0
 70
    24
 71
     3
 72
    16
 73
    12
 74
     0
 42
0.000000001
 43
0.00000001
 40
0.0
 40
0.0
 40
0.0
 40
0.0
 40
0.2499999999999999
 40
0.2499999999999999
 40
0.4999999999999999
 40
0.4999999999999999
 40
0.6249999999999999
 40
0.6249999999999999
 40
0.7499999999999998
 40
0.7499999999999998
 40
1.0
 40
1.0
 40
1.0
 40
1.0
 10
100.8189453172712
 20
35.21142196938535
 30
0.0
 10
101.3904287302256
 20
35.54136807169195
 30
0.0
 10
101.966078832158
 20
35.87371981300165
 30
0.0
 10
103.1293849395864
 20
36.54535490727538
 30
0.0
 10
103.7171301990573
 20
36.88468979104584
 30
0.0
 10
104.6098218522432
 20
37.40008555731604
 30
0.0
 10
104.9087855311599
 20
37.57269231781653
 30
0.0
 10
105.5001672810944
 20
37.91412673033506
 30
0.0
 10
105.7938754714136
 20
38.08369923307904
 30
0.0
 10
106.6697709659481
 20
38.58939773263053
 30
0.0
 10
107.2467495688603
 20
38.92251648433853
 30
0.0
 10
107.8189453172713
 20
39.25287385371279
 30
0.0
  0
SPLINE
  5
E5
330
1F
100
AcDbEntity
  8
0
  6
Continuous
 62
     7
370
    25
100
AcDbSpline
210
0.0
220
0.0
230
1.0
 70
    24
 71
     3
 72
    16
 73
    12
 74
     0
 42
0.000000001
 43
0.00000001
 40
0.0
 40
0.0
 40
0.0
 40
0.0
 40
0.2499999999999999
 40
0.2499999999999999
 40
0.4999999999999999
 40
0.4999999999999999
 40
0.6249999999999999
 40
0.6249999999999999
 40
0.7499999999999998
 40
0.7499999999999998
 40
1.0
 40
1.0
 40
1.0
 40
1.0
 10
93.81894531727124
 20
39.2528738537128
 30
0.0
 10
94.3904287302256
 20
38.9229277514062
 30
0.0
 10
94.96607883215799
 20
38.5905760100965
 30
0.0
 10
96.1293849395864
 20
37.91894091582277
 30
0.0
 10
96.71713019905734
 20
37.57960603205229
 30
0.0
 10
97.60982185224319
 20
37.06421026578211
 30
0.0
 10
97.90878553115991
 20
36.89160350528162
 30
0.0
 10
98.50016728109443
 20
36.55016909276308
 30
0.0
 10
98.79387547141363
 20
36.3805965900191
 30
0.0
 10
99.66977096594816
 20
35.87489809046762
 30
0.0
 10
100.2467495688603
 20
35.54177933875961
 30
0.0
 10
100.8189453172713
 20
35.21142196938536
 30
0.0
  0
SPLINE
  5
E6
330
1F
100
AcDbEntity
  8
0
  6
Continuous
 62
     7
370
    25
100
AcDbSpline
210
0.0
220
0.0
230
1.0
 70
    24
 71
     3
 72
    14
 73
    10
 74
     0
 42
0.000000001
 43
0.00000001
 40
0.0
 40
0.0
 40
0.0
 40
0.0
 40
0.2500000000000001
 40
0.2500000000000001
 40
0.5000000000000001
 40
0.5000000000000001
 40
0.7500000000000002
 40
0.7500000000000002
 40
1.0
 40
1.0
 40
1.0
 40
1.0
 10
93.8189453172713
 20
39.25287385371276
 30
0.0
 10
93.8189453172713
 20
39.91051454543598
 30
0.0
 10
93.8189453172713
 20
40.58391106369682
 30
0.0
 10
93.8189453172713
 20
41.93358927757755
 30
0.0
 10
93.8189453172713
 20
42.6123128590912
 30
0.0
 10
93.8189453172713
 20
43.97887105850613
 30
0.0
 10
93.8189453172713
 20
44.67136887914155
 30
0.0
 10
93.8189453172713
 20
46.02065373594836
 30
0.0
 10
93.8189453172713
 20
46.68247343245631
 30
0.0
 10
93.8189453172713
 20
47.33577762236753
 30
0.0
  0
SPLINE
  5
E7
330
1F
100
AcDbEntity
  8
0
  6
Continuous
 62
     7
370
    25
100
AcDbSpline
210
0.0
220
0.0
230
1.0
 70
    24
 71
     3
 72
    16
 73
    12
 74
     0
 42
0.000000001
 43
0.00000001
 40
0.0
 40
0.0
 40
0.0
 40
0.0
 40
0.2499999999999999
 40
0.2499999999999999
 40
0.4999999999999998
 40
0.4999999999999998
 40
0.6249999999999998
 40
0.6249999999999998
 40
0.7499999999999999
 40
0.7499999999999999
 40
1.0
 40
1.0
 40
1.0
 40
1.0
 10
100.8189453172714
 20
51.37722950669495
 30
0.0
 10
100.247461904317
 20
51.04728340438835
 30
0.0
 10
99.67181180238462
 20
50.71493166307864
 30
0.0
 10
98.50850569495621
 20
50.04329656880491
 30
0.0
 10
97.92076043548528
 20
49.70396168503444
 30
0.0
 10
97.02806878229941
 20
49.18856591876425
 30
0.0
 10
96.72910510338271
 20
49.01595915826377
 30
0.0
 10
96.13772335344817
 20
48.67452474574523
 30
0.0
 10
95.84401516312897
 20
48.50495224300125
 30
0.0
 10
94.96811966859445
 20
47.99925374344976
 30
0.0
 10
94.39114106568226
 20
47.66613499174176
 30
0.0
 10
93.81894531727127
 20
47.33577762236751
 30
0.0
  0
SPLINE
  5
E8
330
1F
100
AcDbEntity
  8
0
  6
Continuous
 62
     7
370
    25
100
AcDbSpline
210
0.0
220
0.0
230
1.0
 70
    24
 71
     3
 72
    16
 73
    12
 74
     0
 42
0.000000001
 43
0.00000001
 40
0.0
 40
0.0
 40
0.0
 40
0.0
 40
0.2500000000000001
 40
0.2500000000000001
 40
0.5000000000000002
 40
0.5000000000000002
 40
0.6250000000000002
 40
0.6250000000000002
 40
0.7500000000000003
 40
0.7500000000000003
 40
1.0
 40
1.0
 40
1.0
 40
1.0
 10
107.8189453172714
 20
47.33577762236749
 30
0.0
 10
107.247461904317
 20
47.66572372467409
 30
0.0
 10
106.6718118023846
 20
47.9980754659838
 30
0.0
 10
105.5085056949562
 20
48.66971056025753
 30
0.0
 10
104.9207604354853
 20
49.009045444028
 30
0.0
 10
104.0280687822994
 20
49.52444121029819
 30
0.0
 10
103.7291051033827
 20
49.69704797079867
 30
0.0
 10
103.1377233534482
 20
50.0384823833172
 30
0.0
 10
102.844015163129
 20
50.20805488606119
 30
0.0
 10
101.9681196685945
 20
50.71375338561268
 30
0.0
 10
101.3911410656823
 20
51.04687213732068
 30
0.0
 10
100.8189453172713
 20
51.37722950669493
 30
0.0
  0
CIRCLE
  5
E9
330
1F
100
AcDbEntity
  8
0
  6
Continuous
 62
     7
370
    25
100
AcDbCircle
 10
100.8189453173
 20
43.294325738
 30
0.0
 40
6.749999999999986
  0
INSERT
  5
F5
330
1F
100
AcDbEntity
  8
0
  6
Continuous
 62
     7
370
    18
100
AcDbBlockReference
  2
SW_CENTERMARKSYMBOL_0
 10
100.8189453173
 20
43.294325738
 30
0.0
  0
INSERT
  5
101
330
1F
100
AcDbEntity
  8
0
  6
Continuous
 62
     7
370
    18
100
AcDbBlockReference
  2
SW_CENTERMARKSYMBOL_1
 10
100.8189453173
 20
43.294325738
 30
0.0
  0
LINE
  5
102
330
1F
100
AcDbEntity
  8
0
  6
Continuous
 62
     7
370
    25
100
AcDbLine
 10
54.4407483849
 20
74.7118907836
 30
0.0
 11
54.2964108176
 21
74.4618907836
 31
0.0
  0
LINE
  5
103
330
1F
100
AcDbEntity
  8
0
  6
Continuous
 62
     7
370
    25
100
AcDbLine
 10
54.2964108176
 20
60.9618907836
 30
0.0
 11
54.4407483849
 21
60.7118907836
 31
0.0
  0
LINE
  5
104
330
1F
100
AcDbEntity
  8
0
  6
Continuous
 62
     7
370
    25
100
AcDbLine
 10
59.1520732504
 20
60.7118907836
 30
0.0
 11
59.2964108176
 21
60.9618907836
 31
0.0
  0
LINE
  5
105
330
1F
100
AcDbEntity
  8
0
  6
Continuous
 62
     7
370
    25
100
AcDbLine
 10
59.2964108176
 20
74.4618907836
 30
0.0
 11
59.1520732504
 21
74.7118907836
 31
0.0
  0
LINE
  5
106
330
1F
100
AcDbEntity
  8
0
  6
Continuous
 62
     7
370
    25
100
AcDbLine
 10
54.2964108176
 20
74.4775782836
 30
0.0
 11
44.3851984714
 21
74.1678528977
 31
0.0
  0
LINE
  5
107
330
1F
100
AcDbEntity
  8
0
  6
Continuous
 62
     7
370
    25
100
AcDbLine
 10
44.3851984714
 20
61.2559286694
 30
0.0
 11
54.2964108176
 21
60.9462032836
 31
0.0
  0
LINE
  5
108
330
1F
100
AcDbEntity
  8
0
  6
Continuous
 62
     7
370
    25
100
AcDbLine
 10
44.3851984714
 20
74.1678528977
 30
0.0
 11
42.2964108176
 21
72.9618907836
 31
0.0
  0
LINE
  5
109
330
1F
100
AcDbEntity
  8
0
  6
Continuous
 62
     7
370
    25
100
AcDbLine
 10
42.2964108176
 20
62.4618907836
 30
0.0
 11
44.3851984714
 21
61.2559286694
 31
0.0
  0
LINE
  5
10A
330
1F
100
AcDbEntity
  8
0
  6
Continuous
 62
     7
370
    25
100
AcDbLine
 10
72.2964108176
 20
61.7118907836
 30
0.0
 11
76.7964108176
 21
62.4618907836
 31
0.0
  0
LINE
  5
10B
330
1F
100
AcDbEntity
  8
0
  6
Continuous
 62
     7
370
    25
100
AcDbLine
 10
76.7964108176
 20
72.9618907836
 30
0.0
 11
72.2964108176
 21
73.7118907836
 31
0.0
  0
LINE
  5
10C
330
1F
100
AcDbEntity
  8
0
  6
Continuous
 62
     7
370
    25
100
AcDbLine
 10
63.2964108176
 20
61.7118907836
 30
0.0
 11
67.7964108176
 21
62.4618907836
 31
0.0
  0
LINE
  5
10D
330
1F
100
AcDbEntity
  8
0
  6
Continuous
 62
     7
370
    25
100
AcDbLine
 10
67.7964108176
 20
72.9618907836
 30
0.0
 11
63.2964108176
 21
73.7118907836
 31
0.0
  0
LINE
  5
10E
330
1F
100
AcDbEntity
  8
0
  6
Continuous
 62
     7
370
    25
100
AcDbLine
 10
67.7964108176
 20
61.7118907836
 30
0.0
 11
72.2964108176
 21
62.4618907836
 31
0.0
  0
LINE
  5
10F
330
1F
100
AcDbEntity
  8
0
  6
Continuous
 62
     7
370
    25
100
AcDbLine
 10
72.2964108176
 20
72.9618907836
 30
0.0
 11
67.7964108176
 21
73.7118907836
 31
0.0
  0
LINE
  5
110
330
1F
100
AcDbEntity
  8
0
  6
Continuous
 62
     7
370
    25
100
AcDbLine
 10
63.2964108176
 20
73.7118907836
 30
0.0
 11
59.2964108176
 21
73.7118907836
 31
0.0
  0
LINE
  5
111
330
1F
100
AcDbEntity
  8
0
  6
Continuous
 62
     7
370
    25
100
AcDbLine
 10
59.2964108176
 20
61.7118907836
 30
0.0
 11
63.2964108176
 21
61.7118907836
 31
0.0
  0
LINE
  5
112
330
1F
100
AcDbEntity
  8
0
  6
Continuous
 62
     7
370
    25
100
AcDbLine
 10
76.7964108176
 20
61.7118907836
 30
0.0
 11
81.86396742
 21
62.4029212293
 31
0.0
  0
LINE
  5
113
330
1F
100
AcDbEntity
  8
0
  6
Continuous
 62
     7
370
    25
100
AcDbLine
 10
81.86396742
 20
73.0208603378
 30
0.0
 11
76.7964108176
 21
73.7118907836
 31
0.0
  0
ARC
  5
114
330
1F
100
AcDbEntity
  8
0
  6
Continuous
 62
     7
370
    25
100
AcDbCircle
 10
81.7964108176
 20
72.5254452538
 30
0.0
 40
0.5000000000000054
100
AcDbArc
 50
0.0
 51
82.2348339816
  0
ARC
  5
115
330
1F
100
AcDbEntity
  8
0
  6
Continuous
 62
     7
370
    25
100
AcDbCircle
 10
81.7964108176
 20
62.8983363134
 30
0.0
 40
0.5
100
AcDbArc
 50
277.7651660184
 51
0.0
  0
SPLINE
  5
116
330
1F
100
AcDbEntity
  8
0
  6
Continuous
 62
     7
370
    25
100
AcDbSpline
210
0.0
220
0.0
230
1.0
 70
     8
 71
     3
 72
    16
 73
    12
 74
     0
 42
0.000000001
 43
0.00000001
 40
0.0
 40
0.0
 40
0.0
 40
0.0
 40
0.2500000000000002
 40
0.2500000000000002
 40
0.5000000000000004
 40
0.5000000000000004
 40
0.6250000000000004
 40
0.6250000000000004
 40
0.7500000000000004
 40
0.7500000000000004
 40
1.0
 40
1.0
 40
1.0
 40
1.0
 10
55.0659631672846
 20
74.71189078356974
 30
0.0
 10
54.87546869629981
 20
74.1404073706154
 30
0.0
 10
54.71846668308672
 20
73.564757268683
 30
0.0
 10
54.5009678722487
 20
72.40145116125458
 30
0.0
 10
54.44118851117864
 20
71.81370590178365
 30
0.0
 10
54.44053201032468
 20
70.92101424859779
 30
0.0
 10
54.45514577680817
 20
70.62205056968108
 30
0.0
 10
54.51213163468499
 20
70.03066881974654
 30
0.0
 10
54.55444590394423
 20
69.73696062942734
 30
0.0
 10
54.71784072383442
 20
68.86106513489283
 30
0.0
 10
54.87523125114785
 20
68.28408653198065
 30
0.0
 10
55.06596316728484
 20
67.71189078356966
 30
0.0
  0
SPLINE
  5
117
330
1F
100
AcDbEntity
  8
0
  6
Continuous
 62
     7
370
    25
100
AcDbSpline
210
0.0
220
0.0
230
1.0
 70
     8
 71
     3
 72
    16
 73
    12
 74
     0
 42
0.000000001
 43
0.00000001
 40
0.0
 40
0.0
 40
0.0
 40
0.0
 40
0.2499999999999999
 40
0.2499999999999999
 40
0.4999999999999998
 40
0.4999999999999998
 40
0.6249999999999998
 40
0.6249999999999998
 40
0.7499999999999999
 40
0.7499999999999999
 40
1.0
 40
1.0
 40
1.0
 40
1.0
 10
55.0659631672846
 20
67.71189078356974
 30
0.0
 10
54.87546869629981
 20
67.14040737061539
 30
0.0
 10
54.71846668308672
 20
66.564757268683
 30
0.0
 10
54.5009678722487
 20
65.40145116125458
 30
0.0
 10
54.44118851117864
 20
64.81370590178365
 30
0.0
 10
54.44053201032468
 20
63.92101424859778
 30
0.0
 10
54.45514577680816
 20
63.62205056968108
 30
0.0
 10
54.51213163468499
 20
63.03066881974654
 30
0.0
 10
54.55444590394423
 20
62.73696062942735
 30
0.0
 10
54.71784072383442
 20
61.86106513489283
 30
0.0
 10
54.87523125114785
 20
61.28408653198064
 30
0.0
 10
55.06596316728484
 20
60.71189078356964
 30
0.0
  0
SPLINE
  5
118
330
1F
100
AcDbEntity
  8
0
  6
Continuous
 62
     7
370
    25
100
AcDbSpline
210
0.0
220
0.0
230
1.0
 70
    24
 71
     3
 72
    13
 73
     9
 74
     0
 42
0.000000001
 43
0.00000001
 40
0.0
 40
0.0
 40
0.0
 40
0.0
 40
0.1834900896423825
 40
0.3672881429943825
 40
0.5522810495210136
 40
0.7378125960060998
 40
0.9867786648415057
 40
1.0
 40
1.0
 40
1.0
 40
1.0
 10
55.0659631672851
 20
60.71189078356968
 30
0.0
 10
54.9988269585785
 20
60.71189078356968
 30
0.0
 10
54.86444186196874
 20
60.71189078356968
 30
0.0
 10
54.70047325920208
 20
60.71189078356968
 30
0.0
 10
54.56854347885589
 20
60.71189078356968
 30
0.0
 10
54.47480151307156
 20
60.71189078356968
 30
0.0
 10
54.4279845218832
 20
60.71189078356968
 30
0.0
 10
54.44219815582957
 20
60.71189078356968
 30
0.0
 10
54.44291490734152
 20
60.71189078356968
 30
0.0
  0
SPLINE
  5
119
330
1F
100
AcDbEntity
  8
0
  6
Continuous
 62
     7
370
    25
100
AcDbSpline
210
0.0
220
0.0
230
1.0
 70
    24
 71
     3
 72
    13
 73
     9
 74
     0
 42
0.000000001
 43
0.00000001
 40
0.0
 40
0.0
 40
0.0
 40
0.0
 40
0.0049686242405734
 40
0.2621826984821412
 40
0.4454270669273427
 40
0.6292327825529667
 40
0.8144405859096617
 40
1.0
 40
1.0
 40
1.0
 40
1.0
 10
54.44160584013358
 20
74.71189078356969
 30
0.0
 10
54.44132069295196
 20
74.71189078356969
 30
0.0
 10
54.42627414205151
 20
74.71189078356967
 30
0.0
 10
54.47362778249449
 20
74.71189078356969
 30
0.0
 10
54.56747723760279
 20
74.71189078356967
 30
0.0
 10
54.69837615709888
 20
74.71189078356969
 30
0.0
 10
54.86249018999451
 20
74.71189078356967
 30
0.0
 10
54.99809597504783
 20
74.71189078356969
 30
0.0
 10
55.0659631672851
 20
74.71189078356969
 30
0.0
  0
SPLINE
  5
11A
330
1F
100
AcDbEntity
  8
0
  6
Continuous
 62
     7
370
    25
100
AcDbSpline
210
0.0
220
0.0
230
1.0
 70
    24
 71
     3
 72
    13
 73
     9
 74
     0
 42
0.000000001
 43
0.00000001
 40
0.0
 40
0.0
 40
0.0
 40
0.0
 40
0.0049686242405734
 40
0.262182698482141
 40
0.4454270669273427
 40
0.6292327825529668
 40
0.8144405859096617
 40
1.0
 40
1.0
 40
1.0
 40
1.0
 10
59.15121579516323
 20
74.71189078356969
 30
0.0
 10
59.15150094234485
 20
74.71189078356969
 30
0.0
 10
59.16654749324529
 20
74.71189078356967
 30
0.0
 10
59.11919385280233
 20
74.71189078356969
 30
0.0
 10
59.02534439769401
 20
74.71189078356967
 30
0.0
 10
58.89444547819792
 20
74.71189078356969
 30
0.0
 10
58.7303314453023
 20
74.71189078356969
 30
0.0
 10
58.59472566024898
 20
74.71189078356969
 30
0.0
 10
58.52685846801172
 20
74.71189078356969
 30
0.0
  0
SPLINE
  5
11B
330
1F
100
AcDbEntity
  8
0
  6
Continuous
 62
     7
370
    25
100
AcDbSpline
210
0.0
220
0.0
230
1.0
 70
    24
 71
     3
 72
    13
 73
     9
 74
     0
 42
0.000000001
 43
0.00000001
 40
0.0
 40
0.0
 40
0.0
 40
0.0
 40
0.1834900896423825
 40
0.3672881429943825
 40
0.5522810495210136
 40
0.7378125960060998
 40
0.9867786648415057
 40
1.0
 40
1.0
 40
1.0
 40
1.0
 10
58.52685846801172
 20
60.71189078356968
 30
0.0
 10
58.59399467671831
 20
60.71189078356968
 30
0.0
 10
58.72837977332808
 20
60.71189078356968
 30
0.0
 10
58.89234837609473
 20
60.71189078356968
 30
0.0
 10
59.02427815644091
 20
60.71189078356968
 30
0.0
 10
59.11802012222525
 20
60.71189078356968
 30
0.0
 10
59.16483711341361
 20
60.71189078356968
 30
0.0
 10
59.15062347946724
 20
60.71189078356968
 30
0.0
 10
59.1499067279553
 20
60.71189078356968
 30
0.0
  0
SPLINE
  5
11C
330
1F
100
AcDbEntity
  8
0
  6
Continuous
 62
     7
370
    25
100
AcDbSpline
210
0.0
220
0.0
230
1.0
 70
     8
 71
     3
 72
    16
 73
    12
 74
     0
 42
0.000000001
 43
0.00000001
 40
0.0
 40
0.0
 40
0.0
 40
0.0
 40
0.2499999999999999
 40
0.2499999999999999
 40
0.4999999999999998
 40
0.4999999999999998
 40
0.6249999999999998
 40
0.6249999999999998
 40
0.7499999999999999
 40
0.7499999999999999
 40
1.0
 40
1.0
 40
1.0
 40
1.0
 10
58.52685846801221
 20
67.71189078356974
 30
0.0
 10
58.717352938997
 20
67.14040737061539
 30
0.0
 10
58.87435495221008
 20
66.564757268683
 30
0.0
 10
59.09185376304811
 20
65.40145116125458
 30
0.0
 10
59.15163312411817
 20
64.81370590178365
 30
0.0
 10
59.15228962497213
 20
63.92101424859778
 30
0.0
 10
59.13767585848865
 20
63.62205056968108
 30
0.0
 10
59.08069000061182
 20
63.03066881974654
 30
0.0
 10
59.03837573135258
 20
62.73696062942735
 30
0.0
 10
58.87498091146239
 20
61.86106513489283
 30
0.0
 10
58.71759038414897
 20
61.28408653198064
 30
0.0
 10
58.52685846801197
 20
60.71189078356964
 30
0.0
  0
SPLINE
  5
11D
330
1F
100
AcDbEntity
  8
0
  6
Continuous
 62
     7
370
    25
100
AcDbSpline
210
0.0
220
0.0
230
1.0
 70
     8
 71
     3
 72
    16
 73
    12
 74
     0
 42
0.000000001
 43
0.00000001
 40
0.0
 40
0.0
 40
0.0
 40
0.0
 40
0.2500000000000001
 40
0.2500000000000001
 40
0.5000000000000002
 40
0.5000000000000002
 40
0.6250000000000002
 40
0.6250000000000002
 40
0.7500000000000003
 40
0.7500000000000003
 40
1.0
 40
1.0
 40
1.0
 40
1.0
 10
58.52685846801221
 20
74.71189078356974
 30
0.0
 10
58.717352938997
 20
74.14040737061539
 30
0.0
 10
58.87435495221008
 20
73.564757268683
 30
0.0
 10
59.09185376304811
 20
72.40145116125458
 30
0.0
 10
59.15163312411817
 20
71.81370590178365
 30
0.0
 10
59.15228962497213
 20
70.92101424859779
 30
0.0
 10
59.13767585848865
 20
70.62205056968108
 30
0.0
 10
59.08069000061182
 20
70.03066881974654
 30
0.0
 10
59.03837573135258
 20
69.73696062942734
 30
0.0
 10
58.87498091146239
 20
68.86106513489283
 30
0.0
 10
58.71759038414897
 20
68.28408653198065
 30
0.0
 10
58.52685846801197
 20
67.71189078356966
 30
0.0
  0
LINE
  5
11E
330
1F
100
AcDbEntity
  8
0
  6
Continuous
 62
     7
370
    25
100
AcDbLine
 10
59.2964108176
 20
74.4618907836
 30
0.0
 11
59.2964108176
 21
60.9618907836
 31
0.0
  0
LINE
  5
11F
330
1F
100
AcDbEntity
  8
0
  6
Continuous
 62
     7
370
    25
100
AcDbLine
 10
56.7160260599
 20
67.7118907836
 30
0.0
 11
55.0659631673
 21
67.7118907836
 31
0.0
  0
LINE
  5
120
330
1F
100
AcDbEntity
  8
0
  6
Continuous
 62
     7
370
    25
100
AcDbLine
 10
56.7160260599
 20
74.7118907836
 30
0.0
 11
55.0659631673
 21
74.7118907836
 31
0.0
  0
SPLINE
  5
121
330
1F
100
AcDbEntity
  8
0
  6
Continuous
 62
     7
370
    25
100
AcDbSpline
210
0.0
220
0.0
230
1.0
 70
     8
 71
     3
 72
     8
 73
     4
 74
     0
 42
0.000000001
 43
0.00000001
 40
0.0
 40
0.0
 40
0.0
 40
0.0
 40
1.0
 40
1.0
 40
1.0
 40
1.0
 10
56.79641081764841
 20
74.15810756176258
 30
0.0
 10
56.77141040472571
 20
74.34296330793076
 30
0.0
 10
56.7445440932655
 20
74.52754731815453
 30
0.0
 10
56.71602605991907
 20
74.71189078356967
 30
0.0
  0
SPLINE
  5
122
330
1F
100
AcDbEntity
  8
0
  6
Continuous
 62
     7
370
    25
100
AcDbSpline
210
0.0
220
0.0
230
1.0
 70
     8
 71
     3
 72
     8
 73
     4
 74
     0
 42
0.000000001
 43
0.00000001
 40
0.0
 40
0.0
 40
0.0
 40
0.0
 40
1.0
 40
1.0
 40
1.0
 40
1.0
 10
56.87679557537774
 20
74.71189078356969
 30
0.0
 10
56.84826176053965
 20
74.52744530498872
 30
0.0
 10
56.82139683873286
 20
74.34285689312848
 30
0.0
 10
56.79641081764841
 20
74.15810756176258
 30
0.0
  0
LINE
  5
123
330
1F
100
AcDbEntity
  8
0
  6
Continuous
 62
     7
370
    25
100
AcDbLine
 10
58.526858468
 20
74.7118907836
 30
0.0
 11
56.8767955754
 21
74.7118907836
 31
0.0
  0
LINE
  5
124
330
1F
100
AcDbEntity
  8
0
  6
Continuous
 62
     7
370
    25
100
AcDbLine
 10
58.526858468
 20
67.7118907836
 30
0.0
 11
56.8767955754
 21
67.7118907836
 31
0.0
  0
SPLINE
  5
125
330
1F
100
AcDbEntity
  8
0
  6
Continuous
 62
     7
370
    25
100
AcDbSpline
210
0.0
220
0.0
230
1.0
 70
     8
 71
     3
 72
     8
 73
     4
 74
     0
 42
0.000000001
 43
0.00000001
 40
0.0
 40
0.0
 40
0.0
 40
0.0
 40
1.0
 40
1.0
 40
1.0
 40
1.0
 10
56.79641081764841
 20
68.26567400537678
 30
0.0
 10
56.82141123057111
 20
68.0808182592086
 30
0.0
 10
56.84827754203133
 20
67.89623424898483
 30
0.0
 10
56.87679557537774
 20
67.71189078356967
 30
0.0
  0
SPLINE
  5
126
330
1F
100
AcDbEntity
  8
0
  6
Continuous
 62
     7
370
    25
100
AcDbSpline
210
0.0
220
0.0
230
1.0
 70
     8
 71
     3
 72
     8
 73
     4
 74
     0
 42
0.000000001
 43
0.00000001
 40
0.0
 40
0.0
 40
0.0
 40
0.0
 40
1.0
 40
1.0
 40
1.0
 40
1.0
 10
56.71602605991907
 20
67.71189078356967
 30
0.0
 10
56.74455987475717
 20
67.89633626215065
 30
0.0
 10
56.77142479656396
 20
68.08092467401087
 30
0.0
 10
56.79641081764841
 20
68.26567400537678
 30
0.0
  0
SPLINE
  5
127
330
1F
100
AcDbEntity
  8
0
  6
Continuous
 62
     7
370
    25
100
AcDbSpline
210
0.0
220
0.0
230
1.0
 70
     8
 71
     3
 72
     8
 73
     4
 74
     0
 42
0.000000001
 43
0.00000001
 40
0.0
 40
0.0
 40
0.0
 40
0.0
 40
1.0
 40
1.0
 40
1.0
 40
1.0
 10
56.87679557537774
 20
67.71189078356967
 30
0.0
 10
56.84826176053965
 20
67.52744530498872
 30
0.0
 10
56.82139683873286
 20
67.3428568931285
 30
0.0
 10
56.79641081764841
 20
67.15810756176259
 30
0.0
  0
LINE
  5
128
330
1F
100
AcDbEntity
  8
0
  6
Continuous
 62
     7
370
    25
100
AcDbLine
 10
56.7964108176
 20
67.1581075618
 30
0.0
 11
56.7964108176
 21
68.2656740054
 31
0.0
  0
SPLINE
  5
129
330
1F
100
AcDbEntity
  8
0
  6
Continuous
 62
     7
370
    25
100
AcDbSpline
210
0.0
220
0.0
230
1.0
 70
     8
 71
     3
 72
     8
 73
     4
 74
     0
 42
0.000000001
 43
0.00000001
 40
0.0
 40
0.0
 40
0.0
 40
0.0
 40
1.0
 40
1.0
 40
1.0
 40
1.0
 10
56.79641081764841
 20
67.15810756176259
 30
0.0
 10
56.77141040472571
 20
67.34296330793077
 30
0.0
 10
56.7445440932655
 20
67.52754731815453
 30
0.0
 10
56.71602605991907
 20
67.71189078356967
 30
0.0
  0
LINE
  5
12A
330
1F
100
AcDbEntity
  8
0
  6
Continuous
 62
     7
370
    25
100
AcDbLine
 10
56.7160260599
 20
60.7118907836
 30
0.0
 11
55.0659631673
 21
60.7118907836
 31
0.0
  0
LINE
  5
12B
330
1F
100
AcDbEntity
  8
0
  6
Continuous
 62
     7
370
    25
100
AcDbLine
 10
58.526858468
 20
60.7118907836
 30
0.0
 11
56.8767955754
 21
60.7118907836
 31
0.0
  0
SPLINE
  5
12C
330
1F
100
AcDbEntity
  8
0
  6
Continuous
 62
     7
370
    25
100
AcDbSpline
210
0.0
220
0.0
230
1.0
 70
     8
 71
     3
 72
     8
 73
     4
 74
     0
 42
0.000000001
 43
0.00000001
 40
0.0
 40
0.0
 40
0.0
 40
0.0
 40
1.0
 40
1.0
 40
1.0
 40
1.0
 10
56.79641081764841
 20
61.26567400537677
 30
0.0
 10
56.82141123057111
 20
61.08081825920859
 30
0.0
 10
56.84827754203133
 20
60.89623424898482
 30
0.0
 10
56.87679557537774
 20
60.71189078356968
 30
0.0
  0
SPLINE
  5
12D
330
1F
100
AcDbEntity
  8
0
  6
Continuous
 62
     7
370
    25
100
AcDbSpline
210
0.0
220
0.0
230
1.0
 70
     8
 71
     3
 72
     8
 73
     4
 74
     0
 42
0.000000001
 43
0.00000001
 40
0.0
 40
0.0
 40
0.0
 40
0.0
 40
1.0
 40
1.0
 40
1.0
 40
1.0
 10
56.71602605991907
 20
60.71189078356967
 30
0.0
 10
56.74455987475717
 20
60.89633626215064
 30
0.0
 10
56.77142479656396
 20
61.08092467401087
 30
0.0
 10
56.79641081764841
 20
61.26567400537677
 30
0.0
  0
LINE
  5
12E
330
1F
100
AcDbEntity
  8
0
  6
Continuous
 62
     7
370
    25
100
AcDbLine
 10
44.3851984714
 20
74.1678528977
 30
0.0
 11
44.3851984714
 21
61.2559286694
 31
0.0
  0
LINE
  5
12F
330
1F
100
AcDbEntity
  8
0
  6
Continuous
 62
     7
370
    25
100
AcDbLine
 10
54.2964108176
 20
74.4775782836
 30
0.0
 11
54.2964108176
 21
60.9462032836
 31
0.0
  0
LINE
  5
130
330
1F
100
AcDbEntity
  8
0
  6
Continuous
 62
     7
370
    25
100
AcDbLine
 10
42.2964108176
 20
62.4618907836
 30
0.0
 11
42.2964108176
 21
72.9618907836
 31
0.0
  0
LINE
  5
131
330
1F
100
AcDbEntity
  8
0
  6
Continuous
 62
     7
370
    25
100
AcDbLine
 10
72.2964108176
 20
67.7118907836
 30
0.0
 11
72.2964108176
 21
61.7118907836
 31
0.0
  0
LINE
  5
132
330
1F
100
AcDbEntity
  8
0
  6
Continuous
 62
     7
370
    25
100
AcDbLine
 10
72.2964108176
 20
73.7118907836
 30
0.0
 11
72.2964108176
 21
67.7118907836
 31
0.0
  0
LINE
  5
133
330
1F
100
AcDbEntity
  8
0
  6
Continuous
 62
     7
370
    25
100
AcDbLine
 10
63.2964108176
 20
67.7118907836
 30
0.0
 11
63.2964108176
 21
61.7118907836
 31
0.0
  0
LINE
  5
134
330
1F
100
AcDbEntity
  8
0
  6
Continuous
 62
     7
370
    25
100
AcDbLine
 10
63.2964108176
 20
73.7118907836
 30
0.0
 11
63.2964108176
 21
67.7118907836
 31
0.0
  0
LINE
  5
135
330
1F
100
AcDbEntity
  8
0
  6
Continuous
 62
     7
370
    25
100
AcDbLine
 10
67.7964108176
 20
67.7118907836
 30
0.0
 11
67.7964108176
 21
61.7118907836
 31
0.0
  0
LINE
  5
136
330
1F
100
AcDbEntity
  8
0
  6
Continuous
 62
     7
370
    25
100
AcDbLine
 10
67.7964108176
 20
73.7118907836
 30
0.0
 11
67.7964108176
 21
67.7118907836
 31
0.0
  0
LINE
  5
137
330
1F
100
AcDbEntity
  8
0
  6
Continuous
 62
     7
370
    25
100
AcDbLine
 10
76.7964108176
 20
67.7118907836
 30
0.0
 11
76.7964108176
 21
61.7118907836
 31
0.0
  0
LINE
  5
138
330
1F
100
AcDbEntity
  8
0
  6
Continuous
 62
     7
370
    25
100
AcDbLine
 10
76.7964108176
 20
73.7118907836
 30
0.0
 11
76.7964108176
 21
67.7118907836
 31
0.0
  0
LINE
  5
139
330
1F
100
AcDbEntity
  8
0
  6
Continuous
 62
     7
370
    25
100
AcDbLine
 10
82.2964108176
 20
67.7118907836
 30
0.0
 11
82.2964108176
 21
62.8983363134
 31
0.0
  0
LINE
  5
13A
330
1F
100
AcDbEntity
  8
0
  6
Continuous
 62
     7
370
    25
100
AcDbLine
 10
82.2964108176
 20
72.5254452538
 30
0.0
 11
82.2964108176
 21
67.7118907836
 31
0.0
  0
LINE
  5
13B
330
1F
100
AcDbEntity
  8
0
  6
Continuous
 62
     7
370
    25
100
AcDbLine
 10
56.7964108176
 20
74.1581075618
 30
0.0
 11
56.7964108176
 21
74.7118907836
 31
0.0
  0
SPLINE
  5
13C
330
1F
100
AcDbEntity
  8
0
  6
Continuous
 62
     7
370
    25
100
AcDbSpline
210
0.0
220
0.0
230
1.0
 70
    24
 71
     3
 72
     8
 73
     4
 74
     0
 42
0.000000001
 43
0.00000001
 40
0.0
 40
0.0
 40
0.0
 40
0.0
 40
1.0
 40
1.0
 40
1.0
 40
1.0
 10
56.79641081764841
 20
74.71189078356969
 30
0.0
 10
56.82141048964264
 20
74.71189078356969
 30
0.0
 10
56.84827673042962
 20
74.71189078356969
 30
0.0
 10
56.87679557537774
 20
74.71189078356969
 30
0.0
  0
SPLINE
  5
13D
330
1F
100
AcDbEntity
  8
0
  6
Continuous
 62
     7
370
    25
100
AcDbSpline
210
0.0
220
0.0
230
1.0
 70
    24
 71
     3
 72
     8
 73
     4
 74
     0
 42
0.000000001
 43
0.00000001
 40
0.0
 40
0.0
 40
0.0
 40
0.0
 40
1.0
 40
1.0
 40
1.0
 40
1.0
 10
56.71602605991907
 20
74.71189078356969
 30
0.0
 10
56.74456219023472
 20
74.71189078356969
 30
0.0
 10
56.77142690541813
 20
74.71189078356969
 30
0.0
 10
56.79641081764841
 20
74.71189078356969
 30
0.0
  0
SPLINE
  5
13E
330
1F
100
AcDbEntity
  8
0
  6
Continuous
 62
     7
370
    25
100
AcDbSpline
210
0.0
220
0.0
230
1.0
 70
    24
 71
     3
 72
     8
 73
     4
 74
     0
 42
0.000000001
 43
0.00000001
 40
0.0
 40
0.0
 40
0.0
 40
0.0
 40
1.0
 40
1.0
 40
1.0
 40
1.0
 10
56.79641081764841
 20
60.71189078356968
 30
0.0
 10
56.77141114565418
 20
60.71189078356968
 30
0.0
 10
56.7445449048672
 20
60.71189078356968
 30
0.0
 10
56.71602605991907
 20
60.71189078356968
 30
0.0
  0
LINE
  5
13F
330
1F
100
AcDbEntity
  8
0
  6
Continuous
 62
     7
370
    25
100
AcDbLine
 10
56.7964108176
 20
60.7118907836
 30
0.0
 11
56.7964108176
 21
61.2656740054
 31
0.0
  0
SPLINE
  5
140
330
1F
100
AcDbEntity
  8
0
  6
Continuous
 62
     7
370
    25
100
AcDbSpline
210
0.0
220
0.0
230
1.0
 70
    24
 71
     3
 72
     8
 73
     4
 74
     0
 42
0.000000001
 43
0.00000001
 40
0.0
 40
0.0
 40
0.0
 40
0.0
 40
1.0
 40
1.0
 40
1.0
 40
1.0
 10
56.87679557537774
 20
60.71189078356968
 30
0.0
 10
56.84825944506211
 20
60.71189078356968
 30
0.0
 10
56.82139472987868
 20
60.71189078356968
 30
0.0
 10
56.79641081764841
 20
60.71189078356968
 30
0.0
  0
LINE
  5
141
330
1F
100
AcDbEntity
  8
0
  6
Continuous
 62
     8
370
    25
100
AcDbLine
 10
81.86396742
 20
67.7118907836
 30
0.0
 11
81.86396742
 21
73.0208603378
 31
0.0
  0
LINE
  5
142
330
1F
100
AcDbEntity
  8
0
  6
Continuous
 62
     8
370
    25
100
AcDbLine
 10
81.86396742
 20
62.4029212293
 30
0.0
 11
81.86396742
 21
67.7118907836
 31
0.0
  0
LINE
  5
143
330
1F
100
AcDbEntity
  8
0
  6
Continuous
 62
     7
370
    18
100
AcDbLine
 10
43.1616365402
 20
73.4614290874
 30
0.0
 11
53.7964108176
 21
73.7937657836
 31
0.0
  0
LINE
  5
144
330
1F
100
AcDbEntity
  8
0
  6
Continuous
 62
     7
370
    18
100
AcDbLine
 10
43.1616365402
 20
61.9623524797
 30
0.0
 11
53.7964108176
 21
61.6300157836
 31
0.0
  0
LINE
  5
145
330
1F
100
AcDbEntity
  8
0
  6
Continuous
 62
     7
370
    18
100
AcDbLine
 10
53.7964108176
 20
60.9618282836
 30
0.0
 11
53.7964108176
 21
74.4619532836
 31
0.0
  0
LINE
  5
146
330
1F
100
AcDbEntity
  8
0
  6
CENTERX2
 62
     7
370
    18
100
AcDbLine
 10
83.2964108176
 20
67.7118907836
 30
0.0
 11
41.4050881356
 21
67.7118907836
 31
0.0
  0
ENDSEC
  0
SECTION
  2
OBJECTS
  0
DICTIONARY
  5
C
330
0
100
AcDbDictionary
281
     1
  3
ACAD_GROUP
350
D
  3
ACAD_LAYOUT
350
1A
  3
ACAD_MLINESTYLE
350
17
  3
ACAD_PLOTSETTINGS
350
19
  3
ACAD_PLOTSTYLENAME
350
E
  3
ACAD_SCALELIST
350
47
  0
DICTIONARY
  5
D
102
{ACAD_REACTORS
330
C
102
}
330
C
100
AcDbDictionary
281
     1
  0
DICTIONARY
  5
1A
102
{ACAD_REACTORS
330
C
102
}
330
C
100
AcDbDictionary
281
     1
  3
Layout1
350
1E
  3
Layout2
350
26
  3
Model
350
22
  0
DICTIONARY
  5
17
102
{ACAD_REACTORS
330
C
102
}
330
C
100
AcDbDictionary
281
     1
  3
Standard
350
18
  0
DICTIONARY
  5
19
102
{ACAD_REACTORS
330
C
102
}
330
C
100
AcDbDictionary
281
     1
  0
ACDBDICTIONARYWDFLT
  5
E
102
{ACAD_REACTORS
330
C
102
}
330
C
100
AcDbDictionary
281
     1
  3
Normal
350
F
100
AcDbDictionaryWithDefault
340
F
  0
DICTIONARY
  5
47
102
{ACAD_REACTORS
330
C
102
}
330
C
100
AcDbDictionary
281
     1
  3
A0
350
48
  3
A1
350
49
  3
A2
350
4A
  3
A3
350
4B
  3
A4
350
4C
  3
A5
350
4D
  3
A6
350
4E
  3
A7
350
4F
  3
A8
350
50
  3
A9
350
51
  3
B0
350
52
  3
B1
350
53
  3
B2
350
54
  3
B3
350
55
  3
B4
350
56
  3
B5
350
57
  3
B6
350
58
  3
B7
350
59
  3
B8
350
5A
  3
B9
350
5B
  3
C0
350
5C
  3
C1
350
5D
  3
C2
350
5E
  3
C3
350
5F
  3
C4
350
60
  3
C5
350
61
  3
C6
350
62
  3
C7
350
63
  3
C8
350
64
  3
C9
350
65
  3
D0
350
66
  3
D1
350
67
  3
D2
350
68
  0
LAYOUT
  5
1E
102
{ACAD_REACTORS
330
1A
102
}
330
1A
100
AcDbPlotSettings
  1

  2
none_device
  4

  6

 40
0.0
 41
0.0
 42
0.0
 43
0.0
 44
0.0
 45
0.0
 46
0.0
 47
0.0
 48
0.0
 49
0.0
140
0.0
141
0.0
142
1.0
143
1.0
 70
   688
 72
     1
 73
     0
 74
     5
  7

 75
    16
147
1.0
148
0.0
149
0.0
100
AcDbLayout
  1
Layout1
 70
     1
 71
     1
 10
0.0
 20
0.0
 11
420.0
 21
297.0
 12
0.0
 22
0.0
 32
0.0
 14
1.0000000000E+20
 24
1.0000000000E+20
 34
1.0000000000E+20
 15
-1.0000000000E+20
 25
-1.0000000000E+20
 35
-1.0000000000E+20
146
0.0
 13
0.0
 23
0.0
 33
0.0
 16
1.0
 26
0.0
 36
0.0
 17
0.0
 27
1.0
 37
0.0
 76
     0
330
1B
  0
LAYOUT
  5
26
102
{ACAD_REACTORS
330
1A
102
}
330
1A
100
AcDbPlotSettings
  1

  2
none_device
  4

  6

 40
0.0
 41
0.0
 42
0.0
 43
0.0
 44
0.0
 45
0.0
 46
0.0
 47
0.0
 48
0.0
 49
0.0
140
0.0
141
0.0
142
1.0
143
1.0
 70
   688
 72
     1
 73
     0
 74
     5
  7

 75
    16
147
1.0
148
0.0
149
0.0
100
AcDbLayout
  1
Layout2
 70
     1
 71
     2
 10
0.0
 20
0.0
 11
0.0
 21
0.0
 12
0.0
 22
0.0
 32
0.0
 14
0.0
 24
0.0
 34
0.0
 15
0.0
 25
0.0
 35
0.0
146
0.0
 13
0.0
 23
0.0
 33
0.0
 16
1.0
 26
0.0
 36
0.0
 17
0.0
 27
1.0
 37
0.0
 76
     0
330
23
  0
LAYOUT
  5
22
102
{ACAD_REACTORS
330
1A
102
}
330
1A
100
AcDbPlotSettings
  1

  2
none_device
  4
Letter_(8.50_x_11.00_Inches)
  6

 40
6.35
 41
6.35
 42
6.35000508
 43
6.35000508
 44
215.9
 45
279.4
 46
0.0
 47
0.0
 48
0.0
 49
0.0
140
0.0
141
0.0
142
1.0
143
1.0
 70
  1712
 72
     1
 73
     0
 74
     0
  7

 75
     0
147
1.0
148
0.0
149
0.0
100
AcDbLayout
  1
Model
 70
     1
 71
     0
 10
0.0
 20
0.0
 11
215.9
 21
139.7
 12
0.0
 22
0.0
 32
0.0
 14
0.0
 24
0.0
 34
0.0
 15
215.9
 25
139.7
 35
0.0
146
0.0
 13
0.0
 23
0.0
 33
0.0
 16
1.0
 26
0.0
 36
0.0
 17
0.0
 27
1.0
 37
0.0
 76
     0
330
1F
331
29
  0
MLINESTYLE
  5
18
102
{ACAD_REACTORS
330
17
102
}
330
17
100
AcDbMlineStyle
  2
Standard
 70
     0
  3

 62
   256
 51
90.0
 52
90.0
 71
     2
 49
0.5
 62
   256
  6
BYLAYER
 49
-0.5
 62
   256
  6
BYLAYER
  0
ACDBPLACEHOLDER
  5
F
102
{ACAD_REACTORS
330
E
102
}
330
E
  0
SCALE
  5
48
102
{ACAD_REACTORS
330
47
102
}
330
47
100
AcDbScale
 70
     0
300
1:1
140
1.0
141
1.0
290
     1
  0
SCALE
  5
49
102
{ACAD_REACTORS
330
47
102
}
330
47
100
AcDbScale
 70
     0
300
1:2
140
1.0
141
2.0
290
     0
  0
SCALE
  5
4A
102
{ACAD_REACTORS
330
47
102
}
330
47
100
AcDbScale
 70
     0
300
1:4
140
1.0
141
4.0
290
     0
  0
SCALE
  5
4B
102
{ACAD_REACTORS
330
47
102
}
330
47
100
AcDbScale
 70
     0
300
1:5
140
1.0
141
5.0
290
     0
  0
SCALE
  5
4C
102
{ACAD_REACTORS
330
47
102
}
330
47
100
AcDbScale
 70
     0
300
1:8
140
1.0
141
8.0
290
     0
  0
SCALE
  5
4D
102
{ACAD_REACTORS
330
47
102
}
330
47
100
AcDbScale
 70
     0
300
1:10
140
1.0
141
10.0
290
     0
  0
SCALE
  5
4E
102
{ACAD_REACTORS
330
47
102
}
330
47
100
AcDbScale
 70
     0
300
1:16
140
1.0
141
16.0
290
     0
  0
SCALE
  5
4F
102
{ACAD_REACTORS
330
47
102
}
330
47
100
AcDbScale
 70
     0
300
1:20
140
1.0
141
20.0
290
     0
  0
SCALE
  5
50
102
{ACAD_REACTORS
330
47
102
}
330
47
100
AcDbScale
 70
     0
300
1:30
140
1.0
141
30.0
290
     0
  0
SCALE
  5
51
102
{ACAD_REACTORS
330
47
102
}
330
47
100
AcDbScale
 70
     0
300
1:40
140
1.0
141
40.0
290
     0
  0
SCALE
  5
52
102
{ACAD_REACTORS
330
47
102
}
330
47
100
AcDbScale
 70
     0
300
1:50
140
1.0
141
50.0
290
     0
  0
SCALE
  5
53
102
{ACAD_REACTORS
330
47
102
}
330
47
100
AcDbScale
 70
     0
300
1:100
140
1.0
141
100.0
290
     0
  0
SCALE
  5
54
102
{ACAD_REACTORS
330
47
102
}
330
47
100
AcDbScale
 70
     0
300
2:1
140
2.0
141
1.0
290
     0
  0
SCALE
  5
55
102
{ACAD_REACTORS
330
47
102
}
330
47
100
AcDbScale
 70
     0
300
4:1
140
4.0
141
1.0
290
     0
  0
SCALE
  5
56
102
{ACAD_REACTORS
330
47
102
}
330
47
100
AcDbScale
 70
     0
300
8:1
140
8.0
141
1.0
290
     0
  0
SCALE
  5
57
102
{ACAD_REACTORS
330
47
102
}
330
47
100
AcDbScale
 70
     0
300
10:1
140
10.0
141
1.0
290
     0
  0
SCALE
  5
58
102
{ACAD_REACTORS
330
47
102
}
330
47
100
AcDbScale
 70
     0
300
100:1
140
100.0
141
1.0
290
     0
  0
SCALE
  5
59
102
{ACAD_REACTORS
330
47
102
}
330
47
100
AcDbScale
 70
     0
300
1/128" = 1'-0"
140
0.0078125
141
12.0
290
     0
  0
SCALE
  5
5A
102
{ACAD_REACTORS
330
47
102
}
330
47
100
AcDbScale
 70
     0
300
1/64" = 1'-0"
140
0.015625
141
12.0
290
     0
  0
SCALE
  5
5B
102
{ACAD_REACTORS
330
47
102
}
330
47
100
AcDbScale
 70
     0
300
1/32" = 1'-0"
140
0.03125
141
12.0
290
     0
  0
SCALE
  5
5C
102
{ACAD_REACTORS
330
47
102
}
330
47
100
AcDbScale
 70
     0
300
1/16" = 1'-0"
140
0.0625
141
12.0
290
     0
  0
SCALE
  5
5D
102
{ACAD_REACTORS
330
47
102
}
330
47
100
AcDbScale
 70
     0
300
3/32" = 1'-0"
140
0.09375
141
12.0
290
     0
  0
SCALE
  5
5E
102
{ACAD_REACTORS
330
47
102
}
330
47
100
AcDbScale
 70
     0
300
1/8" = 1'-0"
140
0.125
141
12.0
290
     0
  0
SCALE
  5
5F
102
{ACAD_REACTORS
330
47
102
}
330
47
100
AcDbScale
 70
     0
300
3/16" = 1'-0"
140
0.1875
141
12.0
290
     0
  0
SCALE
  5
60
102
{ACAD_REACTORS
330
47
102
}
330
47
100
AcDbScale
 70
     0
300
1/4" = 1'-0"
140
0.25
141
12.0
290
     0
  0
SCALE
  5
61
102
{ACAD_REACTORS
330
47
102
}
330
47
100
AcDbScale
 70
     0
300
3/8" = 1'-0"
140
0.375
141
12.0
290
     0
  0
SCALE
  5
62
102
{ACAD_REACTORS
330
47
102
}
330
47
100
AcDbScale
 70
     0
300
1/2" = 1'-0"
140
0.5
141
12.0
290
     0
  0
SCALE
  5
63
102
{ACAD_REACTORS
330
47
102
}
330
47
100
AcDbScale
 70
     0
300
3/4" = 1'-0"
140
0.75
141
12.0
290
     0
  0
SCALE
  5
64
102
{ACAD_REACTORS
330
47
102
}
330
47
100
AcDbScale
 70
     0
300
1" = 1'-0"
140
1.0
141
12.0
290
     0
  0
SCALE
  5
65
102
{ACAD_REACTORS
330
47
102
}
330
47
100
AcDbScale
 70
     0
300
1-1/2" = 1'-0"
140
1.5
141
12.0
290
     0
  0
SCALE
  5
66
102
{ACAD_REACTORS
330
47
102
}
330
47
100
AcDbScale
 70
     0
300
3" = 1'-0"
140
3.0
141
12.0
290
     0
  0
SCALE
  5
67
102
{ACAD_REACTORS
330
47
102
}
330
47
100
AcDbScale
 70
     0
300
6" = 1'-0"
140
6.0
141
12.0
290
     0
  0
SCALE
  5
68
102
{ACAD_REACTORS
330
47
102
}
330
47
100
AcDbScale
 70
     0
300
1'-0" = 1'-0"
140
12.0
141
12.0
290
     0
  0
ENDSEC
  0
EOF
