  0
SECTION
  2
HEADER
  9
$ACADVER
  1
AC1015
  9
$ACADMAINTVER
 70
     6
  9
$DWGCODEPAGE
  3
DOS932
  9
$INSBASE
 10
0.0
 20
0.0
 30
0.0
  9
$EXTMIN
 10
0.0
 20
0.0
 30
0.0
  9
$EXTMAX
 10
215.9
 20
139.7
 30
0.0
  9
$LIMMIN
 10
0.0
 20
0.0
  9
$LIMMAX
 10
215.9
 20
139.7
  9
$ORTHOMODE
 70
     0
  9
$REGENMODE
 70
     1
  9
$FILLMODE
 70
     1
  9
$QTEXTMODE
 70
     0
  9
$MIRRTEXT
 70
     1
  9
$LTSCALE
 40
0.5
  9
$ATTMODE
 70
     1
  9
$TEXTSIZE
 40
1.75
  9
$TRACEWID
 40
1.0
  9
$TEXTSTYLE
  7
Standard
  9
$CLAYER
  8
0
  9
$CELTYPE
  6
ByLayer
  9
$CECOLOR
 62
   256
  9
$CELTSCALE
 40
1.0
  9
$DISPSILH
 70
     0
  9
$DIMSCALE
 40
1.0
  9
$DIMASZ
 40
1.651
  9
$DIMEXO
 40
0.5
  9
$DIMDLI
 40
3.75
  9
$DIMRND
 40
0.0
  9
$DIMDLE
 40
0.0
  9
$DIMEXE
 40
0.5
  9
$DIMTP
 40
0.0
  9
$DIMTM
 40
0.0
  9
$DIMTXT
 40
1.75
  9
$DIMCEN
 40
2.5
  9
$DIMTSZ
 40
0.0
  9
$DIMTOL
 70
     0
  9
$DIMLIM
 70
     0
  9
$DIMTIH
 70
     1
  9
$DIMTOH
 70
     1
  9
$DIMSE1
 70
     0
  9
$DIMSE2
 70
     0
  9
$DIMTAD
 70
     1
  9
$DIMZIN
 70
     1
  9
$DIMBLK
  1

  9
$DIMASO
 70
     1
  9
$DIMSHO
 70
     1
  9
$DIMPOST
  1

  9
$DIMAPOST
  1

  9
$DIMALT
 70
     0
  9
$DIMALTD
 70
     3
  9
$DIMALTF
 40
0.0393700787
  9
$DIMLFAC
 40
1.0
  9
$DIMTOFL
 70
     1
  9
$DIMTVP
 40
0.0
  9
$DIMTIX
 70
     0
  9
$DIMSOXD
 70
     0
  9
$DIMSAH
 70
     0
  9
$DIMBLK1
  1

  9
$DIMBLK2
  1

  9
$DIMSTYLE
  2
ISO-25
  9
$DIMCLRD
 70
     0
  9
$DIMCLRE
 70
     0
  9
$DIMCLRT
 70
     0
  9
$DIMTFAC
 40
1.0
  9
$DIMGAP
 40
0.762
  9
$DIMJUST
 70
     0
  9
$DIMSD1
 70
     0
  9
$DIMSD2
 70
     0
  9
$DIMTOLJ
 70
     0
  9
$DIMTZIN
 70
     1
  9
$DIMALTZ
 70
     0
  9
$DIMALTTZ
 70
     0
  9
$DIMUPT
 70
     0
  9
$DIMDEC
 70
     2
  9
$DIMTDEC
 70
     2
  9
$DIMALTU
 70
     2
  9
$DIMALTTD
 70
     3
  9
$DIMTXSTY
  7
Standard
  9
$DIMAUNIT
 70
     0
  9
$DIMADEC
 70
     2
  9
$DIMALTRND
 40
0.0
  9
$DIMAZIN
 70
     0
  9
$DIMDSEP
 70
    44
  9
$DIMATFIT
 70
     3
  9
$DIMFRAC
 70
     0
  9
$DIMLDRBLK
  1

  9
$DIMLUNIT
 70
     2
  9
$DIMLWD
 70
    -2
  9
$DIMLWE
 70
    -2
  9
$DIMTMOVE
 70
     0
  9
$LUNITS
 70
     2
  9
$LUPREC
 70
     2
  9
$SKETCHINC
 40
1.0
  9
$FILLETRAD
 40
10.0
  9
$AUNITS
 70
     0
  9
$AUPREC
 70
     2
  9
$MENU
  1
.
  9
$ELEVATION
 40
0.0
  9
$PELEVATION
 40
0.0
  9
$THICKNESS
 40
0.0
  9
$LIMCHECK
 70
     0
  9
$CHAMFERA
 40
0.0
  9
$CHAMFERB
 40
0.0
  9
$CHAMFERC
 40
0.0
  9
$CHAMFERD
 40
0.0
  9
$SKPOLY
 70
     0
  9
$TDCREATE
 40
2460081.707114838
  9
$TDUCREATE
 40
2460081.332114838
  9
$TDUPDATE
 40
2460081.707115417
  9
$TDUUPDATE
 40
2460081.332115417
  9
$TDINDWG
 40
0.0000000116
  9
$TDUSRTIMER
 40
0.0000000116
  9
$USRTIMER
 70
     1
  9
$ANGBASE
 50
0.0
  9
$ANGDIR
 70
     0
  9
$PDMODE
 70
     0
  9
$PDSIZE
 40
-1.0
  9
$PLINEWID
 40
0.0
  9
$SPLFRAME
 70
     0
  9
$SPLINETYPE
 70
     6
  9
$SPLINESEGS
 70
     8
  9
$HANDSEED
  5
146
  9
$SURFTAB1
 70
     6
  9
$SURFTAB2
 70
     6
  9
$SURFTYPE
 70
     6
  9
$SURFU
 70
     6
  9
$SURFV
 70
     6
  9
$UCSBASE
  2

  9
$UCSNAME
  2

  9
$UCSORG
 10
0.0
 20
0.0
 30
0.0
  9
$UCSXDIR
 10
1.0
 20
0.0
 30
0.0
  9
$UCSYDIR
 10
0.0
 20
1.0
 30
0.0
  9
$UCSORTHOREF
  2

  9
$UCSORTHOVIEW
 70
     0
  9
$UCSORGTOP
 10
0.0
 20
0.0
 30
0.0
  9
$UCSORGBOTTOM
 10
0.0
 20
0.0
 30
0.0
  9
$UCSORGLEFT
 10
0.0
 20
0.0
 30
0.0
  9
$UCSORGRIGHT
 10
0.0
 20
0.0
 30
0.0
  9
$UCSORGFRONT
 10
0.0
 20
0.0
 30
0.0
  9
$UCSORGBACK
 10
0.0
 20
0.0
 30
0.0
  9
$PUCSBASE
  2

  9
$PUCSNAME
  2

  9
$PUCSORG
 10
0.0
 20
0.0
 30
0.0
  9
$PUCSXDIR
 10
1.0
 20
0.0
 30
0.0
  9
$PUCSYDIR
 10
0.0
 20
1.0
 30
0.0
  9
$PUCSORTHOREF
  2

  9
$PUCSORTHOVIEW
 70
     0
  9
$PUCSORGTOP
 10
0.0
 20
0.0
 30
0.0
  9
$PUCSORGBOTTOM
 10
0.0
 20
0.0
 30
0.0
  9
$PUCSORGLEFT
 10
0.0
 20
0.0
 30
0.0
  9
$PUCSORGRIGHT
 10
0.0
 20
0.0
 30
0.0
  9
$PUCSORGFRONT
 10
0.0
 20
0.0
 30
0.0
  9
$PUCSORGBACK
 10
0.0
 20
0.0
 30
0.0
  9
$USERI1
 70
     0
  9
$USERI2
 70
     0
  9
$USERI3
 70
     0
  9
$USERI4
 70
     0
  9
$USERI5
 70
     0
  9
$USERR1
 40
0.0
  9
$USERR2
 40
0.0
  9
$USERR3
 40
0.0
  9
$USERR4
 40
0.0
  9
$USERR5
 40
0.0
  9
$WORLDVIEW
 70
     1
  9
$SHADEDGE
 70
     3
  9
$SHADEDIF
 70
    70
  9
$TILEMODE
 70
     1
  9
$MAXACTVP
 70
    64
  9
$PINSBASE
 10
0.0
 20
0.0
 30
0.0
  9
$PLIMCHECK
 70
     0
  9
$PEXTMIN
 10
1.0000000000E+20
 20
1.0000000000E+20
 30
1.0000000000E+20
  9
$PEXTMAX
 10
-1.0000000000E+20
 20
-1.0000000000E+20
 30
-1.0000000000E+20
  9
$PLIMMIN
 10
0.0
 20
0.0
  9
$PLIMMAX
 10
420.0
 20
297.0
  9
$UNITMODE
 70
     0
  9
$VISRETAIN
 70
     1
  9
$PLINEGEN
 70
     0
  9
$PSLTSCALE
 70
     1
  9
$TREEDEPTH
 70
  3020
  9
$CMLSTYLE
  2
Standard
  9
$CMLJUST
 70
     0
  9
$CMLSCALE
 40
20.0
  9
$PROXYGRAPHICS
 70
     1
  9
$MEASUREMENT
 70
     1
  9
$CELWEIGHT
370
    -1
  9
$ENDCAPS
280
     0
  9
$JOINSTYLE
280
     0
  9
$LWDISPLAY
290
     1
  9
$INSUNITS
 70
     4
  9
$HYPERLINKBASE
  1

  9
$STYLESHEET
  1

  9
$XEDIT
290
     1
  9
$CEPSNTYPE
380
     0
  9
$PSTYLEMODE
290
     1
  9
$FINGERPRINTGUID
  2
{D4AB9382-9B98-4B26-BB9E-B26AA1ECC59B}
  9
$VERSIONGUID
  2
{FAEB1C32-E019-11D5-929B-00C0DF256EC4}
  9
$EXTNAMES
290
     1
  9
$PSVPSCALE
 40
0.0
  9
$OLESTARTUP
290
     0
  0
ENDSEC
  0
SECTION
  2
CLASSES
  0
CLASS
  1
ACDBDICTIONARYWDFLT
  2
AcDbDictionaryWithDefault
  3
ObjectDBX Classes
 90
        0
280
     0
281
     0
  0
CLASS
  1
VISUALSTYLE
  2
AcDbVisualStyle
  3
ObjectDBX Classes
 90
     4095
280
     0
281
     0
  0
CLASS
  1
MATERIAL
  2
AcDbMaterial
  3
ObjectDBX Classes
 90
     1153
280
     0
281
     0
  0
CLASS
  1
SCALE
  2
AcDbScale
  3
ObjectDBX Classes
 90
     1153
280
     0
281
     0
  0
CLASS
  1
TABLESTYLE
  2
AcDbTableStyle
  3
ObjectDBX Classes
 90
     4095
280
     0
281
     0
  0
CLASS
  1
MLEADERSTYLE
  2
AcDbMLeaderStyle
  3
ACDB_MLEADERSTYLE_CLASS
 90
     4095
280
     0
281
     0
  0
CLASS
  1
SUN
  2
AcDbSun
  3
SCENEOE
 90
     1153
280
     0
281
     0
  0
CLASS
  1
ACDBPLACEHOLDER
  2
AcDbPlaceHolder
  3
ObjectDBX Classes
 90
        0
280
     0
281
     0
  0
CLASS
  1
LAYOUT
  2
AcDbLayout
  3
ObjectDBX Classes
 90
        0
280
     0
281
     0
  0
ENDSEC
  0
SECTION
  2
TABLES
  0
TABLE
  2
VPORT
  5
8
330
0
100
AcDbSymbolTable
 70
     1
  0
VPORT
  5
29
330
8
100
AcDbSymbolTableRecord
100
AcDbViewportTableRecord
  2
*Active
 70
     0
 10
0.0
 20
0.0
 11
1.0
 21
1.0
 12
107.95
 22
69.85
 13
0.0
 23
0.0
 14
10.0
 24
10.0
 15
10.0
 25
10.0
 16
0.0
 26
0.0
 36
1.0
 17
0.0
 27
0.0
 37
0.0
 40
139.7
 41
1.5454545455
 42
50.0
 43
0.0
 44
0.0
 50
0.0
 51
0.0
 71
     0
 72
  2000
 73
     1
 74
     3
 75
     0
 76
     0
 77
     0
 78
     0
281
     0
 65
     1
110
0.0
120
0.0
130
0.0
111
1.0
121
0.0
131
0.0
112
0.0
122
1.0
132
0.0
 79
     0
146
0.0
  0
ENDTAB
  0
TABLE
  2
LTYPE
  5
5
330
0
100
AcDbSymbolTable
 70
     6
  0
LTYPE
  5
14
330
5
100
AcDbSymbolTableRecord
100
AcDbLinetypeTableRecord
  2
ByBlock
 70
     0
  3

 72
    65
 73
     0
 40
0.0
  0
LTYPE
  5
15
330
5
100
AcDbSymbolTableRecord
100
AcDbLinetypeTableRecord
  2
ByLayer
 70
     0
  3

 72
    65
 73
     0
 40
0.0
  0
LTYPE
  5
16
330
5
100
AcDbSymbolTableRecord
100
AcDbLinetypeTableRecord
  2
Continuous
 70
     0
  3
Solid line
 72
    65
 73
     0
 40
0.0
  0
LTYPE
  5
6E
330
5
100
AcDbSymbolTableRecord
100
AcDbLinetypeTableRecord
  2
HIDDEN
 70
     0
  3
Hidden __ __ __ __ __ __ __ __ __ __ __ __ __ __
 72
    65
 73
     2
 40
1.905
 49
1.27
 74
     0
 49
-0.635
 74
     0
  0
LTYPE
  5
6F
330
5
100
AcDbSymbolTableRecord
100
AcDbLinetypeTableRecord
  2
PHANTOM
 70
     0
  3
Phantom ______  __  __  ______  __  __  ______
 72
    65
 73
     6
 40
12.7
 49
6.35
 74
     0
 49
-1.27
 74
     0
 49
1.27
 74
     0
 49
-1.27
 74
     0
 49
1.27
 74
     0
 49
-1.27
 74
     0
  0
LTYPE
  5
70
330
5
100
AcDbSymbolTableRecord
100
AcDbLinetypeTableRecord
  2
CENTER
 70
     0
  3
Center ____ _ ____ _ ____ _ ____ _ ____ _ ____
 72
    65
 73
     4
 40
10.16
 49
6.35
 74
     0
 49
-1.27
 74
     0
 49
1.27
 74
     0
 49
-1.27
 74
     0
  0
LTYPE
  5
71
330
5
100
AcDbSymbolTableRecord
100
AcDbLinetypeTableRecord
  2
CENTERX2
 70
     0
  3
Center (2x) ________  __  ________  __  _____
 72
    65
 73
     4
 40
20.32
 49
12.7
 74
     0
 49
-2.54
 74
     0
 49
2.54
 74
     0
 49
-2.54
 74
     0
  0
LTYPE
  5
72
330
5
100
AcDbSymbolTableRecord
100
AcDbLinetypeTableRecord
  2
DOT2
 70
     0
  3
Dot (.5x) ........................................
 72
    65
 73
     2
 40
0.635
 49
0.0
 74
     0
 49
-0.635
 74
     0
  0
ENDTAB
  0
TABLE
  2
LAYER
  5
2
330
0
100
AcDbSymbolTable
 70
     1
  0
LAYER
  5
10
330
2
100
AcDbSymbolTableRecord
100
AcDbLayerTableRecord
  2
0
 70
     0
 62
     7
  6
Continuous
370
    -3
390
F
  0
ENDTAB
  0
TABLE
  2
STYLE
  5
3
330
0
100
AcDbSymbolTable
 70
     2
  0
STYLE
  5
11
330
3
100
AcDbSymbolTableRecord
100
AcDbTextStyleTableRecord
  2
Standard
 70
     0
 40
0.0
 41
1.0
 50
0.0
 71
     0
 42
1.75
  3
txt
  4
bigfont
  0
STYLE
  5
73
330
3
100
AcDbSymbolTableRecord
100
AcDbTextStyleTableRecord
  2
SLDTEXTSTYLE0
 70
     0
 40
0.0
 41
0.7
 50
0.0
 71
     0
 42
1.75
  3
TXT
  4
bigfont
  0
ENDTAB
  0
TABLE
  2
VIEW
  5
6
330
0
100
AcDbSymbolTable
 70
     0
  0
ENDTAB
  0
TABLE
  2
UCS
  5
7
330
0
100
AcDbSymbolTable
 70
     0
  0
ENDTAB
  0
TABLE
  2
APPID
  5
9
330
0
100
AcDbSymbolTable
 70
     1
  0
APPID
  5
12
330
9
100
AcDbSymbolTableRecord
100
AcDbRegAppTableRecord
  2
ACAD
 70
     0
  0
ENDTAB
  0
TABLE
  2
DIMSTYLE
  5
A
330
0
100
AcDbSymbolTable
 70
     1
100
AcDbDimStyleTable
  0
DIMSTYLE
105
27
330
A
100
AcDbSymbolTableRecord
100
AcDbDimStyleTableRecord
  2
ISO-25
 70
     0
 41
2.5
 42
0.625
 43
3.75
 44
1.25
 73
     0
 74
     0
 77
     1
 78
     8
140
2.5
141
2.5
143
0.0393700787
147
0.625
171
     3
172
     1
178
     0
271
     2
272
     2
274
     3
278
    44
283
     0
284
     8
340
11
  0
ENDTAB
  0
TABLE
  2
BLOCK_RECORD
  5
1
330
0
100
AcDbSymbolTable
 70
     3
  0
BLOCK_RECORD
  5
1F
330
1
100
AcDbSymbolTableRecord
100
AcDbBlockTableRecord
  2
*Model_Space
340
22
  0
BLOCK_RECORD
  5
1B
330
1
100
AcDbSymbolTableRecord
100
AcDbBlockTableRecord
  2
*Paper_Space
340
1E
  0
BLOCK_RECORD
  5
23
330
1
100
AcDbSymbolTableRecord
100
AcDbBlockTableRecord
  2
*Paper_Space0
340
26
  0
BLOCK_RECORD
  5
E9
330
1
100
AcDbSymbolTableRecord
100
AcDbBlockTableRecord
  2
SW_CENTERMARKSYMBOL_0
340
0
102
{BLKREFS
331
F4
102
}
  0
BLOCK_RECORD
  5
F5
330
1
100
AcDbSymbolTableRecord
100
AcDbBlockTableRecord
  2
SW_CENTERMARKSYMBOL_1
340
0
102
{BLKREFS
331
100
102
}
  0
ENDTAB
  0
ENDSEC
  0
SECTION
  2
BLOCKS
  0
BLOCK
  5
20
330
1F
100
AcDbEntity
  8
0
100
AcDbBlockBegin
  2
*Model_Space
 70
     0
 10
0.0
 20
0.0
 30
0.0
  3
*Model_Space
  1

  0
ENDBLK
  5
21
330
1F
100
AcDbEntity
  8
0
100
AcDbBlockEnd
  0
BLOCK
  5
1C
330
1B
100
AcDbEntity
 67
     1
  8
0
100
AcDbBlockBegin
  2
*Paper_Space
 70
     0
 10
0.0
 20
0.0
 30
0.0
  3
*Paper_Space
  1

  0
ENDBLK
  5
1D
330
1B
100
AcDbEntity
 67
     1
  8
0
100
AcDbBlockEnd
  0
BLOCK
  5
24
330
23
100
AcDbEntity
  8
0
100
AcDbBlockBegin
  2
*Paper_Space0
 70
     0
 10
0.0
 20
0.0
 30
0.0
  3
*Paper_Space0
  1

  0
ENDBLK
  5
25
330
23
100
AcDbEntity
  8
0
100
AcDbBlockEnd
  0
BLOCK
  5
EA
330
E9
100
AcDbEntity
  8
0
100
AcDbBlockBegin
  2
SW_CENTERMARKSYMBOL_0
 70
     0
 10
0.0
 20
0.0
 30
0.0
  3
SW_CENTERMARKSYMBOL_0
  1

  0
LINE
  5
EC
330
E9
100
AcDbEntity
  8
0
  6
Continuous
 62
     0
370
    18
100
AcDbLine
 10
0.0
 20
0.0
 30
0.0
 11
0.0
 21
2.5
 31
0.0
  0
LINE
  5
ED
330
E9
100
AcDbEntity
  8
0
  6
Continuous
 62
     0
370
    18
100
AcDbLine
 10
0.0
 20
0.0
 30
0.0
 11
-2.5
 21
0.0
 31
0.0
  0
LINE
  5
EE
330
E9
100
AcDbEntity
  8
0
  6
Continuous
 62
     0
370
    18
100
AcDbLine
 10
0.0
 20
0.0
 30
0.0
 11
0.0
 21
-2.5
 31
0.0
  0
LINE
  5
EF
330
E9
100
AcDbEntity
  8
0
  6
Continuous
 62
     0
370
    18
100
AcDbLine
 10
0.0
 20
0.0
 30
0.0
 11
2.5
 21
0.0
 31
0.0
  0
LINE
  5
F0
330
E9
100
AcDbEntity
  8
0
  6
Continuous
 62
     0
370
    18
100
AcDbLine
 10
0.0
 20
5.0
 30
0.0
 11
0.0
 21
5.5
 31
0.0
  0
LINE
  5
F1
330
E9
100
AcDbEntity
  8
0
  6
Continuous
 62
     0
370
    18
100
AcDbLine
 10
-5.0
 20
0.0
 30
0.0
 11
-5.5
 21
0.0
 31
0.0
  0
LINE
  5
F2
330
E9
100
AcDbEntity
  8
0
  6
Continuous
 62
     0
370
    18
100
AcDbLine
 10
0.0
 20
-5.0
 30
0.0
 11
0.0
 21
-5.5
 31
0.0
  0
LINE
  5
F3
330
E9
100
AcDbEntity
  8
0
  6
Continuous
 62
     0
370
    18
100
AcDbLine
 10
5.0
 20
0.0
 30
0.0
 11
5.5
 21
0.0
 31
0.0
  0
ENDBLK
  5
EB
330
E9
100
AcDbEntity
  8
0
100
AcDbBlockEnd
  0
BLOCK
  5
F6
330
F5
100
AcDbEntity
  8
0
100
AcDbBlockBegin
  2
SW_CENTERMARKSYMBOL_1
 70
     0
 10
0.0
 20
0.0
 30
0.0
  3
SW_CENTERMARKSYMBOL_1
  1

  0
LINE
  5
F8
330
F5
100
AcDbEntity
  8
0
  6
Continuous
 62
     0
370
    18
100
AcDbLine
 10
0.0
 20
0.0
 30
0.0
 11
0.0
 21
2.5
 31
0.0
  0
LINE
  5
F9
330
F5
100
AcDbEntity
  8
0
  6
Continuous
 62
     0
370
    18
100
AcDbLine
 10
0.0
 20
0.0
 30
0.0
 11
-2.5
 21
0.0
 31
0.0
  0
LINE
  5
FA
330
F5
100
AcDbEntity
  8
0
  6
Continuous
 62
     0
370
    18
100
AcDbLine
 10
0.0
 20
0.0
 30
0.0
 11
0.0
 21
-2.5
 31
0.0
  0
LINE
  5
FB
330
F5
100
AcDbEntity
  8
0
  6
Continuous
 62
     0
370
    18
100
AcDbLine
 10
0.0
 20
0.0
 30
0.0
 11
2.5
 21
0.0
 31
0.0
  0
LINE
  5
FC
330
F5
100
AcDbEntity
  8
0
  6
Continuous
 62
     0
370
    18
100
AcDbLine
 10
0.0
 20
5.0
 30
0.0
 11
0.0
 21
9.25
 31
0.0
  0
LINE
  5
FD
330
F5
100
AcDbEntity
  8
0
  6
Continuous
 62
     0
370
    18
100
AcDbLine
 10
-5.0
 20
0.0
 30
0.0
 11
-9.25
 21
0.0
 31
0.0
  0
LINE
  5
FE
330
F5
100
AcDbEntity
  8
0
  6
Continuous
 62
     0
370
    18
100
AcDbLine
 10
0.0
 20
-5.0
 30
0.0
 11
0.0
 21
-9.25
 31
0.0
  0
LINE
  5
FF
330
F5
100
AcDbEntity
  8
0
  6
Continuous
 62
     0
370
    18
100
AcDbLine
 10
5.0
 20
0.0
 30
0.0
 11
9.25
 21
0.0
 31
0.0
  0
ENDBLK
  5
F7
330
F5
100
AcDbEntity
  8
0
100
AcDbBlockEnd
  0
ENDSEC
  0
SECTION
  2
ENTITIES
  0
MTEXT
  5
74
330
1F
100
AcDbEntity
  8
0
  6
Continuous
 62
     7
370
     0
100
AcDbMText
 10
77.3835097328
 20
57.4851419746
 30
0.0
 40
2.1166666667
 41
0.0
 71
     1
 72
     1
  1
エースニップル　HN-8210
  7
SLDTEXTSTYLE0
 73
     1
 44
1.0
  0
LINE
  5
75
330
1F
100
AcDbEntity
  8
0
  6
Continuous
 62
     7
370
    25
100
AcDbLine
 10
58.0552222168
 20
35.1627251331
 30
0.0
 11
58.8247745665
 21
36.4956289017
 31
0.0
  0
LINE
  5
76
330
1F
100
AcDbEntity
  8
0
  6
Continuous
 62
     7
370
    25
100
AcDbLine
 10
58.8247745665
 20
49.9956289017
 30
0.0
 11
58.0552222168
 21
51.3285326704
 31
0.0
  0
LINE
  5
77
330
1F
100
AcDbEntity
  8
0
  6
Continuous
 62
     7
370
    25
100
AcDbLine
 10
53.5943269161
 20
51.3285326704
 30
0.0
 11
52.8247745665
 21
49.9956289017
 31
0.0
  0
LINE
  5
78
330
1F
100
AcDbEntity
  8
0
  6
Continuous
 62
     7
370
    25
100
AcDbLine
 10
52.8247745665
 20
36.4956289017
 30
0.0
 11
53.5943269161
 21
35.1627251331
 31
0.0
  0
LINE
  5
79
330
1F
100
AcDbEntity
  8
0
  6
Continuous
 62
     7
370
    25
100
AcDbLine
 10
52.8247745665
 20
49.9800664017
 30
0.0
 11
43.9135622202
 21
49.7015910159
 31
0.0
  0
LINE
  5
7A
330
1F
100
AcDbEntity
  8
0
  6
Continuous
 62
     7
370
    25
100
AcDbLine
 10
43.9135622202
 20
36.7896667876
 30
0.0
 11
52.8247745665
 21
36.5111914017
 31
0.0
  0
LINE
  5
7B
330
1F
100
AcDbEntity
  8
0
  6
Continuous
 62
     7
370
    25
100
AcDbLine
 10
43.9135622202
 20
49.7015910159
 30
0.0
 11
41.8247745665
 21
48.4956289017
 31
0.0
  0
LINE
  5
7C
330
1F
100
AcDbEntity
  8
0
  6
Continuous
 62
     7
370
    25
100
AcDbLine
 10
41.8247745665
 20
37.9956289017
 30
0.0
 11
43.9135622202
 21
36.7896667876
 31
0.0
  0
LINE
  5
7D
330
1F
100
AcDbEntity
  8
0
  6
Continuous
 62
     7
370
    25
100
AcDbLine
 10
76.3247745665
 20
37.9956289017
 30
0.0
 11
81.3923311688
 21
38.6866593475
 31
0.0
  0
LINE
  5
7E
330
1F
100
AcDbEntity
  8
0
  6
Continuous
 62
     7
370
    25
100
AcDbLine
 10
81.3923311688
 20
47.804598456
 30
0.0
 11
76.3247745665
 21
48.4956289017
 31
0.0
  0
LINE
  5
7F
330
1F
100
AcDbEntity
  8
0
  6
Continuous
 62
     7
370
    25
100
AcDbLine
 10
62.8247745665
 20
37.9956289017
 30
0.0
 11
67.3247745665
 21
38.7456289017
 31
0.0
  0
LINE
  5
80
330
1F
100
AcDbEntity
  8
0
  6
Continuous
 62
     7
370
    25
100
AcDbLine
 10
67.3247745665
 20
47.7456289017
 30
0.0
 11
62.8247745665
 21
48.4956289017
 31
0.0
  0
LINE
  5
81
330
1F
100
AcDbEntity
  8
0
  6
Continuous
 62
     7
370
    25
100
AcDbLine
 10
67.3247745665
 20
37.9956289017
 30
0.0
 11
71.8247745665
 21
38.7456289017
 31
0.0
  0
LINE
  5
82
330
1F
100
AcDbEntity
  8
0
  6
Continuous
 62
     7
370
    25
100
AcDbLine
 10
71.8247745665
 20
47.7456289017
 30
0.0
 11
67.3247745665
 21
48.4956289017
 31
0.0
  0
LINE
  5
83
330
1F
100
AcDbEntity
  8
0
  6
Continuous
 62
     7
370
    25
100
AcDbLine
 10
62.8247745665
 20
48.4956289017
 30
0.0
 11
58.8247745665
 21
48.4956289017
 31
0.0
  0
LINE
  5
84
330
1F
100
AcDbEntity
  8
0
  6
Continuous
 62
     7
370
    25
100
AcDbLine
 10
58.8247745665
 20
37.9956289017
 30
0.0
 11
62.8247745665
 21
37.9956289017
 31
0.0
  0
LINE
  5
85
330
1F
100
AcDbEntity
  8
0
  6
Continuous
 62
     7
370
    25
100
AcDbLine
 10
71.8247745665
 20
37.9956289017
 30
0.0
 11
76.3247745665
 21
38.7456289017
 31
0.0
  0
LINE
  5
86
330
1F
100
AcDbEntity
  8
0
  6
Continuous
 62
     7
370
    25
100
AcDbLine
 10
76.3247745665
 20
47.7456289017
 30
0.0
 11
71.8247745665
 21
48.4956289017
 31
0.0
  0
ARC
  5
87
330
1F
100
AcDbEntity
  8
0
  6
Continuous
 62
     7
370
    25
100
AcDbCircle
 10
81.3247745665
 20
47.3091833719
 30
0.0
 40
0.5000000000000003
100
AcDbArc
 50
0.0
 51
82.2348339816
  0
ARC
  5
88
330
1F
100
AcDbEntity
  8
0
  6
Continuous
 62
     7
370
    25
100
AcDbCircle
 10
81.3247745665
 20
39.1820744315
 30
0.0
 40
0.5000000000000003
100
AcDbArc
 50
277.7651660184
 51
0.0
  0
LINE
  5
89
330
1F
100
AcDbEntity
  8
0
  6
Continuous
 62
     7
370
    25
100
AcDbLine
 10
55.9051593242
 20
51.3285326704
 30
0.0
 11
55.8247745665
 21
51.0285326704
 31
0.0
  0
LINE
  5
8A
330
1F
100
AcDbEntity
  8
0
  6
Continuous
 62
     7
370
    25
100
AcDbLine
 10
55.8247745665
 20
51.0285326704
 30
0.0
 11
55.7443898087
 21
51.3285326704
 31
0.0
  0
LINE
  5
8B
330
1F
100
AcDbEntity
  8
0
  6
Continuous
 62
     7
370
    25
100
AcDbLine
 10
55.8247745665
 20
35.4627251331
 30
0.0
 11
55.9051593242
 21
35.1627251331
 31
0.0
  0
LINE
  5
8C
330
1F
100
AcDbEntity
  8
0
  6
Continuous
 62
     7
370
    25
100
AcDbLine
 10
55.7443898087
 20
35.1627251331
 30
0.0
 11
55.8247745665
 21
35.4627251331
 31
0.0
  0
SPLINE
  5
8D
330
1F
100
AcDbEntity
  8
0
  6
Continuous
 62
     7
370
    25
100
AcDbSpline
210
0.0
220
0.0
230
1.0
 70
     8
 71
     3
 72
     8
 73
     4
 74
     0
 42
0.000000001
 43
0.00000001
 40
0.0
 40
0.0
 40
0.0
 40
0.0
 40
1.0
 40
1.0
 40
1.0
 40
1.0
 10
55.82477456647397
 20
39.84363080177276
 30
0.0
 10
55.8497742384682
 20
39.63018409818246
 30
0.0
 10
55.87664047925519
 20
39.41704457404586
 30
0.0
 10
55.90515932420331
 20
39.20417701740672
 30
0.0
  0
SPLINE
  5
8E
330
1F
100
AcDbEntity
  8
0
  6
Continuous
 62
     7
370
    25
100
AcDbSpline
210
0.0
220
0.0
230
1.0
 70
     8
 71
     3
 72
     8
 73
     4
 74
     0
 42
0.000000001
 43
0.00000001
 40
0.0
 40
0.0
 40
0.0
 40
0.0
 40
1.0
 40
1.0
 40
1.0
 40
1.0
 10
55.90515932420331
 20
39.20417701740672
 30
0.0
 10
55.87662550936522
 20
39.09768737069719
 30
0.0
 10
55.84976058755843
 20
38.99111520142041
 30
0.0
 10
55.82477456647397
 20
38.88445012522369
 30
0.0
  0
LINE
  5
8F
330
1F
100
AcDbEntity
  8
0
  6
Continuous
 62
     7
370
    25
100
AcDbLine
 10
55.8247745665
 20
38.8844501252
 30
0.0
 11
55.8247745665
 21
39.8436308018
 31
0.0
  0
LINE
  5
90
330
1F
100
AcDbEntity
  8
0
  6
Continuous
 62
     7
370
    25
100
AcDbLine
 10
55.7443898087
 20
39.2041770174
 30
0.0
 11
53.5943269161
 21
39.2041770174
 31
0.0
  0
SPLINE
  5
91
330
1F
100
AcDbEntity
  8
0
  6
Continuous
 62
     7
370
    25
100
AcDbSpline
210
0.0
220
0.0
230
1.0
 70
     8
 71
     3
 72
    14
 73
    10
 74
     0
 42
0.000000001
 43
0.00000001
 40
0.0
 40
0.0
 40
0.0
 40
0.0
 40
0.2500000000000001
 40
0.2500000000000001
 40
0.5000000000000001
 40
0.5000000000000001
 40
0.7500000000000002
 40
0.7500000000000002
 40
1.0
 40
1.0
 40
1.0
 40
1.0
 10
53.59432691611065
 20
39.20417701740671
 30
0.0
 10
53.40448240091241
 20
39.86181770912994
 30
0.0
 10
53.24531577550012
 20
40.53521422739077
 30
0.0
 10
53.02772950629748
 20
41.8848924412715
 30
0.0
 10
52.96904084086865
 20
42.56361602278516
 30
0.0
 10
52.96918355891331
 20
43.93017422220008
 30
0.0
 10
53.02957491892381
 20
44.62267204283551
 30
0.0
 10
53.24868360071952
 20
45.97195689964233
 30
0.0
 10
53.40573424115669
 20
46.63377659615026
 30
0.0
 10
53.59432691611067
 20
47.28708078606148
 30
0.0
  0
LINE
  5
92
330
1F
100
AcDbEntity
  8
0
  6
Continuous
 62
     7
370
    25
100
AcDbLine
 10
55.7443898087
 20
47.2870807861
 30
0.0
 11
53.5943269161
 21
47.2870807861
 31
0.0
  0
SPLINE
  5
93
330
1F
100
AcDbEntity
  8
0
  6
Continuous
 62
     7
370
    25
100
AcDbSpline
210
0.0
220
0.0
230
1.0
 70
     8
 71
     3
 72
     8
 73
     4
 74
     0
 42
0.000000001
 43
0.00000001
 40
0.0
 40
0.0
 40
0.0
 40
0.0
 40
1.0
 40
1.0
 40
1.0
 40
1.0
 10
55.82477456647397
 20
46.64762700169543
 30
0.0
 10
55.79977489447975
 20
46.86107370528573
 30
0.0
 10
55.77290865369276
 20
47.07421322942234
 30
0.0
 10
55.74438980874464
 20
47.28708078606148
 30
0.0
  0
SPLINE
  5
94
330
1F
100
AcDbEntity
  8
0
  6
Continuous
 62
     7
370
    25
100
AcDbSpline
210
0.0
220
0.0
230
1.0
 70
     8
 71
     3
 72
     8
 73
     4
 74
     0
 42
0.000000001
 43
0.00000001
 40
0.0
 40
0.0
 40
0.0
 40
0.0
 40
1.0
 40
1.0
 40
1.0
 40
1.0
 10
55.90515932420331
 20
47.28708078606148
 30
0.0
 10
55.87662319388767
 20
47.07408420968272
 30
0.0
 10
55.84975847870425
 20
46.86093914873376
 30
0.0
 10
55.82477456647397
 20
46.64762700169543
 30
0.0
  0
LINE
  5
95
330
1F
100
AcDbEntity
  8
0
  6
Continuous
 62
     7
370
    25
100
AcDbLine
 10
58.0552222168
 20
47.2870807861
 30
0.0
 11
55.9051593242
 21
47.2870807861
 31
0.0
  0
SPLINE
  5
96
330
1F
100
AcDbEntity
  8
0
  6
Continuous
 62
     7
370
    25
100
AcDbSpline
210
0.0
220
0.0
230
1.0
 70
     8
 71
     3
 72
    14
 73
    10
 74
     0
 42
0.000000001
 43
0.00000001
 40
0.0
 40
0.0
 40
0.0
 40
0.0
 40
0.2500000000000001
 40
0.2500000000000001
 40
0.5000000000000001
 40
0.5000000000000001
 40
0.7500000000000002
 40
0.7500000000000002
 40
1.0
 40
1.0
 40
1.0
 40
1.0
 10
58.05522221683731
 20
39.20417701740671
 30
0.0
 10
58.24506673203554
 20
39.86181770912994
 30
0.0
 10
58.40423335744784
 20
40.53521422739077
 30
0.0
 10
58.62181962665046
 20
41.8848924412715
 30
0.0
 10
58.6805082920793
 20
42.56361602278516
 30
0.0
 10
58.68036557403465
 20
43.93017422220008
 30
0.0
 10
58.61997421402414
 20
44.62267204283551
 30
0.0
 10
58.40086553222843
 20
45.97195689964233
 30
0.0
 10
58.24381489179127
 20
46.63377659615026
 30
0.0
 10
58.05522221683729
 20
47.28708078606148
 30
0.0
  0
LINE
  5
97
330
1F
100
AcDbEntity
  8
0
  6
Continuous
 62
     7
370
    25
100
AcDbLine
 10
58.0552222168
 20
39.2041770174
 30
0.0
 11
55.9051593242
 21
39.2041770174
 31
0.0
  0
SPLINE
  5
98
330
1F
100
AcDbEntity
  8
0
  6
Continuous
 62
     7
370
    25
100
AcDbSpline
210
0.0
220
0.0
230
1.0
 70
     8
 71
     3
 72
     8
 73
     4
 74
     0
 42
0.000000001
 43
0.00000001
 40
0.0
 40
0.0
 40
0.0
 40
0.0
 40
1.0
 40
1.0
 40
1.0
 40
1.0
 10
55.74438980874464
 20
39.20417701740672
 30
0.0
 10
55.77292593906028
 20
39.41717359378548
 30
0.0
 10
55.79979065424369
 20
39.63031865473445
 30
0.0
 10
55.82477456647397
 20
39.84363080177277
 30
0.0
  0
LINE
  5
99
330
1F
100
AcDbEntity
  8
0
  6
Continuous
 62
     7
370
    25
100
AcDbLine
 10
55.7787409126
 20
42.6482825013
 30
0.0
 11
56.4632361049
 21
42.2005661552
 31
0.0
  0
SPLINE
  5
9A
330
1F
100
AcDbEntity
  8
0
  6
Continuous
 62
     7
370
    25
100
AcDbSpline
210
0.0
220
0.0
230
1.0
 70
     8
 71
     3
 72
    19
 73
    15
 74
     0
 42
0.000000001
 43
0.00000001
 40
0.0
 40
0.0
 40
0.0
 40
0.0
 40
0.0978059775289525
 40
0.1996122522918966
 40
0.3052960258330041
 40
0.4158173591641854
 40
0.474240566618493
 40
0.5372869128296534
 40
0.6033858352934854
 40
0.6743111580696056
 40
0.749530467357482
 40
0.8286083142695116
 40
0.9120427387714447
 40
0.9999999999999999
 40
0.9999999999999999
 40
0.9999999999999999
 40
0.9999999999999999
 10
55.34304379724321
 20
42.81595077054638
 30
0.0
 10
55.35848585120654
 20
42.81540714984588
 30
0.0
 10
55.3900015443115
 20
42.81429767417619
 30
0.0
 10
55.43787101837389
 20
42.80767645120319
 30
0.0
 10
55.48665983155619
 20
42.79553231930416
 30
0.0
 10
55.52801939720221
 20
42.78238971433461
 30
0.0
 10
55.56227261100742
 20
42.76934828288958
 30
0.0
 10
55.58932146911447
 20
42.75725596757285
 30
0.0
 10
55.61788593179175
 20
42.74373528563338
 30
0.0
 10
55.64742553129734
 20
42.72788716351416
 30
0.0
 10
55.67878427797026
 20
42.71108687511446
 30
0.0
 10
55.71080086168695
 20
42.69146223176612
 30
0.0
 10
55.74464462694657
 20
42.67098361488578
 30
0.0
 10
55.76717728014829
 20
42.65598150221723
 30
0.0
 10
55.77874091262782
 20
42.64828250131562
 30
0.0
  0
SPLINE
  5
9B
330
1F
100
AcDbEntity
  8
0
  6
Continuous
 62
     7
370
    25
100
AcDbSpline
210
0.0
220
0.0
230
1.0
 70
     8
 71
     3
 72
    19
 73
    15
 74
     0
 42
0.000000001
 43
0.00000001
 40
0.0
 40
0.0
 40
0.0
 40
0.0
 40
0.0843261511037433
 40
0.1670353409858406
 40
0.2495407139852792
 40
0.3327066655796642
 40
0.4158726171740492
 40
0.4977774155681174
 40
0.5803136056784763
 40
0.6645325781316563
 40
0.7495711764063215
 40
0.8324741628544073
 40
0.9156738488962566
 40
1.0
 40
1.0
 40
1.0
 40
1.0
 10
54.88631302801244
 20
42.36162384746947
 30
0.0
 10
54.88696797167758
 20
42.3818081516412
 30
0.0
 10
54.88826530040662
 20
42.42178972421102
 30
0.0
 10
54.89982215510945
 20
42.48060372195937
 30
0.0
 10
54.91855367902361
 20
42.53711665917771
 30
0.0
 10
54.94436014307114
 20
42.59093129688313
 30
0.0
 10
54.97695509650266
 20
42.64078600586498
 30
0.0
 10
55.0162007998908
 20
42.68537443928853
 30
0.0
 10
55.06122987814018
 20
42.72454146463008
 30
0.0
 10
55.11218046398137
 20
42.75696483197
 30
0.0
 10
55.16657760521919
 20
42.7833899643539
 30
0.0
 10
55.22381521396383
 20
42.80202799235082
 30
0.0
 10
55.2827413606263
 20
42.81408125370621
 30
0.0
 10
55.32285307960215
 20
42.81532481098716
 30
0.0
 10
55.34304379724321
 20
42.81595077054638
 30
0.0
  0
SPLINE
  5
9C
330
1F
100
AcDbEntity
  8
0
  6
Continuous
 62
     7
370
    25
100
AcDbSpline
210
0.0
220
0.0
230
1.0
 70
     8
 71
     3
 72
    19
 73
    15
 74
     0
 42
0.000000001
 43
0.00000001
 40
0.0
 40
0.0
 40
0.0
 40
0.0
 40
0.0859901205637198
 40
0.1691084375726415
 40
0.2505285789581879
 40
0.332255696176845
 40
0.4135763652356403
 40
0.4941261456201216
 40
0.576305934120417
 40
0.6607126719045473
 40
0.7461272722239103
 40
0.8300149859609743
 40
0.9144197259288509
 40
1.0
 40
1.0
 40
1.0
 40
1.0
 10
55.34574812416628
 20
41.89287384746946
 30
0.0
 10
55.32476930088016
 20
41.8936566454726
 30
0.0
 10
55.28351228199508
 20
41.89519609845135
 30
0.0
 10
55.22317053285333
 20
41.90640266228463
 30
0.0
 10
55.16614563763249
 20
41.92574268758079
 30
0.0
 10
55.11221349790951
 20
41.95161732226114
 30
0.0
 10
55.0629432724438
 20
41.98518762621381
 30
0.0
 10
55.0184162004135
 20
42.0249702820693
 30
0.0
 10
54.9796043160121
 20
42.07134134714378
 30
0.0
 10
54.94630921715434
 20
42.12320274437995
 30
0.0
 10
54.91985630303664
 20
42.17933288217696
 30
0.0
 10
54.90029912369558
 20
42.23818716770281
 30
0.0
 10
54.8886132120157
 20
42.29926254628452
 30
0.0
 10
54.88708328276365
 20
42.34074113179901
 30
0.0
 10
54.88631302801244
 20
42.36162384746947
 30
0.0
  0
SPLINE
  5
9D
330
1F
100
AcDbEntity
  8
0
  6
Continuous
 62
     7
370
    25
100
AcDbSpline
210
0.0
220
0.0
230
1.0
 70
     8
 71
     3
 72
    23
 73
    19
 74
     0
 42
0.000000001
 43
0.00000001
 40
0.0
 40
0.0
 40
0.0
 40
0.0
 40
0.0652308037420294
 40
0.1284048960032227
 40
0.1900670715964781
 40
0.25094336576828
 40
0.3115458328521431
 40
0.3728628021568291
 40
0.4350236738562383
 40
0.4990717247070431
 40
0.563091075049662
 40
0.625510106330375
 40
0.6866800359296492
 40
0.7472825030135124
 40
0.8085634952159588
 40
0.8707421035159856
 40
0.9343409515059125
 40
1.0
 40
1.0
 40
1.0
 40
1.0
 10
55.79015918185859
 20
42.33788586670023
 30
0.0
 10
55.78974941970326
 20
42.32264051112801
 30
0.0
 10
55.78894281509434
 20
42.29263048236118
 30
0.0
 10
55.78273545051213
 20
42.24857042428661
 30
0.0
 10
55.77295325968772
 20
42.20623230886954
 30
0.0
 10
55.7586937214242
 20
42.16579161790293
 30
0.0
 10
55.74047842669751
 20
42.12710319710597
 30
0.0
 10
55.71864748229159
 20
42.08994502734518
 30
0.0
 10
55.69207361928154
 20
42.05501559444251
 30
0.0
 10
55.66238863823132
 20
42.02186508906598
 30
0.0
 10
55.62950993059054
 20
41.99176776161186
 30
0.0
 10
55.59462364343081
 20
41.96512088065864
 30
0.0
 10
55.55776612300301
 20
41.94273796991545
 30
0.0
 10
55.51895603760301
 20
41.92457771779491
 30
0.0
 10
55.47825321207706
 20
41.91047562696725
 30
0.0
 10
55.43570972372489
 20
41.90019520766285
 30
0.0
 10
55.39129623595627
 20
41.89411823931148
 30
0.0
 10
55.36109130369934
 20
41.89329302900502
 30
0.0
 10
55.34574812416628
 20
41.89287384746946
 30
0.0
  0
SPLINE
  5
9E
330
1F
100
AcDbEntity
  8
0
  6
Continuous
 62
     7
370
    25
100
AcDbSpline
210
0.0
220
0.0
230
1.0
 70
     8
 71
     3
 72
     9
 73
     5
 74
     0
 42
0.000000001
 43
0.00000001
 40
0.0
 40
0.0
 40
0.0
 40
0.0
 40
0.5126593363417812
 40
1.0
 40
1.0
 40
1.0
 40
1.0
 10
55.77573610493551
 20
42.49323442439254
 30
0.0
 10
55.77994204521563
 20
42.46684716282825
 30
0.0
 10
55.78814620728186
 20
42.41537582563858
 30
0.0
 10
55.78949961247404
 20
42.36327615484241
 30
0.0
 10
55.79015918185859
 20
42.33788586670023
 30
0.0
  0
LINE
  5
9F
330
1F
100
AcDbEntity
  8
0
  6
Continuous
 62
     7
370
    25
100
AcDbLine
 10
56.3818058165
 20
42.0969002898
 30
0.0
 11
55.7757361049
 21
42.4932344244
 31
0.0
  0
LINE
  5
A0
330
1F
100
AcDbEntity
  8
0
  6
Continuous
 62
     7
370
    25
100
AcDbLine
 10
56.4632361049
 20
42.2005661552
 30
0.0
 11
56.3818058165
 21
42.0969002898
 31
0.0
  0
LINE
  5
A1
330
1F
100
AcDbEntity
  8
0
  6
Continuous
 62
     7
370
    25
100
AcDbLine
 10
56.2709284126
 20
43.5443331755
 30
0.0
 11
56.4247745665
 21
43.4562923101
 31
0.0
  0
LINE
  5
A2
330
1F
100
AcDbEntity
  8
0
  6
Continuous
 62
     7
370
    25
100
AcDbLine
 10
56.2709284126
 20
43.3135639447
 30
0.0
 11
56.2709284126
 21
43.5443331755
 31
0.0
  0
LINE
  5
A3
330
1F
100
AcDbEntity
  8
0
  6
Continuous
 62
     7
370
    25
100
AcDbLine
 10
54.9247745665
 20
43.3135639447
 30
0.0
 11
56.2709284126
 21
43.3135639447
 31
0.0
  0
LINE
  5
A4
330
1F
100
AcDbEntity
  8
0
  6
Continuous
 62
     7
370
    25
100
AcDbLine
 10
54.9247745665
 20
43.1789485601
 30
0.0
 11
54.9247745665
 21
43.3135639447
 31
0.0
  0
LINE
  5
A5
330
1F
100
AcDbEntity
  8
0
  6
Continuous
 62
     7
370
    25
100
AcDbLine
 10
56.4247745665
 20
43.1789485601
 30
0.0
 11
54.9247745665
 21
43.1789485601
 31
0.0
  0
LINE
  5
A6
330
1F
100
AcDbEntity
  8
0
  6
Continuous
 62
     7
370
    25
100
AcDbLine
 10
56.4247745665
 20
43.4562923101
 30
0.0
 11
56.4247745665
 21
43.1789485601
 31
0.0
  0
SPLINE
  5
A7
330
1F
100
AcDbEntity
  8
0
  6
Continuous
 62
     7
370
    25
100
AcDbSpline
210
0.0
220
0.0
230
1.0
 70
     8
 71
     3
 72
    19
 73
    15
 74
     0
 42
0.000000001
 43
0.00000001
 40
0.0
 40
0.0
 40
0.0
 40
0.0
 40
0.1227280999764553
 40
0.239716523588393
 40
0.3518621792202463
 40
0.4632019818032239
 40
0.5202611541541643
 40
0.5794324380306665
 40
0.6405963441586369
 40
0.70529822908802
 40
0.7732361059084537
 40
0.844648929340316
 40
0.9200459817773698
 40
1.0
 40
1.0
 40
1.0
 40
1.0
 10
56.30938995108936
 20
44.37167099635463
 30
0.0
 10
56.30879480974158
 20
44.38875084703989
 30
0.0
 10
56.30763236027025
 20
44.4221117678923
 30
0.0
 10
56.2974149533901
 20
44.47019601149952
 30
0.0
 10
56.28122652545852
 20
44.51485068052857
 30
0.0
 10
56.26167904674531
 20
44.54886853060685
 30
0.0
 10
56.24244956438253
 20
44.5740311353985
 30
0.0
 10
56.22590644073547
 20
44.59235683738336
 30
0.0
 10
56.20714992686028
 20
44.61002469130578
 30
0.0
 10
56.18566555269052
 20
44.62634139455493
 30
0.0
 10
56.16219207889783
 20
44.64228467854179
 30
0.0
 10
56.13660022232882
 20
44.65770230873606
 30
0.0
 10
56.10852511969895
 20
44.67209907049896
 30
0.0
 10
56.08878189832196
 20
44.68086261510927
 30
0.0
 10
56.07862072032013
 20
44.68537291943155
 30
0.0
  0
SPLINE
  5
A8
330
1F
100
AcDbEntity
  8
0
  6
Continuous
 62
     7
370
    25
100
AcDbSpline
210
0.0
220
0.0
230
1.0
 70
     8
 71
     3
 72
    23
 73
    19
 74
     0
 42
0.000000001
 43
0.00000001
 40
0.0
 40
0.0
 40
0.0
 40
0.0
 40
0.0552698294993248
 40
0.1099567044850938
 40
0.1632335040550556
 40
0.2180575651623568
 40
0.2732775387226747
 40
0.330881045495497
 40
0.3904799376860887
 40
0.4536559730386417
 40
0.5189026226022311
 40
0.5833461108214766
 40
0.6485466930814431
 40
0.7150552190344909
 40
0.7825206438000536
 40
0.852335294426451
 40
0.9249348997257087
 40
0.9999999999999999
 40
0.9999999999999999
 40
0.9999999999999999
 40
0.9999999999999999
 10
56.07411350878167
 20
44.06998830404694
 30
0.0
 10
56.08194684696005
 20
44.07016588806844
 30
0.0
 10
56.09753090175115
 20
44.07051918305689
 30
0.0
 10
56.12029851200654
 20
44.07497546264474
 30
0.0
 10
56.14237137747654
 20
44.08167034765843
 30
0.0
 10
56.1636493446132
 20
44.09088028458041
 30
0.0
 10
56.18400890619763
 20
44.10318515486045
 30
0.0
 10
56.2034750394246
 20
44.11795509832135
 30
0.0
 10
56.22237397652792
 20
44.13519724370666
 30
0.0
 10
56.23980156923154
 20
44.15536221406602
 30
0.0
 10
56.25624025192392
 20
44.177192945119
 30
0.0
 10
56.27045088160092
 20
44.20089485030294
 30
0.0
 10
56.28249580181838
 20
44.22594515516662
 30
0.0
 10
56.29244747358844
 20
44.25236689524792
 30
0.0
 10
56.29992871995724
 20
44.28026591518167
 30
0.0
 10
56.30530158921095
 20
44.30950560638243
 30
0.0
 10
56.30866048230464
 20
44.34014325796097
 30
0.0
 10
56.30914410322332
 20
44.36104541871839
 30
0.0
 10
56.30938995108936
 20
44.37167099635463
 30
0.0
  0
SPLINE
  5
A9
330
1F
100
AcDbEntity
  8
0
  6
Continuous
 62
     7
370
    25
100
AcDbSpline
210
0.0
220
0.0
230
1.0
 70
     8
 71
     3
 72
    19
 73
    15
 74
     0
 42
0.000000001
 43
0.00000001
 40
0.0
 40
0.0
 40
0.0
 40
0.0
 40
0.1101423815503176
 40
0.2157418685830274
 40
0.3179605426392306
 40
0.4180517606815226
 40
0.5115631470355316
 40
0.5965727584443461
 40
0.6733290469034968
 40
0.7440491927238595
 40
0.8107168223002833
 40
0.8740854521098849
 40
0.9367096168966699
 40
1.0
 40
1.0
 40
1.0
 40
1.0
 10
55.82862072032013
 20
44.45460368866232
 30
0.0
 10
55.82893700928873
 20
44.43604655913015
 30
0.0
 10
55.82955654168069
 20
44.39969770100257
 30
0.0
 10
55.83699778879129
 20
44.34659292152395
 30
0.0
 10
55.84740711461117
 20
44.29575137189232
 30
0.0
 10
55.86298328625264
 20
44.24833356781752
 30
0.0
 10
55.88167913795264
 20
44.20525484971925
 30
0.0
 10
55.90276007607525
 20
44.16767541436624
 30
0.0
 10
55.92664383311607
 20
44.13648587967558
 30
0.0
 10
55.95301695766428
 20
44.11160832137414
 30
0.0
 10
55.98163274705579
 20
44.09334907692222
 30
0.0
 10
56.0111456744166
 20
44.07964370546679
 30
0.0
 10
56.04224240761859
 20
44.07160906141398
 30
0.0
 10
56.06345240078652
 20
44.07053045881077
 30
0.0
 10
56.07411350878166
 20
44.06998830404694
 30
0.0
  0
LINE
  5
AA
330
1F
100
AcDbEntity
  8
0
  6
Continuous
 62
     7
370
    25
100
AcDbLine
 10
55.6747745665
 20
44.4546036887
 30
0.0
 11
55.8286207203
 21
44.4546036887
 31
0.0
  0
SPLINE
  5
AB
330
1F
100
AcDbEntity
  8
0
  6
Continuous
 62
     7
370
    25
100
AcDbSpline
210
0.0
220
0.0
230
1.0
 70
     8
 71
     3
 72
    23
 73
    19
 74
     0
 42
0.000000001
 43
0.00000001
 40
0.0
 40
0.0
 40
0.0
 40
0.0
 40
0.0669051223273616
 40
0.1334773340846825
 40
0.2010229080576287
 40
0.2712178684297488
 40
0.3428591616573978
 40
0.4138109980627169
 40
0.4855518488903453
 40
0.5598002749200529
 40
0.5998999649035781
 40
0.6436094423977958
 40
0.6919106424505659
 40
0.7447030291556902
 40
0.8015038302285953
 40
0.8628660266331954
 40
0.9293326711591618
 40
1.0
 40
1.0
 40
1.0
 40
1.0
 10
55.35746687416628
 20
43.99306522712386
 30
0.0
 10
55.37144317804883
 20
43.99372105898888
 30
0.0
 10
55.39932624167244
 20
43.99502945939091
 30
0.0
 10
55.44034782263247
 20
44.00501902501598
 30
0.0
 10
55.47987306500448
 20
44.02144928646573
 30
0.0
 10
55.51722193120853
 20
44.044454456859
 30
0.0
 10
55.55185399922385
 20
44.07244529052682
 30
0.0
 10
55.5826334181804
 20
44.10515083779326
 30
0.0
 10
55.60828628897246
 20
44.14265132528209
 30
0.0
 10
55.62594476320821
 20
44.17738818646681
 30
0.0
 10
55.63771339367388
 20
44.20823118822179
 30
0.0
 10
55.64596533703885
 20
44.2345735622039
 30
0.0
 10
55.65256179434282
 20
44.26409074051104
 30
0.0
 10
55.65894255506646
 20
44.29642837584792
 30
0.0
 10
55.66429177993457
 20
44.33172285204289
 30
0.0
 10
55.66877196542384
 20
44.37000596719292
 30
0.0
 10
55.67235118626787
 20
44.41129312288702
 30
0.0
 10
55.67395044360222
 20
44.4398749936955
 30
0.0
 10
55.67477456647398
 20
44.45460368866232
 30
0.0
  0
SPLINE
  5
AC
330
1F
100
AcDbEntity
  8
0
  6
Continuous
 62
     7
370
    25
100
AcDbSpline
210
0.0
220
0.0
230
1.0
 70
     8
 71
     3
 72
    23
 73
    19
 74
     0
 42
0.000000001
 43
0.00000001
 40
0.0
 40
0.0
 40
0.0
 40
0.0
 40
0.0760618905628339
 40
0.1487324608035359
 40
0.2183745247439722
 40
0.2857225935927383
 40
0.3510576941824569
 40
0.414934915729319
 40
0.4784859417740854
 40
0.542169035281216
 40
0.6047501165431387
 40
0.6641185017301124
 40
0.7214996756099116
 40
0.7776159163852547
 40
0.832666108697549
 40
0.8878580281135741
 40
0.9434676608977686
 40
1.0
 40
1.0
 40
1.0
 40
1.0
 10
55.04015918185859
 20
44.37497628481616
 30
0.0
 10
55.04042271196785
 20
44.36093887938038
 30
0.0
 10
55.04093802234674
 20
44.33348994485728
 30
0.0
 10
55.04569075136977
 20
44.29344051699358
 30
0.0
 10
55.05258235649565
 20
44.25532783987867
 30
0.0
 10
55.06336216685769
 20
44.21954085326702
 30
0.0
 10
55.07629433018206
 20
44.18559258409049
 30
0.0
 10
55.09322490545476
 20
44.15424085579642
 30
0.0
 10
55.11234525309054
 20
44.12456396630732
 30
0.0
 10
55.13458589480649
 20
44.09743131133302
 30
0.0
 10
55.15862562113121
 20
44.07296989616215
 30
0.0
 10
55.18412962839332
 20
44.05183253080936
 30
0.0
 10
55.21030712639626
 20
44.03352515494581
 30
0.0
 10
55.23776878325491
 20
44.0188090799648
 30
0.0
 10
55.26624522219181
 20
44.00716797394801
 30
0.0
 10
55.29584303077014
 20
43.99924797856509
 30
0.0
 10
55.326312976922
 20
43.99373981997236
 30
0.0
 10
55.34702543425141
 20
43.99329132149143
 30
0.0
 10
55.35746687416628
 20
43.99306522712386
 30
0.0
  0
SPLINE
  5
AD
330
1F
100
AcDbEntity
  8
0
  6
Continuous
 62
     7
370
    25
100
AcDbSpline
210
0.0
220
0.0
230
1.0
 70
     8
 71
     3
 72
    15
 73
    11
 74
     0
 42
0.000000001
 43
0.00000001
 40
0.0
 40
0.0
 40
0.0
 40
0.0
 40
0.1182713048357256
 40
0.2361775330837632
 40
0.355662932948509
 40
0.4759041646706825
 40
0.6001273417110832
 40
0.7286081161551193
 40
0.8613134756739422
 40
1.0
 40
1.0
 40
1.0
 40
1.0
 10
55.1212889895509
 20
44.62557724635463
 30
0.0
 10
55.11481398931426
 20
44.61717871355814
 30
0.0
 10
55.10188397569233
 20
44.60040757232355
 30
0.0
 10
55.08538327774757
 20
44.57307833042422
 30
0.0
 10
55.07108569546125
 20
44.54433623638747
 30
0.0
 10
55.06016411158284
 20
44.51355851886423
 30
0.0
 10
55.05091654267319
 20
44.48140933152678
 30
0.0
 10
55.04486489161641
 20
44.44736903214172
 30
0.0
 10
55.04071281818361
 20
44.41173793909383
 30
0.0
 10
55.04034641897258
 20
44.38740889760108
 30
0.0
 10
55.04015918185859
 20
44.37497628481616
 30
0.0
  0
SPLINE
  5
AE
330
1F
100
AcDbEntity
  8
0
  6
Continuous
 62
     7
370
    25
100
AcDbSpline
210
0.0
220
0.0
230
1.0
 70
     8
 71
     3
 72
    15
 73
    11
 74
     0
 42
0.000000001
 43
0.00000001
 40
0.0
 40
0.0
 40
0.0
 40
0.0
 40
0.1497703860319681
 40
0.2913164099952446
 40
0.4259663731047426
 40
0.5521595739695285
 40
0.6715274135235928
 40
0.7861216286916589
 40
0.8953250730704446
 40
1.0
 40
1.0
 40
1.0
 40
1.0
 10
55.32862072032013
 20
44.74306522712386
 30
0.0
 10
55.317071143205
 20
44.73955810222088
 30
0.0
 10
55.29460621251152
 20
44.73273643965321
 30
0.0
 10
55.26227465293658
 20
44.72112459763817
 30
0.0
 10
55.2326354872688
 20
44.7078953381794
 30
0.0
 10
55.20547129213539
 20
44.69370338447823
 30
0.0
 10
55.18051454822216
 20
44.67879833618277
 30
0.0
 10
55.15842517577899
 20
44.66212051112431
 30
0.0
 10
55.13823294626051
 20
44.64490516320404
 30
0.0
 10
55.12685668400042
 20
44.63192829748203
 30
0.0
 10
55.1212889895509
 20
44.62557724635463
 30
0.0
  0
LINE
  5
AF
330
1F
100
AcDbEntity
  8
0
  6
Continuous
 62
     7
370
    25
100
AcDbLine
 10
55.3286207203
 20
44.8776806117
 30
0.0
 11
55.3286207203
 21
44.7430652271
 31
0.0
  0
SPLINE
  5
B0
330
1F
100
AcDbEntity
  8
0
  6
Continuous
 62
     7
370
    25
100
AcDbSpline
210
0.0
220
0.0
230
1.0
 70
     8
 71
     3
 72
    23
 73
    19
 74
     0
 42
0.000000001
 43
0.00000001
 40
0.0
 40
0.0
 40
0.0
 40
0.0
 40
0.0655411703374033
 40
0.1289631677825933
 40
0.1903771361885609
 40
0.2500923616690527
 40
0.308548432459201
 40
0.3663979630552958
 40
0.42454218926668
 40
0.4831699964229055
 40
0.5422433998311199
 40
0.6017393520173299
 40
0.6625060022496068
 40
0.7248555134488469
 40
0.7891278292811811
 40
0.8563463998785099
 40
0.9262952349869055
 40
1.0
 40
1.0
 40
1.0
 40
1.0
 10
54.88631302801244
 20
44.37738013097001
 30
0.0
 10
54.88668511940893
 20
44.3934169739485
 30
0.0
 10
54.88741727119918
 20
44.42497213326426
 30
0.0
 10
54.89242238599771
 20
44.47136220400125
 30
0.0
 10
54.90156381681391
 20
44.51564293230032
 30
0.0
 10
54.91386523339938
 20
44.55787418852461
 30
0.0
 10
54.92946169429102
 20
44.59809348983614
 30
0.0
 10
54.94888399344301
 20
44.63617810634086
 30
0.0
 10
54.97173178003666
 20
44.67236234642091
 30
0.0
 10
54.99827474623947
 20
44.7063047540543
 30
0.0
 10
55.02796674899236
 20
44.73800128307126
 30
0.0
 10
55.06133489612137
 20
44.76660959345561
 30
0.0
 10
55.09776235494468
 20
44.79260664757364
 30
0.0
 10
55.1376722361727
 20
44.81529634987857
 30
0.0
 10
55.18054877500604
 20
44.83571218671393
 30
0.0
 10
55.22694098859817
 20
44.85250402527706
 30
0.0
 10
55.27643414087917
 20
44.86728355469262
 30
0.0
 10
55.31092460095454
 20
44.87415503936951
 30
0.0
 10
55.32862072032013
 20
44.87768061173924
 30
0.0
  0
SPLINE
  5
B1
330
1F
100
AcDbEntity
  8
0
  6
Continuous
 62
     7
370
    25
100
AcDbSpline
210
0.0
220
0.0
230
1.0
 70
     8
 71
     3
 72
    19
 73
    15
 74
     0
 42
0.000000001
 43
0.00000001
 40
0.0
 40
0.0
 40
0.0
 40
0.0
 40
0.079641704194991
 40
0.1589086132578561
 40
0.2395997983184508
 40
0.3224093988203484
 40
0.405827748173513
 40
0.4876442139503137
 40
0.5697199979738974
 40
0.6530646649976934
 40
0.7374573001733065
 40
0.8224924079539125
 40
0.9097550737466981
 40
1.0
 40
1.0
 40
1.0
 40
1.0
 10
55.37038754724321
 20
43.85844984250847
 30
0.0
 10
55.34938421623989
 20
43.85922061321999
 30
0.0
 10
55.30747639624445
 20
43.86075852738373
 30
0.0
 10
55.24554613020179
 20
43.87444915708679
 30
0.0
 10
55.18511295613952
 20
43.89579576138701
 30
0.0
 10
55.12707229721453
 20
43.92557970508743
 30
0.0
 10
55.0728809068549
 20
43.96243026747708
 30
0.0
 10
55.02461432281835
 20
44.00651441301648
 30
0.0
 10
54.98284621657101
 20
44.05676046315905
 30
0.0
 10
54.94806051031446
 20
44.1128395675299
 30
0.0
 10
54.92023344623714
 20
44.1735701466782
 30
0.0
 10
54.90092450059318
 20
44.2385325657979
 30
0.0
 10
54.88834726576544
 20
44.3067821936344
 30
0.0
 10
54.88699865979348
 20
44.3535853756902
 30
0.0
 10
54.88631302801244
 20
44.37738013097001
 30
0.0
  0
SPLINE
  5
B2
330
1F
100
AcDbEntity
  8
0
  6
Continuous
 62
     7
370
    25
100
AcDbSpline
210
0.0
220
0.0
230
1.0
 70
     8
 71
     3
 72
    15
 73
    11
 74
     0
 42
0.000000001
 43
0.00000001
 40
0.0
 40
0.0
 40
0.0
 40
0.0
 40
0.1281455049994643
 40
0.2541925386280419
 40
0.3781411397135888
 40
0.5013808330744057
 40
0.6239569784447038
 40
0.7470758858273289
 40
0.8728647202442611
 40
1.0
 40
1.0
 40
1.0
 40
1.0
 10
55.6369139895509
 20
43.94799311173925
 30
0.0
 10
55.6270331491259
 20
43.94077245555169
 30
0.0
 10
55.60743327387924
 20
43.92644938642115
 30
0.0
 10
55.57590227731365
 20
43.90881993775723
 30
0.0
 10
55.54412617807814
 20
43.89264373033613
 30
0.0
 10
55.51085558093431
 20
43.88073850992603
 30
0.0
 10
55.47715919631379
 20
43.87046477648797
 30
0.0
 10
55.44231544994788
 20
43.86370500197564
 30
0.0
 10
55.40665538692031
 20
43.85936549712994
 30
0.0
 10
55.38251965611131
 20
43.85875614201934
 30
0.0
 10
55.37038754724321
 20
43.85844984250847
 30
0.0
  0
SPLINE
  5
B3
330
1F
100
AcDbEntity
  8
0
  6
Continuous
 62
     7
370
    25
100
AcDbSpline
210
0.0
220
0.0
230
1.0
 70
     8
 71
     3
 72
    11
 73
     7
 74
     0
 42
0.000000001
 43
0.00000001
 40
0.0
 40
0.0
 40
0.0
 40
0.0
 40
0.253879600326656
 40
0.5030089172783633
 40
0.7502910806899731
 40
1.0
 40
1.0
 40
1.0
 40
1.0
 10
55.7649187972432
 20
44.11055320789309
 30
0.0
 10
55.75721386658257
 20
44.09459674164737
 30
0.0
 10
55.74194817046391
 20
44.06298236696143
 30
0.0
 10
55.71200998867081
 20
44.0198892828759
 30
0.0
 10
55.677442982662
 20
43.98077019343721
 30
0.0
 10
55.65046755998475
 20
43.95895431386415
 30
0.0
 10
55.6369139895509
 20
43.94799311173925
 30
0.0
  0
SPLINE
  5
B4
330
1F
100
AcDbEntity
  8
0
  6
Continuous
 62
     7
370
    25
100
AcDbSpline
210
0.0
220
0.0
230
1.0
 70
     8
 71
     3
 72
    15
 73
    11
 74
     0
 42
0.000000001
 43
0.00000001
 40
0.0
 40
0.0
 40
0.0
 40
0.0
 40
0.1280675485958904
 40
0.2506083188676684
 40
0.3706301659145029
 40
0.4900722467299488
 40
0.6103747641546199
 40
0.7343130699115256
 40
0.8632165042449895
 40
1.0
 40
1.0
 40
1.0
 40
1.0
 10
56.0735125472432
 20
43.93537291943155
 30
0.0
 10
56.05765249236938
 20
43.93587160130887
 30
0.0
 10
56.02661682617091
 20
43.93684744435649
 30
0.0
 10
55.9813076131117
 20
43.94513331816892
 30
0.0
 10
55.9386040701336
 20
43.95907743083016
 30
0.0
 10
55.89832642922354
 20
43.97839304336352
 30
0.0
 10
55.86073006929936
 20
44.00339656489508
 30
0.0
 10
55.82573040178771
 20
44.03368486356236
 30
0.0
 10
55.79317219116132
 20
44.06947171860899
 30
0.0
 10
55.77452098845754
 20
44.09659126347612
 30
0.0
 10
55.7649187972432
 20
44.11055320789309
 30
0.0
  0
SPLINE
  5
B5
330
1F
100
AcDbEntity
  8
0
  6
Continuous
 62
     7
370
    25
100
AcDbSpline
210
0.0
220
0.0
230
1.0
 70
     8
 71
     3
 72
    19
 73
    15
 74
     0
 42
0.000000001
 43
0.00000001
 40
0.0
 40
0.0
 40
0.0
 40
0.0
 40
0.0902542493426766
 40
0.1785397915286843
 40
0.2660930338538198
 40
0.3546309779571733
 40
0.4418861533505626
 40
0.5257469151636484
 40
0.6081136336036366
 40
0.6901972728278825
 40
0.770821484330335
 40
0.8483261812554109
 40
0.9240117400247433
 40
1.0
 40
1.0
 40
1.0
 40
1.0
 10
56.46323610493551
 20
44.37347388097002
 30
0.0
 10
56.4626450062591
 20
44.35389556293784
 30
0.0
 10
56.46147570248419
 20
44.31516598681921
 30
0.0
 10
56.45079808685029
 20
44.25826753812615
 30
0.0
 10
56.43390160155564
 20
44.20339890136809
 30
0.0
 10
56.41055571849692
 20
44.15116065230395
 30
0.0
 10
56.38176115571316
 20
44.10263846690555
 30
0.0
 10
56.34749055418684
 20
44.0594658154425
 30
0.0
 10
56.30840513926369
 20
44.02222788224081
 30
0.0
 10
56.26523404027002
 20
43.99098743467218
 30
0.0
 10
56.21909596481847
 20
43.96652672079203
 30
0.0
 10
56.17161018318392
 20
43.94848970358644
 30
0.0
 10
56.12288933830295
 20
43.93750898315844
 30
0.0
 10
56.08999336151359
 20
43.93608588738262
 30
0.0
 10
56.0735125472432
 20
43.93537291943155
 30
0.0
  0
SPLINE
  5
B6
330
1F
100
AcDbEntity
  8
0
  6
Continuous
 62
     7
370
    25
100
AcDbSpline
210
0.0
220
0.0
230
1.0
 70
     8
 71
     3
 72
    23
 73
    19
 74
     0
 42
0.000000001
 43
0.00000001
 40
0.0
 40
0.0
 40
0.0
 40
0.0
 40
0.0726253460834355
 40
0.1419766113262345
 40
0.2089849284189386
 40
0.2739568703644447
 40
0.336889347396841
 40
0.3987449534945902
 40
0.4601158852788617
 40
0.5208249225900291
 40
0.5809944586324857
 40
0.6401519276014648
 40
0.6986224507562546
 40
0.7572710809271643
 40
0.8164266940046602
 40
0.8762540482034705
 40
0.9371652930625374
 40
1.0
 40
1.0
 40
1.0
 40
1.0
 10
56.07862072032013
 20
44.81998830404694
 30
0.0
 10
56.09372035630958
 20
44.81634135375509
 30
0.0
 10
56.12323890961986
 20
44.80921186423061
 30
0.0
 10
56.16541344998299
 20
44.79434147560108
 30
0.0
 10
56.20532353057902
 20
44.77814179480339
 30
0.0
 10
56.24222184787704
 20
44.75868932141849
 30
0.0
 10
56.27684994904819
 20
44.73747128389302
 30
0.0
 10
56.30842243096311
 20
44.71316154609193
 30
0.0
 10
56.33774227330616
 20
44.68688166499225
 30
0.0
 10
56.36376223225925
 20
44.65781382957719
 30
0.0
 10
56.38732411620498
 20
44.62733011744542
 30
0.0
 10
56.40741342649456
 20
44.59500099469511
 30
0.0
 10
56.42469520629363
 20
44.56147689740772
 30
0.0
 10
56.43893244852593
 20
44.52652555471546
 30
0.0
 10
56.44965767295426
 20
44.4900429097046
 30
0.0
 10
56.4574391610646
 20
44.45235878542425
 30
0.0
 10
56.46249249572794
 20
44.41337442823226
 30
0.0
 10
56.4629856799078
 20
44.38691117511872
 30
0.0
 10
56.46323610493551
 20
44.37347388097002
 30
0.0
  0
LINE
  5
B7
330
1F
100
AcDbEntity
  8
0
  6
Continuous
 62
     7
370
    25
100
AcDbLine
 10
56.0786207203
 20
44.6853729194
 30
0.0
 11
56.0786207203
 21
44.819988304
 31
0.0
  0
LINE
  5
B8
330
1F
100
AcDbEntity
  8
0
  6
Continuous
 62
     7
370
    25
100
AcDbLine
 10
55.7443898087
 20
35.1627251331
 30
0.0
 11
53.5943269161
 21
35.1627251331
 31
0.0
  0
SPLINE
  5
B9
330
1F
100
AcDbEntity
  8
0
  6
Continuous
 62
     7
370
    25
100
AcDbSpline
210
0.0
220
0.0
230
1.0
 70
     8
 71
     3
 72
    16
 73
    12
 74
     0
 42
0.000000001
 43
0.00000001
 40
0.0
 40
0.0
 40
0.0
 40
0.0
 40
0.2499999999999999
 40
0.2499999999999999
 40
0.4999999999999999
 40
0.4999999999999999
 40
0.6249999999999999
 40
0.6249999999999999
 40
0.7499999999999998
 40
0.7499999999999998
 40
1.0
 40
1.0
 40
1.0
 40
1.0
 10
53.59432691611017
 20
39.20417701740676
 30
0.0
 10
53.40383244512539
 20
38.87423091510016
 30
0.0
 10
53.24683043191229
 20
38.54187917379046
 30
0.0
 10
53.02933162107428
 20
37.87024407951672
 30
0.0
 10
52.96955226000421
 20
37.53090919574625
 30
0.0
 10
52.96889575915024
 20
37.01551342947606
 30
0.0
 10
52.98350952563373
 20
36.84290666897558
 30
0.0
 10
53.04049538351056
 20
36.50147225645704
 30
0.0
 10
53.0828096527698
 20
36.33189975371306
 30
0.0
 10
53.24620447265998
 20
35.82620125416157
 30
0.0
 10
53.40359499997341
 20
35.49308250245357
 30
0.0
 10
53.59432691611041
 20
35.16272513307932
 30
0.0
  0
SPLINE
  5
BA
330
1F
100
AcDbEntity
  8
0
  6
Continuous
 62
     7
370
    25
100
AcDbSpline
210
0.0
220
0.0
230
1.0
 70
     8
 71
     3
 72
     8
 73
     4
 74
     0
 42
0.000000001
 43
0.00000001
 40
0.0
 40
0.0
 40
0.0
 40
0.0
 40
1.0
 40
1.0
 40
1.0
 40
1.0
 10
55.82477456647397
 20
38.88445012522369
 30
0.0
 10
55.79977415355128
 20
38.99117664003514
 30
0.0
 10
55.77290784209106
 20
39.09774626802594
 30
0.0
 10
55.74438980874464
 20
39.20417701740672
 30
0.0
  0
SPLINE
  5
BB
330
1F
100
AcDbEntity
  8
0
  6
Continuous
 62
     7
370
    25
100
AcDbSpline
210
0.0
220
0.0
230
1.0
 70
     8
 71
     3
 72
    16
 73
    12
 74
     0
 42
0.000000001
 43
0.00000001
 40
0.0
 40
0.0
 40
0.0
 40
0.0
 40
0.2499999999999999
 40
0.2499999999999999
 40
0.4999999999999999
 40
0.4999999999999999
 40
0.6249999999999999
 40
0.6249999999999999
 40
0.7499999999999998
 40
0.7499999999999998
 40
1.0
 40
1.0
 40
1.0
 40
1.0
 10
58.05522221683778
 20
39.20417701740676
 30
0.0
 10
58.24571668782256
 20
38.87423091510016
 30
0.0
 10
58.40271870103566
 20
38.54187917379046
 30
0.0
 10
58.62021751187368
 20
37.87024407951672
 30
0.0
 10
58.67999687294375
 20
37.53090919574625
 30
0.0
 10
58.6806533737977
 20
37.01551342947606
 30
0.0
 10
58.66603960731423
 20
36.84290666897558
 30
0.0
 10
58.60905374943739
 20
36.50147225645704
 30
0.0
 10
58.56673948017816
 20
36.33189975371306
 30
0.0
 10
58.40334466028796
 20
35.82620125416157
 30
0.0
 10
58.24595413297454
 20
35.49308250245357
 30
0.0
 10
58.05522221683754
 20
35.16272513307932
 30
0.0
  0
LINE
  5
BC
330
1F
100
AcDbEntity
  8
0
  6
Continuous
 62
     7
370
    25
100
AcDbLine
 10
58.0552222168
 20
35.1627251331
 30
0.0
 11
55.9051593242
 21
35.1627251331
 31
0.0
  0
SPLINE
  5
BD
330
1F
100
AcDbEntity
  8
0
  6
Continuous
 62
     7
370
    25
100
AcDbSpline
210
0.0
220
0.0
230
1.0
 70
     8
 71
     3
 72
     8
 73
     4
 74
     0
 42
0.000000001
 43
0.00000001
 40
0.0
 40
0.0
 40
0.0
 40
0.0
 40
1.0
 40
1.0
 40
1.0
 40
1.0
 10
55.82477456647397
 20
35.48245202526236
 30
0.0
 10
55.84977497939667
 20
35.37572551045091
 30
0.0
 10
55.8766412908569
 20
35.26915588246012
 30
0.0
 10
55.90515932420331
 20
35.16272513307935
 30
0.0
  0
SPLINE
  5
BE
330
1F
100
AcDbEntity
  8
0
  6
Continuous
 62
     7
370
    25
100
AcDbSpline
210
0.0
220
0.0
230
1.0
 70
     8
 71
     3
 72
     8
 73
     4
 74
     0
 42
0.000000001
 43
0.00000001
 40
0.0
 40
0.0
 40
0.0
 40
0.0
 40
1.0
 40
1.0
 40
1.0
 40
1.0
 10
55.74438980874464
 20
35.16272513307934
 30
0.0
 10
55.77292362358273
 20
35.26921477978887
 30
0.0
 10
55.79978854538953
 20
35.37578694906565
 30
0.0
 10
55.82477456647397
 20
35.48245202526236
 30
0.0
  0
SPLINE
  5
BF
330
1F
100
AcDbEntity
  8
0
  6
Continuous
 62
     7
370
    25
100
AcDbSpline
210
0.0
220
0.0
230
1.0
 70
     8
 71
     3
 72
    16
 73
    12
 74
     0
 42
0.000000001
 43
0.00000001
 40
0.0
 40
0.0
 40
0.0
 40
0.0
 40
0.2500000000000001
 40
0.2500000000000001
 40
0.5000000000000001
 40
0.5000000000000001
 40
0.625
 40
0.625
 40
0.7499999999999999
 40
0.7499999999999999
 40
1.0
 40
1.0
 40
1.0
 40
1.0
 10
53.59432691611017
 20
51.3285326703889
 30
0.0
 10
53.40383244512539
 20
50.9985865680823
 30
0.0
 10
53.24683043191229
 20
50.6662348267726
 30
0.0
 10
53.02933162107428
 20
49.99459973249886
 30
0.0
 10
52.96955226000421
 20
49.6552648487284
 30
0.0
 10
52.96889575915025
 20
49.1398690824582
 30
0.0
 10
52.98350952563373
 20
48.96726232195772
 30
0.0
 10
53.04049538351056
 20
48.62582790943919
 30
0.0
 10
53.0828096527698
 20
48.4562554066952
 30
0.0
 10
53.24620447265998
 20
47.95055690714371
 30
0.0
 10
53.40359499997341
 20
47.61743815543571
 30
0.0
 10
53.59432691611041
 20
47.28708078606146
 30
0.0
  0
LINE
  5
C0
330
1F
100
AcDbEntity
  8
0
  6
Continuous
 62
     7
370
    25
100
AcDbLine
 10
55.7443898087
 20
51.3285326704
 30
0.0
 11
53.5943269161
 21
51.3285326704
 31
0.0
  0
SPLINE
  5
C1
330
1F
100
AcDbEntity
  8
0
  6
Continuous
 62
     7
370
    25
100
AcDbSpline
210
0.0
220
0.0
230
1.0
 70
     8
 71
     3
 72
     8
 73
     4
 74
     0
 42
0.000000001
 43
0.00000001
 40
0.0
 40
0.0
 40
0.0
 40
0.0
 40
1.0
 40
1.0
 40
1.0
 40
1.0
 10
55.82477456647397
 20
51.00880577820584
 30
0.0
 10
55.79977415355128
 20
51.11553229301728
 30
0.0
 10
55.77290784209106
 20
51.22210192100808
 30
0.0
 10
55.74438980874464
 20
51.32853267038887
 30
0.0
  0
SPLINE
  5
C2
330
1F
100
AcDbEntity
  8
0
  6
Continuous
 62
     7
370
    25
100
AcDbSpline
210
0.0
220
0.0
230
1.0
 70
     8
 71
     3
 72
     8
 73
     4
 74
     0
 42
0.000000001
 43
0.00000001
 40
0.0
 40
0.0
 40
0.0
 40
0.0
 40
1.0
 40
1.0
 40
1.0
 40
1.0
 10
55.90515932420331
 20
51.32853267038887
 30
0.0
 10
55.87662550936522
 20
51.22204302367933
 30
0.0
 10
55.84976058755843
 20
51.11547085440255
 30
0.0
 10
55.82477456647397
 20
51.00880577820584
 30
0.0
  0
LINE
  5
C3
330
1F
100
AcDbEntity
  8
0
  6
Continuous
 62
     7
370
    25
100
AcDbLine
 10
58.0552222168
 20
51.3285326704
 30
0.0
 11
55.9051593242
 21
51.3285326704
 31
0.0
  0
SPLINE
  5
C4
330
1F
100
AcDbEntity
  8
0
  6
Continuous
 62
     7
370
    25
100
AcDbSpline
210
0.0
220
0.0
230
1.0
 70
     8
 71
     3
 72
    16
 73
    12
 74
     0
 42
0.000000001
 43
0.00000001
 40
0.0
 40
0.0
 40
0.0
 40
0.0
 40
0.2500000000000001
 40
0.2500000000000001
 40
0.5000000000000001
 40
0.5000000000000001
 40
0.625
 40
0.625
 40
0.7499999999999999
 40
0.7499999999999999
 40
1.0
 40
1.0
 40
1.0
 40
1.0
 10
58.05522221683778
 20
51.3285326703889
 30
0.0
 10
58.24571668782256
 20
50.9985865680823
 30
0.0
 10
58.40271870103566
 20
50.6662348267726
 30
0.0
 10
58.62021751187368
 20
49.99459973249886
 30
0.0
 10
58.67999687294374
 20
49.6552648487284
 30
0.0
 10
58.6806533737977
 20
49.1398690824582
 30
0.0
 10
58.66603960731423
 20
48.96726232195772
 30
0.0
 10
58.60905374943739
 20
48.62582790943919
 30
0.0
 10
58.56673948017815
 20
48.4562554066952
 30
0.0
 10
58.40334466028796
 20
47.95055690714371
 30
0.0
 10
58.24595413297454
 20
47.61743815543571
 30
0.0
 10
58.05522221683754
 20
47.28708078606146
 30
0.0
  0
SPLINE
  5
C5
330
1F
100
AcDbEntity
  8
0
  6
Continuous
 62
     7
370
    25
100
AcDbSpline
210
0.0
220
0.0
230
1.0
 70
     8
 71
     3
 72
     8
 73
     4
 74
     0
 42
0.000000001
 43
0.00000001
 40
0.0
 40
0.0
 40
0.0
 40
0.0
 40
1.0
 40
1.0
 40
1.0
 40
1.0
 10
55.82477456647397
 20
47.60680767824451
 30
0.0
 10
55.84977497939667
 20
47.50008116343306
 30
0.0
 10
55.8766412908569
 20
47.39351153544226
 30
0.0
 10
55.90515932420331
 20
47.28708078606148
 30
0.0
  0
SPLINE
  5
C6
330
1F
100
AcDbEntity
  8
0
  6
Continuous
 62
     7
370
    25
100
AcDbSpline
210
0.0
220
0.0
230
1.0
 70
     8
 71
     3
 72
     8
 73
     4
 74
     0
 42
0.000000001
 43
0.00000001
 40
0.0
 40
0.0
 40
0.0
 40
0.0
 40
1.0
 40
1.0
 40
1.0
 40
1.0
 10
55.74438980874464
 20
47.28708078606148
 30
0.0
 10
55.77292362358273
 20
47.39357043277101
 30
0.0
 10
55.79978854538953
 20
47.5001426020478
 30
0.0
 10
55.82477456647397
 20
47.60680767824451
 30
0.0
  0
LINE
  5
C7
330
1F
100
AcDbEntity
  8
0
  6
Continuous
 62
     7
370
    25
100
AcDbLine
 10
55.8247745665
 20
46.6476270017
 30
0.0
 11
55.8247745665
 21
47.6068076782
 31
0.0
  0
LINE
  5
C8
330
1F
100
AcDbEntity
  8
0
  6
Continuous
 62
     7
370
    25
100
AcDbLine
 10
58.8247745665
 20
49.9956289017
 30
0.0
 11
58.8247745665
 21
36.4956289017
 31
0.0
  0
LINE
  5
C9
330
1F
100
AcDbEntity
  8
0
  6
Continuous
 62
     7
370
    25
100
AcDbLine
 10
52.8247745665
 20
49.9956289017
 30
0.0
 11
52.8247745665
 21
36.4956289017
 31
0.0
  0
SPLINE
  5
CA
330
1F
100
AcDbEntity
  8
0
  6
Continuous
 62
     7
370
    25
100
AcDbSpline
210
0.0
220
0.0
230
1.0
 70
     8
 71
     3
 72
    23
 73
    19
 74
     0
 42
0.000000001
 43
0.00000001
 40
0.0
 40
0.0
 40
0.0
 40
0.0
 40
0.0611415679303346
 40
0.1200010135310723
 40
0.1782359705414083
 40
0.2364955434070171
 40
0.2948872487049731
 40
0.3546771928192958
 40
0.4166948132897783
 40
0.4806333779628393
 40
0.5458046334786407
 40
0.6097347883178743
 40
0.6729516883751544
 40
0.7360010960706834
 40
0.7998274385165249
 40
0.864767276939387
 40
0.9310835057306723
 40
1.0
 40
1.0
 40
1.0
 40
1.0
 10
55.33763514339705
 20
42.02748923208485
 30
0.0
 10
55.3478768538472
 20
42.02772232312789
 30
0.0
 10
55.36797800067598
 20
42.02817980504006
 30
0.0
 10
55.39739861427903
 20
42.03345438009625
 30
0.0
 10
55.42592342301256
 20
42.04057857153806
 30
0.0
 10
55.45290985953734
 20
42.0520919178754
 30
0.0
 10
55.4791042073677
 20
42.06580525313905
 30
0.0
 10
55.50375781247878
 20
42.08327514143443
 30
0.0
 10
55.52756911592278
 20
42.10330479597241
 30
0.0
 10
55.54966152965291
 20
42.12650107943727
 30
0.0
 10
55.56986904931745
 20
42.15173655928682
 30
0.0
 10
55.58770557185317
 20
42.17857265304005
 30
0.0
 10
55.60275924649878
 20
42.20664727709409
 30
0.0
 10
55.61531940296745
 20
42.23593331162945
 30
0.0
 10
55.62438347152287
 20
42.26676595953035
 30
0.0
 10
55.63152057344178
 20
42.29864753788177
 30
0.0
 10
55.63531858165207
 20
42.33198578352723
 30
0.0
 10
55.63597732377712
 20
42.35460433011439
 30
0.0
 10
55.63631302801244
 20
42.36613105900793
 30
0.0
  0
SPLINE
  5
CB
330
1F
100
AcDbEntity
  8
0
  6
Continuous
 62
     7
370
    25
100
AcDbSpline
210
0.0
220
0.0
230
1.0
 70
     8
 71
     3
 72
    23
 73
    19
 74
     0
 42
0.000000001
 43
0.00000001
 40
0.0
 40
0.0
 40
0.0
 40
0.0
 40
0.0679503475997537
 40
0.1332598223836998
 40
0.1978002967596474
 40
0.2608458295516822
 40
0.3233192927503671
 40
0.3862817224595722
 40
0.450061516233313
 40
0.5152075844858154
 40
0.5796407692199316
 40
0.6418172023841522
 40
0.7016924412115348
 40
0.7607690981778945
 40
0.8192540511346832
 40
0.8787376269055537
 40
0.9381582970160912
 40
1.0
 40
1.0
 40
1.0
 40
1.0
 10
55.04015918185859
 20
42.35441230900793
 30
0.0
 10
55.04048877089972
 20
42.34328421998454
 30
0.0
 10
55.0411351395885
 20
42.32146053226095
 30
0.0
 10
55.04502679358672
 20
42.28924359417625
 30
0.0
 10
55.05191028469735
 20
42.25835192815653
 30
0.0
 10
55.06169212191755
 20
42.22876404931323
 30
0.0
 10
55.07361116375361
 20
42.20023343985247
 30
0.0
 10
55.08881952378141
 20
42.17316488562803
 30
0.0
 10
55.10659677528901
 20
42.14719294169694
 30
0.0
 10
55.12693532850722
 20
42.12288292899179
 30
0.0
 10
55.14879310197583
 20
42.10023124322844
 30
0.0
 10
55.17280170344436
 20
42.08128119215763
 30
0.0
 10
55.19711682578943
 20
42.06417891036232
 30
0.0
 10
55.2232152478033
 20
42.05122452972024
 30
0.0
 10
55.25015164728217
 20
42.0403643600656
 30
0.0
 10
55.27833660802612
 20
42.0330636104983
 30
0.0
 10
55.30762482784157
 20
42.02828404484033
 30
0.0
 10
55.32749943773291
 20
42.0277576727193
 30
0.0
 10
55.33763514339705
 20
42.02748923208485
 30
0.0
  0
SPLINE
  5
CC
330
1F
100
AcDbEntity
  8
0
  6
Continuous
 62
     7
370
    25
100
AcDbSpline
210
0.0
220
0.0
230
1.0
 70
     8
 71
     3
 72
    23
 73
    19
 74
     0
 42
0.000000001
 43
0.00000001
 40
0.0
 40
0.0
 40
0.0
 40
0.0
 40
0.0618526459466917
 40
0.1212838306153701
 40
0.1807779320756125
 40
0.2392732340142805
 40
0.2986414352139417
 40
0.3581858222417117
 40
0.4207600867589709
 40
0.4852046730216432
 40
0.5503622689482871
 40
0.613649924530912
 40
0.6766234955168249
 40
0.7391080134690126
 40
0.8021647022429448
 40
0.8667165971324778
 40
0.9320376285055445
 40
1.0
 40
1.0
 40
1.0
 40
1.0
 10
55.33763514339705
 20
42.681335385931
 30
0.0
 10
55.32749982354015
 20
42.68106625362354
 30
0.0
 10
55.30762597015937
 20
42.6805385252347
 30
0.0
 10
55.27833224474586
 20
42.67576882998149
 30
0.0
 10
55.2501679344949
 20
42.66843105832824
 30
0.0
 10
55.22311243979399
 20
42.65769050490645
 30
0.0
 10
55.19731334413059
 20
42.64421871044879
 30
0.0
 10
55.17258738899036
 20
42.62764018191687
 30
0.0
 10
55.14891750795028
 20
42.60823563382884
 30
0.0
 10
55.12690057139927
 20
42.5856782316835
 30
0.0
 10
55.10670610215985
 20
42.56135226044896
 30
0.0
 10
55.08872490883784
 20
42.53562593464382
 30
0.0
 10
55.07362551466387
 20
42.50858105399658
 30
0.0
 10
55.06168825341181
 20
42.4800632978255
 30
0.0
 10
55.05191135186951
 20
42.45047193699914
 30
0.0
 10
55.04502650275569
 20
42.41958122901278
 30
0.0
 10
55.04113521610994
 20
42.38736403177115
 30
0.0
 10
55.04048879674164
 20
42.36554037980055
 30
0.0
 10
55.04015918185859
 20
42.35441230900793
 30
0.0
  0
SPLINE
  5
CD
330
1F
100
AcDbEntity
  8
0
  6
Continuous
 62
     7
370
    25
100
AcDbSpline
210
0.0
220
0.0
230
1.0
 70
     8
 71
     3
 72
    23
 73
    19
 74
     0
 42
0.000000001
 43
0.00000001
 40
0.0
 40
0.0
 40
0.0
 40
0.0
 40
0.0705921865358071
 40
0.1385012886049299
 40
0.2037899961427012
 40
0.266787572669601
 40
0.3290979656467183
 40
0.3911745246039658
 40
0.4531677986176573
 40
0.5157967602265844
 40
0.5779688050530403
 40
0.6389663383752914
 40
0.698381066162843
 40
0.7573204555574266
 40
0.8164122397216688
 40
0.876279358230831
 40
0.936823465650193
 40
1.0
 40
1.0
 40
1.0
 40
1.0
 10
55.63631302801244
 20
42.36613105900793
 30
0.0
 10
55.63597516355784
 20
42.37755737684574
 30
0.0
 10
55.63531227628049
 20
42.39997571833943
 30
0.0
 10
55.63156828416152
 20
42.43282517455467
 30
0.0
 10
55.62447444554113
 20
42.46383110824037
 30
0.0
 10
55.61529840198486
 20
42.49334765772451
 30
0.0
 10
55.60280457658804
 20
42.52106718307201
 30
0.0
 10
55.58780844404372
 20
42.54730588170035
 30
0.0
 10
55.56997902277093
 20
42.57180338964727
 30
0.0
 10
55.54951510643487
 20
42.59412948817945
 30
0.0
 10
55.52743735215498
 20
42.61463036061381
 30
0.0
 10
55.50364842841633
 20
42.63226445868877
 30
0.0
 10
55.47887512843555
 20
42.6474922197971
 30
0.0
 10
55.45288461325169
 20
42.65986912050007
 30
0.0
 10
55.42569355477701
 20
42.66950799879793
 30
0.0
 10
55.39742522392093
 20
42.67648003174062
 30
0.0
 10
55.36789054316588
 20
42.68036023094047
 30
0.0
 10
55.34786232468708
 20
42.68100575594924
 30
0.0
 10
55.33763514339705
 20
42.681335385931
 30
0.0
  0
LINE
  5
CE
330
1F
100
AcDbEntity
  8
0
  6
Continuous
 62
     7
370
    25
100
AcDbLine
 10
43.9135622202
 20
49.7015910159
 30
0.0
 11
43.9135622202
 21
36.7896667876
 31
0.0
  0
LINE
  5
CF
330
1F
100
AcDbEntity
  8
0
  6
Continuous
 62
     7
370
    25
100
AcDbLine
 10
41.8247745665
 20
43.2456289017
 30
0.0
 11
41.8247745665
 21
48.4956289017
 31
0.0
  0
LINE
  5
D0
330
1F
100
AcDbEntity
  8
0
  6
Continuous
 62
     7
370
    25
100
AcDbLine
 10
41.8247745665
 20
37.9956289017
 30
0.0
 11
41.8247745665
 21
43.2456289017
 31
0.0
  0
LINE
  5
D1
330
1F
100
AcDbEntity
  8
0
  6
Continuous
 62
     7
370
    25
100
AcDbLine
 10
76.3247745665
 20
48.4956289017
 30
0.0
 11
76.3247745665
 21
37.9956289017
 31
0.0
  0
LINE
  5
D2
330
1F
100
AcDbEntity
  8
0
  6
Continuous
 62
     7
370
    25
100
AcDbLine
 10
62.8247745665
 20
48.4956289017
 30
0.0
 11
62.8247745665
 21
37.9956289017
 31
0.0
  0
LINE
  5
D3
330
1F
100
AcDbEntity
  8
0
  6
Continuous
 62
     7
370
    25
100
AcDbLine
 10
67.3247745665
 20
48.4956289017
 30
0.0
 11
67.3247745665
 21
37.9956289017
 31
0.0
  0
LINE
  5
D4
330
1F
100
AcDbEntity
  8
0
  6
Continuous
 62
     7
370
    25
100
AcDbLine
 10
71.8247745665
 20
48.4956289017
 30
0.0
 11
71.8247745665
 21
37.9956289017
 31
0.0
  0
LINE
  5
D5
330
1F
100
AcDbEntity
  8
0
  6
Continuous
 62
     7
370
    25
100
AcDbLine
 10
81.8247745665
 20
47.3091833719
 30
0.0
 11
81.8247745665
 21
39.1820744316
 31
0.0
  0
LINE
  5
D6
330
1F
100
AcDbEntity
  8
0
  6
Continuous
 62
     7
370
    25
100
AcDbLine
 10
55.8247745665
 20
51.0088057782
 30
0.0
 11
55.8247745665
 21
51.0285326704
 31
0.0
  0
LINE
  5
D7
330
1F
100
AcDbEntity
  8
0
  6
Continuous
 62
     7
370
    25
100
AcDbLine
 10
55.8247745665
 20
35.4627251331
 30
0.0
 11
55.8247745665
 21
35.4824520253
 31
0.0
  0
LINE
  5
D8
330
1F
100
AcDbEntity
  8
0
  6
Continuous
 62
     8
370
    25
100
AcDbLine
 10
81.3923311688
 20
38.6866593475
 30
0.0
 11
81.3923311688
 21
47.804598456
 31
0.0
  0
LINE
  5
D9
330
1F
100
AcDbEntity
  8
0
  6
Continuous
 62
     7
370
    18
100
AcDbLine
 10
42.690000289
 20
48.9951672056
 30
0.0
 11
52.3247745665
 21
49.2962539017
 31
0.0
  0
LINE
  5
DA
330
1F
100
AcDbEntity
  8
0
  6
Continuous
 62
     7
370
    18
100
AcDbLine
 10
42.690000289
 20
37.4960905979
 30
0.0
 11
52.3247745665
 21
37.1950039017
 31
0.0
  0
LINE
  5
DB
330
1F
100
AcDbEntity
  8
0
  6
Continuous
 62
     7
370
    18
100
AcDbLine
 10
52.3247745665
 20
36.5268164017
 30
0.0
 11
52.3247745665
 21
49.9644414017
 31
0.0
  0
LINE
  5
DC
330
1F
100
AcDbEntity
  8
0
  6
CENTERX2
 62
     7
370
    18
100
AcDbLine
 10
82.8247745665
 20
43.2456289017
 30
0.0
 11
40.9641523859
 21
43.2456289017
 31
0.0
  0
CIRCLE
  5
DD
330
1F
100
AcDbEntity
  8
0
  6
Continuous
 62
     7
370
    25
100
AcDbCircle
 10
101.1959491329
 20
43.2456289017
 30
0.0
 40
4.063554470200572
  0
CIRCLE
  5
DE
330
1F
100
AcDbEntity
  8
0
  6
Continuous
 62
     7
370
    25
100
AcDbCircle
 10
101.1959491329
 20
43.2456289017
 30
0.0
 40
4.55896955422272
  0
CIRCLE
  5
DF
330
1F
100
AcDbEntity
  8
0
  6
Continuous
 62
     7
370
    25
100
AcDbCircle
 10
101.1959491329
 20
43.2456289017
 30
0.0
 40
3.0
  0
CIRCLE
  5
E0
330
1F
100
AcDbEntity
  8
0
  6
Continuous
 62
     7
370
    25
100
AcDbCircle
 10
101.1959491329
 20
43.2456289017
 30
0.0
 40
3.5
  0
CIRCLE
  5
E1
330
1F
100
AcDbEntity
  8
0
  6
Continuous
 62
     7
370
    25
100
AcDbCircle
 10
101.1959491329
 20
43.2456289017
 30
0.0
 40
5.249999999999993
  0
SPLINE
  5
E2
330
1F
100
AcDbEntity
  8
0
  6
Continuous
 62
     7
370
    25
100
AcDbSpline
210
0.0
220
0.0
230
1.0
 70
    24
 71
     3
 72
    14
 73
    10
 74
     0
 42
0.000000001
 43
0.00000001
 40
0.0
 40
0.0
 40
0.0
 40
0.0
 40
0.25
 40
0.25
 40
0.5
 40
0.5
 40
0.75
 40
0.75
 40
1.0
 40
1.0
 40
1.0
 40
1.0
 10
108.195949132948
 20
39.20417701740671
 30
0.0
 10
108.195949132948
 20
39.86181770912994
 30
0.0
 10
108.195949132948
 20
40.53521422739077
 30
0.0
 10
108.195949132948
 20
41.8848924412715
 30
0.0
 10
108.195949132948
 20
42.56361602278516
 30
0.0
 10
108.195949132948
 20
43.93017422220008
 30
0.0
 10
108.195949132948
 20
44.62267204283551
 30
0.0
 10
108.195949132948
 20
45.97195689964233
 30
0.0
 10
108.195949132948
 20
46.63377659615026
 30
0.0
 10
108.195949132948
 20
47.28708078606148
 30
0.0
  0
SPLINE
  5
E3
330
1F
100
AcDbEntity
  8
0
  6
Continuous
 62
     7
370
    25
100
AcDbSpline
210
0.0
220
0.0
230
1.0
 70
    24
 71
     3
 72
    16
 73
    12
 74
     0
 42
0.000000001
 43
0.00000001
 40
0.0
 40
0.0
 40
0.0
 40
0.0
 40
0.2500000000000001
 40
0.2500000000000001
 40
0.5
 40
0.5
 40
0.625
 40
0.625
 40
0.7499999999999999
 40
0.7499999999999999
 40
1.0
 40
1.0
 40
1.0
 40
1.0
 10
101.1959491329479
 20
35.16272513307931
 30
0.0
 10
101.7674325459023
 20
35.49267123538589
 30
0.0
 10
102.3430826478347
 20
35.82502297669561
 30
0.0
 10
103.5063887552631
 20
36.49665807096934
 30
0.0
 10
104.094134014734
 20
36.83599295473981
 30
0.0
 10
104.9868256679199
 20
37.35138872101
 30
0.0
 10
105.2857893468366
 20
37.52399548151048
 30
0.0
 10
105.8771710967711
 20
37.86542989402901
 30
0.0
 10
106.1708792870903
 20
38.035002396773
 30
0.0
 10
107.0467747816248
 20
38.54070089632448
 30
0.0
 10
107.623753384537
 20
38.87381964803249
 30
0.0
 10
108.195949132948
 20
39.20417701740674
 30
0.0
  0
SPLINE
  5
E4
330
1F
100
AcDbEntity
  8
0
  6
Continuous
 62
     7
370
    25
100
AcDbSpline
210
0.0
220
0.0
230
1.0
 70
    24
 71
     3
 72
    16
 73
    12
 74
     0
 42
0.000000001
 43
0.00000001
 40
0.0
 40
0.0
 40
0.0
 40
0.0
 40
0.2499999999999999
 40
0.2499999999999999
 40
0.4999999999999999
 40
0.4999999999999999
 40
0.6249999999999999
 40
0.6249999999999999
 40
0.7499999999999998
 40
0.7499999999999998
 40
1.0
 40
1.0
 40
1.0
 40
1.0
 10
94.19594913294793
 20
39.20417701740676
 30
0.0
 10
94.76743254590227
 20
38.87423091510016
 30
0.0
 10
95.34308264783468
 20
38.54187917379046
 30
0.0
 10
96.50638875526309
 20
37.87024407951672
 30
0.0
 10
97.09413401473402
 20
37.53090919574625
 30
0.0
 10
97.98682566791989
 20
37.01551342947606
 30
0.0
 10
98.28578934683658
 20
36.84290666897558
 30
0.0
 10
98.87717109677112
 20
36.50147225645704
 30
0.0
 10
99.17087928709032
 20
36.33189975371306
 30
0.0
 10
100.0467747816248
 20
35.82620125416157
 30
0.0
 10
100.623753384537
 20
35.49308250245357
 30
0.0
 10
101.195949132948
 20
35.16272513307932
 30
0.0
  0
SPLINE
  5
E5
330
1F
100
AcDbEntity
  8
0
  6
Continuous
 62
     7
370
    25
100
AcDbSpline
210
0.0
220
0.0
230
1.0
 70
    24
 71
     3
 72
    14
 73
    10
 74
     0
 42
0.000000001
 43
0.00000001
 40
0.0
 40
0.0
 40
0.0
 40
0.0
 40
0.2500000000000001
 40
0.2500000000000001
 40
0.5000000000000001
 40
0.5000000000000001
 40
0.7500000000000002
 40
0.7500000000000002
 40
1.0
 40
1.0
 40
1.0
 40
1.0
 10
94.19594913294799
 20
39.20417701740671
 30
0.0
 10
94.19594913294799
 20
39.86181770912994
 30
0.0
 10
94.19594913294799
 20
40.53521422739077
 30
0.0
 10
94.19594913294799
 20
41.8848924412715
 30
0.0
 10
94.19594913294799
 20
42.56361602278516
 30
0.0
 10
94.19594913294799
 20
43.93017422220008
 30
0.0
 10
94.19594913294799
 20
44.62267204283551
 30
0.0
 10
94.19594913294799
 20
45.97195689964233
 30
0.0
 10
94.19594913294799
 20
46.63377659615026
 30
0.0
 10
94.19594913294799
 20
47.28708078606148
 30
0.0
  0
SPLINE
  5
E6
330
1F
100
AcDbEntity
  8
0
  6
Continuous
 62
     7
370
    25
100
AcDbSpline
210
0.0
220
0.0
230
1.0
 70
    24
 71
     3
 72
    16
 73
    12
 74
     0
 42
0.000000001
 43
0.00000001
 40
0.0
 40
0.0
 40
0.0
 40
0.0
 40
0.2500000000000001
 40
0.2500000000000001
 40
0.5000000000000001
 40
0.5000000000000001
 40
0.625
 40
0.625
 40
0.7499999999999999
 40
0.7499999999999999
 40
1.0
 40
1.0
 40
1.0
 40
1.0
 10
101.195949132948
 20
51.3285326703889
 30
0.0
 10
100.6244657199937
 20
50.9985865680823
 30
0.0
 10
100.0488156180613
 20
50.6662348267726
 30
0.0
 10
98.8855095106329
 20
49.99459973249886
 30
0.0
 10
98.29776425116196
 20
49.6552648487284
 30
0.0
 10
97.4050725979761
 20
49.1398690824582
 30
0.0
 10
97.10610891905938
 20
48.96726232195772
 30
0.0
 10
96.51472716912485
 20
48.62582790943919
 30
0.0
 10
96.22101897880566
 20
48.4562554066952
 30
0.0
 10
95.34512348427114
 20
47.95055690714371
 30
0.0
 10
94.76814488135895
 20
47.61743815543571
 30
0.0
 10
94.19594913294794
 20
47.28708078606146
 30
0.0
  0
SPLINE
  5
E7
330
1F
100
AcDbEntity
  8
0
  6
Continuous
 62
     7
370
    25
100
AcDbSpline
210
0.0
220
0.0
230
1.0
 70
    24
 71
     3
 72
    16
 73
    12
 74
     0
 42
0.000000001
 43
0.00000001
 40
0.0
 40
0.0
 40
0.0
 40
0.0
 40
0.25
 40
0.25
 40
0.5
 40
0.5
 40
0.625
 40
0.625
 40
0.75
 40
0.75
 40
1.0
 40
1.0
 40
1.0
 40
1.0
 10
108.1959491329481
 20
47.28708078606144
 30
0.0
 10
107.6244657199937
 20
47.61702688836804
 30
0.0
 10
107.0488156180613
 20
47.94937862967775
 30
0.0
 10
105.8855095106329
 20
48.62101372395148
 30
0.0
 10
105.297764251162
 20
48.96034860772195
 30
0.0
 10
104.4050725979761
 20
49.47574437399214
 30
0.0
 10
104.1061089190594
 20
49.64835113449263
 30
0.0
 10
103.5147271691249
 20
49.98978554701116
 30
0.0
 10
103.2210189788057
 20
50.15935804975515
 30
0.0
 10
102.3451234842711
 20
50.66505654930663
 30
0.0
 10
101.7681448813589
 20
50.99817530101463
 30
0.0
 10
101.1959491329479
 20
51.32853267038888
 30
0.0
  0
CIRCLE
  5
E8
330
1F
100
AcDbEntity
  8
0
  6
Continuous
 62
     7
370
    25
100
AcDbCircle
 10
101.1959491329
 20
43.2456289017
 30
0.0
 40
6.75
  0
INSERT
  5
F4
330
1F
100
AcDbEntity
  8
0
  6
Continuous
 62
     7
370
    18
100
AcDbBlockReference
  2
SW_CENTERMARKSYMBOL_0
 10
101.1959491329
 20
43.2456289017
 30
0.0
  0
INSERT
  5
100
330
1F
100
AcDbEntity
  8
0
  6
Continuous
 62
     7
370
    18
100
AcDbBlockReference
  2
SW_CENTERMARKSYMBOL_1
 10
101.1959491329
 20
43.2456289017
 30
0.0
  0
LINE
  5
101
330
1F
100
AcDbEntity
  8
0
  6
Continuous
 62
     7
370
    25
100
AcDbLine
 10
58.6804369992
 20
61.1203040462
 30
0.0
 11
58.8247745665
 21
61.3703040462
 31
0.0
  0
LINE
  5
102
330
1F
100
AcDbEntity
  8
0
  6
Continuous
 62
     7
370
    25
100
AcDbLine
 10
58.8247745665
 20
74.8703040462
 30
0.0
 11
58.6804369992
 21
75.1203040462
 31
0.0
  0
LINE
  5
103
330
1F
100
AcDbEntity
  8
0
  6
Continuous
 62
     7
370
    25
100
AcDbLine
 10
52.9691121338
 20
75.1203040462
 30
0.0
 11
52.8247745665
 21
74.8703040462
 31
0.0
  0
LINE
  5
104
330
1F
100
AcDbEntity
  8
0
  6
Continuous
 62
     7
370
    25
100
AcDbLine
 10
52.8247745665
 20
61.3703040462
 30
0.0
 11
52.9691121338
 21
61.1203040462
 31
0.0
  0
LINE
  5
105
330
1F
100
AcDbEntity
  8
0
  6
Continuous
 62
     7
370
    25
100
AcDbLine
 10
52.8247745665
 20
74.8547415462
 30
0.0
 11
43.9135622202
 21
74.5762661604
 31
0.0
  0
LINE
  5
106
330
1F
100
AcDbEntity
  8
0
  6
Continuous
 62
     7
370
    25
100
AcDbLine
 10
43.9135622202
 20
61.6643419321
 30
0.0
 11
52.8247745665
 21
61.3858665462
 31
0.0
  0
LINE
  5
107
330
1F
100
AcDbEntity
  8
0
  6
Continuous
 62
     7
370
    25
100
AcDbLine
 10
43.9135622202
 20
74.5762661604
 30
0.0
 11
41.8247745665
 21
73.3703040462
 31
0.0
  0
LINE
  5
108
330
1F
100
AcDbEntity
  8
0
  6
Continuous
 62
     7
370
    25
100
AcDbLine
 10
41.8247745665
 20
62.8703040462
 30
0.0
 11
43.9135622202
 21
61.6643419321
 31
0.0
  0
LINE
  5
109
330
1F
100
AcDbEntity
  8
0
  6
Continuous
 62
     7
370
    25
100
AcDbLine
 10
62.8247745665
 20
73.3703040462
 30
0.0
 11
58.8247745665
 21
73.3703040462
 31
0.0
  0
LINE
  5
10A
330
1F
100
AcDbEntity
  8
0
  6
Continuous
 62
     7
370
    25
100
AcDbLine
 10
58.8247745665
 20
62.8703040462
 30
0.0
 11
62.8247745665
 21
62.8703040462
 31
0.0
  0
LINE
  5
10B
330
1F
100
AcDbEntity
  8
0
  6
Continuous
 62
     7
370
    25
100
AcDbLine
 10
62.8247745665
 20
62.8703040462
 30
0.0
 11
67.3247745665
 21
63.6203040462
 31
0.0
  0
LINE
  5
10C
330
1F
100
AcDbEntity
  8
0
  6
Continuous
 62
     7
370
    25
100
AcDbLine
 10
67.3247745665
 20
72.6203040462
 30
0.0
 11
62.8247745665
 21
73.3703040462
 31
0.0
  0
LINE
  5
10D
330
1F
100
AcDbEntity
  8
0
  6
Continuous
 62
     7
370
    25
100
AcDbLine
 10
71.8247745665
 20
62.8703040462
 30
0.0
 11
76.3247745665
 21
63.6203040462
 31
0.0
  0
LINE
  5
10E
330
1F
100
AcDbEntity
  8
0
  6
Continuous
 62
     7
370
    25
100
AcDbLine
 10
76.3247745665
 20
72.6203040462
 30
0.0
 11
71.8247745665
 21
73.3703040462
 31
0.0
  0
LINE
  5
10F
330
1F
100
AcDbEntity
  8
0
  6
Continuous
 62
     7
370
    25
100
AcDbLine
 10
67.3247745665
 20
62.8703040462
 30
0.0
 11
71.8247745665
 21
63.6203040462
 31
0.0
  0
LINE
  5
110
330
1F
100
AcDbEntity
  8
0
  6
Continuous
 62
     7
370
    25
100
AcDbLine
 10
71.8247745665
 20
72.6203040462
 30
0.0
 11
67.3247745665
 21
73.3703040462
 31
0.0
  0
LINE
  5
111
330
1F
100
AcDbEntity
  8
0
  6
Continuous
 62
     7
370
    25
100
AcDbLine
 10
76.3247745665
 20
62.8703040462
 30
0.0
 11
81.3923311688
 21
63.561334492
 31
0.0
  0
LINE
  5
112
330
1F
100
AcDbEntity
  8
0
  6
Continuous
 62
     7
370
    25
100
AcDbLine
 10
81.3923311688
 20
72.6792736005
 30
0.0
 11
76.3247745665
 21
73.3703040462
 31
0.0
  0
ARC
  5
113
330
1F
100
AcDbEntity
  8
0
  6
Continuous
 62
     7
370
    25
100
AcDbCircle
 10
81.3247745665
 20
72.1838585164
 30
0.0
 40
0.5
100
AcDbArc
 50
0.0
 51
82.2348339816
  0
ARC
  5
114
330
1F
100
AcDbEntity
  8
0
  6
Continuous
 62
     7
370
    25
100
AcDbCircle
 10
81.3247745665
 20
64.056749576
 30
0.0
 40
0.5
100
AcDbArc
 50
277.7651660184
 51
0.0
  0
SPLINE
  5
115
330
1F
100
AcDbEntity
  8
0
  6
Continuous
 62
     7
370
    25
100
AcDbSpline
210
0.0
220
0.0
230
1.0
 70
    24
 71
     3
 72
    13
 73
     9
 74
     0
 42
0.000000001
 43
0.00000001
 40
0.0
 40
0.0
 40
0.0
 40
0.0
 40
0.0049686242405734
 40
0.2621826984821411
 40
0.4454270669273427
 40
0.6292327825529666
 40
0.8144405859096615
 40
1.0
 40
1.0
 40
1.0
 40
1.0
 10
58.67957954398879
 20
75.12030404624278
 30
0.0
 10
58.67986469117041
 20
75.12030404624278
 30
0.0
 10
58.69491124207085
 20
75.12030404624274
 30
0.0
 10
58.64755760162789
 20
75.12030404624278
 30
0.0
 10
58.55370814651958
 20
75.12030404624277
 30
0.0
 10
58.42280922702349
 20
75.12030404624278
 30
0.0
 10
58.25869519412786
 20
75.12030404624278
 30
0.0
 10
58.12308940907455
 20
75.12030404624278
 30
0.0
 10
58.05522221683728
 20
75.12030404624278
 30
0.0
  0
SPLINE
  5
116
330
1F
100
AcDbEntity
  8
0
  6
Continuous
 62
     7
370
    25
100
AcDbSpline
210
0.0
220
0.0
230
1.0
 70
    24
 71
     3
 72
    13
 73
     9
 74
     0
 42
0.000000001
 43
0.00000001
 40
0.0
 40
0.0
 40
0.0
 40
0.0
 40
0.1834900896423825
 40
0.3672881429943825
 40
0.5522810495210136
 40
0.7378125960060998
 40
0.9867786648415057
 40
1.0
 40
1.0
 40
1.0
 40
1.0
 10
58.05522221683728
 20
61.12030404624277
 30
0.0
 10
58.12235842554387
 20
61.12030404624277
 30
0.0
 10
58.25674352215364
 20
61.12030404624277
 30
0.0
 10
58.42071212492029
 20
61.12030404624277
 30
0.0
 10
58.55264190526648
 20
61.12030404624277
 30
0.0
 10
58.64638387105082
 20
61.12030404624277
 30
0.0
 10
58.69320086223917
 20
61.12030404624277
 30
0.0
 10
58.6789872282928
 20
61.12030404624277
 30
0.0
 10
58.67827047678085
 20
61.12030404624277
 30
0.0
  0
SPLINE
  5
117
330
1F
100
AcDbEntity
  8
0
  6
Continuous
 62
     7
370
    25
100
AcDbSpline
210
0.0
220
0.0
230
1.0
 70
     8
 71
     3
 72
    16
 73
    12
 74
     0
 42
0.000000001
 43
0.00000001
 40
0.0
 40
0.0
 40
0.0
 40
0.0
 40
0.2500000000000001
 40
0.2500000000000001
 40
0.5000000000000001
 40
0.5000000000000001
 40
0.625
 40
0.625
 40
0.7499999999999999
 40
0.7499999999999999
 40
1.0
 40
1.0
 40
1.0
 40
1.0
 10
58.05522221683778
 20
68.12030404624284
 30
0.0
 10
58.24571668782256
 20
67.54882063328849
 30
0.0
 10
58.40271870103565
 20
66.97317053135609
 30
0.0
 10
58.62021751187367
 20
65.80986442392766
 30
0.0
 10
58.67999687294373
 20
65.22211916445673
 30
0.0
 10
58.6806533737977
 20
64.32942751127086
 30
0.0
 10
58.66603960731422
 20
64.03046383235417
 30
0.0
 10
58.60905374943738
 20
63.43908208241963
 30
0.0
 10
58.56673948017814
 20
63.14537389210044
 30
0.0
 10
58.40334466028796
 20
62.26947839756591
 30
0.0
 10
58.24595413297453
 20
61.69249979465373
 30
0.0
 10
58.05522221683753
 20
61.12030404624273
 30
0.0
  0
SPLINE
  5
118
330
1F
100
AcDbEntity
  8
0
  6
Continuous
 62
     7
370
    25
100
AcDbSpline
210
0.0
220
0.0
230
1.0
 70
     8
 71
     3
 72
    16
 73
    12
 74
     0
 42
0.000000001
 43
0.00000001
 40
0.0
 40
0.0
 40
0.0
 40
0.0
 40
0.25
 40
0.25
 40
0.5
 40
0.5
 40
0.625
 40
0.625
 40
0.75
 40
0.75
 40
1.0
 40
1.0
 40
1.0
 40
1.0
 10
58.05522221683778
 20
75.12030404624282
 30
0.0
 10
58.24571668782256
 20
74.54882063328849
 30
0.0
 10
58.40271870103565
 20
73.97317053135609
 30
0.0
 10
58.62021751187367
 20
72.80986442392768
 30
0.0
 10
58.67999687294373
 20
72.22211916445674
 30
0.0
 10
58.6806533737977
 20
71.32942751127088
 30
0.0
 10
58.66603960731422
 20
71.03046383235416
 30
0.0
 10
58.60905374943738
 20
70.43908208241963
 30
0.0
 10
58.56673948017814
 20
70.14537389210044
 30
0.0
 10
58.40334466028796
 20
69.26947839756592
 30
0.0
 10
58.24595413297453
 20
68.69249979465374
 30
0.0
 10
58.05522221683753
 20
68.12030404624274
 30
0.0
  0
LINE
  5
119
330
1F
100
AcDbEntity
  8
0
  6
Continuous
 62
     7
370
    25
100
AcDbLine
 10
58.8247745665
 20
74.8703040462
 30
0.0
 11
58.8247745665
 21
61.3703040462
 31
0.0
  0
SPLINE
  5
11A
330
1F
100
AcDbEntity
  8
0
  6
Continuous
 62
     7
370
    25
100
AcDbSpline
210
0.0
220
0.0
230
1.0
 70
     8
 71
     3
 72
    16
 73
    12
 74
     0
 42
0.000000001
 43
0.00000001
 40
0.0
 40
0.0
 40
0.0
 40
0.0
 40
0.2500000000000002
 40
0.2500000000000002
 40
0.5000000000000003
 40
0.5000000000000003
 40
0.6250000000000003
 40
0.6250000000000003
 40
0.7500000000000002
 40
0.7500000000000002
 40
1.0
 40
1.0
 40
1.0
 40
1.0
 10
53.59432691611016
 20
75.12030404624282
 30
0.0
 10
53.40383244512538
 20
74.54882063328849
 30
0.0
 10
53.24683043191229
 20
73.97317053135609
 30
0.0
 10
53.02933162107426
 20
72.80986442392768
 30
0.0
 10
52.9695522600042
 20
72.22211916445674
 30
0.0
 10
52.96889575915024
 20
71.32942751127088
 30
0.0
 10
52.98350952563373
 20
71.03046383235416
 30
0.0
 10
53.04049538351056
 20
70.43908208241963
 30
0.0
 10
53.08280965276979
 20
70.14537389210044
 30
0.0
 10
53.24620447265998
 20
69.26947839756592
 30
0.0
 10
53.40359499997341
 20
68.69249979465374
 30
0.0
 10
53.5943269161104
 20
68.12030404624274
 30
0.0
  0
SPLINE
  5
11B
330
1F
100
AcDbEntity
  8
0
  6
Continuous
 62
     7
370
    25
100
AcDbSpline
210
0.0
220
0.0
230
1.0
 70
     8
 71
     3
 72
    16
 73
    12
 74
     0
 42
0.000000001
 43
0.00000001
 40
0.0
 40
0.0
 40
0.0
 40
0.0
 40
0.2500000000000001
 40
0.2500000000000001
 40
0.5000000000000001
 40
0.5000000000000001
 40
0.625
 40
0.625
 40
0.7499999999999999
 40
0.7499999999999999
 40
1.0
 40
1.0
 40
1.0
 40
1.0
 10
53.59432691611016
 20
68.12030404624284
 30
0.0
 10
53.40383244512538
 20
67.54882063328849
 30
0.0
 10
53.24683043191229
 20
66.97317053135609
 30
0.0
 10
53.02933162107426
 20
65.80986442392766
 30
0.0
 10
52.9695522600042
 20
65.22211916445673
 30
0.0
 10
52.96889575915024
 20
64.32942751127086
 30
0.0
 10
52.98350952563372
 20
64.03046383235417
 30
0.0
 10
53.04049538351056
 20
63.43908208241963
 30
0.0
 10
53.08280965276979
 20
63.14537389210044
 30
0.0
 10
53.24620447265998
 20
62.26947839756591
 30
0.0
 10
53.40359499997341
 20
61.69249979465373
 30
0.0
 10
53.5943269161104
 20
61.12030404624273
 30
0.0
  0
SPLINE
  5
11C
330
1F
100
AcDbEntity
  8
0
  6
Continuous
 62
     7
370
    25
100
AcDbSpline
210
0.0
220
0.0
230
1.0
 70
    24
 71
     3
 72
    13
 73
     9
 74
     0
 42
0.000000001
 43
0.00000001
 40
0.0
 40
0.0
 40
0.0
 40
0.0
 40
0.1834900896423825
 40
0.3672881429943825
 40
0.5522810495210136
 40
0.7378125960060998
 40
0.9867786648415057
 40
1.0
 40
1.0
 40
1.0
 40
1.0
 10
53.59432691611066
 20
61.12030404624277
 30
0.0
 10
53.52719070740407
 20
61.12030404624277
 30
0.0
 10
53.39280561079429
 20
61.12030404624277
 30
0.0
 10
53.22883700802765
 20
61.12030404624277
 30
0.0
 10
53.09690722768146
 20
61.12030404624277
 30
0.0
 10
53.00316526189712
 20
61.12030404624277
 30
0.0
 10
52.95634827070877
 20
61.12030404624277
 30
0.0
 10
52.97056190465514
 20
61.12030404624277
 30
0.0
 10
52.97127865616708
 20
61.12030404624277
 30
0.0
  0
SPLINE
  5
11D
330
1F
100
AcDbEntity
  8
0
  6
Continuous
 62
     7
370
    25
100
AcDbSpline
210
0.0
220
0.0
230
1.0
 70
    24
 71
     3
 72
    13
 73
     9
 74
     0
 42
0.000000001
 43
0.00000001
 40
0.0
 40
0.0
 40
0.0
 40
0.0
 40
0.0049686242405734
 40
0.2621826984821411
 40
0.4454270669273427
 40
0.6292327825529666
 40
0.8144405859096615
 40
1.0
 40
1.0
 40
1.0
 40
1.0
 10
52.96996958895915
 20
75.12030404624278
 30
0.0
 10
52.96968444177752
 20
75.12030404624278
 30
0.0
 10
52.95463789087709
 20
75.12030404624274
 30
0.0
 10
53.00199153132006
 20
75.12030404624278
 30
0.0
 10
53.09584098642836
 20
75.12030404624277
 30
0.0
 10
53.22673990592445
 20
75.12030404624278
 30
0.0
 10
53.39085393882008
 20
75.12030404624278
 30
0.0
 10
53.52645972387339
 20
75.12030404624278
 30
0.0
 10
53.59432691611066
 20
75.12030404624278
 30
0.0
  0
LINE
  5
11E
330
1F
100
AcDbEntity
  8
0
  6
Continuous
 62
     7
370
    25
100
AcDbLine
 10
52.8247745665
 20
74.8703040462
 30
0.0
 11
52.8247745665
 21
61.3703040462
 31
0.0
  0
LINE
  5
11F
330
1F
100
AcDbEntity
  8
0
  6
Continuous
 62
     7
370
    25
100
AcDbLine
 10
55.7443898087
 20
68.1203040462
 30
0.0
 11
53.5943269161
 21
68.1203040462
 31
0.0
  0
LINE
  5
120
330
1F
100
AcDbEntity
  8
0
  6
Continuous
 62
     7
370
    25
100
AcDbLine
 10
55.7443898087
 20
75.1203040462
 30
0.0
 11
53.5943269161
 21
75.1203040462
 31
0.0
  0
SPLINE
  5
121
330
1F
100
AcDbEntity
  8
0
  6
Continuous
 62
     7
370
    25
100
AcDbSpline
210
0.0
220
0.0
230
1.0
 70
     8
 71
     3
 72
     8
 73
     4
 74
     0
 42
0.000000001
 43
0.00000001
 40
0.0
 40
0.0
 40
0.0
 40
0.0
 40
1.0
 40
1.0
 40
1.0
 40
1.0
 10
55.82477456647397
 20
74.56652082443567
 30
0.0
 10
55.79977415355127
 20
74.75137657060385
 30
0.0
 10
55.77290784209105
 20
74.93596058082763
 30
0.0
 10
55.74438980874463
 20
75.12030404624277
 30
0.0
  0
SPLINE
  5
122
330
1F
100
AcDbEntity
  8
0
  6
Continuous
 62
     7
370
    25
100
AcDbSpline
210
0.0
220
0.0
230
1.0
 70
     8
 71
     3
 72
     8
 73
     4
 74
     0
 42
0.000000001
 43
0.00000001
 40
0.0
 40
0.0
 40
0.0
 40
0.0
 40
1.0
 40
1.0
 40
1.0
 40
1.0
 10
55.9051593242033
 20
75.12030404624278
 30
0.0
 10
55.87662550936521
 20
74.9358585676618
 30
0.0
 10
55.84976058755842
 20
74.75127015580158
 30
0.0
 10
55.82477456647397
 20
74.56652082443567
 30
0.0
  0
LINE
  5
123
330
1F
100
AcDbEntity
  8
0
  6
Continuous
 62
     7
370
    25
100
AcDbLine
 10
58.0552222168
 20
75.1203040462
 30
0.0
 11
55.9051593242
 21
75.1203040462
 31
0.0
  0
LINE
  5
124
330
1F
100
AcDbEntity
  8
0
  6
Continuous
 62
     7
370
    25
100
AcDbLine
 10
58.0552222168
 20
68.1203040462
 30
0.0
 11
55.9051593242
 21
68.1203040462
 31
0.0
  0
SPLINE
  5
125
330
1F
100
AcDbEntity
  8
0
  6
Continuous
 62
     7
370
    25
100
AcDbSpline
210
0.0
220
0.0
230
1.0
 70
     8
 71
     3
 72
     8
 73
     4
 74
     0
 42
0.000000001
 43
0.00000001
 40
0.0
 40
0.0
 40
0.0
 40
0.0
 40
1.0
 40
1.0
 40
1.0
 40
1.0
 10
55.82477456647397
 20
68.67408726804987
 30
0.0
 10
55.84977497939666
 20
68.48923152188169
 30
0.0
 10
55.87664129085689
 20
68.30464751165792
 30
0.0
 10
55.9051593242033
 20
68.12030404624277
 30
0.0
  0
SPLINE
  5
126
330
1F
100
AcDbEntity
  8
0
  6
Continuous
 62
     7
370
    25
100
AcDbSpline
210
0.0
220
0.0
230
1.0
 70
     8
 71
     3
 72
     8
 73
     4
 74
     0
 42
0.000000001
 43
0.00000001
 40
0.0
 40
0.0
 40
0.0
 40
0.0
 40
1.0
 40
1.0
 40
1.0
 40
1.0
 10
55.74438980874463
 20
68.12030404624277
 30
0.0
 10
55.77292362358273
 20
68.30474952482373
 30
0.0
 10
55.79978854538951
 20
68.48933793668397
 30
0.0
 10
55.82477456647397
 20
68.67408726804987
 30
0.0
  0
LINE
  5
127
330
1F
100
AcDbEntity
  8
0
  6
Continuous
 62
     7
370
    25
100
AcDbLine
 10
55.8247745665
 20
67.5665208244
 30
0.0
 11
55.8247745665
 21
68.674087268
 31
0.0
  0
SPLINE
  5
128
330
1F
100
AcDbEntity
  8
0
  6
Continuous
 62
     7
370
    25
100
AcDbSpline
210
0.0
220
0.0
230
1.0
 70
     8
 71
     3
 72
     8
 73
     4
 74
     0
 42
0.000000001
 43
0.00000001
 40
0.0
 40
0.0
 40
0.0
 40
0.0
 40
1.0
 40
1.0
 40
1.0
 40
1.0
 10
55.82477456647397
 20
67.56652082443567
 30
0.0
 10
55.79977415355127
 20
67.75137657060385
 30
0.0
 10
55.77290784209105
 20
67.93596058082763
 30
0.0
 10
55.74438980874463
 20
68.12030404624277
 30
0.0
  0
SPLINE
  5
129
330
1F
100
AcDbEntity
  8
0
  6
Continuous
 62
     7
370
    25
100
AcDbSpline
210
0.0
220
0.0
230
1.0
 70
     8
 71
     3
 72
     8
 73
     4
 74
     0
 42
0.000000001
 43
0.00000001
 40
0.0
 40
0.0
 40
0.0
 40
0.0
 40
1.0
 40
1.0
 40
1.0
 40
1.0
 10
55.9051593242033
 20
68.12030404624277
 30
0.0
 10
55.87662550936522
 20
67.93585856766181
 30
0.0
 10
55.84976058755842
 20
67.75127015580158
 30
0.0
 10
55.82477456647397
 20
67.56652082443567
 30
0.0
  0
LINE
  5
12A
330
1F
100
AcDbEntity
  8
0
  6
Continuous
 62
     7
370
    25
100
AcDbLine
 10
55.7443898087
 20
61.1203040462
 30
0.0
 11
53.5943269161
 21
61.1203040462
 31
0.0
  0
LINE
  5
12B
330
1F
100
AcDbEntity
  8
0
  6
Continuous
 62
     7
370
    25
100
AcDbLine
 10
58.0552222168
 20
61.1203040462
 30
0.0
 11
55.9051593242
 21
61.1203040462
 31
0.0
  0
SPLINE
  5
12C
330
1F
100
AcDbEntity
  8
0
  6
Continuous
 62
     7
370
    25
100
AcDbSpline
210
0.0
220
0.0
230
1.0
 70
     8
 71
     3
 72
     8
 73
     4
 74
     0
 42
0.000000001
 43
0.00000001
 40
0.0
 40
0.0
 40
0.0
 40
0.0
 40
1.0
 40
1.0
 40
1.0
 40
1.0
 10
55.82477456647397
 20
61.67408726804986
 30
0.0
 10
55.84977497939666
 20
61.48923152188168
 30
0.0
 10
55.87664129085689
 20
61.3046475116579
 30
0.0
 10
55.9051593242033
 20
61.12030404624277
 30
0.0
  0
SPLINE
  5
12D
330
1F
100
AcDbEntity
  8
0
  6
Continuous
 62
     7
370
    25
100
AcDbSpline
210
0.0
220
0.0
230
1.0
 70
     8
 71
     3
 72
     8
 73
     4
 74
     0
 42
0.000000001
 43
0.00000001
 40
0.0
 40
0.0
 40
0.0
 40
0.0
 40
1.0
 40
1.0
 40
1.0
 40
1.0
 10
55.74438980874463
 20
61.12030404624277
 30
0.0
 10
55.77292362358273
 20
61.30474952482373
 30
0.0
 10
55.79978854538951
 20
61.48933793668396
 30
0.0
 10
55.82477456647397
 20
61.67408726804986
 30
0.0
  0
LINE
  5
12E
330
1F
100
AcDbEntity
  8
0
  6
Continuous
 62
     7
370
    25
100
AcDbLine
 10
43.9135622202
 20
74.5762661604
 30
0.0
 11
43.9135622202
 21
61.6643419321
 31
0.0
  0
LINE
  5
12F
330
1F
100
AcDbEntity
  8
0
  6
Continuous
 62
     7
370
    25
100
AcDbLine
 10
41.8247745665
 20
62.8703040462
 30
0.0
 11
41.8247745665
 21
73.3703040462
 31
0.0
  0
LINE
  5
130
330
1F
100
AcDbEntity
  8
0
  6
Continuous
 62
     7
370
    25
100
AcDbLine
 10
62.8247745665
 20
68.1203040462
 30
0.0
 11
62.8247745665
 21
62.8703040462
 31
0.0
  0
LINE
  5
131
330
1F
100
AcDbEntity
  8
0
  6
Continuous
 62
     7
370
    25
100
AcDbLine
 10
62.8247745665
 20
73.3703040462
 30
0.0
 11
62.8247745665
 21
68.1203040462
 31
0.0
  0
LINE
  5
132
330
1F
100
AcDbEntity
  8
0
  6
Continuous
 62
     7
370
    25
100
AcDbLine
 10
71.8247745665
 20
68.1203040462
 30
0.0
 11
71.8247745665
 21
62.8703040462
 31
0.0
  0
LINE
  5
133
330
1F
100
AcDbEntity
  8
0
  6
Continuous
 62
     7
370
    25
100
AcDbLine
 10
71.8247745665
 20
73.3703040462
 30
0.0
 11
71.8247745665
 21
68.1203040462
 31
0.0
  0
LINE
  5
134
330
1F
100
AcDbEntity
  8
0
  6
Continuous
 62
     7
370
    25
100
AcDbLine
 10
67.3247745665
 20
68.1203040462
 30
0.0
 11
67.3247745665
 21
62.8703040462
 31
0.0
  0
LINE
  5
135
330
1F
100
AcDbEntity
  8
0
  6
Continuous
 62
     7
370
    25
100
AcDbLine
 10
67.3247745665
 20
73.3703040462
 30
0.0
 11
67.3247745665
 21
68.1203040462
 31
0.0
  0
LINE
  5
136
330
1F
100
AcDbEntity
  8
0
  6
Continuous
 62
     7
370
    25
100
AcDbLine
 10
76.3247745665
 20
68.1203040462
 30
0.0
 11
76.3247745665
 21
62.8703040462
 31
0.0
  0
LINE
  5
137
330
1F
100
AcDbEntity
  8
0
  6
Continuous
 62
     7
370
    25
100
AcDbLine
 10
76.3247745665
 20
73.3703040462
 30
0.0
 11
76.3247745665
 21
68.1203040462
 31
0.0
  0
LINE
  5
138
330
1F
100
AcDbEntity
  8
0
  6
Continuous
 62
     7
370
    25
100
AcDbLine
 10
81.8247745665
 20
68.1203040462
 30
0.0
 11
81.8247745665
 21
64.056749576
 31
0.0
  0
LINE
  5
139
330
1F
100
AcDbEntity
  8
0
  6
Continuous
 62
     7
370
    25
100
AcDbLine
 10
81.8247745665
 20
72.1838585164
 30
0.0
 11
81.8247745665
 21
68.1203040462
 31
0.0
  0
LINE
  5
13A
330
1F
100
AcDbEntity
  8
0
  6
Continuous
 62
     7
370
    25
100
AcDbLine
 10
55.8247745665
 20
74.5665208244
 30
0.0
 11
55.8247745665
 21
75.1203040462
 31
0.0
  0
SPLINE
  5
13B
330
1F
100
AcDbEntity
  8
0
  6
Continuous
 62
     7
370
    25
100
AcDbSpline
210
0.0
220
0.0
230
1.0
 70
    24
 71
     3
 72
     8
 73
     4
 74
     0
 42
0.000000001
 43
0.00000001
 40
0.0
 40
0.0
 40
0.0
 40
0.0
 40
1.0
 40
1.0
 40
1.0
 40
1.0
 10
55.82477456647397
 20
75.12030404624278
 30
0.0
 10
55.84977423846819
 20
75.12030404624278
 30
0.0
 10
55.87664047925518
 20
75.12030404624278
 30
0.0
 10
55.9051593242033
 20
75.12030404624278
 30
0.0
  0
SPLINE
  5
13C
330
1F
100
AcDbEntity
  8
0
  6
Continuous
 62
     7
370
    25
100
AcDbSpline
210
0.0
220
0.0
230
1.0
 70
    24
 71
     3
 72
     8
 73
     4
 74
     0
 42
0.000000001
 43
0.00000001
 40
0.0
 40
0.0
 40
0.0
 40
0.0
 40
1.0
 40
1.0
 40
1.0
 40
1.0
 10
55.74438980874463
 20
75.12030404624278
 30
0.0
 10
55.77292593906027
 20
75.12030404624278
 30
0.0
 10
55.79979065424369
 20
75.12030404624278
 30
0.0
 10
55.82477456647397
 20
75.12030404624278
 30
0.0
  0
SPLINE
  5
13D
330
1F
100
AcDbEntity
  8
0
  6
Continuous
 62
     7
370
    25
100
AcDbSpline
210
0.0
220
0.0
230
1.0
 70
    24
 71
     3
 72
     8
 73
     4
 74
     0
 42
0.000000001
 43
0.00000001
 40
0.0
 40
0.0
 40
0.0
 40
0.0
 40
1.0
 40
1.0
 40
1.0
 40
1.0
 10
55.9051593242033
 20
61.12030404624277
 30
0.0
 10
55.87662319388766
 20
61.12030404624277
 30
0.0
 10
55.84975847870425
 20
61.12030404624277
 30
0.0
 10
55.82477456647397
 20
61.12030404624277
 30
0.0
  0
LINE
  5
13E
330
1F
100
AcDbEntity
  8
0
  6
Continuous
 62
     7
370
    25
100
AcDbLine
 10
55.8247745665
 20
61.1203040462
 30
0.0
 11
55.8247745665
 21
61.674087268
 31
0.0
  0
SPLINE
  5
13F
330
1F
100
AcDbEntity
  8
0
  6
Continuous
 62
     7
370
    25
100
AcDbSpline
210
0.0
220
0.0
230
1.0
 70
    24
 71
     3
 72
     8
 73
     4
 74
     0
 42
0.000000001
 43
0.00000001
 40
0.0
 40
0.0
 40
0.0
 40
0.0
 40
1.0
 40
1.0
 40
1.0
 40
1.0
 10
55.82477456647397
 20
61.12030404624277
 30
0.0
 10
55.79977489447975
 20
61.12030404624277
 30
0.0
 10
55.77290865369275
 20
61.12030404624277
 30
0.0
 10
55.74438980874463
 20
61.12030404624277
 30
0.0
  0
LINE
  5
140
330
1F
100
AcDbEntity
  8
0
  6
Continuous
 62
     8
370
    25
100
AcDbLine
 10
81.3923311688
 20
68.1203040462
 30
0.0
 11
81.3923311688
 21
72.6792736005
 31
0.0
  0
LINE
  5
141
330
1F
100
AcDbEntity
  8
0
  6
Continuous
 62
     8
370
    25
100
AcDbLine
 10
81.3923311688
 20
63.561334492
 30
0.0
 11
81.3923311688
 21
68.1203040462
 31
0.0
  0
LINE
  5
142
330
1F
100
AcDbEntity
  8
0
  6
Continuous
 62
     7
370
    18
100
AcDbLine
 10
42.690000289
 20
73.8698423501
 30
0.0
 11
52.3247745665
 21
74.1709290462
 31
0.0
  0
LINE
  5
143
330
1F
100
AcDbEntity
  8
0
  6
Continuous
 62
     7
370
    18
100
AcDbLine
 10
42.690000289
 20
62.3707657424
 30
0.0
 11
52.3247745665
 21
62.0696790462
 31
0.0
  0
LINE
  5
144
330
1F
100
AcDbEntity
  8
0
  6
Continuous
 62
     7
370
    18
100
AcDbLine
 10
52.3247745665
 20
61.4014915462
 30
0.0
 11
52.3247745665
 21
74.8391165462
 31
0.0
  0
LINE
  5
145
330
1F
100
AcDbEntity
  8
0
  6
CENTERX2
 62
     7
370
    18
100
AcDbLine
 10
82.8247745665
 20
68.1203040462
 30
0.0
 11
40.9641523859
 21
68.1203040462
 31
0.0
  0
ENDSEC
  0
SECTION
  2
OBJECTS
  0
DICTIONARY
  5
C
330
0
100
AcDbDictionary
281
     1
  3
ACAD_GROUP
350
D
  3
ACAD_LAYOUT
350
1A
  3
ACAD_MLINESTYLE
350
17
  3
ACAD_PLOTSETTINGS
350
19
  3
ACAD_PLOTSTYLENAME
350
E
  3
ACAD_SCALELIST
350
47
  0
DICTIONARY
  5
D
102
{ACAD_REACTORS
330
C
102
}
330
C
100
AcDbDictionary
281
     1
  0
DICTIONARY
  5
1A
102
{ACAD_REACTORS
330
C
102
}
330
C
100
AcDbDictionary
281
     1
  3
Layout1
350
1E
  3
Layout2
350
26
  3
Model
350
22
  0
DICTIONARY
  5
17
102
{ACAD_REACTORS
330
C
102
}
330
C
100
AcDbDictionary
281
     1
  3
Standard
350
18
  0
DICTIONARY
  5
19
102
{ACAD_REACTORS
330
C
102
}
330
C
100
AcDbDictionary
281
     1
  0
ACDBDICTIONARYWDFLT
  5
E
102
{ACAD_REACTORS
330
C
102
}
330
C
100
AcDbDictionary
281
     1
  3
Normal
350
F
100
AcDbDictionaryWithDefault
340
F
  0
DICTIONARY
  5
47
102
{ACAD_REACTORS
330
C
102
}
330
C
100
AcDbDictionary
281
     1
  3
A0
350
48
  3
A1
350
49
  3
A2
350
4A
  3
A3
350
4B
  3
A4
350
4C
  3
A5
350
4D
  3
A6
350
4E
  3
A7
350
4F
  3
A8
350
50
  3
A9
350
51
  3
B0
350
52
  3
B1
350
53
  3
B2
350
54
  3
B3
350
55
  3
B4
350
56
  3
B5
350
57
  3
B6
350
58
  3
B7
350
59
  3
B8
350
5A
  3
B9
350
5B
  3
C0
350
5C
  3
C1
350
5D
  3
C2
350
5E
  3
C3
350
5F
  3
C4
350
60
  3
C5
350
61
  3
C6
350
62
  3
C7
350
63
  3
C8
350
64
  3
C9
350
65
  3
D0
350
66
  3
D1
350
67
  3
D2
350
68
  0
LAYOUT
  5
1E
102
{ACAD_REACTORS
330
1A
102
}
330
1A
100
AcDbPlotSettings
  1

  2
none_device
  4

  6

 40
0.0
 41
0.0
 42
0.0
 43
0.0
 44
0.0
 45
0.0
 46
0.0
 47
0.0
 48
0.0
 49
0.0
140
0.0
141
0.0
142
1.0
143
1.0
 70
   688
 72
     1
 73
     0
 74
     5
  7

 75
    16
147
1.0
148
0.0
149
0.0
100
AcDbLayout
  1
Layout1
 70
     1
 71
     1
 10
0.0
 20
0.0
 11
420.0
 21
297.0
 12
0.0
 22
0.0
 32
0.0
 14
1.0000000000E+20
 24
1.0000000000E+20
 34
1.0000000000E+20
 15
-1.0000000000E+20
 25
-1.0000000000E+20
 35
-1.0000000000E+20
146
0.0
 13
0.0
 23
0.0
 33
0.0
 16
1.0
 26
0.0
 36
0.0
 17
0.0
 27
1.0
 37
0.0
 76
     0
330
1B
  0
LAYOUT
  5
26
102
{ACAD_REACTORS
330
1A
102
}
330
1A
100
AcDbPlotSettings
  1

  2
none_device
  4

  6

 40
0.0
 41
0.0
 42
0.0
 43
0.0
 44
0.0
 45
0.0
 46
0.0
 47
0.0
 48
0.0
 49
0.0
140
0.0
141
0.0
142
1.0
143
1.0
 70
   688
 72
     1
 73
     0
 74
     5
  7

 75
    16
147
1.0
148
0.0
149
0.0
100
AcDbLayout
  1
Layout2
 70
     1
 71
     2
 10
0.0
 20
0.0
 11
0.0
 21
0.0
 12
0.0
 22
0.0
 32
0.0
 14
0.0
 24
0.0
 34
0.0
 15
0.0
 25
0.0
 35
0.0
146
0.0
 13
0.0
 23
0.0
 33
0.0
 16
1.0
 26
0.0
 36
0.0
 17
0.0
 27
1.0
 37
0.0
 76
     0
330
23
  0
LAYOUT
  5
22
102
{ACAD_REACTORS
330
1A
102
}
330
1A
100
AcDbPlotSettings
  1

  2
none_device
  4
Letter_(8.50_x_11.00_Inches)
  6

 40
6.35
 41
6.35
 42
6.35000508
 43
6.35000508
 44
215.9
 45
279.4
 46
0.0
 47
0.0
 48
0.0
 49
0.0
140
0.0
141
0.0
142
1.0
143
1.0
 70
  1712
 72
     1
 73
     0
 74
     0
  7

 75
     0
147
1.0
148
0.0
149
0.0
100
AcDbLayout
  1
Model
 70
     1
 71
     0
 10
0.0
 20
0.0
 11
215.9
 21
139.7
 12
0.0
 22
0.0
 32
0.0
 14
0.0
 24
0.0
 34
0.0
 15
215.9
 25
139.7
 35
0.0
146
0.0
 13
0.0
 23
0.0
 33
0.0
 16
1.0
 26
0.0
 36
0.0
 17
0.0
 27
1.0
 37
0.0
 76
     0
330
1F
331
29
  0
MLINESTYLE
  5
18
102
{ACAD_REACTORS
330
17
102
}
330
17
100
AcDbMlineStyle
  2
Standard
 70
     0
  3

 62
   256
 51
90.0
 52
90.0
 71
     2
 49
0.5
 62
   256
  6
BYLAYER
 49
-0.5
 62
   256
  6
BYLAYER
  0
ACDBPLACEHOLDER
  5
F
102
{ACAD_REACTORS
330
E
102
}
330
E
  0
SCALE
  5
48
102
{ACAD_REACTORS
330
47
102
}
330
47
100
AcDbScale
 70
     0
300
1:1
140
1.0
141
1.0
290
     1
  0
SCALE
  5
49
102
{ACAD_REACTORS
330
47
102
}
330
47
100
AcDbScale
 70
     0
300
1:2
140
1.0
141
2.0
290
     0
  0
SCALE
  5
4A
102
{ACAD_REACTORS
330
47
102
}
330
47
100
AcDbScale
 70
     0
300
1:4
140
1.0
141
4.0
290
     0
  0
SCALE
  5
4B
102
{ACAD_REACTORS
330
47
102
}
330
47
100
AcDbScale
 70
     0
300
1:5
140
1.0
141
5.0
290
     0
  0
SCALE
  5
4C
102
{ACAD_REACTORS
330
47
102
}
330
47
100
AcDbScale
 70
     0
300
1:8
140
1.0
141
8.0
290
     0
  0
SCALE
  5
4D
102
{ACAD_REACTORS
330
47
102
}
330
47
100
AcDbScale
 70
     0
300
1:10
140
1.0
141
10.0
290
     0
  0
SCALE
  5
4E
102
{ACAD_REACTORS
330
47
102
}
330
47
100
AcDbScale
 70
     0
300
1:16
140
1.0
141
16.0
290
     0
  0
SCALE
  5
4F
102
{ACAD_REACTORS
330
47
102
}
330
47
100
AcDbScale
 70
     0
300
1:20
140
1.0
141
20.0
290
     0
  0
SCALE
  5
50
102
{ACAD_REACTORS
330
47
102
}
330
47
100
AcDbScale
 70
     0
300
1:30
140
1.0
141
30.0
290
     0
  0
SCALE
  5
51
102
{ACAD_REACTORS
330
47
102
}
330
47
100
AcDbScale
 70
     0
300
1:40
140
1.0
141
40.0
290
     0
  0
SCALE
  5
52
102
{ACAD_REACTORS
330
47
102
}
330
47
100
AcDbScale
 70
     0
300
1:50
140
1.0
141
50.0
290
     0
  0
SCALE
  5
53
102
{ACAD_REACTORS
330
47
102
}
330
47
100
AcDbScale
 70
     0
300
1:100
140
1.0
141
100.0
290
     0
  0
SCALE
  5
54
102
{ACAD_REACTORS
330
47
102
}
330
47
100
AcDbScale
 70
     0
300
2:1
140
2.0
141
1.0
290
     0
  0
SCALE
  5
55
102
{ACAD_REACTORS
330
47
102
}
330
47
100
AcDbScale
 70
     0
300
4:1
140
4.0
141
1.0
290
     0
  0
SCALE
  5
56
102
{ACAD_REACTORS
330
47
102
}
330
47
100
AcDbScale
 70
     0
300
8:1
140
8.0
141
1.0
290
     0
  0
SCALE
  5
57
102
{ACAD_REACTORS
330
47
102
}
330
47
100
AcDbScale
 70
     0
300
10:1
140
10.0
141
1.0
290
     0
  0
SCALE
  5
58
102
{ACAD_REACTORS
330
47
102
}
330
47
100
AcDbScale
 70
     0
300
100:1
140
100.0
141
1.0
290
     0
  0
SCALE
  5
59
102
{ACAD_REACTORS
330
47
102
}
330
47
100
AcDbScale
 70
     0
300
1/128" = 1'-0"
140
0.0078125
141
12.0
290
     0
  0
SCALE
  5
5A
102
{ACAD_REACTORS
330
47
102
}
330
47
100
AcDbScale
 70
     0
300
1/64" = 1'-0"
140
0.015625
141
12.0
290
     0
  0
SCALE
  5
5B
102
{ACAD_REACTORS
330
47
102
}
330
47
100
AcDbScale
 70
     0
300
1/32" = 1'-0"
140
0.03125
141
12.0
290
     0
  0
SCALE
  5
5C
102
{ACAD_REACTORS
330
47
102
}
330
47
100
AcDbScale
 70
     0
300
1/16" = 1'-0"
140
0.0625
141
12.0
290
     0
  0
SCALE
  5
5D
102
{ACAD_REACTORS
330
47
102
}
330
47
100
AcDbScale
 70
     0
300
3/32" = 1'-0"
140
0.09375
141
12.0
290
     0
  0
SCALE
  5
5E
102
{ACAD_REACTORS
330
47
102
}
330
47
100
AcDbScale
 70
     0
300
1/8" = 1'-0"
140
0.125
141
12.0
290
     0
  0
SCALE
  5
5F
102
{ACAD_REACTORS
330
47
102
}
330
47
100
AcDbScale
 70
     0
300
3/16" = 1'-0"
140
0.1875
141
12.0
290
     0
  0
SCALE
  5
60
102
{ACAD_REACTORS
330
47
102
}
330
47
100
AcDbScale
 70
     0
300
1/4" = 1'-0"
140
0.25
141
12.0
290
     0
  0
SCALE
  5
61
102
{ACAD_REACTORS
330
47
102
}
330
47
100
AcDbScale
 70
     0
300
3/8" = 1'-0"
140
0.375
141
12.0
290
     0
  0
SCALE
  5
62
102
{ACAD_REACTORS
330
47
102
}
330
47
100
AcDbScale
 70
     0
300
1/2" = 1'-0"
140
0.5
141
12.0
290
     0
  0
SCALE
  5
63
102
{ACAD_REACTORS
330
47
102
}
330
47
100
AcDbScale
 70
     0
300
3/4" = 1'-0"
140
0.75
141
12.0
290
     0
  0
SCALE
  5
64
102
{ACAD_REACTORS
330
47
102
}
330
47
100
AcDbScale
 70
     0
300
1" = 1'-0"
140
1.0
141
12.0
290
     0
  0
SCALE
  5
65
102
{ACAD_REACTORS
330
47
102
}
330
47
100
AcDbScale
 70
     0
300
1-1/2" = 1'-0"
140
1.5
141
12.0
290
     0
  0
SCALE
  5
66
102
{ACAD_REACTORS
330
47
102
}
330
47
100
AcDbScale
 70
     0
300
3" = 1'-0"
140
3.0
141
12.0
290
     0
  0
SCALE
  5
67
102
{ACAD_REACTORS
330
47
102
}
330
47
100
AcDbScale
 70
     0
300
6" = 1'-0"
140
6.0
141
12.0
290
     0
  0
SCALE
  5
68
102
{ACAD_REACTORS
330
47
102
}
330
47
100
AcDbScale
 70
     0
300
1'-0" = 1'-0"
140
12.0
141
12.0
290
     0
  0
ENDSEC
  0
EOF
