  0
SECTION
  2
HEADER
  9
$ACADVER
  1
AC1015
  9
$ACADMAINTVER
 70
     6
  9
$DWGCODEPAGE
  3
DOS932
  9
$INSBASE
 10
0.0
 20
0.0
 30
0.0
  9
$EXTMIN
 10
0.0
 20
0.0
 30
0.0
  9
$EXTMAX
 10
215.9
 20
139.7
 30
0.0
  9
$LIMMIN
 10
0.0
 20
0.0
  9
$LIMMAX
 10
215.9
 20
139.7
  9
$ORTHOMODE
 70
     0
  9
$REGENMODE
 70
     1
  9
$FILLMODE
 70
     1
  9
$QTEXTMODE
 70
     0
  9
$MIRRTEXT
 70
     1
  9
$LTSCALE
 40
0.5
  9
$ATTMODE
 70
     1
  9
$TEXTSIZE
 40
1.75
  9
$TRACEWID
 40
1.0
  9
$TEXTSTYLE
  7
Standard
  9
$CLAYER
  8
0
  9
$CELTYPE
  6
ByLayer
  9
$CECOLOR
 62
   256
  9
$CELTSCALE
 40
1.0
  9
$DISPSILH
 70
     0
  9
$DIMSCALE
 40
1.0
  9
$DIMASZ
 40
1.651
  9
$DIMEXO
 40
0.5
  9
$DIMDLI
 40
3.75
  9
$DIMRND
 40
0.0
  9
$DIMDLE
 40
0.0
  9
$DIMEXE
 40
0.5
  9
$DIMTP
 40
0.0
  9
$DIMTM
 40
0.0
  9
$DIMTXT
 40
1.75
  9
$DIMCEN
 40
2.5
  9
$DIMTSZ
 40
0.0
  9
$DIMTOL
 70
     0
  9
$DIMLIM
 70
     0
  9
$DIMTIH
 70
     1
  9
$DIMTOH
 70
     1
  9
$DIMSE1
 70
     0
  9
$DIMSE2
 70
     0
  9
$DIMTAD
 70
     1
  9
$DIMZIN
 70
     1
  9
$DIMBLK
  1

  9
$DIMASO
 70
     1
  9
$DIMSHO
 70
     1
  9
$DIMPOST
  1

  9
$DIMAPOST
  1

  9
$DIMALT
 70
     0
  9
$DIMALTD
 70
     3
  9
$DIMALTF
 40
0.0393700787
  9
$DIMLFAC
 40
1.0
  9
$DIMTOFL
 70
     1
  9
$DIMTVP
 40
0.0
  9
$DIMTIX
 70
     0
  9
$DIMSOXD
 70
     0
  9
$DIMSAH
 70
     0
  9
$DIMBLK1
  1

  9
$DIMBLK2
  1

  9
$DIMSTYLE
  2
ISO-25
  9
$DIMCLRD
 70
     0
  9
$DIMCLRE
 70
     0
  9
$DIMCLRT
 70
     0
  9
$DIMTFAC
 40
1.0
  9
$DIMGAP
 40
0.762
  9
$DIMJUST
 70
     0
  9
$DIMSD1
 70
     0
  9
$DIMSD2
 70
     0
  9
$DIMTOLJ
 70
     0
  9
$DIMTZIN
 70
     1
  9
$DIMALTZ
 70
     0
  9
$DIMALTTZ
 70
     0
  9
$DIMUPT
 70
     0
  9
$DIMDEC
 70
     2
  9
$DIMTDEC
 70
     2
  9
$DIMALTU
 70
     2
  9
$DIMALTTD
 70
     3
  9
$DIMTXSTY
  7
Standard
  9
$DIMAUNIT
 70
     0
  9
$DIMADEC
 70
     2
  9
$DIMALTRND
 40
0.0
  9
$DIMAZIN
 70
     0
  9
$DIMDSEP
 70
    44
  9
$DIMATFIT
 70
     3
  9
$DIMFRAC
 70
     0
  9
$DIMLDRBLK
  1

  9
$DIMLUNIT
 70
     2
  9
$DIMLWD
 70
    -2
  9
$DIMLWE
 70
    -2
  9
$DIMTMOVE
 70
     0
  9
$LUNITS
 70
     2
  9
$LUPREC
 70
     2
  9
$SKETCHINC
 40
1.0
  9
$FILLETRAD
 40
10.0
  9
$AUNITS
 70
     0
  9
$AUPREC
 70
     2
  9
$MENU
  1
.
  9
$ELEVATION
 40
0.0
  9
$PELEVATION
 40
0.0
  9
$THICKNESS
 40
0.0
  9
$LIMCHECK
 70
     0
  9
$CHAMFERA
 40
0.0
  9
$CHAMFERB
 40
0.0
  9
$CHAMFERC
 40
0.0
  9
$CHAMFERD
 40
0.0
  9
$SKPOLY
 70
     0
  9
$TDCREATE
 40
2460081.68223338
  9
$TDUCREATE
 40
2460081.30723338
  9
$TDUPDATE
 40
2460081.682233912
  9
$TDUUPDATE
 40
2460081.307233912
  9
$TDINDWG
 40
0.0000000116
  9
$TDUSRTIMER
 40
0.0000000116
  9
$USRTIMER
 70
     1
  9
$ANGBASE
 50
0.0
  9
$ANGDIR
 70
     0
  9
$PDMODE
 70
     0
  9
$PDSIZE
 40
-1.0
  9
$PLINEWID
 40
0.0
  9
$SPLFRAME
 70
     0
  9
$SPLINETYPE
 70
     6
  9
$SPLINESEGS
 70
     8
  9
$HANDSEED
  5
146
  9
$SURFTAB1
 70
     6
  9
$SURFTAB2
 70
     6
  9
$SURFTYPE
 70
     6
  9
$SURFU
 70
     6
  9
$SURFV
 70
     6
  9
$UCSBASE
  2

  9
$UCSNAME
  2

  9
$UCSORG
 10
0.0
 20
0.0
 30
0.0
  9
$UCSXDIR
 10
1.0
 20
0.0
 30
0.0
  9
$UCSYDIR
 10
0.0
 20
1.0
 30
0.0
  9
$UCSORTHOREF
  2

  9
$UCSORTHOVIEW
 70
     0
  9
$UCSORGTOP
 10
0.0
 20
0.0
 30
0.0
  9
$UCSORGBOTTOM
 10
0.0
 20
0.0
 30
0.0
  9
$UCSORGLEFT
 10
0.0
 20
0.0
 30
0.0
  9
$UCSORGRIGHT
 10
0.0
 20
0.0
 30
0.0
  9
$UCSORGFRONT
 10
0.0
 20
0.0
 30
0.0
  9
$UCSORGBACK
 10
0.0
 20
0.0
 30
0.0
  9
$PUCSBASE
  2

  9
$PUCSNAME
  2

  9
$PUCSORG
 10
0.0
 20
0.0
 30
0.0
  9
$PUCSXDIR
 10
1.0
 20
0.0
 30
0.0
  9
$PUCSYDIR
 10
0.0
 20
1.0
 30
0.0
  9
$PUCSORTHOREF
  2

  9
$PUCSORTHOVIEW
 70
     0
  9
$PUCSORGTOP
 10
0.0
 20
0.0
 30
0.0
  9
$PUCSORGBOTTOM
 10
0.0
 20
0.0
 30
0.0
  9
$PUCSORGLEFT
 10
0.0
 20
0.0
 30
0.0
  9
$PUCSORGRIGHT
 10
0.0
 20
0.0
 30
0.0
  9
$PUCSORGFRONT
 10
0.0
 20
0.0
 30
0.0
  9
$PUCSORGBACK
 10
0.0
 20
0.0
 30
0.0
  9
$USERI1
 70
     0
  9
$USERI2
 70
     0
  9
$USERI3
 70
     0
  9
$USERI4
 70
     0
  9
$USERI5
 70
     0
  9
$USERR1
 40
0.0
  9
$USERR2
 40
0.0
  9
$USERR3
 40
0.0
  9
$USERR4
 40
0.0
  9
$USERR5
 40
0.0
  9
$WORLDVIEW
 70
     1
  9
$SHADEDGE
 70
     3
  9
$SHADEDIF
 70
    70
  9
$TILEMODE
 70
     1
  9
$MAXACTVP
 70
    64
  9
$PINSBASE
 10
0.0
 20
0.0
 30
0.0
  9
$PLIMCHECK
 70
     0
  9
$PEXTMIN
 10
1.0000000000E+20
 20
1.0000000000E+20
 30
1.0000000000E+20
  9
$PEXTMAX
 10
-1.0000000000E+20
 20
-1.0000000000E+20
 30
-1.0000000000E+20
  9
$PLIMMIN
 10
0.0
 20
0.0
  9
$PLIMMAX
 10
420.0
 20
297.0
  9
$UNITMODE
 70
     0
  9
$VISRETAIN
 70
     1
  9
$PLINEGEN
 70
     0
  9
$PSLTSCALE
 70
     1
  9
$TREEDEPTH
 70
  3020
  9
$CMLSTYLE
  2
Standard
  9
$CMLJUST
 70
     0
  9
$CMLSCALE
 40
20.0
  9
$PROXYGRAPHICS
 70
     1
  9
$MEASUREMENT
 70
     1
  9
$CELWEIGHT
370
    -1
  9
$ENDCAPS
280
     0
  9
$JOINSTYLE
280
     0
  9
$LWDISPLAY
290
     1
  9
$INSUNITS
 70
     4
  9
$HYPERLINKBASE
  1

  9
$STYLESHEET
  1

  9
$XEDIT
290
     1
  9
$CEPSNTYPE
380
     0
  9
$PSTYLEMODE
290
     1
  9
$FINGERPRINTGUID
  2
{EDF63808-707F-4832-AF7A-DB8CBB772AB7}
  9
$VERSIONGUID
  2
{FAEB1C32-E019-11D5-929B-00C0DF256EC4}
  9
$EXTNAMES
290
     1
  9
$PSVPSCALE
 40
0.0
  9
$OLESTARTUP
290
     0
  0
ENDSEC
  0
SECTION
  2
CLASSES
  0
CLASS
  1
ACDBDICTIONARYWDFLT
  2
AcDbDictionaryWithDefault
  3
ObjectDBX Classes
 90
        0
280
     0
281
     0
  0
CLASS
  1
VISUALSTYLE
  2
AcDbVisualStyle
  3
ObjectDBX Classes
 90
     4095
280
     0
281
     0
  0
CLASS
  1
MATERIAL
  2
AcDbMaterial
  3
ObjectDBX Classes
 90
     1153
280
     0
281
     0
  0
CLASS
  1
SCALE
  2
AcDbScale
  3
ObjectDBX Classes
 90
     1153
280
     0
281
     0
  0
CLASS
  1
TABLESTYLE
  2
AcDbTableStyle
  3
ObjectDBX Classes
 90
     4095
280
     0
281
     0
  0
CLASS
  1
MLEADERSTYLE
  2
AcDbMLeaderStyle
  3
ACDB_MLEADERSTYLE_CLASS
 90
     4095
280
     0
281
     0
  0
CLASS
  1
SUN
  2
AcDbSun
  3
SCENEOE
 90
     1153
280
     0
281
     0
  0
CLASS
  1
ACDBPLACEHOLDER
  2
AcDbPlaceHolder
  3
ObjectDBX Classes
 90
        0
280
     0
281
     0
  0
CLASS
  1
LAYOUT
  2
AcDbLayout
  3
ObjectDBX Classes
 90
        0
280
     0
281
     0
  0
ENDSEC
  0
SECTION
  2
TABLES
  0
TABLE
  2
VPORT
  5
8
330
0
100
AcDbSymbolTable
 70
     1
  0
VPORT
  5
29
330
8
100
AcDbSymbolTableRecord
100
AcDbViewportTableRecord
  2
*Active
 70
     0
 10
0.0
 20
0.0
 11
1.0
 21
1.0
 12
107.95
 22
69.85
 13
0.0
 23
0.0
 14
10.0
 24
10.0
 15
10.0
 25
10.0
 16
0.0
 26
0.0
 36
1.0
 17
0.0
 27
0.0
 37
0.0
 40
139.7
 41
1.5454545455
 42
50.0
 43
0.0
 44
0.0
 50
0.0
 51
0.0
 71
     0
 72
  2000
 73
     1
 74
     3
 75
     0
 76
     0
 77
     0
 78
     0
281
     0
 65
     1
110
0.0
120
0.0
130
0.0
111
1.0
121
0.0
131
0.0
112
0.0
122
1.0
132
0.0
 79
     0
146
0.0
  0
ENDTAB
  0
TABLE
  2
LTYPE
  5
5
330
0
100
AcDbSymbolTable
 70
     6
  0
LTYPE
  5
14
330
5
100
AcDbSymbolTableRecord
100
AcDbLinetypeTableRecord
  2
ByBlock
 70
     0
  3

 72
    65
 73
     0
 40
0.0
  0
LTYPE
  5
15
330
5
100
AcDbSymbolTableRecord
100
AcDbLinetypeTableRecord
  2
ByLayer
 70
     0
  3

 72
    65
 73
     0
 40
0.0
  0
LTYPE
  5
16
330
5
100
AcDbSymbolTableRecord
100
AcDbLinetypeTableRecord
  2
Continuous
 70
     0
  3
Solid line
 72
    65
 73
     0
 40
0.0
  0
LTYPE
  5
6E
330
5
100
AcDbSymbolTableRecord
100
AcDbLinetypeTableRecord
  2
HIDDEN
 70
     0
  3
Hidden __ __ __ __ __ __ __ __ __ __ __ __ __ __
 72
    65
 73
     2
 40
1.905
 49
1.27
 74
     0
 49
-0.635
 74
     0
  0
LTYPE
  5
6F
330
5
100
AcDbSymbolTableRecord
100
AcDbLinetypeTableRecord
  2
PHANTOM
 70
     0
  3
Phantom ______  __  __  ______  __  __  ______
 72
    65
 73
     6
 40
12.7
 49
6.35
 74
     0
 49
-1.27
 74
     0
 49
1.27
 74
     0
 49
-1.27
 74
     0
 49
1.27
 74
     0
 49
-1.27
 74
     0
  0
LTYPE
  5
70
330
5
100
AcDbSymbolTableRecord
100
AcDbLinetypeTableRecord
  2
CENTER
 70
     0
  3
Center ____ _ ____ _ ____ _ ____ _ ____ _ ____
 72
    65
 73
     4
 40
10.16
 49
6.35
 74
     0
 49
-1.27
 74
     0
 49
1.27
 74
     0
 49
-1.27
 74
     0
  0
LTYPE
  5
71
330
5
100
AcDbSymbolTableRecord
100
AcDbLinetypeTableRecord
  2
CENTERX2
 70
     0
  3
Center (2x) ________  __  ________  __  _____
 72
    65
 73
     4
 40
20.32
 49
12.7
 74
     0
 49
-2.54
 74
     0
 49
2.54
 74
     0
 49
-2.54
 74
     0
  0
LTYPE
  5
72
330
5
100
AcDbSymbolTableRecord
100
AcDbLinetypeTableRecord
  2
DOT2
 70
     0
  3
Dot (.5x) ........................................
 72
    65
 73
     2
 40
0.635
 49
0.0
 74
     0
 49
-0.635
 74
     0
  0
ENDTAB
  0
TABLE
  2
LAYER
  5
2
330
0
100
AcDbSymbolTable
 70
     1
  0
LAYER
  5
10
330
2
100
AcDbSymbolTableRecord
100
AcDbLayerTableRecord
  2
0
 70
     0
 62
     7
  6
Continuous
370
    -3
390
F
  0
ENDTAB
  0
TABLE
  2
STYLE
  5
3
330
0
100
AcDbSymbolTable
 70
     2
  0
STYLE
  5
11
330
3
100
AcDbSymbolTableRecord
100
AcDbTextStyleTableRecord
  2
Standard
 70
     0
 40
0.0
 41
1.0
 50
0.0
 71
     0
 42
1.75
  3
txt
  4
bigfont
  0
STYLE
  5
73
330
3
100
AcDbSymbolTableRecord
100
AcDbTextStyleTableRecord
  2
SLDTEXTSTYLE0
 70
     0
 40
0.0
 41
0.7
 50
0.0
 71
     0
 42
1.75
  3
TXT
  4
bigfont
  0
ENDTAB
  0
TABLE
  2
VIEW
  5
6
330
0
100
AcDbSymbolTable
 70
     0
  0
ENDTAB
  0
TABLE
  2
UCS
  5
7
330
0
100
AcDbSymbolTable
 70
     0
  0
ENDTAB
  0
TABLE
  2
APPID
  5
9
330
0
100
AcDbSymbolTable
 70
     1
  0
APPID
  5
12
330
9
100
AcDbSymbolTableRecord
100
AcDbRegAppTableRecord
  2
ACAD
 70
     0
  0
ENDTAB
  0
TABLE
  2
DIMSTYLE
  5
A
330
0
100
AcDbSymbolTable
 70
     1
100
AcDbDimStyleTable
  0
DIMSTYLE
105
27
330
A
100
AcDbSymbolTableRecord
100
AcDbDimStyleTableRecord
  2
ISO-25
 70
     0
 41
2.5
 42
0.625
 43
3.75
 44
1.25
 73
     0
 74
     0
 77
     1
 78
     8
140
2.5
141
2.5
143
0.0393700787
147
0.625
171
     3
172
     1
178
     0
271
     2
272
     2
274
     3
278
    44
283
     0
284
     8
340
11
  0
ENDTAB
  0
TABLE
  2
BLOCK_RECORD
  5
1
330
0
100
AcDbSymbolTable
 70
     3
  0
BLOCK_RECORD
  5
1F
330
1
100
AcDbSymbolTableRecord
100
AcDbBlockTableRecord
  2
*Model_Space
340
22
  0
BLOCK_RECORD
  5
1B
330
1
100
AcDbSymbolTableRecord
100
AcDbBlockTableRecord
  2
*Paper_Space
340
1E
  0
BLOCK_RECORD
  5
23
330
1
100
AcDbSymbolTableRecord
100
AcDbBlockTableRecord
  2
*Paper_Space0
340
26
  0
BLOCK_RECORD
  5
E9
330
1
100
AcDbSymbolTableRecord
100
AcDbBlockTableRecord
  2
SW_CENTERMARKSYMBOL_0
340
0
102
{BLKREFS
331
F4
102
}
  0
BLOCK_RECORD
  5
F5
330
1
100
AcDbSymbolTableRecord
100
AcDbBlockTableRecord
  2
SW_CENTERMARKSYMBOL_1
340
0
102
{BLKREFS
331
100
102
}
  0
ENDTAB
  0
ENDSEC
  0
SECTION
  2
BLOCKS
  0
BLOCK
  5
20
330
1F
100
AcDbEntity
  8
0
100
AcDbBlockBegin
  2
*Model_Space
 70
     0
 10
0.0
 20
0.0
 30
0.0
  3
*Model_Space
  1

  0
ENDBLK
  5
21
330
1F
100
AcDbEntity
  8
0
100
AcDbBlockEnd
  0
BLOCK
  5
1C
330
1B
100
AcDbEntity
 67
     1
  8
0
100
AcDbBlockBegin
  2
*Paper_Space
 70
     0
 10
0.0
 20
0.0
 30
0.0
  3
*Paper_Space
  1

  0
ENDBLK
  5
1D
330
1B
100
AcDbEntity
 67
     1
  8
0
100
AcDbBlockEnd
  0
BLOCK
  5
24
330
23
100
AcDbEntity
  8
0
100
AcDbBlockBegin
  2
*Paper_Space0
 70
     0
 10
0.0
 20
0.0
 30
0.0
  3
*Paper_Space0
  1

  0
ENDBLK
  5
25
330
23
100
AcDbEntity
  8
0
100
AcDbBlockEnd
  0
BLOCK
  5
EA
330
E9
100
AcDbEntity
  8
0
100
AcDbBlockBegin
  2
SW_CENTERMARKSYMBOL_0
 70
     0
 10
0.0
 20
0.0
 30
0.0
  3
SW_CENTERMARKSYMBOL_0
  1

  0
LINE
  5
EC
330
E9
100
AcDbEntity
  8
0
  6
Continuous
 62
     0
370
    18
100
AcDbLine
 10
0.0
 20
0.0
 30
0.0
 11
0.0
 21
2.5
 31
0.0
  0
LINE
  5
ED
330
E9
100
AcDbEntity
  8
0
  6
Continuous
 62
     0
370
    18
100
AcDbLine
 10
0.0
 20
0.0
 30
0.0
 11
-2.5
 21
0.0
 31
0.0
  0
LINE
  5
EE
330
E9
100
AcDbEntity
  8
0
  6
Continuous
 62
     0
370
    18
100
AcDbLine
 10
0.0
 20
0.0
 30
0.0
 11
0.0
 21
-2.5
 31
0.0
  0
LINE
  5
EF
330
E9
100
AcDbEntity
  8
0
  6
Continuous
 62
     0
370
    18
100
AcDbLine
 10
0.0
 20
0.0
 30
0.0
 11
2.5
 21
0.0
 31
0.0
  0
LINE
  5
F0
330
E9
100
AcDbEntity
  8
0
  6
Continuous
 62
     0
370
    18
100
AcDbLine
 10
0.0
 20
5.0
 30
0.0
 11
0.0
 21
5.25
 31
0.0
  0
LINE
  5
F1
330
E9
100
AcDbEntity
  8
0
  6
Continuous
 62
     0
370
    18
100
AcDbLine
 10
-5.0
 20
0.0
 30
0.0
 11
-5.25
 21
0.0
 31
0.0
  0
LINE
  5
F2
330
E9
100
AcDbEntity
  8
0
  6
Continuous
 62
     0
370
    18
100
AcDbLine
 10
0.0
 20
-5.0
 30
0.0
 11
0.0
 21
-5.25
 31
0.0
  0
LINE
  5
F3
330
E9
100
AcDbEntity
  8
0
  6
Continuous
 62
     0
370
    18
100
AcDbLine
 10
5.0
 20
0.0
 30
0.0
 11
5.25
 21
0.0
 31
0.0
  0
ENDBLK
  5
EB
330
E9
100
AcDbEntity
  8
0
100
AcDbBlockEnd
  0
BLOCK
  5
F6
330
F5
100
AcDbEntity
  8
0
100
AcDbBlockBegin
  2
SW_CENTERMARKSYMBOL_1
 70
     0
 10
0.0
 20
0.0
 30
0.0
  3
SW_CENTERMARKSYMBOL_1
  1

  0
LINE
  5
F8
330
F5
100
AcDbEntity
  8
0
  6
Continuous
 62
     0
370
    18
100
AcDbLine
 10
0.0
 20
0.0
 30
0.0
 11
0.0
 21
2.5
 31
0.0
  0
LINE
  5
F9
330
F5
100
AcDbEntity
  8
0
  6
Continuous
 62
     0
370
    18
100
AcDbLine
 10
0.0
 20
0.0
 30
0.0
 11
-2.5
 21
0.0
 31
0.0
  0
LINE
  5
FA
330
F5
100
AcDbEntity
  8
0
  6
Continuous
 62
     0
370
    18
100
AcDbLine
 10
0.0
 20
0.0
 30
0.0
 11
0.0
 21
-2.5
 31
0.0
  0
LINE
  5
FB
330
F5
100
AcDbEntity
  8
0
  6
Continuous
 62
     0
370
    18
100
AcDbLine
 10
0.0
 20
0.0
 30
0.0
 11
2.5
 21
0.0
 31
0.0
  0
LINE
  5
FC
330
F5
100
AcDbEntity
  8
0
  6
Continuous
 62
     0
370
    18
100
AcDbLine
 10
0.0
 20
5.0
 30
0.0
 11
0.0
 21
9.25
 31
0.0
  0
LINE
  5
FD
330
F5
100
AcDbEntity
  8
0
  6
Continuous
 62
     0
370
    18
100
AcDbLine
 10
-5.0
 20
0.0
 30
0.0
 11
-9.25
 21
0.0
 31
0.0
  0
LINE
  5
FE
330
F5
100
AcDbEntity
  8
0
  6
Continuous
 62
     0
370
    18
100
AcDbLine
 10
0.0
 20
-5.0
 30
0.0
 11
0.0
 21
-9.25
 31
0.0
  0
LINE
  5
FF
330
F5
100
AcDbEntity
  8
0
  6
Continuous
 62
     0
370
    18
100
AcDbLine
 10
5.0
 20
0.0
 30
0.0
 11
9.25
 21
0.0
 31
0.0
  0
ENDBLK
  5
F7
330
F5
100
AcDbEntity
  8
0
100
AcDbBlockEnd
  0
ENDSEC
  0
SECTION
  2
ENTITIES
  0
MTEXT
  5
74
330
1F
100
AcDbEntity
  8
0
  6
Continuous
 62
     7
370
     0
100
AcDbMText
 10
77.3835097328
 20
57.4851419746
 30
0.0
 40
2.1166666667
 41
0.0
 71
     1
 72
     1
  1
エースニップル　HN-8209
  7
SLDTEXTSTYLE0
 73
     1
 44
1.0
  0
LINE
  5
75
330
1F
100
AcDbEntity
  8
0
  6
Continuous
 62
     7
370
    25
100
AcDbLine
 10
56.5101489827
 20
34.5138231856
 30
0.0
 11
57.2797013323
 21
35.8467269543
 31
0.0
  0
LINE
  5
76
330
1F
100
AcDbEntity
  8
0
  6
Continuous
 62
     7
370
    25
100
AcDbLine
 10
57.2797013323
 20
49.3467269543
 30
0.0
 11
56.5101489827
 21
50.6796307229
 31
0.0
  0
LINE
  5
77
330
1F
100
AcDbEntity
  8
0
  6
Continuous
 62
     7
370
    25
100
AcDbLine
 10
52.0492536819
 20
50.6796307229
 30
0.0
 11
51.2797013323
 21
49.3467269543
 31
0.0
  0
LINE
  5
78
330
1F
100
AcDbEntity
  8
0
  6
Continuous
 62
     7
370
    25
100
AcDbLine
 10
51.2797013323
 20
35.8467269543
 30
0.0
 11
52.0492536819
 21
34.5138231856
 31
0.0
  0
LINE
  5
79
330
1F
100
AcDbEntity
  8
0
  6
Continuous
 62
     7
370
    25
100
AcDbLine
 10
51.2797013323
 20
49.3311644543
 30
0.0
 11
42.3684889861
 21
49.0526890685
 31
0.0
  0
LINE
  5
7A
330
1F
100
AcDbEntity
  8
0
  6
Continuous
 62
     7
370
    25
100
AcDbLine
 10
42.3684889861
 20
36.1407648401
 30
0.0
 11
51.2797013323
 21
35.8622894543
 31
0.0
  0
LINE
  5
7B
330
1F
100
AcDbEntity
  8
0
  6
Continuous
 62
     7
370
    25
100
AcDbLine
 10
42.3684889861
 20
49.0526890685
 30
0.0
 11
40.2797013323
 21
47.8467269543
 31
0.0
  0
LINE
  5
7C
330
1F
100
AcDbEntity
  8
0
  6
Continuous
 62
     7
370
    25
100
AcDbLine
 10
40.2797013323
 20
37.3467269543
 30
0.0
 11
42.3684889861
 21
36.1407648401
 31
0.0
  0
LINE
  5
7D
330
1F
100
AcDbEntity
  8
0
  6
Continuous
 62
     7
370
    25
100
AcDbLine
 10
74.7797013323
 20
38.0967269543
 30
0.0
 11
79.8472579347
 21
38.7877574001
 31
0.0
  0
LINE
  5
7E
330
1F
100
AcDbEntity
  8
0
  6
Continuous
 62
     7
370
    25
100
AcDbLine
 10
79.8472579347
 20
46.4056965085
 30
0.0
 11
74.7797013323
 21
47.0967269543
 31
0.0
  0
LINE
  5
7F
330
1F
100
AcDbEntity
  8
0
  6
Continuous
 62
     7
370
    25
100
AcDbLine
 10
65.7797013323
 20
38.0967269543
 30
0.0
 11
70.2797013323
 21
38.8467269543
 31
0.0
  0
LINE
  5
80
330
1F
100
AcDbEntity
  8
0
  6
Continuous
 62
     7
370
    25
100
AcDbLine
 10
70.2797013323
 20
46.3467269543
 30
0.0
 11
65.7797013323
 21
47.0967269543
 31
0.0
  0
LINE
  5
81
330
1F
100
AcDbEntity
  8
0
  6
Continuous
 62
     7
370
    25
100
AcDbLine
 10
61.2797013323
 20
47.0967269543
 30
0.0
 11
57.2797013323
 21
47.0967269543
 31
0.0
  0
LINE
  5
82
330
1F
100
AcDbEntity
  8
0
  6
Continuous
 62
     7
370
    25
100
AcDbLine
 10
57.2797013323
 20
38.0967269543
 30
0.0
 11
61.2797013323
 21
38.0967269543
 31
0.0
  0
LINE
  5
83
330
1F
100
AcDbEntity
  8
0
  6
Continuous
 62
     7
370
    25
100
AcDbLine
 10
61.2797013323
 20
38.0967269543
 30
0.0
 11
65.7797013323
 21
38.8467269543
 31
0.0
  0
LINE
  5
84
330
1F
100
AcDbEntity
  8
0
  6
Continuous
 62
     7
370
    25
100
AcDbLine
 10
65.7797013323
 20
46.3467269543
 30
0.0
 11
61.2797013323
 21
47.0967269543
 31
0.0
  0
LINE
  5
85
330
1F
100
AcDbEntity
  8
0
  6
Continuous
 62
     7
370
    25
100
AcDbLine
 10
70.2797013323
 20
38.0967269543
 30
0.0
 11
74.7797013323
 21
38.8467269543
 31
0.0
  0
LINE
  5
86
330
1F
100
AcDbEntity
  8
0
  6
Continuous
 62
     7
370
    25
100
AcDbLine
 10
74.7797013323
 20
46.3467269543
 30
0.0
 11
70.2797013323
 21
47.0967269543
 31
0.0
  0
ARC
  5
87
330
1F
100
AcDbEntity
  8
0
  6
Continuous
 62
     7
370
    25
100
AcDbCircle
 10
79.7797013323
 20
45.9102814245
 30
0.0
 40
0.5000000000000003
100
AcDbArc
 50
0.0
 51
82.2348339816
  0
ARC
  5
88
330
1F
100
AcDbEntity
  8
0
  6
Continuous
 62
     7
370
    25
100
AcDbCircle
 10
79.7797013323
 20
39.2831724841
 30
0.0
 40
0.5000000000000003
100
AcDbArc
 50
277.7651660184
 51
0.0
  0
LINE
  5
89
330
1F
100
AcDbEntity
  8
0
  6
Continuous
 62
     7
370
    25
100
AcDbLine
 10
54.36008609
 20
50.6796307229
 30
0.0
 11
54.2797013323
 21
50.3796307229
 31
0.0
  0
LINE
  5
8A
330
1F
100
AcDbEntity
  8
0
  6
Continuous
 62
     7
370
    25
100
AcDbLine
 10
54.2797013323
 20
50.3796307229
 30
0.0
 11
54.1993165746
 21
50.6796307229
 31
0.0
  0
LINE
  5
8B
330
1F
100
AcDbEntity
  8
0
  6
Continuous
 62
     7
370
    25
100
AcDbLine
 10
54.1993165746
 20
34.5138231856
 30
0.0
 11
54.2797013323
 21
34.8138231856
 31
0.0
  0
LINE
  5
8C
330
1F
100
AcDbEntity
  8
0
  6
Continuous
 62
     7
370
    25
100
AcDbLine
 10
54.2797013323
 20
34.8138231856
 30
0.0
 11
54.36008609
 21
34.5138231856
 31
0.0
  0
LINE
  5
8D
330
1F
100
AcDbEntity
  8
0
  6
Continuous
 62
     7
370
    25
100
AcDbLine
 10
54.1993165746
 20
34.5138231856
 30
0.0
 11
52.0492536819
 21
34.5138231856
 31
0.0
  0
SPLINE
  5
8E
330
1F
100
AcDbEntity
  8
0
  6
Continuous
 62
     7
370
    25
100
AcDbSpline
210
0.0
220
0.0
230
1.0
 70
     8
 71
     3
 72
    16
 73
    12
 74
     0
 42
0.000000001
 43
0.00000001
 40
0.0
 40
0.0
 40
0.0
 40
0.0
 40
0.2499999999999999
 40
0.2499999999999999
 40
0.4999999999999999
 40
0.4999999999999999
 40
0.6249999999999999
 40
0.6249999999999999
 40
0.7499999999999998
 40
0.7499999999999998
 40
1.0
 40
1.0
 40
1.0
 40
1.0
 10
52.04925368192799
 20
38.55527506994921
 30
0.0
 10
51.85875921094321
 20
38.22532896764261
 30
0.0
 10
51.70175719773012
 20
37.89297722633291
 30
0.0
 10
51.48425838689209
 20
37.22134213205917
 30
0.0
 10
51.42447902582204
 20
36.8820072482887
 30
0.0
 10
51.42382252496807
 20
36.36661148201851
 30
0.0
 10
51.43843629145155
 20
36.19400472151803
 30
0.0
 10
51.49542214932839
 20
35.8525703089995
 30
0.0
 10
51.53773641858762
 20
35.68299780625551
 30
0.0
 10
51.70113123847781
 20
35.17729930670403
 30
0.0
 10
51.85852176579124
 20
34.84418055499602
 30
0.0
 10
52.04925368192824
 20
34.51382318562177
 30
0.0
  0
LINE
  5
8F
330
1F
100
AcDbEntity
  8
0
  6
Continuous
 62
     7
370
    25
100
AcDbLine
 10
54.1993165746
 20
38.5552750699
 30
0.0
 11
52.0492536819
 21
38.5552750699
 31
0.0
  0
SPLINE
  5
90
330
1F
100
AcDbEntity
  8
0
  6
Continuous
 62
     7
370
    25
100
AcDbSpline
210
0.0
220
0.0
230
1.0
 70
     8
 71
     3
 72
     8
 73
     4
 74
     0
 42
0.000000001
 43
0.00000001
 40
0.0
 40
0.0
 40
0.0
 40
0.0
 40
1.0
 40
1.0
 40
1.0
 40
1.0
 10
54.27970133229181
 20
38.23554817776615
 30
0.0
 10
54.25470091936911
 20
38.3422746925776
 30
0.0
 10
54.22783460790888
 20
38.44884432056839
 30
0.0
 10
54.19931657456247
 20
38.55527506994917
 30
0.0
  0
SPLINE
  5
91
330
1F
100
AcDbEntity
  8
0
  6
Continuous
 62
     7
370
    25
100
AcDbSpline
210
0.0
220
0.0
230
1.0
 70
     8
 71
     3
 72
     8
 73
     4
 74
     0
 42
0.000000001
 43
0.00000001
 40
0.0
 40
0.0
 40
0.0
 40
0.0
 40
1.0
 40
1.0
 40
1.0
 40
1.0
 10
54.36008609002114
 20
38.55527506994918
 30
0.0
 10
54.33155227518305
 20
38.44878542323965
 30
0.0
 10
54.30468735337626
 20
38.34221325396287
 30
0.0
 10
54.27970133229181
 20
38.23554817776615
 30
0.0
  0
LINE
  5
92
330
1F
100
AcDbEntity
  8
0
  6
Continuous
 62
     7
370
    25
100
AcDbLine
 10
56.5101489827
 20
38.5552750699
 30
0.0
 11
54.36008609
 21
38.5552750699
 31
0.0
  0
SPLINE
  5
93
330
1F
100
AcDbEntity
  8
0
  6
Continuous
 62
     7
370
    25
100
AcDbSpline
210
0.0
220
0.0
230
1.0
 70
     8
 71
     3
 72
    16
 73
    12
 74
     0
 42
0.000000001
 43
0.00000001
 40
0.0
 40
0.0
 40
0.0
 40
0.0
 40
0.2499999999999999
 40
0.2499999999999999
 40
0.4999999999999999
 40
0.4999999999999999
 40
0.6249999999999999
 40
0.6249999999999999
 40
0.7499999999999998
 40
0.7499999999999998
 40
1.0
 40
1.0
 40
1.0
 40
1.0
 10
56.51014898265561
 20
38.55527506994921
 30
0.0
 10
56.70064345364039
 20
38.22532896764261
 30
0.0
 10
56.85764546685348
 20
37.89297722633291
 30
0.0
 10
57.0751442776915
 20
37.22134213205917
 30
0.0
 10
57.13492363876157
 20
36.8820072482887
 30
0.0
 10
57.13558013961553
 20
36.36661148201851
 30
0.0
 10
57.12096637313205
 20
36.19400472151803
 30
0.0
 10
57.06398051525522
 20
35.8525703089995
 30
0.0
 10
57.02166624599598
 20
35.68299780625551
 30
0.0
 10
56.85827142610579
 20
35.17729930670403
 30
0.0
 10
56.70088089879236
 20
34.84418055499602
 30
0.0
 10
56.51014898265537
 20
34.51382318562177
 30
0.0
  0
LINE
  5
94
330
1F
100
AcDbEntity
  8
0
  6
Continuous
 62
     7
370
    25
100
AcDbLine
 10
56.5101489827
 20
34.5138231856
 30
0.0
 11
54.36008609
 21
34.5138231856
 31
0.0
  0
SPLINE
  5
95
330
1F
100
AcDbEntity
  8
0
  6
Continuous
 62
     7
370
    25
100
AcDbSpline
210
0.0
220
0.0
230
1.0
 70
     8
 71
     3
 72
     8
 73
     4
 74
     0
 42
0.000000001
 43
0.00000001
 40
0.0
 40
0.0
 40
0.0
 40
0.0
 40
1.0
 40
1.0
 40
1.0
 40
1.0
 10
54.27970133229181
 20
34.83355007780482
 30
0.0
 10
54.3047017452145
 20
34.72682356299337
 30
0.0
 10
54.33156805667472
 20
34.62025393500258
 30
0.0
 10
54.36008609002114
 20
34.5138231856218
 30
0.0
  0
SPLINE
  5
96
330
1F
100
AcDbEntity
  8
0
  6
Continuous
 62
     7
370
    25
100
AcDbSpline
210
0.0
220
0.0
230
1.0
 70
     8
 71
     3
 72
     8
 73
     4
 74
     0
 42
0.000000001
 43
0.00000001
 40
0.0
 40
0.0
 40
0.0
 40
0.0
 40
1.0
 40
1.0
 40
1.0
 40
1.0
 10
54.19931657456247
 20
34.5138231856218
 30
0.0
 10
54.22785038940056
 20
34.62031283233132
 30
0.0
 10
54.25471531120735
 20
34.72688500160811
 30
0.0
 10
54.27970133229181
 20
34.83355007780482
 30
0.0
  0
SPLINE
  5
97
330
1F
100
AcDbEntity
  8
0
  6
Continuous
 62
     7
370
    25
100
AcDbSpline
210
0.0
220
0.0
230
1.0
 70
     8
 71
     3
 72
    14
 73
    10
 74
     0
 42
0.000000001
 43
0.00000001
 40
0.0
 40
0.0
 40
0.0
 40
0.0
 40
0.2500000000000001
 40
0.2500000000000001
 40
0.5000000000000001
 40
0.5000000000000001
 40
0.7500000000000002
 40
0.7500000000000002
 40
1.0
 40
1.0
 40
1.0
 40
1.0
 10
52.04925368192847
 20
38.55527506994916
 30
0.0
 10
51.85940916673024
 20
39.21291576167239
 30
0.0
 10
51.70024254131794
 20
39.88631227993323
 30
0.0
 10
51.48265627211532
 20
41.23599049381396
 30
0.0
 10
51.42396760668647
 20
41.91471407532762
 30
0.0
 10
51.42411032473113
 20
43.28127227474253
 30
0.0
 10
51.48450168474164
 20
43.97377009537797
 30
0.0
 10
51.70361036653734
 20
45.32305495218478
 30
0.0
 10
51.86066100697451
 20
45.98487464869272
 30
0.0
 10
52.04925368192849
 20
46.63817883860394
 30
0.0
  0
LINE
  5
98
330
1F
100
AcDbEntity
  8
0
  6
Continuous
 62
     7
370
    25
100
AcDbLine
 10
54.1993165746
 20
46.6381788386
 30
0.0
 11
52.0492536819
 21
46.6381788386
 31
0.0
  0
SPLINE
  5
99
330
1F
100
AcDbEntity
  8
0
  6
Continuous
 62
     7
370
    25
100
AcDbSpline
210
0.0
220
0.0
230
1.0
 70
     8
 71
     3
 72
     8
 73
     4
 74
     0
 42
0.000000001
 43
0.00000001
 40
0.0
 40
0.0
 40
0.0
 40
0.0
 40
1.0
 40
1.0
 40
1.0
 40
1.0
 10
54.27970133229181
 20
45.99872505423789
 30
0.0
 10
54.25470166029758
 20
46.21217175782819
 30
0.0
 10
54.22783541951059
 20
46.4253112819648
 30
0.0
 10
54.19931657456247
 20
46.63817883860394
 30
0.0
  0
SPLINE
  5
9A
330
1F
100
AcDbEntity
  8
0
  6
Continuous
 62
     7
370
    25
100
AcDbSpline
210
0.0
220
0.0
230
1.0
 70
     8
 71
     3
 72
     8
 73
     4
 74
     0
 42
0.000000001
 43
0.00000001
 40
0.0
 40
0.0
 40
0.0
 40
0.0
 40
1.0
 40
1.0
 40
1.0
 40
1.0
 10
54.36008609002114
 20
46.63817883860394
 30
0.0
 10
54.3315499597055
 20
46.42518226222518
 30
0.0
 10
54.30468524452208
 20
46.21203720127622
 30
0.0
 10
54.27970133229181
 20
45.99872505423789
 30
0.0
  0
LINE
  5
9B
330
1F
100
AcDbEntity
  8
0
  6
Continuous
 62
     7
370
    25
100
AcDbLine
 10
56.5101489827
 20
46.6381788386
 30
0.0
 11
54.36008609
 21
46.6381788386
 31
0.0
  0
SPLINE
  5
9C
330
1F
100
AcDbEntity
  8
0
  6
Continuous
 62
     7
370
    25
100
AcDbSpline
210
0.0
220
0.0
230
1.0
 70
     8
 71
     3
 72
    14
 73
    10
 74
     0
 42
0.000000001
 43
0.00000001
 40
0.0
 40
0.0
 40
0.0
 40
0.0
 40
0.2500000000000001
 40
0.2500000000000001
 40
0.5000000000000001
 40
0.5000000000000001
 40
0.7500000000000002
 40
0.7500000000000002
 40
1.0
 40
1.0
 40
1.0
 40
1.0
 10
56.51014898265513
 20
38.55527506994916
 30
0.0
 10
56.69999349785337
 20
39.21291576167239
 30
0.0
 10
56.85916012326566
 20
39.88631227993323
 30
0.0
 10
57.07674639246829
 20
41.23599049381396
 30
0.0
 10
57.13543505789713
 20
41.91471407532762
 30
0.0
 10
57.13529233985247
 20
43.28127227474253
 30
0.0
 10
57.07490097984196
 20
43.97377009537797
 30
0.0
 10
56.85579229804625
 20
45.32305495218478
 30
0.0
 10
56.69874165760909
 20
45.98487464869272
 30
0.0
 10
56.51014898265511
 20
46.63817883860394
 30
0.0
  0
SPLINE
  5
9D
330
1F
100
AcDbEntity
  8
0
  6
Continuous
 62
     7
370
    25
100
AcDbSpline
210
0.0
220
0.0
230
1.0
 70
     8
 71
     3
 72
     8
 73
     4
 74
     0
 42
0.000000001
 43
0.00000001
 40
0.0
 40
0.0
 40
0.0
 40
0.0
 40
1.0
 40
1.0
 40
1.0
 40
1.0
 10
54.27970133229181
 20
39.19472885431522
 30
0.0
 10
54.30470100428602
 20
38.98128215072492
 30
0.0
 10
54.33156724507302
 20
38.76814262658831
 30
0.0
 10
54.36008609002114
 20
38.55527506994918
 30
0.0
  0
SPLINE
  5
9E
330
1F
100
AcDbEntity
  8
0
  6
Continuous
 62
     7
370
    25
100
AcDbSpline
210
0.0
220
0.0
230
1.0
 70
     8
 71
     3
 72
     8
 73
     4
 74
     0
 42
0.000000001
 43
0.00000001
 40
0.0
 40
0.0
 40
0.0
 40
0.0
 40
1.0
 40
1.0
 40
1.0
 40
1.0
 10
54.19931657456247
 20
38.55527506994918
 30
0.0
 10
54.22785270487811
 20
38.76827164632794
 30
0.0
 10
54.25471742006152
 20
38.9814167072769
 30
0.0
 10
54.27970133229181
 20
39.19472885431523
 30
0.0
  0
LINE
  5
9F
330
1F
100
AcDbEntity
  8
0
  6
Continuous
 62
     7
370
    25
100
AcDbLine
 10
54.2336676784
 20
41.9993805539
 30
0.0
 11
54.9181628708
 21
41.5516642077
 31
0.0
  0
SPLINE
  5
A0
330
1F
100
AcDbEntity
  8
0
  6
Continuous
 62
     7
370
    25
100
AcDbSpline
210
0.0
220
0.0
230
1.0
 70
     8
 71
     3
 72
    19
 73
    15
 74
     0
 42
0.000000001
 43
0.00000001
 40
0.0
 40
0.0
 40
0.0
 40
0.0
 40
0.0978059775289525
 40
0.1996122522918966
 40
0.3052960258330041
 40
0.4158173591641854
 40
0.474240566618493
 40
0.5372869128296534
 40
0.6033858352934854
 40
0.6743111580696056
 40
0.749530467357482
 40
0.8286083142695116
 40
0.9120427387714447
 40
0.9999999999999999
 40
0.9999999999999999
 40
0.9999999999999999
 40
0.9999999999999999
 10
53.79797056306103
 20
42.16704882308884
 30
0.0
 10
53.81341261702436
 20
42.16650520238834
 30
0.0
 10
53.84492831012932
 20
42.16539572671864
 30
0.0
 10
53.89279778419172
 20
42.15877450374565
 30
0.0
 10
53.94158659737401
 20
42.14663037184661
 30
0.0
 10
53.98294616302004
 20
42.13348776687707
 30
0.0
 10
54.01719937682524
 20
42.12044633543204
 30
0.0
 10
54.0442482349323
 20
42.10835402011531
 30
0.0
 10
54.07281269760957
 20
42.09483333817584
 30
0.0
 10
54.10235229711516
 20
42.07898521605662
 30
0.0
 10
54.13371104378808
 20
42.06218492765692
 30
0.0
 10
54.16572762750477
 20
42.04256028430858
 30
0.0
 10
54.1995713927644
 20
42.02208166742823
 30
0.0
 10
54.22210404596611
 20
42.00707955475968
 30
0.0
 10
54.23366767844565
 20
41.99938055385807
 30
0.0
  0
SPLINE
  5
A1
330
1F
100
AcDbEntity
  8
0
  6
Continuous
 62
     7
370
    25
100
AcDbSpline
210
0.0
220
0.0
230
1.0
 70
     8
 71
     3
 72
    19
 73
    15
 74
     0
 42
0.000000001
 43
0.00000001
 40
0.0
 40
0.0
 40
0.0
 40
0.0
 40
0.0843261511037433
 40
0.1670353409858406
 40
0.2495407139852792
 40
0.3327066655796642
 40
0.4158726171740492
 40
0.4977774155681174
 40
0.5803136056784763
 40
0.6645325781316563
 40
0.7495711764063215
 40
0.8324741628544073
 40
0.9156738488962566
 40
1.0
 40
1.0
 40
1.0
 40
1.0
 10
53.34123979383026
 20
41.71272190001192
 30
0.0
 10
53.34189473749542
 20
41.73290620418366
 30
0.0
 10
53.34319206622444
 20
41.77288777675348
 30
0.0
 10
53.35474892092728
 20
41.83170177450182
 30
0.0
 10
53.37348044484143
 20
41.88821471172016
 30
0.0
 10
53.39928690888897
 20
41.94202934942559
 30
0.0
 10
53.43188186232048
 20
41.99188405840744
 30
0.0
 10
53.47112756570863
 20
42.03647249183098
 30
0.0
 10
53.51615664395801
 20
42.07563951717254
 30
0.0
 10
53.5671072297992
 20
42.10806288451246
 30
0.0
 10
53.62150437103701
 20
42.13448801689636
 30
0.0
 10
53.67874197978166
 20
42.15312604489328
 30
0.0
 10
53.73766812644412
 20
42.16517930624867
 30
0.0
 10
53.77777984541998
 20
42.16642286352961
 30
0.0
 10
53.79797056306103
 20
42.16704882308884
 30
0.0
  0
SPLINE
  5
A2
330
1F
100
AcDbEntity
  8
0
  6
Continuous
 62
     7
370
    25
100
AcDbSpline
210
0.0
220
0.0
230
1.0
 70
     8
 71
     3
 72
    19
 73
    15
 74
     0
 42
0.000000001
 43
0.00000001
 40
0.0
 40
0.0
 40
0.0
 40
0.0
 40
0.0859901205637198
 40
0.1691084375726415
 40
0.2505285789581879
 40
0.332255696176845
 40
0.4135763652356403
 40
0.4941261456201216
 40
0.576305934120417
 40
0.6607126719045473
 40
0.7461272722239103
 40
0.8300149859609743
 40
0.9144197259288509
 40
1.0
 40
1.0
 40
1.0
 40
1.0
 10
53.80067488998411
 20
41.24397190001191
 30
0.0
 10
53.77969606669799
 20
41.24475469801506
 30
0.0
 10
53.7384390478129
 20
41.24629415099381
 30
0.0
 10
53.67809729867116
 20
41.25750071482708
 30
0.0
 10
53.62107240345032
 20
41.27684074012325
 30
0.0
 10
53.56714026372733
 20
41.3027153748036
 30
0.0
 10
53.51787003826162
 20
41.33628567875627
 30
0.0
 10
53.47334296623132
 20
41.37606833461177
 30
0.0
 10
53.43453108182992
 20
41.42243939968623
 30
0.0
 10
53.40123598297217
 20
41.47430079692239
 30
0.0
 10
53.37478306885446
 20
41.53043093471942
 30
0.0
 10
53.35522588951341
 20
41.58928522024527
 30
0.0
 10
53.34353997783352
 20
41.65036059882698
 30
0.0
 10
53.34201004858148
 20
41.69183918434148
 30
0.0
 10
53.34123979383026
 20
41.71272190001192
 30
0.0
  0
SPLINE
  5
A3
330
1F
100
AcDbEntity
  8
0
  6
Continuous
 62
     7
370
    25
100
AcDbSpline
210
0.0
220
0.0
230
1.0
 70
     8
 71
     3
 72
    23
 73
    19
 74
     0
 42
0.000000001
 43
0.00000001
 40
0.0
 40
0.0
 40
0.0
 40
0.0
 40
0.0652308037420294
 40
0.1284048960032227
 40
0.1900670715964781
 40
0.25094336576828
 40
0.3115458328521431
 40
0.3728628021568291
 40
0.4350236738562383
 40
0.4990717247070431
 40
0.563091075049662
 40
0.625510106330375
 40
0.6866800359296492
 40
0.7472825030135124
 40
0.8085634952159588
 40
0.8707421035159856
 40
0.9343409515059125
 40
1.0
 40
1.0
 40
1.0
 40
1.0
 10
54.24508594767642
 20
41.68898391924269
 30
0.0
 10
54.24467618552109
 20
41.67373856367048
 30
0.0
 10
54.24386958091218
 20
41.64372853490364
 30
0.0
 10
54.23766221632995
 20
41.59966847682907
 30
0.0
 10
54.22788002550555
 20
41.55733036141199
 30
0.0
 10
54.21362048724203
 20
41.51688967044539
 30
0.0
 10
54.19540519251533
 20
41.47820124964844
 30
0.0
 10
54.17357424810941
 20
41.44104307988763
 30
0.0
 10
54.14700038509937
 20
41.40611364698497
 30
0.0
 10
54.11731540404914
 20
41.37296314160844
 30
0.0
 10
54.08443669640837
 20
41.34286581415432
 30
0.0
 10
54.04955040924863
 20
41.31621893320109
 30
0.0
 10
54.01269288882084
 20
41.2938360224579
 30
0.0
 10
53.97388280342084
 20
41.27567577033737
 30
0.0
 10
53.93317997789489
 20
41.2615736795097
 30
0.0
 10
53.89063648954271
 20
41.2512932602053
 30
0.0
 10
53.84622300177409
 20
41.24521629185394
 30
0.0
 10
53.81601806951716
 20
41.24439108154747
 30
0.0
 10
53.80067488998411
 20
41.24397190001191
 30
0.0
  0
SPLINE
  5
A4
330
1F
100
AcDbEntity
  8
0
  6
Continuous
 62
     7
370
    25
100
AcDbSpline
210
0.0
220
0.0
230
1.0
 70
     8
 71
     3
 72
     9
 73
     5
 74
     0
 42
0.000000001
 43
0.00000001
 40
0.0
 40
0.0
 40
0.0
 40
0.0
 40
0.5126593363417812
 40
1.0
 40
1.0
 40
1.0
 40
1.0
 10
54.23066287075334
 20
41.84433247693499
 30
0.0
 10
54.23486881103345
 20
41.81794521537071
 30
0.0
 10
54.24307297309968
 20
41.76647387818103
 30
0.0
 10
54.24442637829186
 20
41.71437420738486
 30
0.0
 10
54.24508594767642
 20
41.68898391924269
 30
0.0
  0
LINE
  5
A5
330
1F
100
AcDbEntity
  8
0
  6
Continuous
 62
     7
370
    25
100
AcDbLine
 10
54.8367325823
 20
41.4479983423
 30
0.0
 11
54.2306628708
 21
41.8443324769
 31
0.0
  0
LINE
  5
A6
330
1F
100
AcDbEntity
  8
0
  6
Continuous
 62
     7
370
    25
100
AcDbLine
 10
54.9181628708
 20
41.5516642077
 30
0.0
 11
54.8367325823
 21
41.4479983423
 31
0.0
  0
LINE
  5
A7
330
1F
100
AcDbEntity
  8
0
  6
Continuous
 62
     7
370
    25
100
AcDbLine
 10
54.7258551784
 20
42.895431228
 30
0.0
 11
54.8797013323
 21
42.8073903626
 31
0.0
  0
LINE
  5
A8
330
1F
100
AcDbEntity
  8
0
  6
Continuous
 62
     7
370
    25
100
AcDbLine
 10
54.7258551784
 20
42.6646619972
 30
0.0
 11
54.7258551784
 21
42.895431228
 31
0.0
  0
LINE
  5
A9
330
1F
100
AcDbEntity
  8
0
  6
Continuous
 62
     7
370
    25
100
AcDbLine
 10
53.3797013323
 20
42.6646619972
 30
0.0
 11
54.7258551784
 21
42.6646619972
 31
0.0
  0
LINE
  5
AA
330
1F
100
AcDbEntity
  8
0
  6
Continuous
 62
     7
370
    25
100
AcDbLine
 10
53.3797013323
 20
42.5300466126
 30
0.0
 11
53.3797013323
 21
42.6646619972
 31
0.0
  0
LINE
  5
AB
330
1F
100
AcDbEntity
  8
0
  6
Continuous
 62
     7
370
    25
100
AcDbLine
 10
54.8797013323
 20
42.5300466126
 30
0.0
 11
53.3797013323
 21
42.5300466126
 31
0.0
  0
LINE
  5
AC
330
1F
100
AcDbEntity
  8
0
  6
Continuous
 62
     7
370
    25
100
AcDbLine
 10
54.8797013323
 20
42.8073903626
 30
0.0
 11
54.8797013323
 21
42.5300466126
 31
0.0
  0
SPLINE
  5
AD
330
1F
100
AcDbEntity
  8
0
  6
Continuous
 62
     7
370
    25
100
AcDbSpline
210
0.0
220
0.0
230
1.0
 70
     8
 71
     3
 72
    19
 73
    15
 74
     0
 42
0.000000001
 43
0.00000001
 40
0.0
 40
0.0
 40
0.0
 40
0.0
 40
0.1227280999764553
 40
0.239716523588393
 40
0.3518621792202463
 40
0.4632019818032239
 40
0.5202611541541643
 40
0.5794324380306665
 40
0.6405963441586369
 40
0.70529822908802
 40
0.7732361059084537
 40
0.844648929340316
 40
0.9200459817773698
 40
1.0
 40
1.0
 40
1.0
 40
1.0
 10
54.76431671690719
 20
43.72276904889709
 30
0.0
 10
54.76372157555941
 20
43.73984889958235
 30
0.0
 10
54.76255912608809
 20
43.77320982043476
 30
0.0
 10
54.75234171920793
 20
43.82129406404199
 30
0.0
 10
54.73615329127635
 20
43.86594873307103
 30
0.0
 10
54.71660581256314
 20
43.89996658314931
 30
0.0
 10
54.69737633020035
 20
43.92512918794095
 30
0.0
 10
54.6808332065533
 20
43.94345488992581
 30
0.0
 10
54.66207669267811
 20
43.96112274384824
 30
0.0
 10
54.64059231850835
 20
43.97743944709739
 30
0.0
 10
54.61711884471566
 20
43.99338273108425
 30
0.0
 10
54.59152698814664
 20
44.00880036127852
 30
0.0
 10
54.56345188551678
 20
44.02319712304141
 30
0.0
 10
54.54370866413979
 20
44.03196066765173
 30
0.0
 10
54.53354748613796
 20
44.03647097197401
 30
0.0
  0
SPLINE
  5
AE
330
1F
100
AcDbEntity
  8
0
  6
Continuous
 62
     7
370
    25
100
AcDbSpline
210
0.0
220
0.0
230
1.0
 70
     8
 71
     3
 72
    23
 73
    19
 74
     0
 42
0.000000001
 43
0.00000001
 40
0.0
 40
0.0
 40
0.0
 40
0.0
 40
0.0552698294993248
 40
0.1099567044850938
 40
0.1632335040550556
 40
0.2180575651623568
 40
0.2732775387226747
 40
0.330881045495497
 40
0.3904799376860887
 40
0.4536559730386417
 40
0.5189026226022311
 40
0.5833461108214766
 40
0.6485466930814431
 40
0.7150552190344909
 40
0.7825206438000536
 40
0.852335294426451
 40
0.9249348997257087
 40
0.9999999999999999
 40
0.9999999999999999
 40
0.9999999999999999
 40
0.9999999999999999
 10
54.5290402745995
 20
43.42108635658939
 30
0.0
 10
54.53687361277787
 20
43.42126394061091
 30
0.0
 10
54.55245766756898
 20
43.42161723559936
 30
0.0
 10
54.57522527782437
 20
43.42607351518719
 30
0.0
 10
54.59729814329437
 20
43.43276840020089
 30
0.0
 10
54.61857611043101
 20
43.44197833712287
 30
0.0
 10
54.63893567201546
 20
43.4542832074029
 30
0.0
 10
54.65840180524243
 20
43.46905315086381
 30
0.0
 10
54.67730074234575
 20
43.48629529624913
 30
0.0
 10
54.69472833504936
 20
43.50646026660848
 30
0.0
 10
54.71116701774174
 20
43.52829099766145
 30
0.0
 10
54.72537764741874
 20
43.55199290284539
 30
0.0
 10
54.7374225676362
 20
43.57704320770907
 30
0.0
 10
54.74737423940627
 20
43.60346494779038
 30
0.0
 10
54.75485548577507
 20
43.63136396772413
 30
0.0
 10
54.76022835502877
 20
43.66060365892488
 30
0.0
 10
54.76358724812246
 20
43.69124131050344
 30
0.0
 10
54.76407086904114
 20
43.71214347126084
 30
0.0
 10
54.76431671690719
 20
43.72276904889709
 30
0.0
  0
SPLINE
  5
AF
330
1F
100
AcDbEntity
  8
0
  6
Continuous
 62
     7
370
    25
100
AcDbSpline
210
0.0
220
0.0
230
1.0
 70
     8
 71
     3
 72
    19
 73
    15
 74
     0
 42
0.000000001
 43
0.00000001
 40
0.0
 40
0.0
 40
0.0
 40
0.0
 40
0.1101423815503176
 40
0.2157418685830274
 40
0.3179605426392306
 40
0.4180517606815226
 40
0.5115631470355316
 40
0.5965727584443461
 40
0.6733290469034968
 40
0.7440491927238595
 40
0.8107168223002833
 40
0.8740854521098849
 40
0.9367096168966699
 40
1.0
 40
1.0
 40
1.0
 40
1.0
 10
54.28354748613796
 20
43.80570174120478
 30
0.0
 10
54.28386377510656
 20
43.78714461167261
 30
0.0
 10
54.28448330749851
 20
43.75079575354502
 30
0.0
 10
54.29192455460911
 20
43.69769097406641
 30
0.0
 10
54.30233388042899
 20
43.64684942443478
 30
0.0
 10
54.31791005207047
 20
43.59943162035997
 30
0.0
 10
54.33660590377046
 20
43.55635290226171
 30
0.0
 10
54.35768684189307
 20
43.5187734669087
 30
0.0
 10
54.38157059893389
 20
43.48758393221804
 30
0.0
 10
54.40794372348211
 20
43.4627063739166
 30
0.0
 10
54.43655951287361
 20
43.44444712946467
 30
0.0
 10
54.46607244023443
 20
43.43074175800925
 30
0.0
 10
54.49716917343643
 20
43.42270711395644
 30
0.0
 10
54.51837916660435
 20
43.42162851135322
 30
0.0
 10
54.5290402745995
 20
43.42108635658939
 30
0.0
  0
LINE
  5
B0
330
1F
100
AcDbEntity
  8
0
  6
Continuous
 62
     7
370
    25
100
AcDbLine
 10
54.1297013323
 20
43.8057017412
 30
0.0
 11
54.2835474861
 21
43.8057017412
 31
0.0
  0
SPLINE
  5
B1
330
1F
100
AcDbEntity
  8
0
  6
Continuous
 62
     7
370
    25
100
AcDbSpline
210
0.0
220
0.0
230
1.0
 70
     8
 71
     3
 72
    23
 73
    19
 74
     0
 42
0.000000001
 43
0.00000001
 40
0.0
 40
0.0
 40
0.0
 40
0.0
 40
0.0669051223273616
 40
0.1334773340846825
 40
0.2010229080576287
 40
0.2712178684297488
 40
0.3428591616573978
 40
0.4138109980627169
 40
0.4855518488903453
 40
0.5598002749200529
 40
0.5998999649035781
 40
0.6436094423977958
 40
0.6919106424505659
 40
0.7447030291556902
 40
0.8015038302285953
 40
0.8628660266331954
 40
0.9293326711591618
 40
1.0
 40
1.0
 40
1.0
 40
1.0
 10
53.81239363998411
 20
43.34416327966632
 30
0.0
 10
53.82636994386665
 20
43.34481911153134
 30
0.0
 10
53.85425300749026
 20
43.34612751193336
 30
0.0
 10
53.8952745884503
 20
43.35611707755843
 30
0.0
 10
53.93479983082231
 20
43.37254733900819
 30
0.0
 10
53.97214869702635
 20
43.39555250940145
 30
0.0
 10
54.00678076504168
 20
43.42354334306927
 30
0.0
 10
54.03756018399822
 20
43.45624889033571
 30
0.0
 10
54.06321305479028
 20
43.49374937782455
 30
0.0
 10
54.08087152902603
 20
43.52848623900926
 30
0.0
 10
54.09264015949171
 20
43.55932924076424
 30
0.0
 10
54.10089210285666
 20
43.58567161474636
 30
0.0
 10
54.10748856016063
 20
43.61518879305351
 30
0.0
 10
54.11386932088428
 20
43.64752642839037
 30
0.0
 10
54.11921854575239
 20
43.68282090458534
 30
0.0
 10
54.12369873124166
 20
43.72110401973539
 30
0.0
 10
54.12727795208571
 20
43.76239117542948
 30
0.0
 10
54.12887720942004
 20
43.79097304623795
 30
0.0
 10
54.1297013322918
 20
43.80570174120478
 30
0.0
  0
SPLINE
  5
B2
330
1F
100
AcDbEntity
  8
0
  6
Continuous
 62
     7
370
    25
100
AcDbSpline
210
0.0
220
0.0
230
1.0
 70
     8
 71
     3
 72
    23
 73
    19
 74
     0
 42
0.000000001
 43
0.00000001
 40
0.0
 40
0.0
 40
0.0
 40
0.0
 40
0.0760618905628339
 40
0.1487324608035359
 40
0.2183745247439722
 40
0.2857225935927383
 40
0.3510576941824569
 40
0.414934915729319
 40
0.4784859417740854
 40
0.542169035281216
 40
0.6047501165431387
 40
0.6641185017301124
 40
0.7214996756099116
 40
0.7776159163852547
 40
0.832666108697549
 40
0.8878580281135741
 40
0.9434676608977686
 40
1.0
 40
1.0
 40
1.0
 40
1.0
 10
53.49508594767642
 20
43.72607433735863
 30
0.0
 10
53.49534947778567
 20
43.71203693192283
 30
0.0
 10
53.49586478816457
 20
43.68458799739974
 30
0.0
 10
53.50061751718759
 20
43.64453856953604
 30
0.0
 10
53.50750912231347
 20
43.60642589242114
 30
0.0
 10
53.51828893267551
 20
43.57063890580947
 30
0.0
 10
53.53122109599988
 20
43.53669063663295
 30
0.0
 10
53.54815167127258
 20
43.50533890833888
 30
0.0
 10
53.56727201890836
 20
43.47566201884977
 30
0.0
 10
53.58951266062432
 20
43.44852936387548
 30
0.0
 10
53.61355238694904
 20
43.4240679487046
 30
0.0
 10
53.63905639421115
 20
43.40293058335181
 30
0.0
 10
53.66523389221409
 20
43.38462320748827
 30
0.0
 10
53.69269554907273
 20
43.36990713250726
 30
0.0
 10
53.72117198800964
 20
43.35826602649046
 30
0.0
 10
53.75076979658796
 20
43.35034603110755
 30
0.0
 10
53.78123974273982
 20
43.34483787251482
 30
0.0
 10
53.80195220006924
 20
43.34438937403388
 30
0.0
 10
53.81239363998411
 20
43.34416327966632
 30
0.0
  0
SPLINE
  5
B3
330
1F
100
AcDbEntity
  8
0
  6
Continuous
 62
     7
370
    25
100
AcDbSpline
210
0.0
220
0.0
230
1.0
 70
     8
 71
     3
 72
    15
 73
    11
 74
     0
 42
0.000000001
 43
0.00000001
 40
0.0
 40
0.0
 40
0.0
 40
0.0
 40
0.1182713048357256
 40
0.2361775330837632
 40
0.355662932948509
 40
0.4759041646706825
 40
0.6001273417110832
 40
0.7286081161551193
 40
0.8613134756739422
 40
1.0
 40
1.0
 40
1.0
 40
1.0
 10
53.57621575536872
 20
43.97667529889709
 30
0.0
 10
53.56974075513208
 20
43.96827676610059
 30
0.0
 10
53.55681074151016
 20
43.95150562486601
 30
0.0
 10
53.54031004356541
 20
43.92417638296668
 30
0.0
 10
53.52601246127907
 20
43.89543428892993
 30
0.0
 10
53.51509087740066
 20
43.86465657140669
 30
0.0
 10
53.50584330849102
 20
43.83250738406924
 30
0.0
 10
53.49979165743424
 20
43.79846708468418
 30
0.0
 10
53.49563958400144
 20
43.76283599163629
 30
0.0
 10
53.49527318479041
 20
43.73850695014355
 30
0.0
 10
53.49508594767642
 20
43.72607433735863
 30
0.0
  0
SPLINE
  5
B4
330
1F
100
AcDbEntity
  8
0
  6
Continuous
 62
     7
370
    25
100
AcDbSpline
210
0.0
220
0.0
230
1.0
 70
     8
 71
     3
 72
    15
 73
    11
 74
     0
 42
0.000000001
 43
0.00000001
 40
0.0
 40
0.0
 40
0.0
 40
0.0
 40
0.1497703860319681
 40
0.2913164099952446
 40
0.4259663731047426
 40
0.5521595739695285
 40
0.6715274135235928
 40
0.7861216286916589
 40
0.8953250730704446
 40
1.0
 40
1.0
 40
1.0
 40
1.0
 10
53.78354748613796
 20
44.09416327966632
 30
0.0
 10
53.77199790902282
 20
44.09065615476334
 30
0.0
 10
53.74953297832935
 20
44.08383449219567
 30
0.0
 10
53.71720141875441
 20
44.07222265018063
 30
0.0
 10
53.68756225308663
 20
44.05899339072185
 30
0.0
 10
53.66039805795321
 20
44.04480143702069
 30
0.0
 10
53.63544131403999
 20
44.02989638872523
 30
0.0
 10
53.61335194159682
 20
44.01321856366677
 30
0.0
 10
53.59315971207833
 20
43.9960032157465
 30
0.0
 10
53.58178344981825
 20
43.98302635002449
 30
0.0
 10
53.57621575536872
 20
43.97667529889709
 30
0.0
  0
LINE
  5
B5
330
1F
100
AcDbEntity
  8
0
  6
Continuous
 62
     7
370
    25
100
AcDbLine
 10
53.7835474861
 20
44.2287786643
 30
0.0
 11
53.7835474861
 21
44.0941632797
 31
0.0
  0
SPLINE
  5
B6
330
1F
100
AcDbEntity
  8
0
  6
Continuous
 62
     7
370
    25
100
AcDbSpline
210
0.0
220
0.0
230
1.0
 70
     8
 71
     3
 72
    23
 73
    19
 74
     0
 42
0.000000001
 43
0.00000001
 40
0.0
 40
0.0
 40
0.0
 40
0.0
 40
0.0655411703374033
 40
0.1289631677825933
 40
0.1903771361885609
 40
0.2500923616690527
 40
0.308548432459201
 40
0.3663979630552958
 40
0.42454218926668
 40
0.4831699964229055
 40
0.5422433998311199
 40
0.6017393520173299
 40
0.6625060022496068
 40
0.7248555134488469
 40
0.7891278292811811
 40
0.8563463998785099
 40
0.9262952349869055
 40
1.0
 40
1.0
 40
1.0
 40
1.0
 10
53.34123979383026
 20
43.72847818351247
 30
0.0
 10
53.34161188522675
 20
43.74451502649096
 30
0.0
 10
53.342344037017
 20
43.77607018580671
 30
0.0
 10
53.34734915181554
 20
43.82246025654371
 30
0.0
 10
53.35649058263174
 20
43.86674098484278
 30
0.0
 10
53.36879199921721
 20
43.90897224106708
 30
0.0
 10
53.38438846010884
 20
43.94919154237859
 30
0.0
 10
53.40381075926084
 20
43.98727615888333
 30
0.0
 10
53.42665854585448
 20
44.02346039896337
 30
0.0
 10
53.45320151205729
 20
44.05740280659676
 30
0.0
 10
53.48289351481019
 20
44.08909933561372
 30
0.0
 10
53.5162616619392
 20
44.11770764599806
 30
0.0
 10
53.5526891207625
 20
44.1437047001161
 30
0.0
 10
53.59259900199054
 20
44.16639440242103
 30
0.0
 10
53.63547554082386
 20
44.1868102392564
 30
0.0
 10
53.681867754416
 20
44.20360207781953
 30
0.0
 10
53.73136090669699
 20
44.21838160723507
 30
0.0
 10
53.76585136677235
 20
44.22525309191197
 30
0.0
 10
53.78354748613796
 20
44.22877866428171
 30
0.0
  0
SPLINE
  5
B7
330
1F
100
AcDbEntity
  8
0
  6
Continuous
 62
     7
370
    25
100
AcDbSpline
210
0.0
220
0.0
230
1.0
 70
     8
 71
     3
 72
    19
 73
    15
 74
     0
 42
0.000000001
 43
0.00000001
 40
0.0
 40
0.0
 40
0.0
 40
0.0
 40
0.079641704194991
 40
0.1589086132578561
 40
0.2395997983184508
 40
0.3224093988203484
 40
0.405827748173513
 40
0.4876442139503137
 40
0.5697199979738974
 40
0.6530646649976934
 40
0.7374573001733065
 40
0.8224924079539125
 40
0.9097550737466981
 40
1.0
 40
1.0
 40
1.0
 40
1.0
 10
53.82531431306104
 20
43.20954789505093
 30
0.0
 10
53.80431098205771
 20
43.21031866576244
 30
0.0
 10
53.76240316206228
 20
43.21185657992619
 30
0.0
 10
53.70047289601962
 20
43.22554720962924
 30
0.0
 10
53.64003972195735
 20
43.24689381392946
 30
0.0
 10
53.58199906303236
 20
43.27667775762989
 30
0.0
 10
53.52780767267273
 20
43.31352832001954
 30
0.0
 10
53.47954108863618
 20
43.35761246555894
 30
0.0
 10
53.43777298238884
 20
43.40785851570151
 30
0.0
 10
53.40298727613229
 20
43.46393762007236
 30
0.0
 10
53.37516021205498
 20
43.52466819922066
 30
0.0
 10
53.355851266411
 20
43.58963061834036
 30
0.0
 10
53.34327403158327
 20
43.65788024617685
 30
0.0
 10
53.34192542561131
 20
43.70468342823266
 30
0.0
 10
53.34123979383026
 20
43.72847818351247
 30
0.0
  0
SPLINE
  5
B8
330
1F
100
AcDbEntity
  8
0
  6
Continuous
 62
     7
370
    25
100
AcDbSpline
210
0.0
220
0.0
230
1.0
 70
     8
 71
     3
 72
    15
 73
    11
 74
     0
 42
0.000000001
 43
0.00000001
 40
0.0
 40
0.0
 40
0.0
 40
0.0
 40
0.1281455049994643
 40
0.2541925386280419
 40
0.3781411397135888
 40
0.5013808330744057
 40
0.6239569784447038
 40
0.7470758858273289
 40
0.8728647202442611
 40
1.0
 40
1.0
 40
1.0
 40
1.0
 10
54.09184075536873
 20
43.29909116428171
 30
0.0
 10
54.08195991494372
 20
43.29187050809415
 30
0.0
 10
54.06236003969705
 20
43.27754743896361
 30
0.0
 10
54.03082904313148
 20
43.25991799029968
 30
0.0
 10
53.99905294389597
 20
43.24374178287859
 30
0.0
 10
53.96578234675214
 20
43.23183656246849
 30
0.0
 10
53.93208596213162
 20
43.22156282903043
 30
0.0
 10
53.8972422157657
 20
43.21480305451809
 30
0.0
 10
53.86158215273813
 20
43.2104635496724
 30
0.0
 10
53.83744642192914
 20
43.2098541945618
 30
0.0
 10
53.82531431306104
 20
43.20954789505093
 30
0.0
  0
SPLINE
  5
B9
330
1F
100
AcDbEntity
  8
0
  6
Continuous
 62
     7
370
    25
100
AcDbSpline
210
0.0
220
0.0
230
1.0
 70
     8
 71
     3
 72
    11
 73
     7
 74
     0
 42
0.000000001
 43
0.00000001
 40
0.0
 40
0.0
 40
0.0
 40
0.0
 40
0.253879600326656
 40
0.5030089172783633
 40
0.7502910806899731
 40
1.0
 40
1.0
 40
1.0
 40
1.0
 10
54.21984556306103
 20
43.46165126043554
 30
0.0
 10
54.21214063240039
 20
43.44569479418983
 30
0.0
 10
54.19687493628174
 20
43.41408041950388
 30
0.0
 10
54.16693675448864
 20
43.37098733541836
 30
0.0
 10
54.13236974847982
 20
43.33186824597966
 30
0.0
 10
54.10539432580258
 20
43.3100523664066
 30
0.0
 10
54.09184075536873
 20
43.29909116428171
 30
0.0
  0
SPLINE
  5
BA
330
1F
100
AcDbEntity
  8
0
  6
Continuous
 62
     7
370
    25
100
AcDbSpline
210
0.0
220
0.0
230
1.0
 70
     8
 71
     3
 72
    15
 73
    11
 74
     0
 42
0.000000001
 43
0.00000001
 40
0.0
 40
0.0
 40
0.0
 40
0.0
 40
0.1280675485958904
 40
0.2506083188676684
 40
0.3706301659145029
 40
0.4900722467299488
 40
0.6103747641546199
 40
0.7343130699115256
 40
0.8632165042449895
 40
1.0
 40
1.0
 40
1.0
 40
1.0
 10
54.52843931306104
 20
43.28647097197401
 30
0.0
 10
54.51257925818721
 20
43.28696965385132
 30
0.0
 10
54.48154359198874
 20
43.28794549689895
 30
0.0
 10
54.43623437892951
 20
43.29623137071138
 30
0.0
 10
54.39353083595143
 20
43.31017548337261
 30
0.0
 10
54.35325319504137
 20
43.32949109590598
 30
0.0
 10
54.31565683511718
 20
43.35449461743753
 30
0.0
 10
54.28065716760554
 20
43.38478291610481
 30
0.0
 10
54.24809895697914
 20
43.42056977115146
 30
0.0
 10
54.22944775427536
 20
43.44768931601858
 30
0.0
 10
54.21984556306103
 20
43.46165126043554
 30
0.0
  0
SPLINE
  5
BB
330
1F
100
AcDbEntity
  8
0
  6
Continuous
 62
     7
370
    25
100
AcDbSpline
210
0.0
220
0.0
230
1.0
 70
     8
 71
     3
 72
    19
 73
    15
 74
     0
 42
0.000000001
 43
0.00000001
 40
0.0
 40
0.0
 40
0.0
 40
0.0
 40
0.0902542493426766
 40
0.1785397915286843
 40
0.2660930338538198
 40
0.3546309779571733
 40
0.4418861533505626
 40
0.5257469151636484
 40
0.6081136336036366
 40
0.6901972728278825
 40
0.770821484330335
 40
0.8483261812554109
 40
0.9240117400247433
 40
1.0
 40
1.0
 40
1.0
 40
1.0
 10
54.91816287075333
 20
43.72457193351247
 30
0.0
 10
54.91757177207693
 20
43.7049936154803
 30
0.0
 10
54.91640246830201
 20
43.66626403936166
 30
0.0
 10
54.90572485266812
 20
43.6093655906686
 30
0.0
 10
54.88882836737346
 20
43.55449695391054
 30
0.0
 10
54.86548248431475
 20
43.5022587048464
 30
0.0
 10
54.836687921531
 20
43.45373651944801
 30
0.0
 10
54.80241732000466
 20
43.41056386798495
 30
0.0
 10
54.76333190508151
 20
43.37332593478326
 30
0.0
 10
54.72016080608784
 20
43.34208548721464
 30
0.0
 10
54.67402273063629
 20
43.31762477333449
 30
0.0
 10
54.62653694900174
 20
43.29958775612889
 30
0.0
 10
54.57781610412078
 20
43.2886070357009
 30
0.0
 10
54.54492012733142
 20
43.28718393992509
 30
0.0
 10
54.52843931306104
 20
43.28647097197401
 30
0.0
  0
SPLINE
  5
BC
330
1F
100
AcDbEntity
  8
0
  6
Continuous
 62
     7
370
    25
100
AcDbSpline
210
0.0
220
0.0
230
1.0
 70
     8
 71
     3
 72
    23
 73
    19
 74
     0
 42
0.000000001
 43
0.00000001
 40
0.0
 40
0.0
 40
0.0
 40
0.0
 40
0.0726253460834355
 40
0.1419766113262345
 40
0.2089849284189386
 40
0.2739568703644447
 40
0.336889347396841
 40
0.3987449534945902
 40
0.4601158852788617
 40
0.5208249225900291
 40
0.5809944586324857
 40
0.6401519276014648
 40
0.6986224507562546
 40
0.7572710809271643
 40
0.8164266940046602
 40
0.8762540482034705
 40
0.9371652930625374
 40
1.0
 40
1.0
 40
1.0
 40
1.0
 10
54.53354748613796
 20
44.1710863565894
 30
0.0
 10
54.54864712212741
 20
44.16743940629754
 30
0.0
 10
54.57816567543768
 20
44.16030991677307
 30
0.0
 10
54.62034021580082
 20
44.14543952814354
 30
0.0
 10
54.66025029639685
 20
44.12923984734584
 30
0.0
 10
54.69714861369486
 20
44.10978737396095
 30
0.0
 10
54.73177671486602
 20
44.08856933643547
 30
0.0
 10
54.76334919678094
 20
44.06425959863439
 30
0.0
 10
54.79266903912399
 20
44.0379797175347
 30
0.0
 10
54.81868899807708
 20
44.00891188211965
 30
0.0
 10
54.8422508820228
 20
43.97842816998789
 30
0.0
 10
54.86234019231239
 20
43.94609904723757
 30
0.0
 10
54.87962197211146
 20
43.91257494995017
 30
0.0
 10
54.89385921434376
 20
43.87762360725792
 30
0.0
 10
54.9045844387721
 20
43.84114096224705
 30
0.0
 10
54.91236592688242
 20
43.80345683796671
 30
0.0
 10
54.91741926154576
 20
43.76447248077471
 30
0.0
 10
54.91791244572562
 20
43.73800922766117
 30
0.0
 10
54.91816287075333
 20
43.72457193351247
 30
0.0
  0
LINE
  5
BD
330
1F
100
AcDbEntity
  8
0
  6
Continuous
 62
     7
370
    25
100
AcDbLine
 10
54.5335474861
 20
44.036470972
 30
0.0
 11
54.5335474861
 21
44.1710863566
 31
0.0
  0
LINE
  5
BE
330
1F
100
AcDbEntity
  8
0
  6
Continuous
 62
     7
370
    25
100
AcDbLine
 10
54.2797013323
 20
38.2355481778
 30
0.0
 11
54.2797013323
 21
39.1947288543
 31
0.0
  0
LINE
  5
BF
330
1F
100
AcDbEntity
  8
0
  6
Continuous
 62
     7
370
    25
100
AcDbLine
 10
54.2797013323
 20
45.9987250542
 30
0.0
 11
54.2797013323
 21
46.9579057308
 31
0.0
  0
SPLINE
  5
C0
330
1F
100
AcDbEntity
  8
0
  6
Continuous
 62
     7
370
    25
100
AcDbSpline
210
0.0
220
0.0
230
1.0
 70
     8
 71
     3
 72
     8
 73
     4
 74
     0
 42
0.000000001
 43
0.00000001
 40
0.0
 40
0.0
 40
0.0
 40
0.0
 40
1.0
 40
1.0
 40
1.0
 40
1.0
 10
54.27970133229181
 20
46.95790573078697
 30
0.0
 10
54.3047017452145
 20
46.85117921597551
 30
0.0
 10
54.33156805667472
 20
46.74460958798472
 30
0.0
 10
54.36008609002114
 20
46.63817883860394
 30
0.0
  0
SPLINE
  5
C1
330
1F
100
AcDbEntity
  8
0
  6
Continuous
 62
     7
370
    25
100
AcDbSpline
210
0.0
220
0.0
230
1.0
 70
     8
 71
     3
 72
    16
 73
    12
 74
     0
 42
0.000000001
 43
0.00000001
 40
0.0
 40
0.0
 40
0.0
 40
0.0
 40
0.2500000000000001
 40
0.2500000000000001
 40
0.5000000000000001
 40
0.5000000000000001
 40
0.625
 40
0.625
 40
0.7499999999999999
 40
0.7499999999999999
 40
1.0
 40
1.0
 40
1.0
 40
1.0
 10
52.04925368192799
 20
50.67963072293136
 30
0.0
 10
51.85875921094321
 20
50.34968462062476
 30
0.0
 10
51.70175719773012
 20
50.01733287931505
 30
0.0
 10
51.48425838689209
 20
49.34569778504132
 30
0.0
 10
51.42447902582204
 20
49.00636290127085
 30
0.0
 10
51.42382252496807
 20
48.49096713500066
 30
0.0
 10
51.43843629145155
 20
48.31836037450018
 30
0.0
 10
51.49542214932839
 20
47.97692596198164
 30
0.0
 10
51.53773641858762
 20
47.80735345923766
 30
0.0
 10
51.70113123847781
 20
47.30165495968617
 30
0.0
 10
51.85852176579124
 20
46.96853620797817
 30
0.0
 10
52.04925368192824
 20
46.63817883860392
 30
0.0
  0
LINE
  5
C2
330
1F
100
AcDbEntity
  8
0
  6
Continuous
 62
     7
370
    25
100
AcDbLine
 10
54.1993165746
 20
50.6796307229
 30
0.0
 11
52.0492536819
 21
50.6796307229
 31
0.0
  0
SPLINE
  5
C3
330
1F
100
AcDbEntity
  8
0
  6
Continuous
 62
     7
370
    25
100
AcDbSpline
210
0.0
220
0.0
230
1.0
 70
     8
 71
     3
 72
     8
 73
     4
 74
     0
 42
0.000000001
 43
0.00000001
 40
0.0
 40
0.0
 40
0.0
 40
0.0
 40
1.0
 40
1.0
 40
1.0
 40
1.0
 10
54.27970133229181
 20
50.35990383074829
 30
0.0
 10
54.25470091936911
 20
50.46663034555974
 30
0.0
 10
54.22783460790888
 20
50.57319997355054
 30
0.0
 10
54.19931657456247
 20
50.67963072293131
 30
0.0
  0
SPLINE
  5
C4
330
1F
100
AcDbEntity
  8
0
  6
Continuous
 62
     7
370
    25
100
AcDbSpline
210
0.0
220
0.0
230
1.0
 70
     8
 71
     3
 72
     8
 73
     4
 74
     0
 42
0.000000001
 43
0.00000001
 40
0.0
 40
0.0
 40
0.0
 40
0.0
 40
1.0
 40
1.0
 40
1.0
 40
1.0
 10
54.36008609002114
 20
50.67963072293132
 30
0.0
 10
54.33155227518305
 20
50.57314107622179
 30
0.0
 10
54.30468735337626
 20
50.466568906945
 30
0.0
 10
54.27970133229181
 20
50.35990383074829
 30
0.0
  0
LINE
  5
C5
330
1F
100
AcDbEntity
  8
0
  6
Continuous
 62
     7
370
    25
100
AcDbLine
 10
56.5101489827
 20
50.6796307229
 30
0.0
 11
54.36008609
 21
50.6796307229
 31
0.0
  0
SPLINE
  5
C6
330
1F
100
AcDbEntity
  8
0
  6
Continuous
 62
     7
370
    25
100
AcDbSpline
210
0.0
220
0.0
230
1.0
 70
     8
 71
     3
 72
    16
 73
    12
 74
     0
 42
0.000000001
 43
0.00000001
 40
0.0
 40
0.0
 40
0.0
 40
0.0
 40
0.2500000000000001
 40
0.2500000000000001
 40
0.5000000000000001
 40
0.5000000000000001
 40
0.625
 40
0.625
 40
0.7499999999999999
 40
0.7499999999999999
 40
1.0
 40
1.0
 40
1.0
 40
1.0
 10
56.51014898265561
 20
50.67963072293136
 30
0.0
 10
56.70064345364039
 20
50.34968462062476
 30
0.0
 10
56.85764546685348
 20
50.01733287931505
 30
0.0
 10
57.0751442776915
 20
49.34569778504132
 30
0.0
 10
57.13492363876156
 20
49.00636290127085
 30
0.0
 10
57.13558013961553
 20
48.49096713500066
 30
0.0
 10
57.12096637313205
 20
48.31836037450018
 30
0.0
 10
57.06398051525522
 20
47.97692596198164
 30
0.0
 10
57.02166624599597
 20
47.80735345923766
 30
0.0
 10
56.85827142610579
 20
47.30165495968617
 30
0.0
 10
56.70088089879236
 20
46.96853620797817
 30
0.0
 10
56.51014898265537
 20
46.63817883860392
 30
0.0
  0
SPLINE
  5
C7
330
1F
100
AcDbEntity
  8
0
  6
Continuous
 62
     7
370
    25
100
AcDbSpline
210
0.0
220
0.0
230
1.0
 70
     8
 71
     3
 72
     8
 73
     4
 74
     0
 42
0.000000001
 43
0.00000001
 40
0.0
 40
0.0
 40
0.0
 40
0.0
 40
1.0
 40
1.0
 40
1.0
 40
1.0
 10
54.19931657456247
 20
46.63817883860394
 30
0.0
 10
54.22785038940056
 20
46.74466848531347
 30
0.0
 10
54.25471531120735
 20
46.85124065459025
 30
0.0
 10
54.27970133229181
 20
46.95790573078697
 30
0.0
  0
LINE
  5
C8
330
1F
100
AcDbEntity
  8
0
  6
Continuous
 62
     7
370
    25
100
AcDbLine
 10
57.2797013323
 20
49.3467269543
 30
0.0
 11
57.2797013323
 21
35.8467269543
 31
0.0
  0
SPLINE
  5
C9
330
1F
100
AcDbEntity
  8
0
  6
Continuous
 62
     7
370
    25
100
AcDbSpline
210
0.0
220
0.0
230
1.0
 70
     8
 71
     3
 72
    23
 73
    19
 74
     0
 42
0.000000001
 43
0.00000001
 40
0.0
 40
0.0
 40
0.0
 40
0.0
 40
0.0611415679303346
 40
0.1200010135310723
 40
0.1782359705414083
 40
0.2364955434070171
 40
0.2948872487049731
 40
0.3546771928192958
 40
0.4166948132897783
 40
0.4806333779628393
 40
0.5458046334786407
 40
0.6097347883178743
 40
0.6729516883751544
 40
0.7360010960706834
 40
0.7998274385165249
 40
0.864767276939387
 40
0.9310835057306723
 40
1.0
 40
1.0
 40
1.0
 40
1.0
 10
53.79256190921488
 20
41.3785872846273
 30
0.0
 10
53.80280361966502
 20
41.37882037567034
 30
0.0
 10
53.82290476649381
 20
41.37927785758252
 30
0.0
 10
53.85232538009685
 20
41.38455243263871
 30
0.0
 10
53.88085018883038
 20
41.39167662408052
 30
0.0
 10
53.90783662535517
 20
41.40318997041786
 30
0.0
 10
53.93403097318554
 20
41.41690330568152
 30
0.0
 10
53.95868457829661
 20
41.43437319397689
 30
0.0
 10
53.9824958817406
 20
41.45440284851487
 30
0.0
 10
54.00458829547074
 20
41.47759913197972
 30
0.0
 10
54.02479581513527
 20
41.50283461182928
 30
0.0
 10
54.04263233767099
 20
41.5296707055825
 30
0.0
 10
54.0576860123166
 20
41.55774532963655
 30
0.0
 10
54.07024616878528
 20
41.58703136417191
 30
0.0
 10
54.07931023734069
 20
41.61786401207281
 30
0.0
 10
54.0864473392596
 20
41.64974559042422
 30
0.0
 10
54.0902453474699
 20
41.68308383606969
 30
0.0
 10
54.09090408959494
 20
41.70570238265685
 30
0.0
 10
54.09123979383026
 20
41.71722911155038
 30
0.0
  0
SPLINE
  5
CA
330
1F
100
AcDbEntity
  8
0
  6
Continuous
 62
     7
370
    25
100
AcDbSpline
210
0.0
220
0.0
230
1.0
 70
     8
 71
     3
 72
    23
 73
    19
 74
     0
 42
0.000000001
 43
0.00000001
 40
0.0
 40
0.0
 40
0.0
 40
0.0
 40
0.0679503475997537
 40
0.1332598223836998
 40
0.1978002967596474
 40
0.2608458295516822
 40
0.3233192927503671
 40
0.3862817224595722
 40
0.450061516233313
 40
0.5152075844858154
 40
0.5796407692199316
 40
0.6418172023841522
 40
0.7016924412115348
 40
0.7607690981778945
 40
0.8192540511346832
 40
0.8787376269055537
 40
0.9381582970160912
 40
1.0
 40
1.0
 40
1.0
 40
1.0
 10
53.49508594767642
 20
41.70551036155038
 30
0.0
 10
53.49541553671754
 20
41.69438227252699
 30
0.0
 10
53.49606190540632
 20
41.6725585848034
 30
0.0
 10
53.49995355940455
 20
41.6403416467187
 30
0.0
 10
53.50683705051517
 20
41.60944998069899
 30
0.0
 10
53.51661888773539
 20
41.5798621018557
 30
0.0
 10
53.52853792957143
 20
41.55133149239493
 30
0.0
 10
53.54374628959923
 20
41.52426293817049
 30
0.0
 10
53.56152354110684
 20
41.49829099423939
 30
0.0
 10
53.58186209432504
 20
41.47398098153425
 30
0.0
 10
53.60371986779365
 20
41.4513292957709
 30
0.0
 10
53.62772846926219
 20
41.43237924470009
 30
0.0
 10
53.65204359160725
 20
41.41527696290478
 30
0.0
 10
53.67814201362113
 20
41.40232258226269
 30
0.0
 10
53.7050784131
 20
41.39146241260805
 30
0.0
 10
53.73326337384395
 20
41.38416166304076
 30
0.0
 10
53.7625515936594
 20
41.37938209738279
 30
0.0
 10
53.78242620355073
 20
41.37885572526175
 30
0.0
 10
53.79256190921488
 20
41.3785872846273
 30
0.0
  0
SPLINE
  5
CB
330
1F
100
AcDbEntity
  8
0
  6
Continuous
 62
     7
370
    25
100
AcDbSpline
210
0.0
220
0.0
230
1.0
 70
     8
 71
     3
 72
    23
 73
    19
 74
     0
 42
0.000000001
 43
0.00000001
 40
0.0
 40
0.0
 40
0.0
 40
0.0
 40
0.0618526459466917
 40
0.1212838306153701
 40
0.1807779320756125
 40
0.2392732340142805
 40
0.2986414352139417
 40
0.3581858222417117
 40
0.4207600867589709
 40
0.4852046730216432
 40
0.5503622689482871
 40
0.613649924530912
 40
0.6766234955168249
 40
0.7391080134690126
 40
0.8021647022429448
 40
0.8667165971324778
 40
0.9320376285055445
 40
1.0
 40
1.0
 40
1.0
 40
1.0
 10
53.79256190921488
 20
42.03243343847346
 30
0.0
 10
53.78242658935797
 20
42.032164306166
 30
0.0
 10
53.7625527359772
 20
42.03163657777716
 30
0.0
 10
53.73325901056369
 20
42.02686688252395
 30
0.0
 10
53.70509470031272
 20
42.01952911087069
 30
0.0
 10
53.67803920561182
 20
42.0087885574489
 30
0.0
 10
53.65224010994842
 20
41.99531676299124
 30
0.0
 10
53.62751415480818
 20
41.97873823445933
 30
0.0
 10
53.6038442737681
 20
41.95933368637129
 30
0.0
 10
53.58182733721709
 20
41.93677628422596
 30
0.0
 10
53.56163286797768
 20
41.91245031299142
 30
0.0
 10
53.54365167465566
 20
41.88672398718628
 30
0.0
 10
53.5285522804817
 20
41.85967910653904
 30
0.0
 10
53.51661501922963
 20
41.83116135036795
 30
0.0
 10
53.50683811768734
 20
41.80156998954159
 30
0.0
 10
53.49995326857351
 20
41.77067928155524
 30
0.0
 10
53.49606198192777
 20
41.73846208431361
 30
0.0
 10
53.49541556255947
 20
41.71663843234301
 30
0.0
 10
53.49508594767642
 20
41.70551036155038
 30
0.0
  0
SPLINE
  5
CC
330
1F
100
AcDbEntity
  8
0
  6
Continuous
 62
     7
370
    25
100
AcDbSpline
210
0.0
220
0.0
230
1.0
 70
     8
 71
     3
 72
    23
 73
    19
 74
     0
 42
0.000000001
 43
0.00000001
 40
0.0
 40
0.0
 40
0.0
 40
0.0
 40
0.0705921865358071
 40
0.1385012886049299
 40
0.2037899961427012
 40
0.266787572669601
 40
0.3290979656467183
 40
0.3911745246039658
 40
0.4531677986176573
 40
0.5157967602265844
 40
0.5779688050530403
 40
0.6389663383752914
 40
0.698381066162843
 40
0.7573204555574266
 40
0.8164122397216688
 40
0.876279358230831
 40
0.936823465650193
 40
1.0
 40
1.0
 40
1.0
 40
1.0
 10
54.09123979383026
 20
41.71722911155038
 30
0.0
 10
54.09090192937566
 20
41.7286554293882
 30
0.0
 10
54.09023904209831
 20
41.7510737708819
 30
0.0
 10
54.08649504997936
 20
41.78392322709712
 30
0.0
 10
54.07940121135895
 20
41.81492916078282
 30
0.0
 10
54.07022516780268
 20
41.84444571026697
 30
0.0
 10
54.05773134240587
 20
41.87216523561447
 30
0.0
 10
54.04273520986155
 20
41.89840393424281
 30
0.0
 10
54.02490578858875
 20
41.92290144218973
 30
0.0
 10
54.00444187225269
 20
41.94522754072192
 30
0.0
 10
53.9823641179728
 20
41.96572841315627
 30
0.0
 10
53.95857519423416
 20
41.98336251123123
 30
0.0
 10
53.93380189425337
 20
41.99859027233956
 30
0.0
 10
53.90781137906952
 20
42.01096717304253
 30
0.0
 10
53.88062032059483
 20
42.02060605134039
 30
0.0
 10
53.85235198973876
 20
42.02757808428308
 30
0.0
 10
53.82281730898371
 20
42.03145828348293
 30
0.0
 10
53.80278909050491
 20
42.03210380849169
 30
0.0
 10
53.79256190921488
 20
42.03243343847346
 30
0.0
  0
LINE
  5
CD
330
1F
100
AcDbEntity
  8
0
  6
Continuous
 62
     7
370
    25
100
AcDbLine
 10
51.2797013323
 20
49.3467269543
 30
0.0
 11
51.2797013323
 21
35.8467269543
 31
0.0
  0
LINE
  5
CE
330
1F
100
AcDbEntity
  8
0
  6
Continuous
 62
     7
370
    25
100
AcDbLine
 10
42.3684889861
 20
49.0526890685
 30
0.0
 11
42.3684889861
 21
36.1407648401
 31
0.0
  0
LINE
  5
CF
330
1F
100
AcDbEntity
  8
0
  6
Continuous
 62
     7
370
    25
100
AcDbLine
 10
40.2797013323
 20
42.5967269543
 30
0.0
 11
40.2797013323
 21
47.8467269543
 31
0.0
  0
LINE
  5
D0
330
1F
100
AcDbEntity
  8
0
  6
Continuous
 62
     7
370
    25
100
AcDbLine
 10
40.2797013323
 20
37.3467269543
 30
0.0
 11
40.2797013323
 21
42.5967269543
 31
0.0
  0
LINE
  5
D1
330
1F
100
AcDbEntity
  8
0
  6
Continuous
 62
     7
370
    25
100
AcDbLine
 10
74.7797013323
 20
47.0967269543
 30
0.0
 11
74.7797013323
 21
38.0967269543
 31
0.0
  0
LINE
  5
D2
330
1F
100
AcDbEntity
  8
0
  6
Continuous
 62
     7
370
    25
100
AcDbLine
 10
65.7797013323
 20
47.0967269543
 30
0.0
 11
65.7797013323
 21
38.0967269543
 31
0.0
  0
LINE
  5
D3
330
1F
100
AcDbEntity
  8
0
  6
Continuous
 62
     7
370
    25
100
AcDbLine
 10
61.2797013323
 20
47.0967269543
 30
0.0
 11
61.2797013323
 21
38.0967269543
 31
0.0
  0
LINE
  5
D4
330
1F
100
AcDbEntity
  8
0
  6
Continuous
 62
     7
370
    25
100
AcDbLine
 10
70.2797013323
 20
47.0967269543
 30
0.0
 11
70.2797013323
 21
38.0967269543
 31
0.0
  0
LINE
  5
D5
330
1F
100
AcDbEntity
  8
0
  6
Continuous
 62
     7
370
    25
100
AcDbLine
 10
80.2797013323
 20
45.9102814245
 30
0.0
 11
80.2797013323
 21
39.2831724894
 31
0.0
  0
LINE
  5
D6
330
1F
100
AcDbEntity
  8
0
  6
Continuous
 62
     7
370
    25
100
AcDbLine
 10
54.2797013323
 20
50.3599038307
 30
0.0
 11
54.2797013323
 21
50.3796307229
 31
0.0
  0
LINE
  5
D7
330
1F
100
AcDbEntity
  8
0
  6
Continuous
 62
     7
370
    25
100
AcDbLine
 10
54.2797013323
 20
34.8138231856
 30
0.0
 11
54.2797013323
 21
34.8335500778
 31
0.0
  0
LINE
  5
D8
330
1F
100
AcDbEntity
  8
0
  6
Continuous
 62
     8
370
    25
100
AcDbLine
 10
79.8472579347
 20
38.7877574001
 30
0.0
 11
79.8472579347
 21
46.4056965085
 31
0.0
  0
LINE
  5
D9
330
1F
100
AcDbEntity
  8
0
  6
Continuous
 62
     7
370
    18
100
AcDbLine
 10
41.1449270549
 20
48.3462652581
 30
0.0
 11
50.7797013323
 21
48.6473519543
 31
0.0
  0
LINE
  5
DA
330
1F
100
AcDbEntity
  8
0
  6
Continuous
 62
     7
370
    18
100
AcDbLine
 10
41.1449270549
 20
36.8471886504
 30
0.0
 11
50.7797013323
 21
36.5461019543
 31
0.0
  0
LINE
  5
DB
330
1F
100
AcDbEntity
  8
0
  6
Continuous
 62
     7
370
    18
100
AcDbLine
 10
50.7797013323
 20
35.8779144543
 30
0.0
 11
50.7797013323
 21
49.3155394543
 31
0.0
  0
LINE
  5
DC
330
1F
100
AcDbEntity
  8
0
  6
CENTERX2
 62
     7
370
    18
100
AcDbLine
 10
81.2797013323
 20
42.5967269543
 30
0.0
 11
39.1321664895
 21
42.5967269543
 31
0.0
  0
CIRCLE
  5
DD
330
1F
100
AcDbEntity
  8
0
  6
Continuous
 62
     7
370
    25
100
AcDbCircle
 10
99.3293572548
 20
42.5967269543
 30
0.0
 40
3.313554470200579
  0
CIRCLE
  5
DE
330
1F
100
AcDbEntity
  8
0
  6
Continuous
 62
     7
370
    25
100
AcDbCircle
 10
99.3293572548
 20
42.5967269543
 30
0.0
 40
3.808969554222728
  0
CIRCLE
  5
DF
330
1F
100
AcDbEntity
  8
0
  6
Continuous
 62
     7
370
    25
100
AcDbCircle
 10
99.3293572548
 20
42.5967269543
 30
0.0
 40
2.749999999999986
  0
CIRCLE
  5
E0
330
1F
100
AcDbEntity
  8
0
  6
Continuous
 62
     7
370
    25
100
AcDbCircle
 10
99.3293572548
 20
42.5967269543
 30
0.0
 40
2.949999999999996
  0
CIRCLE
  5
E1
330
1F
100
AcDbEntity
  8
0
  6
Continuous
 62
     7
370
    25
100
AcDbCircle
 10
99.3293572548
 20
42.5967269543
 30
0.0
 40
4.5
  0
SPLINE
  5
E2
330
1F
100
AcDbEntity
  8
0
  6
Continuous
 62
     7
370
    25
100
AcDbSpline
210
0.0
220
0.0
230
1.0
 70
    24
 71
     3
 72
    14
 73
    10
 74
     0
 42
0.000000001
 43
0.00000001
 40
0.0
 40
0.0
 40
0.0
 40
0.0
 40
0.25
 40
0.25
 40
0.5
 40
0.5
 40
0.75
 40
0.75
 40
1.0
 40
1.0
 40
1.0
 40
1.0
 10
106.3293572547812
 20
38.55527506994916
 30
0.0
 10
106.3293572547812
 20
39.21291576167239
 30
0.0
 10
106.3293572547812
 20
39.88631227993322
 30
0.0
 10
106.3293572547812
 20
41.23599049381396
 30
0.0
 10
106.3293572547812
 20
41.91471407532762
 30
0.0
 10
106.3293572547812
 20
43.28127227474253
 30
0.0
 10
106.3293572547812
 20
43.97377009537797
 30
0.0
 10
106.3293572547812
 20
45.32305495218478
 30
0.0
 10
106.3293572547812
 20
45.98487464869272
 30
0.0
 10
106.3293572547812
 20
46.63817883860394
 30
0.0
  0
SPLINE
  5
E3
330
1F
100
AcDbEntity
  8
0
  6
Continuous
 62
     7
370
    25
100
AcDbSpline
210
0.0
220
0.0
230
1.0
 70
    24
 71
     3
 72
    16
 73
    12
 74
     0
 42
0.000000001
 43
0.00000001
 40
0.0
 40
0.0
 40
0.0
 40
0.0
 40
0.2500000000000001
 40
0.2500000000000001
 40
0.5
 40
0.5
 40
0.625
 40
0.625
 40
0.7499999999999999
 40
0.7499999999999999
 40
1.0
 40
1.0
 40
1.0
 40
1.0
 10
99.32935725478112
 20
34.51382318562176
 30
0.0
 10
99.90084066773547
 20
34.84376928792836
 30
0.0
 10
100.4764907696679
 20
35.17612102923806
 30
0.0
 10
101.6397968770963
 20
35.84775612351179
 30
0.0
 10
102.2275421365672
 20
36.18709100728226
 30
0.0
 10
103.1202337897531
 20
36.70248677355245
 30
0.0
 10
103.4191974686698
 20
36.87509353405294
 30
0.0
 10
104.0105792186043
 20
37.21652794657147
 30
0.0
 10
104.3042874089235
 20
37.38610044931545
 30
0.0
 10
105.180182903458
 20
37.89179894886693
 30
0.0
 10
105.7571615063702
 20
38.22491770057494
 30
0.0
 10
106.3293572547812
 20
38.55527506994919
 30
0.0
  0
SPLINE
  5
E4
330
1F
100
AcDbEntity
  8
0
  6
Continuous
 62
     7
370
    25
100
AcDbSpline
210
0.0
220
0.0
230
1.0
 70
    24
 71
     3
 72
    16
 73
    12
 74
     0
 42
0.000000001
 43
0.00000001
 40
0.0
 40
0.0
 40
0.0
 40
0.0
 40
0.2499999999999999
 40
0.2499999999999999
 40
0.4999999999999999
 40
0.4999999999999999
 40
0.6249999999999999
 40
0.6249999999999999
 40
0.7499999999999998
 40
0.7499999999999998
 40
1.0
 40
1.0
 40
1.0
 40
1.0
 10
92.32935725478113
 20
38.55527506994921
 30
0.0
 10
92.90084066773547
 20
38.22532896764261
 30
0.0
 10
93.47649076966786
 20
37.89297722633291
 30
0.0
 10
94.63979687709629
 20
37.22134213205917
 30
0.0
 10
95.22754213656721
 20
36.8820072482887
 30
0.0
 10
96.12023378975309
 20
36.36661148201851
 30
0.0
 10
96.41919746866978
 20
36.19400472151803
 30
0.0
 10
97.01057921860432
 20
35.8525703089995
 30
0.0
 10
97.30428740892351
 20
35.68299780625551
 30
0.0
 10
98.18018290345803
 20
35.17729930670403
 30
0.0
 10
98.75716150637022
 20
34.84418055499602
 30
0.0
 10
99.32935725478121
 20
34.51382318562177
 30
0.0
  0
SPLINE
  5
E5
330
1F
100
AcDbEntity
  8
0
  6
Continuous
 62
     7
370
    25
100
AcDbSpline
210
0.0
220
0.0
230
1.0
 70
    24
 71
     3
 72
    14
 73
    10
 74
     0
 42
0.000000001
 43
0.00000001
 40
0.0
 40
0.0
 40
0.0
 40
0.0
 40
0.2500000000000001
 40
0.2500000000000001
 40
0.5000000000000001
 40
0.5000000000000001
 40
0.7500000000000002
 40
0.7500000000000002
 40
1.0
 40
1.0
 40
1.0
 40
1.0
 10
92.32935725478119
 20
38.55527506994916
 30
0.0
 10
92.32935725478119
 20
39.21291576167239
 30
0.0
 10
92.32935725478119
 20
39.88631227993323
 30
0.0
 10
92.32935725478119
 20
41.23599049381396
 30
0.0
 10
92.32935725478119
 20
41.91471407532762
 30
0.0
 10
92.32935725478119
 20
43.28127227474253
 30
0.0
 10
92.32935725478119
 20
43.97377009537797
 30
0.0
 10
92.32935725478119
 20
45.32305495218478
 30
0.0
 10
92.32935725478119
 20
45.98487464869272
 30
0.0
 10
92.32935725478119
 20
46.63817883860394
 30
0.0
  0
SPLINE
  5
E6
330
1F
100
AcDbEntity
  8
0
  6
Continuous
 62
     7
370
    25
100
AcDbSpline
210
0.0
220
0.0
230
1.0
 70
    24
 71
     3
 72
    16
 73
    12
 74
     0
 42
0.000000001
 43
0.00000001
 40
0.0
 40
0.0
 40
0.0
 40
0.0
 40
0.2500000000000001
 40
0.2500000000000001
 40
0.5000000000000001
 40
0.5000000000000001
 40
0.625
 40
0.625
 40
0.7499999999999999
 40
0.7499999999999999
 40
1.0
 40
1.0
 40
1.0
 40
1.0
 10
99.32935725478124
 20
50.67963072293136
 30
0.0
 10
98.75787384182689
 20
50.34968462062476
 30
0.0
 10
98.18222373989451
 20
50.01733287931505
 30
0.0
 10
97.01891763246608
 20
49.34569778504132
 30
0.0
 10
96.43117237299516
 20
49.00636290127085
 30
0.0
 10
95.53848071980929
 20
48.49096713500066
 30
0.0
 10
95.23951704089258
 20
48.31836037450018
 30
0.0
 10
94.64813529095804
 20
47.97692596198164
 30
0.0
 10
94.35442710063884
 20
47.80735345923766
 30
0.0
 10
93.47853160610434
 20
47.30165495968617
 30
0.0
 10
92.90155300319213
 20
46.96853620797817
 30
0.0
 10
92.32935725478114
 20
46.63817883860392
 30
0.0
  0
SPLINE
  5
E7
330
1F
100
AcDbEntity
  8
0
  6
Continuous
 62
     7
370
    25
100
AcDbSpline
210
0.0
220
0.0
230
1.0
 70
    24
 71
     3
 72
    16
 73
    12
 74
     0
 42
0.000000001
 43
0.00000001
 40
0.0
 40
0.0
 40
0.0
 40
0.0
 40
0.25
 40
0.25
 40
0.5
 40
0.5
 40
0.625
 40
0.625
 40
0.75
 40
0.75
 40
1.0
 40
1.0
 40
1.0
 40
1.0
 10
106.3293572547812
 20
46.63817883860391
 30
0.0
 10
105.7578738418269
 20
46.9681249409105
 30
0.0
 10
105.1822237398945
 20
47.30047668222021
 30
0.0
 10
104.0189176324661
 20
47.97211177649394
 30
0.0
 10
103.4311723729951
 20
48.31144666026441
 30
0.0
 10
102.5384807198093
 20
48.8268424265346
 30
0.0
 10
102.2395170408926
 20
48.99944918703508
 30
0.0
 10
101.6481352909581
 20
49.34088359955361
 30
0.0
 10
101.3544271006389
 20
49.5104561022976
 30
0.0
 10
100.4785316061043
 20
50.01615460184909
 30
0.0
 10
99.90155300319215
 20
50.34927335355709
 30
0.0
 10
99.32935725478114
 20
50.67963072293134
 30
0.0
  0
CIRCLE
  5
E8
330
1F
100
AcDbEntity
  8
0
  6
Continuous
 62
     7
370
    25
100
AcDbCircle
 10
99.3293572548
 20
42.5967269543
 30
0.0
 40
6.75
  0
INSERT
  5
F4
330
1F
100
AcDbEntity
  8
0
  6
Continuous
 62
     7
370
    18
100
AcDbBlockReference
  2
SW_CENTERMARKSYMBOL_0
 10
99.3293572548
 20
42.5967269543
 30
0.0
  0
INSERT
  5
100
330
1F
100
AcDbEntity
  8
0
  6
Continuous
 62
     7
370
    18
100
AcDbBlockReference
  2
SW_CENTERMARKSYMBOL_1
 10
99.3293572548
 20
42.5967269543
 30
0.0
  0
LINE
  5
101
330
1F
100
AcDbEntity
  8
0
  6
Continuous
 62
     7
370
    25
100
AcDbLine
 10
51.4240388996
 20
75.0365832255
 30
0.0
 11
51.2797013323
 21
74.7865832255
 31
0.0
  0
LINE
  5
102
330
1F
100
AcDbEntity
  8
0
  6
Continuous
 62
     7
370
    25
100
AcDbLine
 10
51.2797013323
 20
61.2865832255
 30
0.0
 11
51.4240388996
 21
61.0365832255
 31
0.0
  0
LINE
  5
103
330
1F
100
AcDbEntity
  8
0
  6
Continuous
 62
     7
370
    25
100
AcDbLine
 10
57.135363765
 20
61.0365832255
 30
0.0
 11
57.2797013323
 21
61.2865832255
 31
0.0
  0
LINE
  5
104
330
1F
100
AcDbEntity
  8
0
  6
Continuous
 62
     7
370
    25
100
AcDbLine
 10
57.2797013323
 20
74.7865832255
 30
0.0
 11
57.135363765
 21
75.0365832255
 31
0.0
  0
LINE
  5
105
330
1F
100
AcDbEntity
  8
0
  6
Continuous
 62
     7
370
    25
100
AcDbLine
 10
51.2797013323
 20
74.7710207255
 30
0.0
 11
42.3684889861
 21
74.4925453397
 31
0.0
  0
LINE
  5
106
330
1F
100
AcDbEntity
  8
0
  6
Continuous
 62
     7
370
    25
100
AcDbLine
 10
42.3684889861
 20
61.5806211113
 30
0.0
 11
51.2797013323
 21
61.3021457255
 31
0.0
  0
LINE
  5
107
330
1F
100
AcDbEntity
  8
0
  6
Continuous
 62
     7
370
    25
100
AcDbLine
 10
42.3684889861
 20
74.4925453397
 30
0.0
 11
40.2797013323
 21
73.2865832255
 31
0.0
  0
LINE
  5
108
330
1F
100
AcDbEntity
  8
0
  6
Continuous
 62
     7
370
    25
100
AcDbLine
 10
40.2797013323
 20
62.7865832255
 30
0.0
 11
42.3684889861
 21
61.5806211113
 31
0.0
  0
LINE
  5
109
330
1F
100
AcDbEntity
  8
0
  6
Continuous
 62
     7
370
    25
100
AcDbLine
 10
65.7797013323
 20
63.5365832255
 30
0.0
 11
70.2797013323
 21
64.2865832255
 31
0.0
  0
LINE
  5
10A
330
1F
100
AcDbEntity
  8
0
  6
Continuous
 62
     7
370
    25
100
AcDbLine
 10
70.2797013323
 20
71.7865832255
 30
0.0
 11
65.7797013323
 21
72.5365832255
 31
0.0
  0
LINE
  5
10B
330
1F
100
AcDbEntity
  8
0
  6
Continuous
 62
     7
370
    25
100
AcDbLine
 10
74.7797013323
 20
63.5365832255
 30
0.0
 11
79.8472579347
 21
64.2276136713
 31
0.0
  0
LINE
  5
10C
330
1F
100
AcDbEntity
  8
0
  6
Continuous
 62
     7
370
    25
100
AcDbLine
 10
79.8472579347
 20
71.8455527797
 30
0.0
 11
74.7797013323
 21
72.5365832255
 31
0.0
  0
LINE
  5
10D
330
1F
100
AcDbEntity
  8
0
  6
Continuous
 62
     7
370
    25
100
AcDbLine
 10
61.2797013323
 20
72.5365832255
 30
0.0
 11
57.2797013323
 21
72.5365832255
 31
0.0
  0
LINE
  5
10E
330
1F
100
AcDbEntity
  8
0
  6
Continuous
 62
     7
370
    25
100
AcDbLine
 10
57.2797013323
 20
63.5365832255
 30
0.0
 11
61.2797013323
 21
63.5365832255
 31
0.0
  0
LINE
  5
10F
330
1F
100
AcDbEntity
  8
0
  6
Continuous
 62
     7
370
    25
100
AcDbLine
 10
61.2797013323
 20
63.5365832255
 30
0.0
 11
65.7797013323
 21
64.2865832255
 31
0.0
  0
LINE
  5
110
330
1F
100
AcDbEntity
  8
0
  6
Continuous
 62
     7
370
    25
100
AcDbLine
 10
65.7797013323
 20
71.7865832255
 30
0.0
 11
61.2797013323
 21
72.5365832255
 31
0.0
  0
LINE
  5
111
330
1F
100
AcDbEntity
  8
0
  6
Continuous
 62
     7
370
    25
100
AcDbLine
 10
70.2797013323
 20
63.5365832255
 30
0.0
 11
74.7797013323
 21
64.2865832255
 31
0.0
  0
LINE
  5
112
330
1F
100
AcDbEntity
  8
0
  6
Continuous
 62
     7
370
    25
100
AcDbLine
 10
74.7797013323
 20
71.7865832255
 30
0.0
 11
70.2797013323
 21
72.5365832255
 31
0.0
  0
ARC
  5
113
330
1F
100
AcDbEntity
  8
0
  6
Continuous
 62
     7
370
    25
100
AcDbCircle
 10
79.7797013323
 20
71.3501376957
 30
0.0
 40
0.5
100
AcDbArc
 50
0.0
 51
82.2348339816
  0
ARC
  5
114
330
1F
100
AcDbEntity
  8
0
  6
Continuous
 62
     7
370
    25
100
AcDbCircle
 10
79.7797013323
 20
64.7230287553
 30
0.0
 40
0.5
100
AcDbArc
 50
277.7651660184
 51
0.0
  0
SPLINE
  5
115
330
1F
100
AcDbEntity
  8
0
  6
Continuous
 62
     7
370
    25
100
AcDbSpline
210
0.0
220
0.0
230
1.0
 70
     8
 71
     3
 72
    16
 73
    12
 74
     0
 42
0.000000001
 43
0.00000001
 40
0.0
 40
0.0
 40
0.0
 40
0.0
 40
0.2500000000000002
 40
0.2500000000000002
 40
0.5000000000000003
 40
0.5000000000000003
 40
0.6250000000000003
 40
0.6250000000000003
 40
0.7500000000000002
 40
0.7500000000000002
 40
1.0
 40
1.0
 40
1.0
 40
1.0
 10
52.04925368192799
 20
75.03658322549623
 30
0.0
 10
51.85875921094321
 20
74.4650998125419
 30
0.0
 10
51.70175719773012
 20
73.8894497106095
 30
0.0
 10
51.48425838689209
 20
72.72614360318109
 30
0.0
 10
51.42447902582204
 20
72.13839834371015
 30
0.0
 10
51.42382252496807
 20
71.24570669052429
 30
0.0
 10
51.43843629145156
 20
70.94674301160757
 30
0.0
 10
51.49542214932839
 20
70.35536126167304
 30
0.0
 10
51.53773641858762
 20
70.06165307135385
 30
0.0
 10
51.70113123847782
 20
69.18575757681933
 30
0.0
 10
51.85852176579124
 20
68.60877897390715
 30
0.0
 10
52.04925368192824
 20
68.03658322549614
 30
0.0
  0
SPLINE
  5
116
330
1F
100
AcDbEntity
  8
0
  6
Continuous
 62
     7
370
    25
100
AcDbSpline
210
0.0
220
0.0
230
1.0
 70
     8
 71
     3
 72
    16
 73
    12
 74
     0
 42
0.000000001
 43
0.00000001
 40
0.0
 40
0.0
 40
0.0
 40
0.0
 40
0.2500000000000001
 40
0.2500000000000001
 40
0.5000000000000001
 40
0.5000000000000001
 40
0.625
 40
0.625
 40
0.7499999999999999
 40
0.7499999999999999
 40
1.0
 40
1.0
 40
1.0
 40
1.0
 10
52.04925368192799
 20
68.03658322549624
 30
0.0
 10
51.85875921094321
 20
67.4650998125419
 30
0.0
 10
51.70175719773012
 20
66.8894497106095
 30
0.0
 10
51.48425838689209
 20
65.72614360318107
 30
0.0
 10
51.42447902582204
 20
65.13839834371015
 30
0.0
 10
51.42382252496807
 20
64.24570669052427
 30
0.0
 10
51.43843629145155
 20
63.94674301160757
 30
0.0
 10
51.49542214932839
 20
63.35536126167305
 30
0.0
 10
51.53773641858762
 20
63.06165307135385
 30
0.0
 10
51.70113123847781
 20
62.18575757681932
 30
0.0
 10
51.85852176579124
 20
61.60877897390714
 30
0.0
 10
52.04925368192824
 20
61.03658322549614
 30
0.0
  0
SPLINE
  5
117
330
1F
100
AcDbEntity
  8
0
  6
Continuous
 62
     7
370
    25
100
AcDbSpline
210
0.0
220
0.0
230
1.0
 70
    24
 71
     3
 72
    13
 73
     9
 74
     0
 42
0.000000001
 43
0.00000001
 40
0.0
 40
0.0
 40
0.0
 40
0.0
 40
0.1834900896423825
 40
0.3672881429943825
 40
0.5522810495210136
 40
0.7378125960060998
 40
0.9867786648415057
 40
1.0
 40
1.0
 40
1.0
 40
1.0
 10
52.04925368192849
 20
61.03658322549617
 30
0.0
 10
51.9821174732219
 20
61.03658322549617
 30
0.0
 10
51.84773237661212
 20
61.03658322549617
 30
0.0
 10
51.68376377384548
 20
61.03658322549617
 30
0.0
 10
51.55183399349929
 20
61.03658322549617
 30
0.0
 10
51.45809202771495
 20
61.03658322549617
 30
0.0
 10
51.4112750365266
 20
61.03658322549617
 30
0.0
 10
51.42548867047297
 20
61.03658322549617
 30
0.0
 10
51.42620542198492
 20
61.03658322549617
 30
0.0
  0
SPLINE
  5
118
330
1F
100
AcDbEntity
  8
0
  6
Continuous
 62
     7
370
    25
100
AcDbSpline
210
0.0
220
0.0
230
1.0
 70
    24
 71
     3
 72
    13
 73
     9
 74
     0
 42
0.000000001
 43
0.00000001
 40
0.0
 40
0.0
 40
0.0
 40
0.0
 40
0.0049686242405734
 40
0.2621826984821411
 40
0.4454270669273427
 40
0.6292327825529666
 40
0.8144405859096615
 40
1.0
 40
1.0
 40
1.0
 40
1.0
 10
51.42489635477698
 20
75.03658322549619
 30
0.0
 10
51.42461120759536
 20
75.03658322549619
 30
0.0
 10
51.40956465669492
 20
75.03658322549614
 30
0.0
 10
51.45691829713789
 20
75.03658322549619
 30
0.0
 10
51.55076775224619
 20
75.03658322549617
 30
0.0
 10
51.68166667174228
 20
75.03658322549619
 30
0.0
 10
51.84578070463791
 20
75.03658322549619
 30
0.0
 10
51.98138648969122
 20
75.03658322549619
 30
0.0
 10
52.04925368192849
 20
75.03658322549619
 30
0.0
  0
LINE
  5
119
330
1F
100
AcDbEntity
  8
0
  6
Continuous
 62
     7
370
    25
100
AcDbLine
 10
51.2797013323
 20
74.7865832255
 30
0.0
 11
51.2797013323
 21
61.2865832255
 31
0.0
  0
LINE
  5
11A
330
1F
100
AcDbEntity
  8
0
  6
Continuous
 62
     7
370
    25
100
AcDbLine
 10
54.1993165746
 20
68.0365832255
 30
0.0
 11
52.0492536819
 21
68.0365832255
 31
0.0
  0
LINE
  5
11B
330
1F
100
AcDbEntity
  8
0
  6
Continuous
 62
     7
370
    25
100
AcDbLine
 10
54.1993165746
 20
75.0365832255
 30
0.0
 11
52.0492536819
 21
75.0365832255
 31
0.0
  0
SPLINE
  5
11C
330
1F
100
AcDbEntity
  8
0
  6
Continuous
 62
     7
370
    25
100
AcDbSpline
210
0.0
220
0.0
230
1.0
 70
     8
 71
     3
 72
     8
 73
     4
 74
     0
 42
0.000000001
 43
0.00000001
 40
0.0
 40
0.0
 40
0.0
 40
0.0
 40
1.0
 40
1.0
 40
1.0
 40
1.0
 10
54.27970133229181
 20
74.48280000368908
 30
0.0
 10
54.25470091936911
 20
74.66765574985726
 30
0.0
 10
54.22783460790888
 20
74.85223976008103
 30
0.0
 10
54.19931657456247
 20
75.03658322549617
 30
0.0
  0
SPLINE
  5
11D
330
1F
100
AcDbEntity
  8
0
  6
Continuous
 62
     7
370
    25
100
AcDbSpline
210
0.0
220
0.0
230
1.0
 70
     8
 71
     3
 72
     8
 73
     4
 74
     0
 42
0.000000001
 43
0.00000001
 40
0.0
 40
0.0
 40
0.0
 40
0.0
 40
1.0
 40
1.0
 40
1.0
 40
1.0
 10
54.36008609002114
 20
75.03658322549619
 30
0.0
 10
54.33155227518304
 20
74.8521377469152
 30
0.0
 10
54.30468735337626
 20
74.66754933505499
 30
0.0
 10
54.27970133229181
 20
74.48280000368908
 30
0.0
  0
LINE
  5
11E
330
1F
100
AcDbEntity
  8
0
  6
Continuous
 62
     7
370
    25
100
AcDbLine
 10
56.5101489827
 20
75.0365832255
 30
0.0
 11
54.36008609
 21
75.0365832255
 31
0.0
  0
SPLINE
  5
11F
330
1F
100
AcDbEntity
  8
0
  6
Continuous
 62
     7
370
    25
100
AcDbSpline
210
0.0
220
0.0
230
1.0
 70
     8
 71
     3
 72
    16
 73
    12
 74
     0
 42
0.000000001
 43
0.00000001
 40
0.0
 40
0.0
 40
0.0
 40
0.0
 40
0.25
 40
0.25
 40
0.5
 40
0.5
 40
0.625
 40
0.625
 40
0.75
 40
0.75
 40
1.0
 40
1.0
 40
1.0
 40
1.0
 10
56.51014898265561
 20
75.03658322549623
 30
0.0
 10
56.70064345364039
 20
74.4650998125419
 30
0.0
 10
56.85764546685348
 20
73.8894497106095
 30
0.0
 10
57.0751442776915
 20
72.72614360318109
 30
0.0
 10
57.13492363876156
 20
72.13839834371015
 30
0.0
 10
57.13558013961553
 20
71.24570669052429
 30
0.0
 10
57.12096637313205
 20
70.94674301160757
 30
0.0
 10
57.06398051525522
 20
70.35536126167304
 30
0.0
 10
57.02166624599597
 20
70.06165307135385
 30
0.0
 10
56.85827142610579
 20
69.18575757681933
 30
0.0
 10
56.70088089879236
 20
68.60877897390715
 30
0.0
 10
56.51014898265537
 20
68.03658322549614
 30
0.0
  0
LINE
  5
120
330
1F
100
AcDbEntity
  8
0
  6
Continuous
 62
     7
370
    25
100
AcDbLine
 10
56.5101489827
 20
68.0365832255
 30
0.0
 11
54.36008609
 21
68.0365832255
 31
0.0
  0
SPLINE
  5
121
330
1F
100
AcDbEntity
  8
0
  6
Continuous
 62
     7
370
    25
100
AcDbSpline
210
0.0
220
0.0
230
1.0
 70
     8
 71
     3
 72
     8
 73
     4
 74
     0
 42
0.000000001
 43
0.00000001
 40
0.0
 40
0.0
 40
0.0
 40
0.0
 40
1.0
 40
1.0
 40
1.0
 40
1.0
 10
54.27970133229181
 20
68.59036644730328
 30
0.0
 10
54.3047017452145
 20
68.4055107011351
 30
0.0
 10
54.33156805667472
 20
68.22092669091133
 30
0.0
 10
54.36008609002114
 20
68.03658322549617
 30
0.0
  0
SPLINE
  5
122
330
1F
100
AcDbEntity
  8
0
  6
Continuous
 62
     7
370
    25
100
AcDbSpline
210
0.0
220
0.0
230
1.0
 70
     8
 71
     3
 72
     8
 73
     4
 74
     0
 42
0.000000001
 43
0.00000001
 40
0.0
 40
0.0
 40
0.0
 40
0.0
 40
1.0
 40
1.0
 40
1.0
 40
1.0
 10
54.19931657456247
 20
68.03658322549617
 30
0.0
 10
54.22785038940056
 20
68.22102870407714
 30
0.0
 10
54.25471531120735
 20
68.40561711593737
 30
0.0
 10
54.27970133229181
 20
68.59036644730328
 30
0.0
  0
SPLINE
  5
123
330
1F
100
AcDbEntity
  8
0
  6
Continuous
 62
     7
370
    25
100
AcDbSpline
210
0.0
220
0.0
230
1.0
 70
    24
 71
     3
 72
    13
 73
     9
 74
     0
 42
0.000000001
 43
0.00000001
 40
0.0
 40
0.0
 40
0.0
 40
0.0
 40
0.0049686242405734
 40
0.2621826984821411
 40
0.4454270669273427
 40
0.6292327825529666
 40
0.8144405859096615
 40
1.0
 40
1.0
 40
1.0
 40
1.0
 10
57.13450630980662
 20
75.03658322549619
 30
0.0
 10
57.13479145698825
 20
75.03658322549619
 30
0.0
 10
57.14983800788868
 20
75.03658322549614
 30
0.0
 10
57.10248436744572
 20
75.03658322549619
 30
0.0
 10
57.00863491233741
 20
75.03658322549617
 30
0.0
 10
56.87773599284132
 20
75.03658322549619
 30
0.0
 10
56.71362195994569
 20
75.03658322549619
 30
0.0
 10
56.57801617489238
 20
75.03658322549619
 30
0.0
 10
56.51014898265511
 20
75.03658322549619
 30
0.0
  0
SPLINE
  5
124
330
1F
100
AcDbEntity
  8
0
  6
Continuous
 62
     7
370
    25
100
AcDbSpline
210
0.0
220
0.0
230
1.0
 70
    24
 71
     3
 72
    13
 73
     9
 74
     0
 42
0.000000001
 43
0.00000001
 40
0.0
 40
0.0
 40
0.0
 40
0.0
 40
0.1834900896423825
 40
0.3672881429943825
 40
0.5522810495210136
 40
0.7378125960060998
 40
0.9867786648415057
 40
1.0
 40
1.0
 40
1.0
 40
1.0
 10
56.51014898265511
 20
61.03658322549617
 30
0.0
 10
56.5772851913617
 20
61.03658322549617
 30
0.0
 10
56.71167028797147
 20
61.03658322549617
 30
0.0
 10
56.87563889073812
 20
61.03658322549617
 30
0.0
 10
57.00756867108431
 20
61.03658322549617
 30
0.0
 10
57.10131063686865
 20
61.03658322549617
 30
0.0
 10
57.148127628057
 20
61.03658322549617
 30
0.0
 10
57.13391399411064
 20
61.03658322549617
 30
0.0
 10
57.13319724259869
 20
61.03658322549617
 30
0.0
  0
SPLINE
  5
125
330
1F
100
AcDbEntity
  8
0
  6
Continuous
 62
     7
370
    25
100
AcDbSpline
210
0.0
220
0.0
230
1.0
 70
     8
 71
     3
 72
    16
 73
    12
 74
     0
 42
0.000000001
 43
0.00000001
 40
0.0
 40
0.0
 40
0.0
 40
0.0
 40
0.2500000000000001
 40
0.2500000000000001
 40
0.5000000000000001
 40
0.5000000000000001
 40
0.625
 40
0.625
 40
0.7499999999999999
 40
0.7499999999999999
 40
1.0
 40
1.0
 40
1.0
 40
1.0
 10
56.51014898265561
 20
68.03658322549624
 30
0.0
 10
56.70064345364039
 20
67.4650998125419
 30
0.0
 10
56.85764546685348
 20
66.8894497106095
 30
0.0
 10
57.0751442776915
 20
65.72614360318107
 30
0.0
 10
57.13492363876156
 20
65.13839834371015
 30
0.0
 10
57.13558013961553
 20
64.24570669052427
 30
0.0
 10
57.12096637313205
 20
63.94674301160757
 30
0.0
 10
57.06398051525522
 20
63.35536126167305
 30
0.0
 10
57.02166624599597
 20
63.06165307135385
 30
0.0
 10
56.85827142610579
 20
62.18575757681932
 30
0.0
 10
56.70088089879236
 20
61.60877897390714
 30
0.0
 10
56.51014898265537
 20
61.03658322549614
 30
0.0
  0
LINE
  5
126
330
1F
100
AcDbEntity
  8
0
  6
Continuous
 62
     7
370
    25
100
AcDbLine
 10
57.2797013323
 20
74.7865832255
 30
0.0
 11
57.2797013323
 21
61.2865832255
 31
0.0
  0
SPLINE
  5
127
330
1F
100
AcDbEntity
  8
0
  6
Continuous
 62
     7
370
    25
100
AcDbSpline
210
0.0
220
0.0
230
1.0
 70
     8
 71
     3
 72
     8
 73
     4
 74
     0
 42
0.000000001
 43
0.00000001
 40
0.0
 40
0.0
 40
0.0
 40
0.0
 40
1.0
 40
1.0
 40
1.0
 40
1.0
 10
54.36008609002114
 20
68.03658322549617
 30
0.0
 10
54.33155227518305
 20
67.85213774691522
 30
0.0
 10
54.30468735337626
 20
67.66754933505499
 30
0.0
 10
54.27970133229181
 20
67.48280000368908
 30
0.0
  0
LINE
  5
128
330
1F
100
AcDbEntity
  8
0
  6
Continuous
 62
     7
370
    25
100
AcDbLine
 10
54.2797013323
 20
67.4828000037
 30
0.0
 11
54.2797013323
 21
68.5903664473
 31
0.0
  0
SPLINE
  5
129
330
1F
100
AcDbEntity
  8
0
  6
Continuous
 62
     7
370
    25
100
AcDbSpline
210
0.0
220
0.0
230
1.0
 70
     8
 71
     3
 72
     8
 73
     4
 74
     0
 42
0.000000001
 43
0.00000001
 40
0.0
 40
0.0
 40
0.0
 40
0.0
 40
1.0
 40
1.0
 40
1.0
 40
1.0
 10
54.27970133229181
 20
67.48280000368909
 30
0.0
 10
54.25470091936911
 20
67.66765574985726
 30
0.0
 10
54.22783460790888
 20
67.85223976008103
 30
0.0
 10
54.19931657456247
 20
68.03658322549617
 30
0.0
  0
LINE
  5
12A
330
1F
100
AcDbEntity
  8
0
  6
Continuous
 62
     7
370
    25
100
AcDbLine
 10
54.1993165746
 20
61.0365832255
 30
0.0
 11
52.0492536819
 21
61.0365832255
 31
0.0
  0
LINE
  5
12B
330
1F
100
AcDbEntity
  8
0
  6
Continuous
 62
     7
370
    25
100
AcDbLine
 10
56.5101489827
 20
61.0365832255
 30
0.0
 11
54.36008609
 21
61.0365832255
 31
0.0
  0
SPLINE
  5
12C
330
1F
100
AcDbEntity
  8
0
  6
Continuous
 62
     7
370
    25
100
AcDbSpline
210
0.0
220
0.0
230
1.0
 70
     8
 71
     3
 72
     8
 73
     4
 74
     0
 42
0.000000001
 43
0.00000001
 40
0.0
 40
0.0
 40
0.0
 40
0.0
 40
1.0
 40
1.0
 40
1.0
 40
1.0
 10
54.27970133229181
 20
61.59036644730327
 30
0.0
 10
54.3047017452145
 20
61.40551070113509
 30
0.0
 10
54.33156805667472
 20
61.22092669091132
 30
0.0
 10
54.36008609002114
 20
61.03658322549617
 30
0.0
  0
SPLINE
  5
12D
330
1F
100
AcDbEntity
  8
0
  6
Continuous
 62
     7
370
    25
100
AcDbSpline
210
0.0
220
0.0
230
1.0
 70
     8
 71
     3
 72
     8
 73
     4
 74
     0
 42
0.000000001
 43
0.00000001
 40
0.0
 40
0.0
 40
0.0
 40
0.0
 40
1.0
 40
1.0
 40
1.0
 40
1.0
 10
54.19931657456247
 20
61.03658322549617
 30
0.0
 10
54.22785038940056
 20
61.22102870407714
 30
0.0
 10
54.25471531120735
 20
61.40561711593737
 30
0.0
 10
54.27970133229181
 20
61.59036644730327
 30
0.0
  0
LINE
  5
12E
330
1F
100
AcDbEntity
  8
0
  6
Continuous
 62
     7
370
    25
100
AcDbLine
 10
42.3684889861
 20
74.4925453397
 30
0.0
 11
42.3684889861
 21
61.5806211113
 31
0.0
  0
LINE
  5
12F
330
1F
100
AcDbEntity
  8
0
  6
Continuous
 62
     7
370
    25
100
AcDbLine
 10
40.2797013323
 20
62.7865832255
 30
0.0
 11
40.2797013323
 21
73.2865832255
 31
0.0
  0
LINE
  5
130
330
1F
100
AcDbEntity
  8
0
  6
Continuous
 62
     7
370
    25
100
AcDbLine
 10
65.7797013323
 20
68.0365832255
 30
0.0
 11
65.7797013323
 21
63.5365832255
 31
0.0
  0
LINE
  5
131
330
1F
100
AcDbEntity
  8
0
  6
Continuous
 62
     7
370
    25
100
AcDbLine
 10
65.7797013323
 20
72.5365832255
 30
0.0
 11
65.7797013323
 21
68.0365832255
 31
0.0
  0
LINE
  5
132
330
1F
100
AcDbEntity
  8
0
  6
Continuous
 62
     7
370
    25
100
AcDbLine
 10
74.7797013323
 20
68.0365832255
 30
0.0
 11
74.7797013323
 21
63.5365832255
 31
0.0
  0
LINE
  5
133
330
1F
100
AcDbEntity
  8
0
  6
Continuous
 62
     7
370
    25
100
AcDbLine
 10
74.7797013323
 20
72.5365832255
 30
0.0
 11
74.7797013323
 21
68.0365832255
 31
0.0
  0
LINE
  5
134
330
1F
100
AcDbEntity
  8
0
  6
Continuous
 62
     7
370
    25
100
AcDbLine
 10
61.2797013323
 20
68.0365832255
 30
0.0
 11
61.2797013323
 21
63.5365832255
 31
0.0
  0
LINE
  5
135
330
1F
100
AcDbEntity
  8
0
  6
Continuous
 62
     7
370
    25
100
AcDbLine
 10
61.2797013323
 20
72.5365832255
 30
0.0
 11
61.2797013323
 21
68.0365832255
 31
0.0
  0
LINE
  5
136
330
1F
100
AcDbEntity
  8
0
  6
Continuous
 62
     7
370
    25
100
AcDbLine
 10
70.2797013323
 20
68.0365832255
 30
0.0
 11
70.2797013323
 21
63.5365832255
 31
0.0
  0
LINE
  5
137
330
1F
100
AcDbEntity
  8
0
  6
Continuous
 62
     7
370
    25
100
AcDbLine
 10
70.2797013323
 20
72.5365832255
 30
0.0
 11
70.2797013323
 21
68.0365832255
 31
0.0
  0
SPLINE
  5
138
330
1F
100
AcDbEntity
  8
0
  6
Continuous
 62
     7
370
    25
100
AcDbSpline
210
0.0
220
0.0
230
1.0
 70
    24
 71
     3
 72
     8
 73
     4
 74
     0
 42
0.000000001
 43
0.00000001
 40
0.0
 40
0.0
 40
0.0
 40
0.0
 40
1.0
 40
1.0
 40
1.0
 40
1.0
 10
54.19931657456247
 20
75.03658322549619
 30
0.0
 10
54.22785270487811
 20
75.03658322549619
 30
0.0
 10
54.25471742006152
 20
75.03658322549619
 30
0.0
 10
54.27970133229181
 20
75.03658322549619
 30
0.0
  0
LINE
  5
139
330
1F
100
AcDbEntity
  8
0
  6
Continuous
 62
     7
370
    25
100
AcDbLine
 10
54.2797013323
 20
74.4828000037
 30
0.0
 11
54.2797013323
 21
75.0365832255
 31
0.0
  0
SPLINE
  5
13A
330
1F
100
AcDbEntity
  8
0
  6
Continuous
 62
     7
370
    25
100
AcDbSpline
210
0.0
220
0.0
230
1.0
 70
    24
 71
     3
 72
     8
 73
     4
 74
     0
 42
0.000000001
 43
0.00000001
 40
0.0
 40
0.0
 40
0.0
 40
0.0
 40
1.0
 40
1.0
 40
1.0
 40
1.0
 10
54.27970133229181
 20
75.03658322549619
 30
0.0
 10
54.30470100428602
 20
75.03658322549619
 30
0.0
 10
54.33156724507302
 20
75.03658322549619
 30
0.0
 10
54.36008609002114
 20
75.03658322549619
 30
0.0
  0
SPLINE
  5
13B
330
1F
100
AcDbEntity
  8
0
  6
Continuous
 62
     7
370
    25
100
AcDbSpline
210
0.0
220
0.0
230
1.0
 70
    24
 71
     3
 72
     8
 73
     4
 74
     0
 42
0.000000001
 43
0.00000001
 40
0.0
 40
0.0
 40
0.0
 40
0.0
 40
1.0
 40
1.0
 40
1.0
 40
1.0
 10
54.27970133229181
 20
61.03658322549617
 30
0.0
 10
54.25470166029758
 20
61.03658322549617
 30
0.0
 10
54.22783541951059
 20
61.03658322549617
 30
0.0
 10
54.19931657456247
 20
61.03658322549617
 30
0.0
  0
LINE
  5
13C
330
1F
100
AcDbEntity
  8
0
  6
Continuous
 62
     7
370
    25
100
AcDbLine
 10
54.2797013323
 20
61.0365832255
 30
0.0
 11
54.2797013323
 21
61.5903664473
 31
0.0
  0
SPLINE
  5
13D
330
1F
100
AcDbEntity
  8
0
  6
Continuous
 62
     7
370
    25
100
AcDbSpline
210
0.0
220
0.0
230
1.0
 70
    24
 71
     3
 72
     8
 73
     4
 74
     0
 42
0.000000001
 43
0.00000001
 40
0.0
 40
0.0
 40
0.0
 40
0.0
 40
1.0
 40
1.0
 40
1.0
 40
1.0
 10
54.36008609002114
 20
61.03658322549617
 30
0.0
 10
54.3315499597055
 20
61.03658322549617
 30
0.0
 10
54.30468524452208
 20
61.03658322549617
 30
0.0
 10
54.27970133229181
 20
61.03658322549617
 30
0.0
  0
LINE
  5
13E
330
1F
100
AcDbEntity
  8
0
  6
Continuous
 62
     7
370
    25
100
AcDbLine
 10
80.2797013323
 20
68.0365832255
 30
0.0
 11
80.2797013323
 21
64.7230287553
 31
0.0
  0
LINE
  5
13F
330
1F
100
AcDbEntity
  8
0
  6
Continuous
 62
     7
370
    25
100
AcDbLine
 10
80.2797013323
 20
71.3501376957
 30
0.0
 11
80.2797013323
 21
68.0365832255
 31
0.0
  0
LINE
  5
140
330
1F
100
AcDbEntity
  8
0
  6
Continuous
 62
     8
370
    25
100
AcDbLine
 10
79.8472579347
 20
68.0365832255
 30
0.0
 11
79.8472579347
 21
71.8455527797
 31
0.0
  0
LINE
  5
141
330
1F
100
AcDbEntity
  8
0
  6
Continuous
 62
     8
370
    25
100
AcDbLine
 10
79.8472579347
 20
64.2276136713
 30
0.0
 11
79.8472579347
 21
68.0365832255
 31
0.0
  0
LINE
  5
142
330
1F
100
AcDbEntity
  8
0
  6
Continuous
 62
     7
370
    18
100
AcDbLine
 10
41.1449270549
 20
73.7861215293
 30
0.0
 11
50.7797013323
 21
74.0872082255
 31
0.0
  0
LINE
  5
143
330
1F
100
AcDbEntity
  8
0
  6
Continuous
 62
     7
370
    18
100
AcDbLine
 10
41.1449270549
 20
62.2870449217
 30
0.0
 11
50.7797013323
 21
61.9859582255
 31
0.0
  0
LINE
  5
144
330
1F
100
AcDbEntity
  8
0
  6
Continuous
 62
     7
370
    18
100
AcDbLine
 10
50.7797013323
 20
61.3177707255
 30
0.0
 11
50.7797013323
 21
74.7553957255
 31
0.0
  0
LINE
  5
145
330
1F
100
AcDbEntity
  8
0
  6
CENTERX2
 62
     7
370
    18
100
AcDbLine
 10
81.2797013323
 20
68.0365832255
 30
0.0
 11
39.2368572561
 21
68.0365832255
 31
0.0
  0
ENDSEC
  0
SECTION
  2
OBJECTS
  0
DICTIONARY
  5
C
330
0
100
AcDbDictionary
281
     1
  3
ACAD_GROUP
350
D
  3
ACAD_LAYOUT
350
1A
  3
ACAD_MLINESTYLE
350
17
  3
ACAD_PLOTSETTINGS
350
19
  3
ACAD_PLOTSTYLENAME
350
E
  3
ACAD_SCALELIST
350
47
  0
DICTIONARY
  5
D
102
{ACAD_REACTORS
330
C
102
}
330
C
100
AcDbDictionary
281
     1
  0
DICTIONARY
  5
1A
102
{ACAD_REACTORS
330
C
102
}
330
C
100
AcDbDictionary
281
     1
  3
Layout1
350
1E
  3
Layout2
350
26
  3
Model
350
22
  0
DICTIONARY
  5
17
102
{ACAD_REACTORS
330
C
102
}
330
C
100
AcDbDictionary
281
     1
  3
Standard
350
18
  0
DICTIONARY
  5
19
102
{ACAD_REACTORS
330
C
102
}
330
C
100
AcDbDictionary
281
     1
  0
ACDBDICTIONARYWDFLT
  5
E
102
{ACAD_REACTORS
330
C
102
}
330
C
100
AcDbDictionary
281
     1
  3
Normal
350
F
100
AcDbDictionaryWithDefault
340
F
  0
DICTIONARY
  5
47
102
{ACAD_REACTORS
330
C
102
}
330
C
100
AcDbDictionary
281
     1
  3
A0
350
48
  3
A1
350
49
  3
A2
350
4A
  3
A3
350
4B
  3
A4
350
4C
  3
A5
350
4D
  3
A6
350
4E
  3
A7
350
4F
  3
A8
350
50
  3
A9
350
51
  3
B0
350
52
  3
B1
350
53
  3
B2
350
54
  3
B3
350
55
  3
B4
350
56
  3
B5
350
57
  3
B6
350
58
  3
B7
350
59
  3
B8
350
5A
  3
B9
350
5B
  3
C0
350
5C
  3
C1
350
5D
  3
C2
350
5E
  3
C3
350
5F
  3
C4
350
60
  3
C5
350
61
  3
C6
350
62
  3
C7
350
63
  3
C8
350
64
  3
C9
350
65
  3
D0
350
66
  3
D1
350
67
  3
D2
350
68
  0
LAYOUT
  5
1E
102
{ACAD_REACTORS
330
1A
102
}
330
1A
100
AcDbPlotSettings
  1

  2
none_device
  4

  6

 40
0.0
 41
0.0
 42
0.0
 43
0.0
 44
0.0
 45
0.0
 46
0.0
 47
0.0
 48
0.0
 49
0.0
140
0.0
141
0.0
142
1.0
143
1.0
 70
   688
 72
     1
 73
     0
 74
     5
  7

 75
    16
147
1.0
148
0.0
149
0.0
100
AcDbLayout
  1
Layout1
 70
     1
 71
     1
 10
0.0
 20
0.0
 11
420.0
 21
297.0
 12
0.0
 22
0.0
 32
0.0
 14
1.0000000000E+20
 24
1.0000000000E+20
 34
1.0000000000E+20
 15
-1.0000000000E+20
 25
-1.0000000000E+20
 35
-1.0000000000E+20
146
0.0
 13
0.0
 23
0.0
 33
0.0
 16
1.0
 26
0.0
 36
0.0
 17
0.0
 27
1.0
 37
0.0
 76
     0
330
1B
  0
LAYOUT
  5
26
102
{ACAD_REACTORS
330
1A
102
}
330
1A
100
AcDbPlotSettings
  1

  2
none_device
  4

  6

 40
0.0
 41
0.0
 42
0.0
 43
0.0
 44
0.0
 45
0.0
 46
0.0
 47
0.0
 48
0.0
 49
0.0
140
0.0
141
0.0
142
1.0
143
1.0
 70
   688
 72
     1
 73
     0
 74
     5
  7

 75
    16
147
1.0
148
0.0
149
0.0
100
AcDbLayout
  1
Layout2
 70
     1
 71
     2
 10
0.0
 20
0.0
 11
0.0
 21
0.0
 12
0.0
 22
0.0
 32
0.0
 14
0.0
 24
0.0
 34
0.0
 15
0.0
 25
0.0
 35
0.0
146
0.0
 13
0.0
 23
0.0
 33
0.0
 16
1.0
 26
0.0
 36
0.0
 17
0.0
 27
1.0
 37
0.0
 76
     0
330
23
  0
LAYOUT
  5
22
102
{ACAD_REACTORS
330
1A
102
}
330
1A
100
AcDbPlotSettings
  1

  2
none_device
  4
Letter_(8.50_x_11.00_Inches)
  6

 40
6.35
 41
6.35
 42
6.35000508
 43
6.35000508
 44
215.9
 45
279.4
 46
0.0
 47
0.0
 48
0.0
 49
0.0
140
0.0
141
0.0
142
1.0
143
1.0
 70
  1712
 72
     1
 73
     0
 74
     0
  7

 75
     0
147
1.0
148
0.0
149
0.0
100
AcDbLayout
  1
Model
 70
     1
 71
     0
 10
0.0
 20
0.0
 11
215.9
 21
139.7
 12
0.0
 22
0.0
 32
0.0
 14
0.0
 24
0.0
 34
0.0
 15
215.9
 25
139.7
 35
0.0
146
0.0
 13
0.0
 23
0.0
 33
0.0
 16
1.0
 26
0.0
 36
0.0
 17
0.0
 27
1.0
 37
0.0
 76
     0
330
1F
331
29
  0
MLINESTYLE
  5
18
102
{ACAD_REACTORS
330
17
102
}
330
17
100
AcDbMlineStyle
  2
Standard
 70
     0
  3

 62
   256
 51
90.0
 52
90.0
 71
     2
 49
0.5
 62
   256
  6
BYLAYER
 49
-0.5
 62
   256
  6
BYLAYER
  0
ACDBPLACEHOLDER
  5
F
102
{ACAD_REACTORS
330
E
102
}
330
E
  0
SCALE
  5
48
102
{ACAD_REACTORS
330
47
102
}
330
47
100
AcDbScale
 70
     0
300
1:1
140
1.0
141
1.0
290
     1
  0
SCALE
  5
49
102
{ACAD_REACTORS
330
47
102
}
330
47
100
AcDbScale
 70
     0
300
1:2
140
1.0
141
2.0
290
     0
  0
SCALE
  5
4A
102
{ACAD_REACTORS
330
47
102
}
330
47
100
AcDbScale
 70
     0
300
1:4
140
1.0
141
4.0
290
     0
  0
SCALE
  5
4B
102
{ACAD_REACTORS
330
47
102
}
330
47
100
AcDbScale
 70
     0
300
1:5
140
1.0
141
5.0
290
     0
  0
SCALE
  5
4C
102
{ACAD_REACTORS
330
47
102
}
330
47
100
AcDbScale
 70
     0
300
1:8
140
1.0
141
8.0
290
     0
  0
SCALE
  5
4D
102
{ACAD_REACTORS
330
47
102
}
330
47
100
AcDbScale
 70
     0
300
1:10
140
1.0
141
10.0
290
     0
  0
SCALE
  5
4E
102
{ACAD_REACTORS
330
47
102
}
330
47
100
AcDbScale
 70
     0
300
1:16
140
1.0
141
16.0
290
     0
  0
SCALE
  5
4F
102
{ACAD_REACTORS
330
47
102
}
330
47
100
AcDbScale
 70
     0
300
1:20
140
1.0
141
20.0
290
     0
  0
SCALE
  5
50
102
{ACAD_REACTORS
330
47
102
}
330
47
100
AcDbScale
 70
     0
300
1:30
140
1.0
141
30.0
290
     0
  0
SCALE
  5
51
102
{ACAD_REACTORS
330
47
102
}
330
47
100
AcDbScale
 70
     0
300
1:40
140
1.0
141
40.0
290
     0
  0
SCALE
  5
52
102
{ACAD_REACTORS
330
47
102
}
330
47
100
AcDbScale
 70
     0
300
1:50
140
1.0
141
50.0
290
     0
  0
SCALE
  5
53
102
{ACAD_REACTORS
330
47
102
}
330
47
100
AcDbScale
 70
     0
300
1:100
140
1.0
141
100.0
290
     0
  0
SCALE
  5
54
102
{ACAD_REACTORS
330
47
102
}
330
47
100
AcDbScale
 70
     0
300
2:1
140
2.0
141
1.0
290
     0
  0
SCALE
  5
55
102
{ACAD_REACTORS
330
47
102
}
330
47
100
AcDbScale
 70
     0
300
4:1
140
4.0
141
1.0
290
     0
  0
SCALE
  5
56
102
{ACAD_REACTORS
330
47
102
}
330
47
100
AcDbScale
 70
     0
300
8:1
140
8.0
141
1.0
290
     0
  0
SCALE
  5
57
102
{ACAD_REACTORS
330
47
102
}
330
47
100
AcDbScale
 70
     0
300
10:1
140
10.0
141
1.0
290
     0
  0
SCALE
  5
58
102
{ACAD_REACTORS
330
47
102
}
330
47
100
AcDbScale
 70
     0
300
100:1
140
100.0
141
1.0
290
     0
  0
SCALE
  5
59
102
{ACAD_REACTORS
330
47
102
}
330
47
100
AcDbScale
 70
     0
300
1/128" = 1'-0"
140
0.0078125
141
12.0
290
     0
  0
SCALE
  5
5A
102
{ACAD_REACTORS
330
47
102
}
330
47
100
AcDbScale
 70
     0
300
1/64" = 1'-0"
140
0.015625
141
12.0
290
     0
  0
SCALE
  5
5B
102
{ACAD_REACTORS
330
47
102
}
330
47
100
AcDbScale
 70
     0
300
1/32" = 1'-0"
140
0.03125
141
12.0
290
     0
  0
SCALE
  5
5C
102
{ACAD_REACTORS
330
47
102
}
330
47
100
AcDbScale
 70
     0
300
1/16" = 1'-0"
140
0.0625
141
12.0
290
     0
  0
SCALE
  5
5D
102
{ACAD_REACTORS
330
47
102
}
330
47
100
AcDbScale
 70
     0
300
3/32" = 1'-0"
140
0.09375
141
12.0
290
     0
  0
SCALE
  5
5E
102
{ACAD_REACTORS
330
47
102
}
330
47
100
AcDbScale
 70
     0
300
1/8" = 1'-0"
140
0.125
141
12.0
290
     0
  0
SCALE
  5
5F
102
{ACAD_REACTORS
330
47
102
}
330
47
100
AcDbScale
 70
     0
300
3/16" = 1'-0"
140
0.1875
141
12.0
290
     0
  0
SCALE
  5
60
102
{ACAD_REACTORS
330
47
102
}
330
47
100
AcDbScale
 70
     0
300
1/4" = 1'-0"
140
0.25
141
12.0
290
     0
  0
SCALE
  5
61
102
{ACAD_REACTORS
330
47
102
}
330
47
100
AcDbScale
 70
     0
300
3/8" = 1'-0"
140
0.375
141
12.0
290
     0
  0
SCALE
  5
62
102
{ACAD_REACTORS
330
47
102
}
330
47
100
AcDbScale
 70
     0
300
1/2" = 1'-0"
140
0.5
141
12.0
290
     0
  0
SCALE
  5
63
102
{ACAD_REACTORS
330
47
102
}
330
47
100
AcDbScale
 70
     0
300
3/4" = 1'-0"
140
0.75
141
12.0
290
     0
  0
SCALE
  5
64
102
{ACAD_REACTORS
330
47
102
}
330
47
100
AcDbScale
 70
     0
300
1" = 1'-0"
140
1.0
141
12.0
290
     0
  0
SCALE
  5
65
102
{ACAD_REACTORS
330
47
102
}
330
47
100
AcDbScale
 70
     0
300
1-1/2" = 1'-0"
140
1.5
141
12.0
290
     0
  0
SCALE
  5
66
102
{ACAD_REACTORS
330
47
102
}
330
47
100
AcDbScale
 70
     0
300
3" = 1'-0"
140
3.0
141
12.0
290
     0
  0
SCALE
  5
67
102
{ACAD_REACTORS
330
47
102
}
330
47
100
AcDbScale
 70
     0
300
6" = 1'-0"
140
6.0
141
12.0
290
     0
  0
SCALE
  5
68
102
{ACAD_REACTORS
330
47
102
}
330
47
100
AcDbScale
 70
     0
300
1'-0" = 1'-0"
140
12.0
141
12.0
290
     0
  0
ENDSEC
  0
EOF
