  0
SECTION
  2
HEADER
  9
$ACADVER
  1
AC1015
  9
$ACADMAINTVER
 70
     6
  9
$DWGCODEPAGE
  3
DOS932
  9
$INSBASE
 10
0.0
 20
0.0
 30
0.0
  9
$EXTMIN
 10
0.0
 20
0.0
 30
0.0
  9
$EXTMAX
 10
215.9
 20
139.7
 30
0.0
  9
$LIMMIN
 10
0.0
 20
0.0
  9
$LIMMAX
 10
215.9
 20
139.7
  9
$ORTHOMODE
 70
     0
  9
$REGENMODE
 70
     1
  9
$FILLMODE
 70
     1
  9
$QTEXTMODE
 70
     0
  9
$MIRRTEXT
 70
     1
  9
$LTSCALE
 40
0.5
  9
$ATTMODE
 70
     1
  9
$TEXTSIZE
 40
1.75
  9
$TRACEWID
 40
1.0
  9
$TEXTSTYLE
  7
Standard
  9
$CLAYER
  8
0
  9
$CELTYPE
  6
ByLayer
  9
$CECOLOR
 62
   256
  9
$CELTSCALE
 40
1.0
  9
$DISPSILH
 70
     0
  9
$DIMSCALE
 40
1.0
  9
$DIMASZ
 40
1.651
  9
$DIMEXO
 40
0.5
  9
$DIMDLI
 40
3.75
  9
$DIMRND
 40
0.0
  9
$DIMDLE
 40
0.0
  9
$DIMEXE
 40
0.5
  9
$DIMTP
 40
0.0
  9
$DIMTM
 40
0.0
  9
$DIMTXT
 40
1.75
  9
$DIMCEN
 40
2.5
  9
$DIMTSZ
 40
0.0
  9
$DIMTOL
 70
     0
  9
$DIMLIM
 70
     0
  9
$DIMTIH
 70
     1
  9
$DIMTOH
 70
     1
  9
$DIMSE1
 70
     0
  9
$DIMSE2
 70
     0
  9
$DIMTAD
 70
     1
  9
$DIMZIN
 70
     1
  9
$DIMBLK
  1

  9
$DIMASO
 70
     1
  9
$DIMSHO
 70
     1
  9
$DIMPOST
  1

  9
$DIMAPOST
  1

  9
$DIMALT
 70
     0
  9
$DIMALTD
 70
     3
  9
$DIMALTF
 40
0.0393700787
  9
$DIMLFAC
 40
1.0
  9
$DIMTOFL
 70
     1
  9
$DIMTVP
 40
0.0
  9
$DIMTIX
 70
     0
  9
$DIMSOXD
 70
     0
  9
$DIMSAH
 70
     0
  9
$DIMBLK1
  1

  9
$DIMBLK2
  1

  9
$DIMSTYLE
  2
ISO-25
  9
$DIMCLRD
 70
     0
  9
$DIMCLRE
 70
     0
  9
$DIMCLRT
 70
     0
  9
$DIMTFAC
 40
1.0
  9
$DIMGAP
 40
0.762
  9
$DIMJUST
 70
     0
  9
$DIMSD1
 70
     0
  9
$DIMSD2
 70
     0
  9
$DIMTOLJ
 70
     0
  9
$DIMTZIN
 70
     1
  9
$DIMALTZ
 70
     0
  9
$DIMALTTZ
 70
     0
  9
$DIMUPT
 70
     0
  9
$DIMDEC
 70
     2
  9
$DIMTDEC
 70
     2
  9
$DIMALTU
 70
     2
  9
$DIMALTTD
 70
     3
  9
$DIMTXSTY
  7
Standard
  9
$DIMAUNIT
 70
     0
  9
$DIMADEC
 70
     2
  9
$DIMALTRND
 40
0.0
  9
$DIMAZIN
 70
     0
  9
$DIMDSEP
 70
    44
  9
$DIMATFIT
 70
     3
  9
$DIMFRAC
 70
     0
  9
$DIMLDRBLK
  1

  9
$DIMLUNIT
 70
     2
  9
$DIMLWD
 70
    -2
  9
$DIMLWE
 70
    -2
  9
$DIMTMOVE
 70
     0
  9
$LUNITS
 70
     2
  9
$LUPREC
 70
     2
  9
$SKETCHINC
 40
1.0
  9
$FILLETRAD
 40
10.0
  9
$AUNITS
 70
     0
  9
$AUPREC
 70
     2
  9
$MENU
  1
.
  9
$ELEVATION
 40
0.0
  9
$PELEVATION
 40
0.0
  9
$THICKNESS
 40
0.0
  9
$LIMCHECK
 70
     0
  9
$CHAMFERA
 40
0.0
  9
$CHAMFERB
 40
0.0
  9
$CHAMFERC
 40
0.0
  9
$CHAMFERD
 40
0.0
  9
$SKPOLY
 70
     0
  9
$TDCREATE
 40
2460081.681240648
  9
$TDUCREATE
 40
2460081.306240648
  9
$TDUPDATE
 40
2460081.681241192
  9
$TDUUPDATE
 40
2460081.306241192
  9
$TDINDWG
 40
0.0000000116
  9
$TDUSRTIMER
 40
0.0000000116
  9
$USRTIMER
 70
     1
  9
$ANGBASE
 50
0.0
  9
$ANGDIR
 70
     0
  9
$PDMODE
 70
     0
  9
$PDSIZE
 40
-1.0
  9
$PLINEWID
 40
0.0
  9
$SPLFRAME
 70
     0
  9
$SPLINETYPE
 70
     6
  9
$SPLINESEGS
 70
     8
  9
$HANDSEED
  5
146
  9
$SURFTAB1
 70
     6
  9
$SURFTAB2
 70
     6
  9
$SURFTYPE
 70
     6
  9
$SURFU
 70
     6
  9
$SURFV
 70
     6
  9
$UCSBASE
  2

  9
$UCSNAME
  2

  9
$UCSORG
 10
0.0
 20
0.0
 30
0.0
  9
$UCSXDIR
 10
1.0
 20
0.0
 30
0.0
  9
$UCSYDIR
 10
0.0
 20
1.0
 30
0.0
  9
$UCSORTHOREF
  2

  9
$UCSORTHOVIEW
 70
     0
  9
$UCSORGTOP
 10
0.0
 20
0.0
 30
0.0
  9
$UCSORGBOTTOM
 10
0.0
 20
0.0
 30
0.0
  9
$UCSORGLEFT
 10
0.0
 20
0.0
 30
0.0
  9
$UCSORGRIGHT
 10
0.0
 20
0.0
 30
0.0
  9
$UCSORGFRONT
 10
0.0
 20
0.0
 30
0.0
  9
$UCSORGBACK
 10
0.0
 20
0.0
 30
0.0
  9
$PUCSBASE
  2

  9
$PUCSNAME
  2

  9
$PUCSORG
 10
0.0
 20
0.0
 30
0.0
  9
$PUCSXDIR
 10
1.0
 20
0.0
 30
0.0
  9
$PUCSYDIR
 10
0.0
 20
1.0
 30
0.0
  9
$PUCSORTHOREF
  2

  9
$PUCSORTHOVIEW
 70
     0
  9
$PUCSORGTOP
 10
0.0
 20
0.0
 30
0.0
  9
$PUCSORGBOTTOM
 10
0.0
 20
0.0
 30
0.0
  9
$PUCSORGLEFT
 10
0.0
 20
0.0
 30
0.0
  9
$PUCSORGRIGHT
 10
0.0
 20
0.0
 30
0.0
  9
$PUCSORGFRONT
 10
0.0
 20
0.0
 30
0.0
  9
$PUCSORGBACK
 10
0.0
 20
0.0
 30
0.0
  9
$USERI1
 70
     0
  9
$USERI2
 70
     0
  9
$USERI3
 70
     0
  9
$USERI4
 70
     0
  9
$USERI5
 70
     0
  9
$USERR1
 40
0.0
  9
$USERR2
 40
0.0
  9
$USERR3
 40
0.0
  9
$USERR4
 40
0.0
  9
$USERR5
 40
0.0
  9
$WORLDVIEW
 70
     1
  9
$SHADEDGE
 70
     3
  9
$SHADEDIF
 70
    70
  9
$TILEMODE
 70
     1
  9
$MAXACTVP
 70
    64
  9
$PINSBASE
 10
0.0
 20
0.0
 30
0.0
  9
$PLIMCHECK
 70
     0
  9
$PEXTMIN
 10
1.0000000000E+20
 20
1.0000000000E+20
 30
1.0000000000E+20
  9
$PEXTMAX
 10
-1.0000000000E+20
 20
-1.0000000000E+20
 30
-1.0000000000E+20
  9
$PLIMMIN
 10
0.0
 20
0.0
  9
$PLIMMAX
 10
420.0
 20
297.0
  9
$UNITMODE
 70
     0
  9
$VISRETAIN
 70
     1
  9
$PLINEGEN
 70
     0
  9
$PSLTSCALE
 70
     1
  9
$TREEDEPTH
 70
  3020
  9
$CMLSTYLE
  2
Standard
  9
$CMLJUST
 70
     0
  9
$CMLSCALE
 40
20.0
  9
$PROXYGRAPHICS
 70
     1
  9
$MEASUREMENT
 70
     1
  9
$CELWEIGHT
370
    -1
  9
$ENDCAPS
280
     0
  9
$JOINSTYLE
280
     0
  9
$LWDISPLAY
290
     1
  9
$INSUNITS
 70
     4
  9
$HYPERLINKBASE
  1

  9
$STYLESHEET
  1

  9
$XEDIT
290
     1
  9
$CEPSNTYPE
380
     0
  9
$PSTYLEMODE
290
     1
  9
$FINGERPRINTGUID
  2
{51DE8452-5EF8-4D32-9E2E-8231D4DE20F5}
  9
$VERSIONGUID
  2
{FAEB1C32-E019-11D5-929B-00C0DF256EC4}
  9
$EXTNAMES
290
     1
  9
$PSVPSCALE
 40
0.0
  9
$OLESTARTUP
290
     0
  0
ENDSEC
  0
SECTION
  2
CLASSES
  0
CLASS
  1
ACDBDICTIONARYWDFLT
  2
AcDbDictionaryWithDefault
  3
ObjectDBX Classes
 90
        0
280
     0
281
     0
  0
CLASS
  1
VISUALSTYLE
  2
AcDbVisualStyle
  3
ObjectDBX Classes
 90
     4095
280
     0
281
     0
  0
CLASS
  1
MATERIAL
  2
AcDbMaterial
  3
ObjectDBX Classes
 90
     1153
280
     0
281
     0
  0
CLASS
  1
SCALE
  2
AcDbScale
  3
ObjectDBX Classes
 90
     1153
280
     0
281
     0
  0
CLASS
  1
TABLESTYLE
  2
AcDbTableStyle
  3
ObjectDBX Classes
 90
     4095
280
     0
281
     0
  0
CLASS
  1
MLEADERSTYLE
  2
AcDbMLeaderStyle
  3
ACDB_MLEADERSTYLE_CLASS
 90
     4095
280
     0
281
     0
  0
CLASS
  1
SUN
  2
AcDbSun
  3
SCENEOE
 90
     1153
280
     0
281
     0
  0
CLASS
  1
ACDBPLACEHOLDER
  2
AcDbPlaceHolder
  3
ObjectDBX Classes
 90
        0
280
     0
281
     0
  0
CLASS
  1
LAYOUT
  2
AcDbLayout
  3
ObjectDBX Classes
 90
        0
280
     0
281
     0
  0
ENDSEC
  0
SECTION
  2
TABLES
  0
TABLE
  2
VPORT
  5
8
330
0
100
AcDbSymbolTable
 70
     1
  0
VPORT
  5
29
330
8
100
AcDbSymbolTableRecord
100
AcDbViewportTableRecord
  2
*Active
 70
     0
 10
0.0
 20
0.0
 11
1.0
 21
1.0
 12
107.95
 22
69.85
 13
0.0
 23
0.0
 14
10.0
 24
10.0
 15
10.0
 25
10.0
 16
0.0
 26
0.0
 36
1.0
 17
0.0
 27
0.0
 37
0.0
 40
139.7
 41
1.5454545455
 42
50.0
 43
0.0
 44
0.0
 50
0.0
 51
0.0
 71
     0
 72
  2000
 73
     1
 74
     3
 75
     0
 76
     0
 77
     0
 78
     0
281
     0
 65
     1
110
0.0
120
0.0
130
0.0
111
1.0
121
0.0
131
0.0
112
0.0
122
1.0
132
0.0
 79
     0
146
0.0
  0
ENDTAB
  0
TABLE
  2
LTYPE
  5
5
330
0
100
AcDbSymbolTable
 70
     6
  0
LTYPE
  5
14
330
5
100
AcDbSymbolTableRecord
100
AcDbLinetypeTableRecord
  2
ByBlock
 70
     0
  3

 72
    65
 73
     0
 40
0.0
  0
LTYPE
  5
15
330
5
100
AcDbSymbolTableRecord
100
AcDbLinetypeTableRecord
  2
ByLayer
 70
     0
  3

 72
    65
 73
     0
 40
0.0
  0
LTYPE
  5
16
330
5
100
AcDbSymbolTableRecord
100
AcDbLinetypeTableRecord
  2
Continuous
 70
     0
  3
Solid line
 72
    65
 73
     0
 40
0.0
  0
LTYPE
  5
6E
330
5
100
AcDbSymbolTableRecord
100
AcDbLinetypeTableRecord
  2
HIDDEN
 70
     0
  3
Hidden __ __ __ __ __ __ __ __ __ __ __ __ __ __
 72
    65
 73
     2
 40
1.905
 49
1.27
 74
     0
 49
-0.635
 74
     0
  0
LTYPE
  5
6F
330
5
100
AcDbSymbolTableRecord
100
AcDbLinetypeTableRecord
  2
PHANTOM
 70
     0
  3
Phantom ______  __  __  ______  __  __  ______
 72
    65
 73
     6
 40
12.7
 49
6.35
 74
     0
 49
-1.27
 74
     0
 49
1.27
 74
     0
 49
-1.27
 74
     0
 49
1.27
 74
     0
 49
-1.27
 74
     0
  0
LTYPE
  5
70
330
5
100
AcDbSymbolTableRecord
100
AcDbLinetypeTableRecord
  2
CENTER
 70
     0
  3
Center ____ _ ____ _ ____ _ ____ _ ____ _ ____
 72
    65
 73
     4
 40
10.16
 49
6.35
 74
     0
 49
-1.27
 74
     0
 49
1.27
 74
     0
 49
-1.27
 74
     0
  0
LTYPE
  5
71
330
5
100
AcDbSymbolTableRecord
100
AcDbLinetypeTableRecord
  2
CENTERX2
 70
     0
  3
Center (2x) ________  __  ________  __  _____
 72
    65
 73
     4
 40
20.32
 49
12.7
 74
     0
 49
-2.54
 74
     0
 49
2.54
 74
     0
 49
-2.54
 74
     0
  0
LTYPE
  5
72
330
5
100
AcDbSymbolTableRecord
100
AcDbLinetypeTableRecord
  2
DOT2
 70
     0
  3
Dot (.5x) ........................................
 72
    65
 73
     2
 40
0.635
 49
0.0
 74
     0
 49
-0.635
 74
     0
  0
ENDTAB
  0
TABLE
  2
LAYER
  5
2
330
0
100
AcDbSymbolTable
 70
     1
  0
LAYER
  5
10
330
2
100
AcDbSymbolTableRecord
100
AcDbLayerTableRecord
  2
0
 70
     0
 62
     7
  6
Continuous
370
    -3
390
F
  0
ENDTAB
  0
TABLE
  2
STYLE
  5
3
330
0
100
AcDbSymbolTable
 70
     2
  0
STYLE
  5
11
330
3
100
AcDbSymbolTableRecord
100
AcDbTextStyleTableRecord
  2
Standard
 70
     0
 40
0.0
 41
1.0
 50
0.0
 71
     0
 42
1.75
  3
txt
  4
bigfont
  0
STYLE
  5
73
330
3
100
AcDbSymbolTableRecord
100
AcDbTextStyleTableRecord
  2
SLDTEXTSTYLE0
 70
     0
 40
0.0
 41
0.7
 50
0.0
 71
     0
 42
1.75
  3
TXT
  4
bigfont
  0
ENDTAB
  0
TABLE
  2
VIEW
  5
6
330
0
100
AcDbSymbolTable
 70
     0
  0
ENDTAB
  0
TABLE
  2
UCS
  5
7
330
0
100
AcDbSymbolTable
 70
     0
  0
ENDTAB
  0
TABLE
  2
APPID
  5
9
330
0
100
AcDbSymbolTable
 70
     1
  0
APPID
  5
12
330
9
100
AcDbSymbolTableRecord
100
AcDbRegAppTableRecord
  2
ACAD
 70
     0
  0
ENDTAB
  0
TABLE
  2
DIMSTYLE
  5
A
330
0
100
AcDbSymbolTable
 70
     1
100
AcDbDimStyleTable
  0
DIMSTYLE
105
27
330
A
100
AcDbSymbolTableRecord
100
AcDbDimStyleTableRecord
  2
ISO-25
 70
     0
 41
2.5
 42
0.625
 43
3.75
 44
1.25
 73
     0
 74
     0
 77
     1
 78
     8
140
2.5
141
2.5
143
0.0393700787
147
0.625
171
     3
172
     1
178
     0
271
     2
272
     2
274
     3
278
    44
283
     0
284
     8
340
11
  0
ENDTAB
  0
TABLE
  2
BLOCK_RECORD
  5
1
330
0
100
AcDbSymbolTable
 70
     3
  0
BLOCK_RECORD
  5
1F
330
1
100
AcDbSymbolTableRecord
100
AcDbBlockTableRecord
  2
*Model_Space
340
22
  0
BLOCK_RECORD
  5
1B
330
1
100
AcDbSymbolTableRecord
100
AcDbBlockTableRecord
  2
*Paper_Space
340
1E
  0
BLOCK_RECORD
  5
23
330
1
100
AcDbSymbolTableRecord
100
AcDbBlockTableRecord
  2
*Paper_Space0
340
26
  0
BLOCK_RECORD
  5
E9
330
1
100
AcDbSymbolTableRecord
100
AcDbBlockTableRecord
  2
SW_CENTERMARKSYMBOL_0
340
0
102
{BLKREFS
331
F4
102
}
  0
BLOCK_RECORD
  5
F5
330
1
100
AcDbSymbolTableRecord
100
AcDbBlockTableRecord
  2
SW_CENTERMARKSYMBOL_1
340
0
102
{BLKREFS
331
100
102
}
  0
ENDTAB
  0
ENDSEC
  0
SECTION
  2
BLOCKS
  0
BLOCK
  5
20
330
1F
100
AcDbEntity
  8
0
100
AcDbBlockBegin
  2
*Model_Space
 70
     0
 10
0.0
 20
0.0
 30
0.0
  3
*Model_Space
  1

  0
ENDBLK
  5
21
330
1F
100
AcDbEntity
  8
0
100
AcDbBlockEnd
  0
BLOCK
  5
1C
330
1B
100
AcDbEntity
 67
     1
  8
0
100
AcDbBlockBegin
  2
*Paper_Space
 70
     0
 10
0.0
 20
0.0
 30
0.0
  3
*Paper_Space
  1

  0
ENDBLK
  5
1D
330
1B
100
AcDbEntity
 67
     1
  8
0
100
AcDbBlockEnd
  0
BLOCK
  5
24
330
23
100
AcDbEntity
  8
0
100
AcDbBlockBegin
  2
*Paper_Space0
 70
     0
 10
0.0
 20
0.0
 30
0.0
  3
*Paper_Space0
  1

  0
ENDBLK
  5
25
330
23
100
AcDbEntity
  8
0
100
AcDbBlockEnd
  0
BLOCK
  5
EA
330
E9
100
AcDbEntity
  8
0
100
AcDbBlockBegin
  2
SW_CENTERMARKSYMBOL_0
 70
     0
 10
0.0
 20
0.0
 30
0.0
  3
SW_CENTERMARKSYMBOL_0
  1

  0
LINE
  5
EC
330
E9
100
AcDbEntity
  8
0
  6
Continuous
 62
     0
370
    18
100
AcDbLine
 10
0.0
 20
0.0
 30
0.0
 11
0.0
 21
2.5
 31
0.0
  0
LINE
  5
ED
330
E9
100
AcDbEntity
  8
0
  6
Continuous
 62
     0
370
    18
100
AcDbLine
 10
0.0
 20
0.0
 30
0.0
 11
-2.5
 21
0.0
 31
0.0
  0
LINE
  5
EE
330
E9
100
AcDbEntity
  8
0
  6
Continuous
 62
     0
370
    18
100
AcDbLine
 10
0.0
 20
0.0
 30
0.0
 11
0.0
 21
-2.5
 31
0.0
  0
LINE
  5
EF
330
E9
100
AcDbEntity
  8
0
  6
Continuous
 62
     0
370
    18
100
AcDbLine
 10
0.0
 20
0.0
 30
0.0
 11
2.5
 21
0.0
 31
0.0
  0
LINE
  5
F0
330
E9
100
AcDbEntity
  8
0
  6
Continuous
 62
     0
370
    18
100
AcDbLine
 10
0.0
 20
2.5
 30
0.0
 11
0.0
 21
5.0
 31
0.0
  0
LINE
  5
F1
330
E9
100
AcDbEntity
  8
0
  6
Continuous
 62
     0
370
    18
100
AcDbLine
 10
-2.5
 20
0.0
 30
0.0
 11
-5.0
 21
0.0
 31
0.0
  0
LINE
  5
F2
330
E9
100
AcDbEntity
  8
0
  6
Continuous
 62
     0
370
    18
100
AcDbLine
 10
0.0
 20
-2.5
 30
0.0
 11
0.0
 21
-5.0
 31
0.0
  0
LINE
  5
F3
330
E9
100
AcDbEntity
  8
0
  6
Continuous
 62
     0
370
    18
100
AcDbLine
 10
2.5
 20
0.0
 30
0.0
 11
5.0
 21
0.0
 31
0.0
  0
ENDBLK
  5
EB
330
E9
100
AcDbEntity
  8
0
100
AcDbBlockEnd
  0
BLOCK
  5
F6
330
F5
100
AcDbEntity
  8
0
100
AcDbBlockBegin
  2
SW_CENTERMARKSYMBOL_1
 70
     0
 10
0.0
 20
0.0
 30
0.0
  3
SW_CENTERMARKSYMBOL_1
  1

  0
LINE
  5
F8
330
F5
100
AcDbEntity
  8
0
  6
Continuous
 62
     0
370
    18
100
AcDbLine
 10
0.0
 20
0.0
 30
0.0
 11
0.0
 21
2.5
 31
0.0
  0
LINE
  5
F9
330
F5
100
AcDbEntity
  8
0
  6
Continuous
 62
     0
370
    18
100
AcDbLine
 10
0.0
 20
0.0
 30
0.0
 11
-2.5
 21
0.0
 31
0.0
  0
LINE
  5
FA
330
F5
100
AcDbEntity
  8
0
  6
Continuous
 62
     0
370
    18
100
AcDbLine
 10
0.0
 20
0.0
 30
0.0
 11
0.0
 21
-2.5
 31
0.0
  0
LINE
  5
FB
330
F5
100
AcDbEntity
  8
0
  6
Continuous
 62
     0
370
    18
100
AcDbLine
 10
0.0
 20
0.0
 30
0.0
 11
2.5
 21
0.0
 31
0.0
  0
LINE
  5
FC
330
F5
100
AcDbEntity
  8
0
  6
Continuous
 62
     0
370
    18
100
AcDbLine
 10
0.0
 20
5.0
 30
0.0
 11
0.0
 21
9.25
 31
0.0
  0
LINE
  5
FD
330
F5
100
AcDbEntity
  8
0
  6
Continuous
 62
     0
370
    18
100
AcDbLine
 10
-5.0
 20
0.0
 30
0.0
 11
-9.25
 21
0.0
 31
0.0
  0
LINE
  5
FE
330
F5
100
AcDbEntity
  8
0
  6
Continuous
 62
     0
370
    18
100
AcDbLine
 10
0.0
 20
-5.0
 30
0.0
 11
0.0
 21
-9.25
 31
0.0
  0
LINE
  5
FF
330
F5
100
AcDbEntity
  8
0
  6
Continuous
 62
     0
370
    18
100
AcDbLine
 10
5.0
 20
0.0
 30
0.0
 11
9.25
 21
0.0
 31
0.0
  0
ENDBLK
  5
F7
330
F5
100
AcDbEntity
  8
0
100
AcDbBlockEnd
  0
ENDSEC
  0
SECTION
  2
ENTITIES
  0
MTEXT
  5
74
330
1F
100
AcDbEntity
  8
0
  6
Continuous
 62
     7
370
     0
100
AcDbMText
 10
77.3835097328
 20
57.4851419746
 30
0.0
 40
2.1166666667
 41
0.0
 71
     1
 72
     1
  1
エースニップル　HN-8208
  7
SLDTEXTSTYLE0
 73
     1
 44
1.0
  0
LINE
  5
75
330
1F
100
AcDbEntity
  8
0
  6
Continuous
 62
     7
370
    25
100
AcDbLine
 10
55.5684100214
 20
34.8051580716
 30
0.0
 11
56.337962371
 21
36.1380618402
 31
0.0
  0
LINE
  5
76
330
1F
100
AcDbEntity
  8
0
  6
Continuous
 62
     7
370
    25
100
AcDbLine
 10
56.337962371
 20
49.6380618402
 30
0.0
 11
55.5684100214
 21
50.9709656089
 31
0.0
  0
LINE
  5
77
330
1F
100
AcDbEntity
  8
0
  6
Continuous
 62
     7
370
    25
100
AcDbLine
 10
51.1075147207
 20
50.9709656089
 30
0.0
 11
50.337962371
 21
49.6380618402
 31
0.0
  0
LINE
  5
78
330
1F
100
AcDbEntity
  8
0
  6
Continuous
 62
     7
370
    25
100
AcDbLine
 10
50.337962371
 20
36.1380618402
 30
0.0
 11
51.1075147207
 21
34.8051580716
 31
0.0
  0
LINE
  5
79
330
1F
100
AcDbEntity
  8
0
  6
Continuous
 62
     7
370
    25
100
AcDbLine
 10
50.337962371
 20
49.6224993402
 30
0.0
 11
41.4267500248
 21
49.3440239544
 31
0.0
  0
LINE
  5
7A
330
1F
100
AcDbEntity
  8
0
  6
Continuous
 62
     7
370
    25
100
AcDbLine
 10
41.4267500248
 20
36.4320997261
 30
0.0
 11
50.337962371
 21
36.1536243402
 31
0.0
  0
LINE
  5
7B
330
1F
100
AcDbEntity
  8
0
  6
Continuous
 62
     7
370
    25
100
AcDbLine
 10
41.4267500248
 20
49.3440239544
 30
0.0
 11
39.337962371
 21
48.1380618402
 31
0.0
  0
LINE
  5
7C
330
1F
100
AcDbEntity
  8
0
  6
Continuous
 62
     7
370
    25
100
AcDbLine
 10
39.337962371
 20
37.6380618402
 30
0.0
 11
41.4267500248
 21
36.4320997261
 31
0.0
  0
LINE
  5
7D
330
1F
100
AcDbEntity
  8
0
  6
Continuous
 62
     7
370
    25
100
AcDbLine
 10
73.837962371
 20
38.8880618402
 30
0.0
 11
78.8966448934
 21
39.4859061384
 31
0.0
  0
LINE
  5
7E
330
1F
100
AcDbEntity
  8
0
  6
Continuous
 62
     7
370
    25
100
AcDbLine
 10
78.8966448934
 20
46.2902175421
 30
0.0
 11
73.837962371
 21
46.8880618402
 31
0.0
  0
LINE
  5
7F
330
1F
100
AcDbEntity
  8
0
  6
Continuous
 62
     7
370
    25
100
AcDbLine
 10
64.837962371
 20
38.8880618402
 30
0.0
 11
69.337962371
 21
39.5380618402
 31
0.0
  0
LINE
  5
80
330
1F
100
AcDbEntity
  8
0
  6
Continuous
 62
     7
370
    25
100
AcDbLine
 10
69.337962371
 20
46.2380618402
 30
0.0
 11
64.837962371
 21
46.8880618402
 31
0.0
  0
LINE
  5
81
330
1F
100
AcDbEntity
  8
0
  6
Continuous
 62
     7
370
    25
100
AcDbLine
 10
60.337962371
 20
38.8880618402
 30
0.0
 11
64.837962371
 21
39.5380618402
 31
0.0
  0
LINE
  5
82
330
1F
100
AcDbEntity
  8
0
  6
Continuous
 62
     7
370
    25
100
AcDbLine
 10
64.837962371
 20
46.2380618402
 30
0.0
 11
60.337962371
 21
46.8880618402
 31
0.0
  0
LINE
  5
83
330
1F
100
AcDbEntity
  8
0
  6
Continuous
 62
     7
370
    25
100
AcDbLine
 10
60.337962371
 20
46.8880618402
 30
0.0
 11
56.337962371
 21
46.8880618402
 31
0.0
  0
LINE
  5
84
330
1F
100
AcDbEntity
  8
0
  6
Continuous
 62
     7
370
    25
100
AcDbLine
 10
56.337962371
 20
38.8880618402
 30
0.0
 11
60.337962371
 21
38.8880618402
 31
0.0
  0
LINE
  5
85
330
1F
100
AcDbEntity
  8
0
  6
Continuous
 62
     7
370
    25
100
AcDbLine
 10
69.337962371
 20
38.8880618402
 30
0.0
 11
73.837962371
 21
39.5380618402
 31
0.0
  0
LINE
  5
86
330
1F
100
AcDbEntity
  8
0
  6
Continuous
 62
     7
370
    25
100
AcDbLine
 10
73.837962371
 20
46.2380618402
 30
0.0
 11
69.337962371
 21
46.8880618402
 31
0.0
  0
ARC
  5
87
330
1F
100
AcDbEntity
  8
0
  6
Continuous
 62
     7
370
    25
100
AcDbCircle
 10
78.837962371
 20
45.7936731216
 30
0.0
 40
0.5000000000000004
100
AcDbArc
 50
0.0
 51
83.2599439021
  0
ARC
  5
88
330
1F
100
AcDbEntity
  8
0
  6
Continuous
 62
     7
370
    25
100
AcDbCircle
 10
78.837962371
 20
39.9824505589
 30
0.0
 40
0.5
100
AcDbArc
 50
276.7400560979
 51
0.0
  0
LINE
  5
89
330
1F
100
AcDbEntity
  8
0
  6
Continuous
 62
     7
370
    25
100
AcDbLine
 10
53.337962371
 20
50.6709656089
 30
0.0
 11
53.2575776133
 21
50.9709656089
 31
0.0
  0
LINE
  5
8A
330
1F
100
AcDbEntity
  8
0
  6
Continuous
 62
     7
370
    25
100
AcDbLine
 10
53.4183471288
 20
50.9709656089
 30
0.0
 11
53.337962371
 21
50.6709656089
 31
0.0
  0
LINE
  5
8B
330
1F
100
AcDbEntity
  8
0
  6
Continuous
 62
     7
370
    25
100
AcDbLine
 10
53.2575776133
 20
34.8051580716
 30
0.0
 11
53.337962371
 21
35.1051580716
 31
0.0
  0
LINE
  5
8C
330
1F
100
AcDbEntity
  8
0
  6
Continuous
 62
     7
370
    25
100
AcDbLine
 10
53.337962371
 20
35.1051580716
 30
0.0
 11
53.4183471288
 21
34.8051580716
 31
0.0
  0
LINE
  5
8D
330
1F
100
AcDbEntity
  8
0
  6
Continuous
 62
     7
370
    25
100
AcDbLine
 10
53.2575776133
 20
34.8051580716
 30
0.0
 11
51.1075147207
 21
34.8051580716
 31
0.0
  0
SPLINE
  5
8E
330
1F
100
AcDbEntity
  8
0
  6
Continuous
 62
     7
370
    25
100
AcDbSpline
210
0.0
220
0.0
230
1.0
 70
     8
 71
     3
 72
    16
 73
    12
 74
     0
 42
0.000000001
 43
0.00000001
 40
0.0
 40
0.0
 40
0.0
 40
0.0
 40
0.2499999999999999
 40
0.2499999999999999
 40
0.4999999999999999
 40
0.4999999999999999
 40
0.6249999999999999
 40
0.6249999999999999
 40
0.7499999999999998
 40
0.7499999999999998
 40
1.0
 40
1.0
 40
1.0
 40
1.0
 10
51.10751472065797
 20
38.8466099559221
 30
0.0
 10
50.91702024967319
 20
38.51666385361549
 30
0.0
 10
50.76001823646009
 20
38.1843121123058
 30
0.0
 10
50.54251942562207
 20
37.51267701803206
 30
0.0
 10
50.48274006455201
 20
37.17334213426159
 30
0.0
 10
50.48208356369804
 20
36.6579463679914
 30
0.0
 10
50.49669733018153
 20
36.48533960749091
 30
0.0
 10
50.55368318805836
 20
36.14390519497238
 30
0.0
 10
50.59599745731759
 20
35.97433269222839
 30
0.0
 10
50.75939227720779
 20
35.46863419267691
 30
0.0
 10
50.91678280452121
 20
35.13551544096891
 30
0.0
 10
51.10751472065822
 20
34.80515807159465
 30
0.0
  0
LINE
  5
8F
330
1F
100
AcDbEntity
  8
0
  6
Continuous
 62
     7
370
    25
100
AcDbLine
 10
53.2575776133
 20
38.8466099559
 30
0.0
 11
51.1075147207
 21
38.8466099559
 31
0.0
  0
SPLINE
  5
90
330
1F
100
AcDbEntity
  8
0
  6
Continuous
 62
     7
370
    25
100
AcDbSpline
210
0.0
220
0.0
230
1.0
 70
     8
 71
     3
 72
     8
 73
     4
 74
     0
 42
0.000000001
 43
0.00000001
 40
0.0
 40
0.0
 40
0.0
 40
0.0
 40
1.0
 40
1.0
 40
1.0
 40
1.0
 10
53.33796237102177
 20
38.52688306373904
 30
0.0
 10
53.31296195809908
 20
38.63360957855048
 30
0.0
 10
53.28609564663886
 20
38.74017920654128
 30
0.0
 10
53.25757761329245
 20
38.84660995592206
 30
0.0
  0
SPLINE
  5
91
330
1F
100
AcDbEntity
  8
0
  6
Continuous
 62
     7
370
    25
100
AcDbSpline
210
0.0
220
0.0
230
1.0
 70
     8
 71
     3
 72
     8
 73
     4
 74
     0
 42
0.000000001
 43
0.00000001
 40
0.0
 40
0.0
 40
0.0
 40
0.0
 40
1.0
 40
1.0
 40
1.0
 40
1.0
 10
53.41834712875112
 20
38.84660995592206
 30
0.0
 10
53.38981331391302
 20
38.74012030921254
 30
0.0
 10
53.36294839210623
 20
38.63354813993575
 30
0.0
 10
53.33796237102177
 20
38.52688306373904
 30
0.0
  0
LINE
  5
92
330
1F
100
AcDbEntity
  8
0
  6
Continuous
 62
     7
370
    25
100
AcDbLine
 10
55.5684100214
 20
38.8466099559
 30
0.0
 11
53.4183471288
 21
38.8466099559
 31
0.0
  0
SPLINE
  5
93
330
1F
100
AcDbEntity
  8
0
  6
Continuous
 62
     7
370
    25
100
AcDbSpline
210
0.0
220
0.0
230
1.0
 70
     8
 71
     3
 72
    16
 73
    12
 74
     0
 42
0.000000001
 43
0.00000001
 40
0.0
 40
0.0
 40
0.0
 40
0.0
 40
0.2499999999999999
 40
0.2499999999999999
 40
0.4999999999999999
 40
0.4999999999999999
 40
0.6249999999999999
 40
0.6249999999999999
 40
0.7499999999999998
 40
0.7499999999999998
 40
1.0
 40
1.0
 40
1.0
 40
1.0
 10
55.56841002138558
 20
38.8466099559221
 30
0.0
 10
55.75890449237036
 20
38.51666385361549
 30
0.0
 10
55.91590650558346
 20
38.1843121123058
 30
0.0
 10
56.13340531642147
 20
37.51267701803206
 30
0.0
 10
56.19318467749154
 20
37.17334213426159
 30
0.0
 10
56.1938411783455
 20
36.6579463679914
 30
0.0
 10
56.17922741186202
 20
36.48533960749091
 30
0.0
 10
56.12224155398519
 20
36.14390519497238
 30
0.0
 10
56.07992728472595
 20
35.97433269222839
 30
0.0
 10
55.91653246483577
 20
35.46863419267691
 30
0.0
 10
55.75914193752234
 20
35.13551544096891
 30
0.0
 10
55.56841002138534
 20
34.80515807159465
 30
0.0
  0
LINE
  5
94
330
1F
100
AcDbEntity
  8
0
  6
Continuous
 62
     7
370
    25
100
AcDbLine
 10
55.5684100214
 20
34.8051580716
 30
0.0
 11
53.4183471288
 21
34.8051580716
 31
0.0
  0
SPLINE
  5
95
330
1F
100
AcDbEntity
  8
0
  6
Continuous
 62
     7
370
    25
100
AcDbSpline
210
0.0
220
0.0
230
1.0
 70
     8
 71
     3
 72
     8
 73
     4
 74
     0
 42
0.000000001
 43
0.00000001
 40
0.0
 40
0.0
 40
0.0
 40
0.0
 40
1.0
 40
1.0
 40
1.0
 40
1.0
 10
53.33796237102177
 20
35.1248849637777
 30
0.0
 10
53.36296278394448
 20
35.01815844896625
 30
0.0
 10
53.38982909540469
 20
34.91158882097546
 30
0.0
 10
53.41834712875112
 20
34.80515807159468
 30
0.0
  0
SPLINE
  5
96
330
1F
100
AcDbEntity
  8
0
  6
Continuous
 62
     7
370
    25
100
AcDbSpline
210
0.0
220
0.0
230
1.0
 70
     8
 71
     3
 72
     8
 73
     4
 74
     0
 42
0.000000001
 43
0.00000001
 40
0.0
 40
0.0
 40
0.0
 40
0.0
 40
1.0
 40
1.0
 40
1.0
 40
1.0
 10
53.25757761329245
 20
34.80515807159468
 30
0.0
 10
53.28611142813053
 20
34.9116477183042
 30
0.0
 10
53.31297634993733
 20
35.01821988758098
 30
0.0
 10
53.33796237102177
 20
35.1248849637777
 30
0.0
  0
SPLINE
  5
97
330
1F
100
AcDbEntity
  8
0
  6
Continuous
 62
     7
370
    25
100
AcDbSpline
210
0.0
220
0.0
230
1.0
 70
     8
 71
     3
 72
    14
 73
    10
 74
     0
 42
0.000000001
 43
0.00000001
 40
0.0
 40
0.0
 40
0.0
 40
0.0
 40
0.2500000000000001
 40
0.2500000000000001
 40
0.5000000000000001
 40
0.5000000000000001
 40
0.7500000000000002
 40
0.7500000000000002
 40
1.0
 40
1.0
 40
1.0
 40
1.0
 10
51.10751472065844
 20
38.84660995592205
 30
0.0
 10
50.91767020546022
 20
39.50425064764528
 30
0.0
 10
50.75850358004791
 20
40.17764716590611
 30
0.0
 10
50.54091731084529
 20
41.52732537978684
 30
0.0
 10
50.48222864541645
 20
42.2060489613005
 30
0.0
 10
50.48237136346111
 20
43.57260716071542
 30
0.0
 10
50.54276272347161
 20
44.26510498135085
 30
0.0
 10
50.76187140526732
 20
45.61438983815766
 30
0.0
 10
50.91892204570448
 20
46.2762095346656
 30
0.0
 10
51.10751472065846
 20
46.92951372457682
 30
0.0
  0
LINE
  5
98
330
1F
100
AcDbEntity
  8
0
  6
Continuous
 62
     7
370
    25
100
AcDbLine
 10
53.2575776133
 20
46.9295137246
 30
0.0
 11
51.1075147207
 21
46.9295137246
 31
0.0
  0
SPLINE
  5
99
330
1F
100
AcDbEntity
  8
0
  6
Continuous
 62
     7
370
    25
100
AcDbSpline
210
0.0
220
0.0
230
1.0
 70
     8
 71
     3
 72
     8
 73
     4
 74
     0
 42
0.000000001
 43
0.00000001
 40
0.0
 40
0.0
 40
0.0
 40
0.0
 40
1.0
 40
1.0
 40
1.0
 40
1.0
 10
53.33796237102177
 20
46.29005994021077
 30
0.0
 10
53.31296269902755
 20
46.50350664380107
 30
0.0
 10
53.28609645824056
 20
46.71664616793768
 30
0.0
 10
53.25757761329245
 20
46.92951372457682
 30
0.0
  0
SPLINE
  5
9A
330
1F
100
AcDbEntity
  8
0
  6
Continuous
 62
     7
370
    25
100
AcDbSpline
210
0.0
220
0.0
230
1.0
 70
     8
 71
     3
 72
     8
 73
     4
 74
     0
 42
0.000000001
 43
0.00000001
 40
0.0
 40
0.0
 40
0.0
 40
0.0
 40
1.0
 40
1.0
 40
1.0
 40
1.0
 10
53.41834712875112
 20
46.92951372457682
 30
0.0
 10
53.38981099843547
 20
46.71651714819807
 30
0.0
 10
53.36294628325206
 20
46.5033720872491
 30
0.0
 10
53.33796237102177
 20
46.29005994021077
 30
0.0
  0
LINE
  5
9B
330
1F
100
AcDbEntity
  8
0
  6
Continuous
 62
     7
370
    25
100
AcDbLine
 10
55.5684100214
 20
46.9295137246
 30
0.0
 11
53.4183471288
 21
46.9295137246
 31
0.0
  0
SPLINE
  5
9C
330
1F
100
AcDbEntity
  8
0
  6
Continuous
 62
     7
370
    25
100
AcDbSpline
210
0.0
220
0.0
230
1.0
 70
     8
 71
     3
 72
    14
 73
    10
 74
     0
 42
0.000000001
 43
0.00000001
 40
0.0
 40
0.0
 40
0.0
 40
0.0
 40
0.2500000000000001
 40
0.2500000000000001
 40
0.5000000000000001
 40
0.5000000000000001
 40
0.7500000000000002
 40
0.7500000000000002
 40
1.0
 40
1.0
 40
1.0
 40
1.0
 10
55.56841002138511
 20
38.84660995592205
 30
0.0
 10
55.75825453658334
 20
39.50425064764528
 30
0.0
 10
55.91742116199563
 20
40.17764716590611
 30
0.0
 10
56.13500743119826
 20
41.52732537978684
 30
0.0
 10
56.1936960966271
 20
42.2060489613005
 30
0.0
 10
56.19355337858244
 20
43.57260716071542
 30
0.0
 10
56.13316201857194
 20
44.26510498135085
 30
0.0
 10
55.91405333677623
 20
45.61438983815766
 30
0.0
 10
55.75700269633906
 20
46.2762095346656
 30
0.0
 10
55.56841002138508
 20
46.92951372457682
 30
0.0
  0
SPLINE
  5
9D
330
1F
100
AcDbEntity
  8
0
  6
Continuous
 62
     7
370
    25
100
AcDbSpline
210
0.0
220
0.0
230
1.0
 70
     8
 71
     3
 72
     8
 73
     4
 74
     0
 42
0.000000001
 43
0.00000001
 40
0.0
 40
0.0
 40
0.0
 40
0.0
 40
1.0
 40
1.0
 40
1.0
 40
1.0
 10
53.33796237102177
 20
39.4860637402881
 30
0.0
 10
53.362962043016
 20
39.2726170366978
 30
0.0
 10
53.38982828380299
 20
39.05947751256119
 30
0.0
 10
53.41834712875112
 20
38.84660995592206
 30
0.0
  0
SPLINE
  5
9E
330
1F
100
AcDbEntity
  8
0
  6
Continuous
 62
     7
370
    25
100
AcDbSpline
210
0.0
220
0.0
230
1.0
 70
     8
 71
     3
 72
     8
 73
     4
 74
     0
 42
0.000000001
 43
0.00000001
 40
0.0
 40
0.0
 40
0.0
 40
0.0
 40
1.0
 40
1.0
 40
1.0
 40
1.0
 10
53.25757761329245
 20
38.84660995592206
 30
0.0
 10
53.28611374360808
 20
39.05960653230082
 30
0.0
 10
53.3129784587915
 20
39.27275159324979
 30
0.0
 10
53.33796237102177
 20
39.4860637402881
 30
0.0
  0
LINE
  5
9F
330
1F
100
AcDbEntity
  8
0
  6
Continuous
 62
     7
370
    25
100
AcDbLine
 10
53.2919287172
 20
42.2907154398
 30
0.0
 11
53.9764239095
 21
41.8429990937
 31
0.0
  0
SPLINE
  5
A0
330
1F
100
AcDbEntity
  8
0
  6
Continuous
 62
     7
370
    25
100
AcDbSpline
210
0.0
220
0.0
230
1.0
 70
     8
 71
     3
 72
    19
 73
    15
 74
     0
 42
0.000000001
 43
0.00000001
 40
0.0
 40
0.0
 40
0.0
 40
0.0
 40
0.0978059775289525
 40
0.1996122522918966
 40
0.3052960258330041
 40
0.4158173591641854
 40
0.474240566618493
 40
0.5372869128296534
 40
0.6033858352934854
 40
0.6743111580696056
 40
0.749530467357482
 40
0.8286083142695116
 40
0.9120427387714447
 40
0.9999999999999999
 40
0.9999999999999999
 40
0.9999999999999999
 40
0.9999999999999999
 10
52.85623160179101
 20
42.45838370906172
 30
0.0
 10
52.87167365575434
 20
42.45784008836122
 30
0.0
 10
52.90318934885929
 20
42.45673061269153
 30
0.0
 10
52.95105882292169
 20
42.45010938971853
 30
0.0
 10
52.99984763610399
 20
42.4379652578195
 30
0.0
 10
53.04120720175001
 20
42.42482265284995
 30
0.0
 10
53.07546041555521
 20
42.41178122140492
 30
0.0
 10
53.10250927366227
 20
42.39968890608819
 30
0.0
 10
53.13107373633954
 20
42.38616822414872
 30
0.0
 10
53.16061333584514
 20
42.3703201020295
 30
0.0
 10
53.19197208251806
 20
42.3535198136298
 30
0.0
 10
53.22398866623475
 20
42.33389517028146
 30
0.0
 10
53.25783243149437
 20
42.31341655340112
 30
0.0
 10
53.28036508469609
 20
42.29841444073257
 30
0.0
 10
53.29192871717562
 20
42.29071543983095
 30
0.0
  0
SPLINE
  5
A1
330
1F
100
AcDbEntity
  8
0
  6
Continuous
 62
     7
370
    25
100
AcDbSpline
210
0.0
220
0.0
230
1.0
 70
     8
 71
     3
 72
    19
 73
    15
 74
     0
 42
0.000000001
 43
0.00000001
 40
0.0
 40
0.0
 40
0.0
 40
0.0
 40
0.0843261511037433
 40
0.1670353409858406
 40
0.2495407139852792
 40
0.3327066655796642
 40
0.4158726171740492
 40
0.4977774155681174
 40
0.5803136056784763
 40
0.6645325781316563
 40
0.7495711764063215
 40
0.8324741628544073
 40
0.9156738488962566
 40
1.0
 40
1.0
 40
1.0
 40
1.0
 10
52.39950083256024
 20
42.0040567859848
 30
0.0
 10
52.40015577622539
 20
42.02424109015654
 30
0.0
 10
52.40145310495441
 20
42.06422266272636
 30
0.0
 10
52.41300995965725
 20
42.1230366604747
 30
0.0
 10
52.43174148357141
 20
42.17954959769305
 30
0.0
 10
52.45754794761894
 20
42.23336423539848
 30
0.0
 10
52.49014290105045
 20
42.28321894438032
 30
0.0
 10
52.5293886044386
 20
42.32780737780386
 30
0.0
 10
52.57441768268798
 20
42.36697440314542
 30
0.0
 10
52.62536826852918
 20
42.39939777048534
 30
0.0
 10
52.67976540976699
 20
42.42582290286924
 30
0.0
 10
52.73700301851163
 20
42.44446093086616
 30
0.0
 10
52.79592916517409
 20
42.45651419222155
 30
0.0
 10
52.83604088414995
 20
42.45775774950249
 30
0.0
 10
52.85623160179101
 20
42.45838370906172
 30
0.0
  0
SPLINE
  5
A2
330
1F
100
AcDbEntity
  8
0
  6
Continuous
 62
     7
370
    25
100
AcDbSpline
210
0.0
220
0.0
230
1.0
 70
     8
 71
     3
 72
    19
 73
    15
 74
     0
 42
0.000000001
 43
0.00000001
 40
0.0
 40
0.0
 40
0.0
 40
0.0
 40
0.0859901205637198
 40
0.1691084375726415
 40
0.2505285789581879
 40
0.332255696176845
 40
0.4135763652356403
 40
0.4941261456201216
 40
0.576305934120417
 40
0.6607126719045473
 40
0.7461272722239103
 40
0.8300149859609743
 40
0.9144197259288509
 40
1.0
 40
1.0
 40
1.0
 40
1.0
 10
52.85893592871408
 20
41.5353067859848
 30
0.0
 10
52.83795710542796
 20
41.53608958398794
 30
0.0
 10
52.79670008654288
 20
41.53762903696669
 30
0.0
 10
52.73635833740113
 20
41.54883560079996
 30
0.0
 10
52.67933344218029
 20
41.56817562609614
 30
0.0
 10
52.62540130245731
 20
41.59405026077648
 30
0.0
 10
52.57613107699159
 20
41.62762056472915
 30
0.0
 10
52.5316040049613
 20
41.66740322058465
 30
0.0
 10
52.4927921205599
 20
41.71377428565911
 30
0.0
 10
52.45949702170214
 20
41.76563568289528
 30
0.0
 10
52.43304410758444
 20
41.82176582069231
 30
0.0
 10
52.41348692824338
 20
41.88062010621815
 30
0.0
 10
52.4018010165635
 20
41.94169548479986
 30
0.0
 10
52.40027108731145
 20
41.98317407031436
 30
0.0
 10
52.39950083256024
 20
42.0040567859848
 30
0.0
  0
SPLINE
  5
A3
330
1F
100
AcDbEntity
  8
0
  6
Continuous
 62
     7
370
    25
100
AcDbSpline
210
0.0
220
0.0
230
1.0
 70
     8
 71
     3
 72
    23
 73
    19
 74
     0
 42
0.000000001
 43
0.00000001
 40
0.0
 40
0.0
 40
0.0
 40
0.0
 40
0.0652308037420294
 40
0.1284048960032227
 40
0.1900670715964781
 40
0.25094336576828
 40
0.3115458328521431
 40
0.3728628021568291
 40
0.4350236738562383
 40
0.4990717247070431
 40
0.563091075049662
 40
0.625510106330375
 40
0.6866800359296492
 40
0.7472825030135124
 40
0.8085634952159588
 40
0.8707421035159856
 40
0.9343409515059125
 40
1.0
 40
1.0
 40
1.0
 40
1.0
 10
53.30334698640639
 20
41.98031880521557
 30
0.0
 10
53.30293722425105
 20
41.96507344964336
 30
0.0
 10
53.30213061964215
 20
41.93506342087652
 30
0.0
 10
53.29592325505993
 20
41.89100336280195
 30
0.0
 10
53.28614106423552
 20
41.84866524738488
 30
0.0
 10
53.271881525972
 20
41.80822455641827
 30
0.0
 10
53.2536662312453
 20
41.76953613562132
 30
0.0
 10
53.23183528683938
 20
41.73237796586051
 30
0.0
 10
53.20526142382934
 20
41.69744853295785
 30
0.0
 10
53.17557644277912
 20
41.66429802758132
 30
0.0
 10
53.14269773513834
 20
41.6342007001272
 30
0.0
 10
53.10781144797861
 20
41.60755381917398
 30
0.0
 10
53.0709539275508
 20
41.58517090843079
 30
0.0
 10
53.03214384215081
 20
41.56701065631025
 30
0.0
 10
52.99144101662486
 20
41.55290856548258
 30
0.0
 10
52.94889752827269
 20
41.54262814617819
 30
0.0
 10
52.90448404050407
 20
41.53655117782682
 30
0.0
 10
52.87427910824714
 20
41.53572596752035
 30
0.0
 10
52.85893592871408
 20
41.5353067859848
 30
0.0
  0
SPLINE
  5
A4
330
1F
100
AcDbEntity
  8
0
  6
Continuous
 62
     7
370
    25
100
AcDbSpline
210
0.0
220
0.0
230
1.0
 70
     8
 71
     3
 72
     9
 73
     5
 74
     0
 42
0.000000001
 43
0.00000001
 40
0.0
 40
0.0
 40
0.0
 40
0.0
 40
0.5126593363417812
 40
1.0
 40
1.0
 40
1.0
 40
1.0
 10
53.28892390948331
 20
42.13566736290788
 30
0.0
 10
53.29312984976342
 20
42.10928010134359
 30
0.0
 10
53.30133401182965
 20
42.05780876415392
 30
0.0
 10
53.30268741702184
 20
42.00570909335774
 30
0.0
 10
53.30334698640639
 20
41.98031880521557
 30
0.0
  0
LINE
  5
A5
330
1F
100
AcDbEntity
  8
0
  6
Continuous
 62
     7
370
    25
100
AcDbLine
 10
53.894993621
 20
41.7393332283
 30
0.0
 11
53.2889239095
 21
42.1356673629
 31
0.0
  0
LINE
  5
A6
330
1F
100
AcDbEntity
  8
0
  6
Continuous
 62
     7
370
    25
100
AcDbLine
 10
53.9764239095
 20
41.8429990937
 30
0.0
 11
53.894993621
 21
41.7393332283
 31
0.0
  0
LINE
  5
A7
330
1F
100
AcDbEntity
  8
0
  6
Continuous
 62
     7
370
    25
100
AcDbLine
 10
53.7841162172
 20
43.186766114
 30
0.0
 11
53.937962371
 21
43.0987252486
 31
0.0
  0
LINE
  5
A8
330
1F
100
AcDbEntity
  8
0
  6
Continuous
 62
     7
370
    25
100
AcDbLine
 10
53.7841162172
 20
42.9559968832
 30
0.0
 11
53.7841162172
 21
43.186766114
 31
0.0
  0
LINE
  5
A9
330
1F
100
AcDbEntity
  8
0
  6
Continuous
 62
     7
370
    25
100
AcDbLine
 10
52.437962371
 20
42.9559968832
 30
0.0
 11
53.7841162172
 21
42.9559968832
 31
0.0
  0
LINE
  5
AA
330
1F
100
AcDbEntity
  8
0
  6
Continuous
 62
     7
370
    25
100
AcDbLine
 10
52.437962371
 20
42.8213814986
 30
0.0
 11
52.437962371
 21
42.9559968832
 31
0.0
  0
LINE
  5
AB
330
1F
100
AcDbEntity
  8
0
  6
Continuous
 62
     7
370
    25
100
AcDbLine
 10
53.937962371
 20
42.8213814986
 30
0.0
 11
52.437962371
 21
42.8213814986
 31
0.0
  0
LINE
  5
AC
330
1F
100
AcDbEntity
  8
0
  6
Continuous
 62
     7
370
    25
100
AcDbLine
 10
53.937962371
 20
43.0987252486
 30
0.0
 11
53.937962371
 21
42.8213814986
 31
0.0
  0
SPLINE
  5
AD
330
1F
100
AcDbEntity
  8
0
  6
Continuous
 62
     7
370
    25
100
AcDbSpline
210
0.0
220
0.0
230
1.0
 70
     8
 71
     3
 72
    19
 73
    15
 74
     0
 42
0.000000001
 43
0.00000001
 40
0.0
 40
0.0
 40
0.0
 40
0.0
 40
0.1227280999764553
 40
0.239716523588393
 40
0.3518621792202463
 40
0.4632019818032239
 40
0.5202611541541643
 40
0.5794324380306665
 40
0.6405963441586369
 40
0.70529822908802
 40
0.7732361059084537
 40
0.844648929340316
 40
0.9200459817773698
 40
1.0
 40
1.0
 40
1.0
 40
1.0
 10
53.82257775563716
 20
44.01410393486997
 30
0.0
 10
53.82198261428938
 20
44.03118378555524
 30
0.0
 10
53.82082016481805
 20
44.06454470640764
 30
0.0
 10
53.8106027579379
 20
44.11262895001487
 30
0.0
 10
53.79441433000632
 20
44.15728361904391
 30
0.0
 10
53.77486685129311
 20
44.19130146912219
 30
0.0
 10
53.75563736893032
 20
44.21646407391384
 30
0.0
 10
53.73909424528327
 20
44.2347897758987
 30
0.0
 10
53.72033773140808
 20
44.25245762982112
 30
0.0
 10
53.69885335723832
 20
44.26877433307027
 30
0.0
 10
53.67537988344563
 20
44.28471761705713
 30
0.0
 10
53.64978802687661
 20
44.3001352472514
 30
0.0
 10
53.62171292424675
 20
44.31453200901429
 30
0.0
 10
53.60196970286976
 20
44.32329555362461
 30
0.0
 10
53.59180852486793
 20
44.32780585794689
 30
0.0
  0
SPLINE
  5
AE
330
1F
100
AcDbEntity
  8
0
  6
Continuous
 62
     7
370
    25
100
AcDbSpline
210
0.0
220
0.0
230
1.0
 70
     8
 71
     3
 72
    23
 73
    19
 74
     0
 42
0.000000001
 43
0.00000001
 40
0.0
 40
0.0
 40
0.0
 40
0.0
 40
0.0552698294993248
 40
0.1099567044850938
 40
0.1632335040550556
 40
0.2180575651623568
 40
0.2732775387226747
 40
0.330881045495497
 40
0.3904799376860887
 40
0.4536559730386417
 40
0.5189026226022311
 40
0.5833461108214766
 40
0.6485466930814431
 40
0.7150552190344909
 40
0.7825206438000536
 40
0.852335294426451
 40
0.9249348997257087
 40
0.9999999999999999
 40
0.9999999999999999
 40
0.9999999999999999
 40
0.9999999999999999
 10
53.58730131332947
 20
43.71242124256228
 30
0.0
 10
53.59513465150785
 20
43.71259882658379
 30
0.0
 10
53.61071870629895
 20
43.71295212157224
 30
0.0
 10
53.63348631655434
 20
43.71740840116008
 30
0.0
 10
53.65555918202435
 20
43.72410328617377
 30
0.0
 10
53.676837149161
 20
43.73331322309576
 30
0.0
 10
53.69719671074543
 20
43.74561809337579
 30
0.0
 10
53.7166628439724
 20
43.76038803683669
 30
0.0
 10
53.73556178107572
 20
43.77763018222201
 30
0.0
 10
53.75298937377934
 20
43.79779515258136
 30
0.0
 10
53.76942805647172
 20
43.81962588363433
 30
0.0
 10
53.78363868614871
 20
43.84332778881828
 30
0.0
 10
53.79568360636618
 20
43.86837809368195
 30
0.0
 10
53.80563527813624
 20
43.89479983376326
 30
0.0
 10
53.81311652450505
 20
43.92269885369701
 30
0.0
 10
53.81848939375875
 20
43.95193854489777
 30
0.0
 10
53.82184828685244
 20
43.98257619647632
 30
0.0
 10
53.82233190777112
 20
44.00347835723372
 30
0.0
 10
53.82257775563716
 20
44.01410393486997
 30
0.0
  0
SPLINE
  5
AF
330
1F
100
AcDbEntity
  8
0
  6
Continuous
 62
     7
370
    25
100
AcDbSpline
210
0.0
220
0.0
230
1.0
 70
     8
 71
     3
 72
    19
 73
    15
 74
     0
 42
0.000000001
 43
0.00000001
 40
0.0
 40
0.0
 40
0.0
 40
0.0
 40
0.1101423815503176
 40
0.2157418685830274
 40
0.3179605426392306
 40
0.4180517606815226
 40
0.5115631470355316
 40
0.5965727584443461
 40
0.6733290469034968
 40
0.7440491927238595
 40
0.8107168223002833
 40
0.8740854521098849
 40
0.9367096168966699
 40
1.0
 40
1.0
 40
1.0
 40
1.0
 10
53.34180852486793
 20
44.09703662717767
 30
0.0
 10
53.34212481383653
 20
44.07847949764549
 30
0.0
 10
53.34274434622849
 20
44.0421306395179
 30
0.0
 10
53.35018559333908
 20
43.98902586003929
 30
0.0
 10
53.36059491915896
 20
43.93818431040766
 30
0.0
 10
53.37617109080044
 20
43.89076650633285
 30
0.0
 10
53.39486694250044
 20
43.84768778823459
 30
0.0
 10
53.41594788062304
 20
43.81010835288158
 30
0.0
 10
53.43983163766386
 20
43.77891881819092
 30
0.0
 10
53.46620476221208
 20
43.75404125988948
 30
0.0
 10
53.49482055160359
 20
43.73578201543756
 30
0.0
 10
53.5243334789644
 20
43.72207664398213
 30
0.0
 10
53.5554302121664
 20
43.71404199992932
 30
0.0
 10
53.57664020533432
 20
43.71296339732611
 30
0.0
 10
53.58730131332946
 20
43.71242124256228
 30
0.0
  0
LINE
  5
B0
330
1F
100
AcDbEntity
  8
0
  6
Continuous
 62
     7
370
    25
100
AcDbLine
 10
53.187962371
 20
44.0970366272
 30
0.0
 11
53.3418085249
 21
44.0970366272
 31
0.0
  0
SPLINE
  5
B1
330
1F
100
AcDbEntity
  8
0
  6
Continuous
 62
     7
370
    25
100
AcDbSpline
210
0.0
220
0.0
230
1.0
 70
     8
 71
     3
 72
    23
 73
    19
 74
     0
 42
0.000000001
 43
0.00000001
 40
0.0
 40
0.0
 40
0.0
 40
0.0
 40
0.0669051223273616
 40
0.1334773340846825
 40
0.2010229080576287
 40
0.2712178684297488
 40
0.3428591616573978
 40
0.4138109980627169
 40
0.4855518488903453
 40
0.5598002749200529
 40
0.5998999649035781
 40
0.6436094423977958
 40
0.6919106424505659
 40
0.7447030291556902
 40
0.8015038302285953
 40
0.8628660266331954
 40
0.9293326711591618
 40
1.0
 40
1.0
 40
1.0
 40
1.0
 10
52.87065467871408
 20
43.6354981656392
 30
0.0
 10
52.88463098259663
 20
43.63615399750422
 30
0.0
 10
52.91251404622024
 20
43.63746239790625
 30
0.0
 10
52.95353562718027
 20
43.64745196353132
 30
0.0
 10
52.99306086955228
 20
43.66388222498107
 30
0.0
 10
53.03040973575633
 20
43.68688739537433
 30
0.0
 10
53.06504180377166
 20
43.71487822904215
 30
0.0
 10
53.0958212227282
 20
43.7475837763086
 30
0.0
 10
53.12147409352026
 20
43.78508426379743
 30
0.0
 10
53.13913256775601
 20
43.81982112498214
 30
0.0
 10
53.15090119822167
 20
43.85066412673712
 30
0.0
 10
53.15915314158664
 20
43.87700650071924
 30
0.0
 10
53.16574959889061
 20
43.90652367902639
 30
0.0
 10
53.17213035961426
 20
43.93886131436325
 30
0.0
 10
53.17747958448236
 20
43.97415579055822
 30
0.0
 10
53.18195976997163
 20
44.01243890570827
 30
0.0
 10
53.18553899081568
 20
44.05372606140237
 30
0.0
 10
53.18713824815001
 20
44.08230793221084
 30
0.0
 10
53.18796237102178
 20
44.09703662717767
 30
0.0
  0
SPLINE
  5
B2
330
1F
100
AcDbEntity
  8
0
  6
Continuous
 62
     7
370
    25
100
AcDbSpline
210
0.0
220
0.0
230
1.0
 70
     8
 71
     3
 72
    23
 73
    19
 74
     0
 42
0.000000001
 43
0.00000001
 40
0.0
 40
0.0
 40
0.0
 40
0.0
 40
0.0760618905628339
 40
0.1487324608035359
 40
0.2183745247439722
 40
0.2857225935927383
 40
0.3510576941824569
 40
0.414934915729319
 40
0.4784859417740854
 40
0.542169035281216
 40
0.6047501165431387
 40
0.6641185017301124
 40
0.7214996756099116
 40
0.7776159163852547
 40
0.832666108697549
 40
0.8878580281135741
 40
0.9434676608977686
 40
1.0
 40
1.0
 40
1.0
 40
1.0
 10
52.55334698640639
 20
44.01740922333151
 30
0.0
 10
52.55361051651565
 20
44.00337181789572
 30
0.0
 10
52.55412582689455
 20
43.97592288337262
 30
0.0
 10
52.55887855591757
 20
43.93587345550893
 30
0.0
 10
52.56577016104345
 20
43.89776077839402
 30
0.0
 10
52.57654997140548
 20
43.86197379178236
 30
0.0
 10
52.58948213472986
 20
43.82802552260583
 30
0.0
 10
52.60641271000256
 20
43.79667379431176
 30
0.0
 10
52.62553305763834
 20
43.76699690482265
 30
0.0
 10
52.64777369935429
 20
43.73986424984836
 30
0.0
 10
52.67181342567901
 20
43.71540283467749
 30
0.0
 10
52.69731743294112
 20
43.69426546932469
 30
0.0
 10
52.72349493094406
 20
43.67595809346115
 30
0.0
 10
52.7509565878027
 20
43.66124201848015
 30
0.0
 10
52.77943302673961
 20
43.64960091246334
 30
0.0
 10
52.80903083531793
 20
43.64168091708044
 30
0.0
 10
52.8395007814698
 20
43.6361727584877
 30
0.0
 10
52.86021323879921
 20
43.63572426000677
 30
0.0
 10
52.87065467871408
 20
43.6354981656392
 30
0.0
  0
SPLINE
  5
B3
330
1F
100
AcDbEntity
  8
0
  6
Continuous
 62
     7
370
    25
100
AcDbSpline
210
0.0
220
0.0
230
1.0
 70
     8
 71
     3
 72
    15
 73
    11
 74
     0
 42
0.000000001
 43
0.00000001
 40
0.0
 40
0.0
 40
0.0
 40
0.0
 40
0.1182713048357256
 40
0.2361775330837632
 40
0.355662932948509
 40
0.4759041646706825
 40
0.6001273417110832
 40
0.7286081161551193
 40
0.8613134756739422
 40
1.0
 40
1.0
 40
1.0
 40
1.0
 10
52.6344767940987
 20
44.26801018486997
 30
0.0
 10
52.62800179386205
 20
44.25961165207347
 30
0.0
 10
52.61507178024013
 20
44.24284051083889
 30
0.0
 10
52.59857108229538
 20
44.21551126893956
 30
0.0
 10
52.58427350000905
 20
44.18676917490281
 30
0.0
 10
52.57335191613063
 20
44.15599145737957
 30
0.0
 10
52.56410434722099
 20
44.12384227004213
 30
0.0
 10
52.55805269616421
 20
44.08980197065706
 30
0.0
 10
52.55390062273141
 20
44.05417087760917
 30
0.0
 10
52.55353422352038
 20
44.02984183611643
 30
0.0
 10
52.55334698640639
 20
44.01740922333151
 30
0.0
  0
SPLINE
  5
B4
330
1F
100
AcDbEntity
  8
0
  6
Continuous
 62
     7
370
    25
100
AcDbSpline
210
0.0
220
0.0
230
1.0
 70
     8
 71
     3
 72
    15
 73
    11
 74
     0
 42
0.000000001
 43
0.00000001
 40
0.0
 40
0.0
 40
0.0
 40
0.0
 40
0.1497703860319681
 40
0.2913164099952446
 40
0.4259663731047426
 40
0.5521595739695285
 40
0.6715274135235928
 40
0.7861216286916589
 40
0.8953250730704446
 40
1.0
 40
1.0
 40
1.0
 40
1.0
 10
52.84180852486793
 20
44.3854981656392
 30
0.0
 10
52.8302589477528
 20
44.38199104073622
 30
0.0
 10
52.80779401705932
 20
44.37516937816855
 30
0.0
 10
52.77546245748438
 20
44.36355753615351
 30
0.0
 10
52.74582329181661
 20
44.35032827669474
 30
0.0
 10
52.71865909668319
 20
44.33613632299357
 30
0.0
 10
52.69370235276996
 20
44.32123127469811
 30
0.0
 10
52.67161298032679
 20
44.30455344963965
 30
0.0
 10
52.65142075080831
 20
44.28733810171938
 30
0.0
 10
52.64004448854822
 20
44.27436123599738
 30
0.0
 10
52.6344767940987
 20
44.26801018486997
 30
0.0
  0
LINE
  5
B5
330
1F
100
AcDbEntity
  8
0
  6
Continuous
 62
     7
370
    25
100
AcDbLine
 10
52.8418085249
 20
44.5201135503
 30
0.0
 11
52.8418085249
 21
44.3854981656
 31
0.0
  0
SPLINE
  5
B6
330
1F
100
AcDbEntity
  8
0
  6
Continuous
 62
     7
370
    25
100
AcDbSpline
210
0.0
220
0.0
230
1.0
 70
     8
 71
     3
 72
    23
 73
    19
 74
     0
 42
0.000000001
 43
0.00000001
 40
0.0
 40
0.0
 40
0.0
 40
0.0
 40
0.0655411703374033
 40
0.1289631677825933
 40
0.1903771361885609
 40
0.2500923616690527
 40
0.308548432459201
 40
0.3663979630552958
 40
0.42454218926668
 40
0.4831699964229055
 40
0.5422433998311199
 40
0.6017393520173299
 40
0.6625060022496068
 40
0.7248555134488469
 40
0.7891278292811811
 40
0.8563463998785099
 40
0.9262952349869055
 40
1.0
 40
1.0
 40
1.0
 40
1.0
 10
52.39950083256024
 20
44.01981306948535
 30
0.0
 10
52.39987292395673
 20
44.03584991246385
 30
0.0
 10
52.40060507574697
 20
44.0674050717796
 30
0.0
 10
52.40561019054551
 20
44.11379514251659
 30
0.0
 10
52.41475162136171
 20
44.15807587081566
 30
0.0
 10
52.42705303794718
 20
44.20030712703996
 30
0.0
 10
52.44264949883882
 20
44.24052642835147
 30
0.0
 10
52.46207179799081
 20
44.27861104485621
 30
0.0
 10
52.48491958458445
 20
44.31479528493625
 30
0.0
 10
52.51146255078727
 20
44.34873769256964
 30
0.0
 10
52.54115455354017
 20
44.3804342215866
 30
0.0
 10
52.57452270066917
 20
44.40904253197094
 30
0.0
 10
52.61095015949248
 20
44.43503958608898
 30
0.0
 10
52.6508600407205
 20
44.45772928839391
 30
0.0
 10
52.69373657955384
 20
44.47814512522928
 30
0.0
 10
52.74012879314597
 20
44.49493696379241
 30
0.0
 10
52.78962194542697
 20
44.50971649320796
 30
0.0
 10
52.82411240550233
 20
44.51658797788485
 30
0.0
 10
52.84180852486793
 20
44.52011355025459
 30
0.0
  0
SPLINE
  5
B7
330
1F
100
AcDbEntity
  8
0
  6
Continuous
 62
     7
370
    25
100
AcDbSpline
210
0.0
220
0.0
230
1.0
 70
     8
 71
     3
 72
    19
 73
    15
 74
     0
 42
0.000000001
 43
0.00000001
 40
0.0
 40
0.0
 40
0.0
 40
0.0
 40
0.079641704194991
 40
0.1589086132578561
 40
0.2395997983184508
 40
0.3224093988203484
 40
0.405827748173513
 40
0.4876442139503137
 40
0.5697199979738974
 40
0.6530646649976934
 40
0.7374573001733065
 40
0.8224924079539125
 40
0.9097550737466981
 40
1.0
 40
1.0
 40
1.0
 40
1.0
 10
52.88357535179101
 20
43.50088278102381
 30
0.0
 10
52.86257202078769
 20
43.50165355173532
 30
0.0
 10
52.82066420079225
 20
43.50319146589907
 30
0.0
 10
52.75873393474959
 20
43.51688209560212
 30
0.0
 10
52.69830076068732
 20
43.53822869990234
 30
0.0
 10
52.64026010176233
 20
43.56801264360277
 30
0.0
 10
52.5860687114027
 20
43.60486320599242
 30
0.0
 10
52.53780212736616
 20
43.64894735153182
 30
0.0
 10
52.49603402111881
 20
43.69919340167439
 30
0.0
 10
52.46124831486226
 20
43.75527250604524
 30
0.0
 10
52.43342125078495
 20
43.81600308519354
 30
0.0
 10
52.41411230514097
 20
43.88096550431324
 30
0.0
 10
52.40153507031324
 20
43.94921513214974
 30
0.0
 10
52.40018646434128
 20
43.99601831420554
 30
0.0
 10
52.39950083256024
 20
44.01981306948535
 30
0.0
  0
SPLINE
  5
B8
330
1F
100
AcDbEntity
  8
0
  6
Continuous
 62
     7
370
    25
100
AcDbSpline
210
0.0
220
0.0
230
1.0
 70
     8
 71
     3
 72
    15
 73
    11
 74
     0
 42
0.000000001
 43
0.00000001
 40
0.0
 40
0.0
 40
0.0
 40
0.0
 40
0.1281455049994643
 40
0.2541925386280419
 40
0.3781411397135888
 40
0.5013808330744057
 40
0.6239569784447038
 40
0.7470758858273289
 40
0.8728647202442611
 40
1.0
 40
1.0
 40
1.0
 40
1.0
 10
53.1501017940987
 20
43.59042605025459
 30
0.0
 10
53.1402209536737
 20
43.58320539406703
 30
0.0
 10
53.12062107842704
 20
43.56888232493649
 30
0.0
 10
53.08909008186145
 20
43.55125287627256
 30
0.0
 10
53.05731398262594
 20
43.53507666885147
 30
0.0
 10
53.02404338548211
 20
43.52317144844137
 30
0.0
 10
52.99034700086159
 20
43.51289771500331
 30
0.0
 10
52.95550325449567
 20
43.50613794049098
 30
0.0
 10
52.9198431914681
 20
43.50179843564528
 30
0.0
 10
52.89570746065911
 20
43.50118908053468
 30
0.0
 10
52.88357535179101
 20
43.50088278102381
 30
0.0
  0
SPLINE
  5
B9
330
1F
100
AcDbEntity
  8
0
  6
Continuous
 62
     7
370
    25
100
AcDbSpline
210
0.0
220
0.0
230
1.0
 70
     8
 71
     3
 72
    11
 73
     7
 74
     0
 42
0.000000001
 43
0.00000001
 40
0.0
 40
0.0
 40
0.0
 40
0.0
 40
0.253879600326656
 40
0.5030089172783633
 40
0.7502910806899731
 40
1.0
 40
1.0
 40
1.0
 40
1.0
 10
53.278106601791
 20
43.75298614640842
 30
0.0
 10
53.27040167113037
 20
43.73702968016271
 30
0.0
 10
53.25513597501171
 20
43.70541530547677
 30
0.0
 10
53.22519779321861
 20
43.66232222139124
 30
0.0
 10
53.1906307872098
 20
43.62320313195254
 30
0.0
 10
53.16365536453255
 20
43.60138725237948
 30
0.0
 10
53.1501017940987
 20
43.59042605025459
 30
0.0
  0
SPLINE
  5
BA
330
1F
100
AcDbEntity
  8
0
  6
Continuous
 62
     7
370
    25
100
AcDbSpline
210
0.0
220
0.0
230
1.0
 70
     8
 71
     3
 72
    15
 73
    11
 74
     0
 42
0.000000001
 43
0.00000001
 40
0.0
 40
0.0
 40
0.0
 40
0.0
 40
0.1280675485958904
 40
0.2506083188676684
 40
0.3706301659145029
 40
0.4900722467299488
 40
0.6103747641546199
 40
0.7343130699115256
 40
0.8632165042449895
 40
1.0
 40
1.0
 40
1.0
 40
1.0
 10
53.58670035179101
 20
43.57780585794689
 30
0.0
 10
53.57084029691718
 20
43.5783045398242
 30
0.0
 10
53.53980463071871
 20
43.57928038287183
 30
0.0
 10
53.49449541765949
 20
43.58756625668425
 30
0.0
 10
53.4517918746814
 20
43.6015103693455
 30
0.0
 10
53.41151423377134
 20
43.62082598187887
 30
0.0
 10
53.37391787384716
 20
43.64582950341041
 30
0.0
 10
53.33891820633551
 20
43.6761178020777
 30
0.0
 10
53.30635999570912
 20
43.71190465712434
 30
0.0
 10
53.28770879300534
 20
43.73902420199146
 30
0.0
 10
53.278106601791
 20
43.75298614640842
 30
0.0
  0
SPLINE
  5
BB
330
1F
100
AcDbEntity
  8
0
  6
Continuous
 62
     7
370
    25
100
AcDbSpline
210
0.0
220
0.0
230
1.0
 70
     8
 71
     3
 72
    19
 73
    15
 74
     0
 42
0.000000001
 43
0.00000001
 40
0.0
 40
0.0
 40
0.0
 40
0.0
 40
0.0902542493426766
 40
0.1785397915286843
 40
0.2660930338538198
 40
0.3546309779571733
 40
0.4418861533505626
 40
0.5257469151636484
 40
0.6081136336036366
 40
0.6901972728278825
 40
0.770821484330335
 40
0.8483261812554109
 40
0.9240117400247433
 40
1.0
 40
1.0
 40
1.0
 40
1.0
 10
53.97642390948331
 20
44.01590681948535
 30
0.0
 10
53.9758328108069
 20
43.99632850145318
 30
0.0
 10
53.97466350703198
 20
43.95759892533454
 30
0.0
 10
53.9639858913981
 20
43.90070047664148
 30
0.0
 10
53.94708940610344
 20
43.84583183988343
 30
0.0
 10
53.92374352304472
 20
43.79359359081928
 30
0.0
 10
53.89494896026097
 20
43.74507140542089
 30
0.0
 10
53.86067835873464
 20
43.70189875395783
 30
0.0
 10
53.82159294381149
 20
43.66466082075615
 30
0.0
 10
53.77842184481781
 20
43.63342037318752
 30
0.0
 10
53.73228376936627
 20
43.60895965930737
 30
0.0
 10
53.68479798773171
 20
43.59092264210178
 30
0.0
 10
53.63607714285075
 20
43.57994192167379
 30
0.0
 10
53.6031811660614
 20
43.57851882589797
 30
0.0
 10
53.58670035179101
 20
43.57780585794689
 30
0.0
  0
SPLINE
  5
BC
330
1F
100
AcDbEntity
  8
0
  6
Continuous
 62
     7
370
    25
100
AcDbSpline
210
0.0
220
0.0
230
1.0
 70
     8
 71
     3
 72
    23
 73
    19
 74
     0
 42
0.000000001
 43
0.00000001
 40
0.0
 40
0.0
 40
0.0
 40
0.0
 40
0.0726253460834355
 40
0.1419766113262345
 40
0.2089849284189386
 40
0.2739568703644447
 40
0.336889347396841
 40
0.3987449534945902
 40
0.4601158852788617
 40
0.5208249225900291
 40
0.5809944586324857
 40
0.6401519276014648
 40
0.6986224507562546
 40
0.7572710809271643
 40
0.8164266940046602
 40
0.8762540482034705
 40
0.9371652930625374
 40
1.0
 40
1.0
 40
1.0
 40
1.0
 10
53.59180852486793
 20
44.46242124256228
 30
0.0
 10
53.60690816085738
 20
44.45877429227042
 30
0.0
 10
53.63642671416765
 20
44.45164480274595
 30
0.0
 10
53.67860125453079
 20
44.43677441411642
 30
0.0
 10
53.71851133512682
 20
44.42057473331873
 30
0.0
 10
53.75540965242484
 20
44.40112225993384
 30
0.0
 10
53.79003775359599
 20
44.37990422240836
 30
0.0
 10
53.82161023551091
 20
44.35559448460727
 30
0.0
 10
53.85093007785397
 20
44.32931460350758
 30
0.0
 10
53.87695003680705
 20
44.30024676809253
 30
0.0
 10
53.90051192075278
 20
44.26976305596077
 30
0.0
 10
53.92060123104236
 20
44.23743393321045
 30
0.0
 10
53.93788301084143
 20
44.20390983592305
 30
0.0
 10
53.95212025307374
 20
44.1689584932308
 30
0.0
 10
53.96284547750206
 20
44.13247584821993
 30
0.0
 10
53.9706269656124
 20
44.09479172393959
 30
0.0
 10
53.97568030027573
 20
44.0558073667476
 30
0.0
 10
53.97617348445559
 20
44.02934411363406
 30
0.0
 10
53.97642390948331
 20
44.01590681948535
 30
0.0
  0
LINE
  5
BD
330
1F
100
AcDbEntity
  8
0
  6
Continuous
 62
     7
370
    25
100
AcDbLine
 10
53.5918085249
 20
44.3278058579
 30
0.0
 11
53.5918085249
 21
44.4624212426
 31
0.0
  0
LINE
  5
BE
330
1F
100
AcDbEntity
  8
0
  6
Continuous
 62
     7
370
    25
100
AcDbLine
 10
53.337962371
 20
38.5268830637
 30
0.0
 11
53.337962371
 21
39.4860637403
 31
0.0
  0
SPLINE
  5
BF
330
1F
100
AcDbEntity
  8
0
  6
Continuous
 62
     7
370
    25
100
AcDbSpline
210
0.0
220
0.0
230
1.0
 70
     8
 71
     3
 72
    16
 73
    12
 74
     0
 42
0.000000001
 43
0.00000001
 40
0.0
 40
0.0
 40
0.0
 40
0.0
 40
0.2500000000000001
 40
0.2500000000000001
 40
0.5000000000000001
 40
0.5000000000000001
 40
0.625
 40
0.625
 40
0.7499999999999999
 40
0.7499999999999999
 40
1.0
 40
1.0
 40
1.0
 40
1.0
 10
51.10751472065797
 20
50.97096560890424
 30
0.0
 10
50.91702024967319
 20
50.64101950659764
 30
0.0
 10
50.76001823646009
 20
50.30866776528793
 30
0.0
 10
50.54251942562207
 20
49.6370326710142
 30
0.0
 10
50.48274006455201
 20
49.29769778724373
 30
0.0
 10
50.48208356369805
 20
48.78230202097354
 30
0.0
 10
50.49669733018153
 20
48.60969526047306
 30
0.0
 10
50.55368318805836
 20
48.26826084795453
 30
0.0
 10
50.5959974573176
 20
48.09868834521054
 30
0.0
 10
50.75939227720779
 20
47.59298984565905
 30
0.0
 10
50.91678280452121
 20
47.25987109395105
 30
0.0
 10
51.10751472065822
 20
46.9295137245768
 30
0.0
  0
LINE
  5
C0
330
1F
100
AcDbEntity
  8
0
  6
Continuous
 62
     7
370
    25
100
AcDbLine
 10
53.2575776133
 20
50.9709656089
 30
0.0
 11
51.1075147207
 21
50.9709656089
 31
0.0
  0
SPLINE
  5
C1
330
1F
100
AcDbEntity
  8
0
  6
Continuous
 62
     7
370
    25
100
AcDbSpline
210
0.0
220
0.0
230
1.0
 70
     8
 71
     3
 72
     8
 73
     4
 74
     0
 42
0.000000001
 43
0.00000001
 40
0.0
 40
0.0
 40
0.0
 40
0.0
 40
1.0
 40
1.0
 40
1.0
 40
1.0
 10
53.33796237102177
 20
50.65123871672117
 30
0.0
 10
53.31296195809908
 20
50.75796523153262
 30
0.0
 10
53.28609564663886
 20
50.86453485952342
 30
0.0
 10
53.25757761329245
 20
50.9709656089042
 30
0.0
  0
SPLINE
  5
C2
330
1F
100
AcDbEntity
  8
0
  6
Continuous
 62
     7
370
    25
100
AcDbSpline
210
0.0
220
0.0
230
1.0
 70
     8
 71
     3
 72
     8
 73
     4
 74
     0
 42
0.000000001
 43
0.00000001
 40
0.0
 40
0.0
 40
0.0
 40
0.0
 40
1.0
 40
1.0
 40
1.0
 40
1.0
 10
53.41834712875112
 20
50.9709656089042
 30
0.0
 10
53.38981331391302
 20
50.86447596219467
 30
0.0
 10
53.36294839210623
 20
50.75790379291789
 30
0.0
 10
53.33796237102177
 20
50.65123871672117
 30
0.0
  0
LINE
  5
C3
330
1F
100
AcDbEntity
  8
0
  6
Continuous
 62
     7
370
    25
100
AcDbLine
 10
55.5684100214
 20
50.9709656089
 30
0.0
 11
53.4183471288
 21
50.9709656089
 31
0.0
  0
SPLINE
  5
C4
330
1F
100
AcDbEntity
  8
0
  6
Continuous
 62
     7
370
    25
100
AcDbSpline
210
0.0
220
0.0
230
1.0
 70
     8
 71
     3
 72
    16
 73
    12
 74
     0
 42
0.000000001
 43
0.00000001
 40
0.0
 40
0.0
 40
0.0
 40
0.0
 40
0.2500000000000001
 40
0.2500000000000001
 40
0.5000000000000001
 40
0.5000000000000001
 40
0.625
 40
0.625
 40
0.7499999999999999
 40
0.7499999999999999
 40
1.0
 40
1.0
 40
1.0
 40
1.0
 10
55.56841002138558
 20
50.97096560890424
 30
0.0
 10
55.75890449237036
 20
50.64101950659764
 30
0.0
 10
55.91590650558346
 20
50.30866776528793
 30
0.0
 10
56.13340531642147
 20
49.6370326710142
 30
0.0
 10
56.19318467749154
 20
49.29769778724373
 30
0.0
 10
56.1938411783455
 20
48.78230202097354
 30
0.0
 10
56.17922741186202
 20
48.60969526047306
 30
0.0
 10
56.12224155398519
 20
48.26826084795453
 30
0.0
 10
56.07992728472595
 20
48.09868834521054
 30
0.0
 10
55.91653246483577
 20
47.59298984565905
 30
0.0
 10
55.75914193752234
 20
47.25987109395105
 30
0.0
 10
55.56841002138534
 20
46.9295137245768
 30
0.0
  0
SPLINE
  5
C5
330
1F
100
AcDbEntity
  8
0
  6
Continuous
 62
     7
370
    25
100
AcDbSpline
210
0.0
220
0.0
230
1.0
 70
     8
 71
     3
 72
     8
 73
     4
 74
     0
 42
0.000000001
 43
0.00000001
 40
0.0
 40
0.0
 40
0.0
 40
0.0
 40
1.0
 40
1.0
 40
1.0
 40
1.0
 10
53.33796237102177
 20
47.24924061675985
 30
0.0
 10
53.36296278394448
 20
47.1425141019484
 30
0.0
 10
53.38982909540469
 20
47.0359444739576
 30
0.0
 10
53.41834712875112
 20
46.92951372457682
 30
0.0
  0
SPLINE
  5
C6
330
1F
100
AcDbEntity
  8
0
  6
Continuous
 62
     7
370
    25
100
AcDbSpline
210
0.0
220
0.0
230
1.0
 70
     8
 71
     3
 72
     8
 73
     4
 74
     0
 42
0.000000001
 43
0.00000001
 40
0.0
 40
0.0
 40
0.0
 40
0.0
 40
1.0
 40
1.0
 40
1.0
 40
1.0
 10
53.25757761329245
 20
46.92951372457682
 30
0.0
 10
53.28611142813053
 20
47.03600337128635
 30
0.0
 10
53.31297634993733
 20
47.14257554056314
 30
0.0
 10
53.33796237102177
 20
47.24924061675985
 30
0.0
  0
LINE
  5
C7
330
1F
100
AcDbEntity
  8
0
  6
Continuous
 62
     7
370
    25
100
AcDbLine
 10
53.337962371
 20
46.2900599402
 30
0.0
 11
53.337962371
 21
47.2492406168
 31
0.0
  0
LINE
  5
C8
330
1F
100
AcDbEntity
  8
0
  6
Continuous
 62
     7
370
    25
100
AcDbLine
 10
56.337962371
 20
49.6380618402
 30
0.0
 11
56.337962371
 21
36.1380618402
 31
0.0
  0
SPLINE
  5
C9
330
1F
100
AcDbEntity
  8
0
  6
Continuous
 62
     7
370
    25
100
AcDbSpline
210
0.0
220
0.0
230
1.0
 70
     8
 71
     3
 72
    23
 73
    19
 74
     0
 42
0.000000001
 43
0.00000001
 40
0.0
 40
0.0
 40
0.0
 40
0.0
 40
0.0611415679303346
 40
0.1200010135310723
 40
0.1782359705414083
 40
0.2364955434070171
 40
0.2948872487049731
 40
0.3546771928192958
 40
0.4166948132897783
 40
0.4806333779628393
 40
0.5458046334786407
 40
0.6097347883178743
 40
0.6729516883751544
 40
0.7360010960706834
 40
0.7998274385165249
 40
0.864767276939387
 40
0.9310835057306723
 40
1.0
 40
1.0
 40
1.0
 40
1.0
 10
52.85082294794486
 20
41.66992217060019
 30
0.0
 10
52.86106465839499
 20
41.67015526164323
 30
0.0
 10
52.88116580522379
 20
41.6706127435554
 30
0.0
 10
52.91058641882682
 20
41.67588731861159
 30
0.0
 10
52.93911122756035
 20
41.6830115100534
 30
0.0
 10
52.96609766408514
 20
41.69452485639074
 30
0.0
 10
52.99229201191551
 20
41.7082381916544
 30
0.0
 10
53.01694561702658
 20
41.72570807994977
 30
0.0
 10
53.04075692047058
 20
41.74573773448775
 30
0.0
 10
53.06284933420071
 20
41.7689340179526
 30
0.0
 10
53.08305685386524
 20
41.79416949780216
 30
0.0
 10
53.10089337640097
 20
41.82100559155539
 30
0.0
 10
53.11594705104658
 20
41.84908021560943
 30
0.0
 10
53.12850720751526
 20
41.87836625014479
 30
0.0
 10
53.13757127607067
 20
41.90919889804569
 30
0.0
 10
53.14470837798957
 20
41.9410804763971
 30
0.0
 10
53.14850638619987
 20
41.97441872204257
 30
0.0
 10
53.14916512832492
 20
41.99703726862973
 30
0.0
 10
53.14950083256024
 20
42.00856399752326
 30
0.0
  0
SPLINE
  5
CA
330
1F
100
AcDbEntity
  8
0
  6
Continuous
 62
     7
370
    25
100
AcDbSpline
210
0.0
220
0.0
230
1.0
 70
     8
 71
     3
 72
    23
 73
    19
 74
     0
 42
0.000000001
 43
0.00000001
 40
0.0
 40
0.0
 40
0.0
 40
0.0
 40
0.0679503475997537
 40
0.1332598223836998
 40
0.1978002967596474
 40
0.2608458295516822
 40
0.3233192927503671
 40
0.3862817224595722
 40
0.450061516233313
 40
0.5152075844858154
 40
0.5796407692199316
 40
0.6418172023841522
 40
0.7016924412115348
 40
0.7607690981778945
 40
0.8192540511346832
 40
0.8787376269055537
 40
0.9381582970160912
 40
1.0
 40
1.0
 40
1.0
 40
1.0
 10
52.55334698640639
 20
41.99684524752326
 30
0.0
 10
52.55367657544752
 20
41.98571715849988
 30
0.0
 10
52.5543229441363
 20
41.96389347077629
 30
0.0
 10
52.55821459813452
 20
41.93167653269158
 30
0.0
 10
52.56509808924515
 20
41.90078486667187
 30
0.0
 10
52.57487992646536
 20
41.87119698782858
 30
0.0
 10
52.58679896830141
 20
41.84266637836781
 30
0.0
 10
52.60200732832921
 20
41.81559782414337
 30
0.0
 10
52.6197845798368
 20
41.78962588021228
 30
0.0
 10
52.64012313305501
 20
41.76531586750713
 30
0.0
 10
52.66198090652362
 20
41.74266418174378
 30
0.0
 10
52.68598950799216
 20
41.72371413067297
 30
0.0
 10
52.71030463033723
 20
41.70661184887766
 30
0.0
 10
52.73640305235109
 20
41.69365746823558
 30
0.0
 10
52.76333945182997
 20
41.68279729858093
 30
0.0
 10
52.79152441257392
 20
41.67549654901364
 30
0.0
 10
52.82081263238937
 20
41.67071698335567
 30
0.0
 10
52.84068724228071
 20
41.67019061123464
 30
0.0
 10
52.85082294794486
 20
41.66992217060019
 30
0.0
  0
SPLINE
  5
CB
330
1F
100
AcDbEntity
  8
0
  6
Continuous
 62
     7
370
    25
100
AcDbSpline
210
0.0
220
0.0
230
1.0
 70
     8
 71
     3
 72
    23
 73
    19
 74
     0
 42
0.000000001
 43
0.00000001
 40
0.0
 40
0.0
 40
0.0
 40
0.0
 40
0.0618526459466917
 40
0.1212838306153701
 40
0.1807779320756125
 40
0.2392732340142805
 40
0.2986414352139417
 40
0.3581858222417117
 40
0.4207600867589709
 40
0.4852046730216432
 40
0.5503622689482871
 40
0.613649924530912
 40
0.6766234955168249
 40
0.7391080134690126
 40
0.8021647022429448
 40
0.8667165971324778
 40
0.9320376285055445
 40
1.0
 40
1.0
 40
1.0
 40
1.0
 10
52.85082294794486
 20
42.32376832444634
 30
0.0
 10
52.84068762808795
 20
42.32349919213888
 30
0.0
 10
52.82081377470717
 20
42.32297146375004
 30
0.0
 10
52.79152004929366
 20
42.31820176849683
 30
0.0
 10
52.76335573904269
 20
42.31086399684358
 30
0.0
 10
52.73630024434179
 20
42.30012344342179
 30
0.0
 10
52.71050114867839
 20
42.28665164896412
 30
0.0
 10
52.68577519353816
 20
42.27007312043221
 30
0.0
 10
52.66210531249808
 20
42.25066857234417
 30
0.0
 10
52.64008837594707
 20
42.22811117019884
 30
0.0
 10
52.61989390670765
 20
42.2037851989643
 30
0.0
 10
52.60191271338564
 20
42.17805887315916
 30
0.0
 10
52.58681331921167
 20
42.15101399251192
 30
0.0
 10
52.57487605795961
 20
42.12249623634083
 30
0.0
 10
52.56509915641731
 20
42.09290487551447
 30
0.0
 10
52.55821430730349
 20
42.06201416752812
 30
0.0
 10
52.55432302065774
 20
42.02979697028649
 30
0.0
 10
52.55367660128944
 20
42.00797331831589
 30
0.0
 10
52.55334698640639
 20
41.99684524752326
 30
0.0
  0
SPLINE
  5
CC
330
1F
100
AcDbEntity
  8
0
  6
Continuous
 62
     7
370
    25
100
AcDbSpline
210
0.0
220
0.0
230
1.0
 70
     8
 71
     3
 72
    23
 73
    19
 74
     0
 42
0.000000001
 43
0.00000001
 40
0.0
 40
0.0
 40
0.0
 40
0.0
 40
0.0705921865358071
 40
0.1385012886049299
 40
0.2037899961427012
 40
0.266787572669601
 40
0.3290979656467183
 40
0.3911745246039658
 40
0.4531677986176573
 40
0.5157967602265844
 40
0.5779688050530403
 40
0.6389663383752914
 40
0.698381066162843
 40
0.7573204555574266
 40
0.8164122397216688
 40
0.876279358230831
 40
0.936823465650193
 40
1.0
 40
1.0
 40
1.0
 40
1.0
 10
53.14950083256024
 20
42.00856399752326
 30
0.0
 10
53.14916296810564
 20
42.01999031536108
 30
0.0
 10
53.14850008082828
 20
42.04240865685478
 30
0.0
 10
53.14475608870933
 20
42.07525811307
 30
0.0
 10
53.13766225008892
 20
42.1062640467557
 30
0.0
 10
53.12848620653266
 20
42.13578059623985
 30
0.0
 10
53.11599238113584
 20
42.16350012158735
 30
0.0
 10
53.10099624859152
 20
42.18973882021569
 30
0.0
 10
53.08316682731873
 20
42.21423632816261
 30
0.0
 10
53.06270291098267
 20
42.2365624266948
 30
0.0
 10
53.04062515670278
 20
42.25706329912915
 30
0.0
 10
53.01683623296413
 20
42.27469739720411
 30
0.0
 10
52.99206293298334
 20
42.28992515831244
 30
0.0
 10
52.9660724177995
 20
42.30230205901541
 30
0.0
 10
52.9388813593248
 20
42.31194093731327
 30
0.0
 10
52.91061302846873
 20
42.31891297025596
 30
0.0
 10
52.88107834771368
 20
42.32279316945581
 30
0.0
 10
52.86105012923488
 20
42.32343869446457
 30
0.0
 10
52.85082294794486
 20
42.32376832444634
 30
0.0
  0
LINE
  5
CD
330
1F
100
AcDbEntity
  8
0
  6
Continuous
 62
     7
370
    25
100
AcDbLine
 10
50.337962371
 20
49.6380618402
 30
0.0
 11
50.337962371
 21
36.1380618402
 31
0.0
  0
LINE
  5
CE
330
1F
100
AcDbEntity
  8
0
  6
Continuous
 62
     7
370
    25
100
AcDbLine
 10
41.4267500248
 20
49.3440239544
 30
0.0
 11
41.4267500248
 21
36.4320997261
 31
0.0
  0
LINE
  5
CF
330
1F
100
AcDbEntity
  8
0
  6
Continuous
 62
     7
370
    25
100
AcDbLine
 10
39.337962371
 20
42.8880618402
 30
0.0
 11
39.337962371
 21
48.1380618402
 31
0.0
  0
LINE
  5
D0
330
1F
100
AcDbEntity
  8
0
  6
Continuous
 62
     7
370
    25
100
AcDbLine
 10
39.337962371
 20
37.6380618402
 30
0.0
 11
39.337962371
 21
42.8880618402
 31
0.0
  0
LINE
  5
D1
330
1F
100
AcDbEntity
  8
0
  6
Continuous
 62
     7
370
    25
100
AcDbLine
 10
73.837962371
 20
46.8880618402
 30
0.0
 11
73.837962371
 21
38.8880618402
 31
0.0
  0
LINE
  5
D2
330
1F
100
AcDbEntity
  8
0
  6
Continuous
 62
     7
370
    25
100
AcDbLine
 10
64.837962371
 20
46.8880618402
 30
0.0
 11
64.837962371
 21
38.8880618402
 31
0.0
  0
LINE
  5
D3
330
1F
100
AcDbEntity
  8
0
  6
Continuous
 62
     7
370
    25
100
AcDbLine
 10
60.337962371
 20
46.8880618402
 30
0.0
 11
60.337962371
 21
38.8880618402
 31
0.0
  0
LINE
  5
D4
330
1F
100
AcDbEntity
  8
0
  6
Continuous
 62
     7
370
    25
100
AcDbLine
 10
69.337962371
 20
46.8880618402
 30
0.0
 11
69.337962371
 21
38.8880618402
 31
0.0
  0
LINE
  5
D5
330
1F
100
AcDbEntity
  8
0
  6
Continuous
 62
     7
370
    25
100
AcDbLine
 10
79.337962371
 20
45.7936731216
 30
0.0
 11
79.337962371
 21
39.9824505662
 31
0.0
  0
LINE
  5
D6
330
1F
100
AcDbEntity
  8
0
  6
Continuous
 62
     7
370
    25
100
AcDbLine
 10
53.337962371
 20
50.6512387167
 30
0.0
 11
53.337962371
 21
50.6709656089
 31
0.0
  0
LINE
  5
D7
330
1F
100
AcDbEntity
  8
0
  6
Continuous
 62
     7
370
    25
100
AcDbLine
 10
53.337962371
 20
35.1051580716
 30
0.0
 11
53.337962371
 21
35.1248849638
 31
0.0
  0
LINE
  5
D8
330
1F
100
AcDbEntity
  8
0
  6
Continuous
 62
     8
370
    25
100
AcDbLine
 10
78.8966448934
 20
39.4859061384
 30
0.0
 11
78.8966448934
 21
46.2902175421
 31
0.0
  0
LINE
  5
D9
330
1F
100
AcDbEntity
  8
0
  6
Continuous
 62
     7
370
    18
100
AcDbLine
 10
40.2031880936
 20
48.6376001441
 30
0.0
 11
49.837962371
 21
48.9386868402
 31
0.0
  0
LINE
  5
DA
330
1F
100
AcDbEntity
  8
0
  6
Continuous
 62
     7
370
    18
100
AcDbLine
 10
40.2031880936
 20
37.1385235364
 30
0.0
 11
49.837962371
 21
36.8374368402
 31
0.0
  0
LINE
  5
DB
330
1F
100
AcDbEntity
  8
0
  6
Continuous
 62
     7
370
    18
100
AcDbLine
 10
49.837962371
 20
36.1692493402
 30
0.0
 11
49.837962371
 21
49.6068743402
 31
0.0
  0
LINE
  5
DC
330
1F
100
AcDbEntity
  8
0
  6
CENTERX2
 62
     7
370
    18
100
AcDbLine
 10
80.337962371
 20
42.8880618402
 30
0.0
 11
38.4245195746
 21
42.8880618402
 31
0.0
  0
CIRCLE
  5
DD
330
1F
100
AcDbEntity
  8
0
  6
Continuous
 62
     7
370
    25
100
AcDbCircle
 10
99.0713217888
 20
42.8880618402
 30
0.0
 40
2.905611281362845
  0
CIRCLE
  5
DE
330
1F
100
AcDbEntity
  8
0
  6
Continuous
 62
     7
370
    25
100
AcDbCircle
 10
99.0713217888
 20
42.8880618402
 30
0.0
 40
2.700000000000003
  0
CIRCLE
  5
DF
330
1F
100
AcDbEntity
  8
0
  6
Continuous
 62
     7
370
    25
100
AcDbCircle
 10
99.0713217888
 20
42.8880618402
 30
0.0
 40
2.499999999999986
  0
CIRCLE
  5
E0
330
1F
100
AcDbEntity
  8
0
  6
Continuous
 62
     7
370
    25
100
AcDbCircle
 10
99.0713217888
 20
42.8880618402
 30
0.0
 40
3.402155701895047
  0
CIRCLE
  5
E1
330
1F
100
AcDbEntity
  8
0
  6
Continuous
 62
     7
370
    25
100
AcDbCircle
 10
99.0713217888
 20
42.8880618402
 30
0.0
 40
4.0
  0
SPLINE
  5
E2
330
1F
100
AcDbEntity
  8
0
  6
Continuous
 62
     7
370
    25
100
AcDbSpline
210
0.0
220
0.0
230
1.0
 70
    24
 71
     3
 72
    14
 73
    10
 74
     0
 42
0.000000001
 43
0.00000001
 40
0.0
 40
0.0
 40
0.0
 40
0.0
 40
0.25
 40
0.25
 40
0.5
 40
0.5
 40
0.75
 40
0.75
 40
1.0
 40
1.0
 40
1.0
 40
1.0
 10
106.071321788804
 20
38.84660995592204
 30
0.0
 10
106.071321788804
 20
39.50425064764528
 30
0.0
 10
106.071321788804
 20
40.17764716590611
 30
0.0
 10
106.071321788804
 20
41.52732537978684
 30
0.0
 10
106.071321788804
 20
42.2060489613005
 30
0.0
 10
106.071321788804
 20
43.57260716071542
 30
0.0
 10
106.071321788804
 20
44.26510498135085
 30
0.0
 10
106.071321788804
 20
45.61438983815766
 30
0.0
 10
106.071321788804
 20
46.2762095346656
 30
0.0
 10
106.071321788804
 20
46.92951372457682
 30
0.0
  0
SPLINE
  5
E3
330
1F
100
AcDbEntity
  8
0
  6
Continuous
 62
     7
370
    25
100
AcDbSpline
210
0.0
220
0.0
230
1.0
 70
    24
 71
     3
 72
    16
 73
    12
 74
     0
 42
0.000000001
 43
0.00000001
 40
0.0
 40
0.0
 40
0.0
 40
0.0
 40
0.2500000000000001
 40
0.2500000000000001
 40
0.5
 40
0.5
 40
0.625
 40
0.625
 40
0.7499999999999999
 40
0.7499999999999999
 40
1.0
 40
1.0
 40
1.0
 40
1.0
 10
99.07132178880391
 20
34.80515807159464
 30
0.0
 10
99.64280520175826
 20
35.13510417390124
 30
0.0
 10
100.2184553036907
 20
35.46745591521094
 30
0.0
 10
101.3817614111191
 20
36.13909100948467
 30
0.0
 10
101.96950667059
 20
36.47842589325514
 30
0.0
 10
102.8621983237759
 20
36.99382165952533
 30
0.0
 10
103.1611620026926
 20
37.16642842002582
 30
0.0
 10
103.7525437526271
 20
37.50786283254435
 30
0.0
 10
104.0462519429463
 20
37.67743533528834
 30
0.0
 10
104.9221474374808
 20
38.18313383483981
 30
0.0
 10
105.499126040393
 20
38.51625258654782
 30
0.0
 10
106.071321788804
 20
38.84660995592208
 30
0.0
  0
SPLINE
  5
E4
330
1F
100
AcDbEntity
  8
0
  6
Continuous
 62
     7
370
    25
100
AcDbSpline
210
0.0
220
0.0
230
1.0
 70
    24
 71
     3
 72
    16
 73
    12
 74
     0
 42
0.000000001
 43
0.00000001
 40
0.0
 40
0.0
 40
0.0
 40
0.0
 40
0.2499999999999999
 40
0.2499999999999999
 40
0.4999999999999999
 40
0.4999999999999999
 40
0.6249999999999999
 40
0.6249999999999999
 40
0.7499999999999998
 40
0.7499999999999998
 40
1.0
 40
1.0
 40
1.0
 40
1.0
 10
92.07132178880393
 20
38.8466099559221
 30
0.0
 10
92.64280520175826
 20
38.51666385361549
 30
0.0
 10
93.21845530369066
 20
38.1843121123058
 30
0.0
 10
94.38176141111907
 20
37.51267701803206
 30
0.0
 10
94.96950667059001
 20
37.17334213426159
 30
0.0
 10
95.86219832377587
 20
36.6579463679914
 30
0.0
 10
96.16116200269258
 20
36.48533960749091
 30
0.0
 10
96.7525437526271
 20
36.14390519497238
 30
0.0
 10
97.0462519429463
 20
35.97433269222839
 30
0.0
 10
97.92214743748083
 20
35.46863419267691
 30
0.0
 10
98.49912604039301
 20
35.13551544096891
 30
0.0
 10
99.07132178880401
 20
34.80515807159465
 30
0.0
  0
SPLINE
  5
E5
330
1F
100
AcDbEntity
  8
0
  6
Continuous
 62
     7
370
    25
100
AcDbSpline
210
0.0
220
0.0
230
1.0
 70
    24
 71
     3
 72
    14
 73
    10
 74
     0
 42
0.000000001
 43
0.00000001
 40
0.0
 40
0.0
 40
0.0
 40
0.0
 40
0.2500000000000001
 40
0.2500000000000001
 40
0.5000000000000001
 40
0.5000000000000001
 40
0.7500000000000002
 40
0.7500000000000002
 40
1.0
 40
1.0
 40
1.0
 40
1.0
 10
92.07132178880398
 20
38.84660995592205
 30
0.0
 10
92.07132178880398
 20
39.50425064764528
 30
0.0
 10
92.07132178880398
 20
40.17764716590611
 30
0.0
 10
92.07132178880398
 20
41.52732537978684
 30
0.0
 10
92.07132178880398
 20
42.2060489613005
 30
0.0
 10
92.07132178880398
 20
43.57260716071542
 30
0.0
 10
92.07132178880398
 20
44.26510498135085
 30
0.0
 10
92.07132178880398
 20
45.61438983815766
 30
0.0
 10
92.07132178880398
 20
46.2762095346656
 30
0.0
 10
92.07132178880398
 20
46.92951372457682
 30
0.0
  0
SPLINE
  5
E6
330
1F
100
AcDbEntity
  8
0
  6
Continuous
 62
     7
370
    25
100
AcDbSpline
210
0.0
220
0.0
230
1.0
 70
    24
 71
     3
 72
    16
 73
    12
 74
     0
 42
0.000000001
 43
0.00000001
 40
0.0
 40
0.0
 40
0.0
 40
0.0
 40
0.2500000000000001
 40
0.2500000000000001
 40
0.5000000000000001
 40
0.5000000000000001
 40
0.625
 40
0.625
 40
0.7499999999999999
 40
0.7499999999999999
 40
1.0
 40
1.0
 40
1.0
 40
1.0
 10
99.07132178880404
 20
50.97096560890424
 30
0.0
 10
98.49983837584969
 20
50.64101950659764
 30
0.0
 10
97.9241882739173
 20
50.30866776528793
 30
0.0
 10
96.76088216648888
 20
49.6370326710142
 30
0.0
 10
96.17313690701795
 20
49.29769778724373
 30
0.0
 10
95.28044525383208
 20
48.78230202097354
 30
0.0
 10
94.98148157491538
 20
48.60969526047306
 30
0.0
 10
94.39009982498084
 20
48.26826084795453
 30
0.0
 10
94.09639163466164
 20
48.09868834521054
 30
0.0
 10
93.22049614012714
 20
47.59298984565905
 30
0.0
 10
92.64351753721495
 20
47.25987109395105
 30
0.0
 10
92.07132178880394
 20
46.9295137245768
 30
0.0
  0
SPLINE
  5
E7
330
1F
100
AcDbEntity
  8
0
  6
Continuous
 62
     7
370
    25
100
AcDbSpline
210
0.0
220
0.0
230
1.0
 70
    24
 71
     3
 72
    16
 73
    12
 74
     0
 42
0.000000001
 43
0.00000001
 40
0.0
 40
0.0
 40
0.0
 40
0.0
 40
0.25
 40
0.25
 40
0.5
 40
0.5
 40
0.625
 40
0.625
 40
0.75
 40
0.75
 40
1.0
 40
1.0
 40
1.0
 40
1.0
 10
106.071321788804
 20
46.92951372457679
 30
0.0
 10
105.4998383758497
 20
47.25945982688339
 30
0.0
 10
104.9241882739173
 20
47.59181156819309
 30
0.0
 10
103.7608821664889
 20
48.26344666246682
 30
0.0
 10
103.1731369070179
 20
48.60278154623729
 30
0.0
 10
102.2804452538321
 20
49.11817731250748
 30
0.0
 10
101.9814815749154
 20
49.29078407300796
 30
0.0
 10
101.3900998249809
 20
49.6322184855265
 30
0.0
 10
101.0963916346617
 20
49.80179098827048
 30
0.0
 10
100.2204961401271
 20
50.30748948782197
 30
0.0
 10
99.64351753721493
 20
50.64060823952997
 30
0.0
 10
99.07132178880394
 20
50.97096560890422
 30
0.0
  0
CIRCLE
  5
E8
330
1F
100
AcDbEntity
  8
0
  6
Continuous
 62
     7
370
    25
100
AcDbCircle
 10
99.0713217888
 20
42.8880618402
 30
0.0
 40
6.749999999999986
  0
INSERT
  5
F4
330
1F
100
AcDbEntity
  8
0
  6
Continuous
 62
     7
370
    18
100
AcDbBlockReference
  2
SW_CENTERMARKSYMBOL_0
 10
99.0713217888
 20
42.8880618402
 30
0.0
  0
INSERT
  5
100
330
1F
100
AcDbEntity
  8
0
  6
Continuous
 62
     7
370
    18
100
AcDbBlockReference
  2
SW_CENTERMARKSYMBOL_1
 10
99.0713217888
 20
42.8880618402
 30
0.0
  0
LINE
  5
101
330
1F
100
AcDbEntity
  8
0
  6
Continuous
 62
     7
370
    25
100
AcDbLine
 10
56.1936248037
 20
56.4932373591
 30
0.0
 11
56.337962371
 21
56.7432373591
 31
0.0
  0
LINE
  5
102
330
1F
100
AcDbEntity
  8
0
  6
Continuous
 62
     7
370
    25
100
AcDbLine
 10
56.337962371
 20
70.2432373591
 30
0.0
 11
56.1936248037
 21
70.4932373591
 31
0.0
  0
LINE
  5
103
330
1F
100
AcDbEntity
  8
0
  6
Continuous
 62
     7
370
    25
100
AcDbLine
 10
50.4822999383
 20
70.4932373591
 30
0.0
 11
50.337962371
 21
70.2432373591
 31
0.0
  0
LINE
  5
104
330
1F
100
AcDbEntity
  8
0
  6
Continuous
 62
     7
370
    25
100
AcDbLine
 10
50.337962371
 20
56.7432373591
 30
0.0
 11
50.4822999383
 21
56.4932373591
 31
0.0
  0
LINE
  5
105
330
1F
100
AcDbEntity
  8
0
  6
Continuous
 62
     7
370
    25
100
AcDbLine
 10
50.337962371
 20
70.2276748591
 30
0.0
 11
41.4267500248
 21
69.9491994733
 31
0.0
  0
LINE
  5
106
330
1F
100
AcDbEntity
  8
0
  6
Continuous
 62
     7
370
    25
100
AcDbLine
 10
41.4267500248
 20
57.0372752449
 30
0.0
 11
50.337962371
 21
56.7587998591
 31
0.0
  0
LINE
  5
107
330
1F
100
AcDbEntity
  8
0
  6
Continuous
 62
     7
370
    25
100
AcDbLine
 10
41.4267500248
 20
69.9491994733
 30
0.0
 11
39.337962371
 21
68.7432373591
 31
0.0
  0
LINE
  5
108
330
1F
100
AcDbEntity
  8
0
  6
Continuous
 62
     7
370
    25
100
AcDbLine
 10
39.337962371
 20
58.2432373591
 30
0.0
 11
41.4267500248
 21
57.0372752449
 31
0.0
  0
LINE
  5
109
330
1F
100
AcDbEntity
  8
0
  6
Continuous
 62
     7
370
    25
100
AcDbLine
 10
73.837962371
 20
59.4932373591
 30
0.0
 11
78.8966448934
 21
60.0910816572
 31
0.0
  0
LINE
  5
10A
330
1F
100
AcDbEntity
  8
0
  6
Continuous
 62
     7
370
    25
100
AcDbLine
 10
78.8966448934
 20
66.895393061
 30
0.0
 11
73.837962371
 21
67.4932373591
 31
0.0
  0
LINE
  5
10B
330
1F
100
AcDbEntity
  8
0
  6
Continuous
 62
     7
370
    25
100
AcDbLine
 10
60.337962371
 20
67.4932373591
 30
0.0
 11
56.337962371
 21
67.4932373591
 31
0.0
  0
LINE
  5
10C
330
1F
100
AcDbEntity
  8
0
  6
Continuous
 62
     7
370
    25
100
AcDbLine
 10
56.337962371
 20
59.4932373591
 30
0.0
 11
60.337962371
 21
59.4932373591
 31
0.0
  0
LINE
  5
10D
330
1F
100
AcDbEntity
  8
0
  6
Continuous
 62
     7
370
    25
100
AcDbLine
 10
60.337962371
 20
59.4932373591
 30
0.0
 11
64.837962371
 21
60.1432373591
 31
0.0
  0
LINE
  5
10E
330
1F
100
AcDbEntity
  8
0
  6
Continuous
 62
     7
370
    25
100
AcDbLine
 10
64.837962371
 20
66.8432373591
 30
0.0
 11
60.337962371
 21
67.4932373591
 31
0.0
  0
LINE
  5
10F
330
1F
100
AcDbEntity
  8
0
  6
Continuous
 62
     7
370
    25
100
AcDbLine
 10
64.837962371
 20
59.4932373591
 30
0.0
 11
69.337962371
 21
60.1432373591
 31
0.0
  0
LINE
  5
110
330
1F
100
AcDbEntity
  8
0
  6
Continuous
 62
     7
370
    25
100
AcDbLine
 10
69.337962371
 20
66.8432373591
 30
0.0
 11
64.837962371
 21
67.4932373591
 31
0.0
  0
LINE
  5
111
330
1F
100
AcDbEntity
  8
0
  6
Continuous
 62
     7
370
    25
100
AcDbLine
 10
69.337962371
 20
59.4932373591
 30
0.0
 11
73.837962371
 21
60.1432373591
 31
0.0
  0
LINE
  5
112
330
1F
100
AcDbEntity
  8
0
  6
Continuous
 62
     7
370
    25
100
AcDbLine
 10
73.837962371
 20
66.8432373591
 30
0.0
 11
69.337962371
 21
67.4932373591
 31
0.0
  0
ARC
  5
113
330
1F
100
AcDbEntity
  8
0
  6
Continuous
 62
     7
370
    25
100
AcDbCircle
 10
78.837962371
 20
66.3988486404
 30
0.0
 40
0.5000000000000004
100
AcDbArc
 50
0.0
 51
83.2599439021
  0
ARC
  5
114
330
1F
100
AcDbEntity
  8
0
  6
Continuous
 62
     7
370
    25
100
AcDbCircle
 10
78.837962371
 20
60.5876260777
 30
0.0
 40
0.5000000000000004
100
AcDbArc
 50
276.7400560979
 51
0.0
  0
SPLINE
  5
115
330
1F
100
AcDbEntity
  8
0
  6
Continuous
 62
     7
370
    25
100
AcDbSpline
210
0.0
220
0.0
230
1.0
 70
    24
 71
     3
 72
    13
 73
     9
 74
     0
 42
0.000000001
 43
0.00000001
 40
0.0
 40
0.0
 40
0.0
 40
0.0
 40
0.0049686242405734
 40
0.2621826984821411
 40
0.4454270669273427
 40
0.6292327825529666
 40
0.8144405859096615
 40
1.0
 40
1.0
 40
1.0
 40
1.0
 10
56.1927673485366
 20
70.49323735908564
 30
0.0
 10
56.19305249571822
 20
70.49323735908564
 30
0.0
 10
56.20809904661866
 20
70.4932373590856
 30
0.0
 10
56.16074540617569
 20
70.49323735908564
 30
0.0
 10
56.06689595106738
 20
70.49323735908563
 30
0.0
 10
55.9359970315713
 20
70.49323735908564
 30
0.0
 10
55.77188299867566
 20
70.49323735908564
 30
0.0
 10
55.63627721362236
 20
70.49323735908564
 30
0.0
 10
55.56841002138508
 20
70.49323735908564
 30
0.0
  0
SPLINE
  5
116
330
1F
100
AcDbEntity
  8
0
  6
Continuous
 62
     7
370
    25
100
AcDbSpline
210
0.0
220
0.0
230
1.0
 70
    24
 71
     3
 72
    13
 73
     9
 74
     0
 42
0.000000001
 43
0.00000001
 40
0.0
 40
0.0
 40
0.0
 40
0.0
 40
0.1834900896423825
 40
0.3672881429943825
 40
0.5522810495210136
 40
0.7378125960060998
 40
0.9867786648415057
 40
1.0
 40
1.0
 40
1.0
 40
1.0
 10
55.56841002138508
 20
56.49323735908563
 30
0.0
 10
55.63554623009168
 20
56.49323735908563
 30
0.0
 10
55.76993132670145
 20
56.49323735908563
 30
0.0
 10
55.9338999294681
 20
56.49323735908563
 30
0.0
 10
56.06582970981428
 20
56.49323735908563
 30
0.0
 10
56.15957167559863
 20
56.49323735908563
 30
0.0
 10
56.20638866678698
 20
56.49323735908563
 30
0.0
 10
56.19217503284061
 20
56.49323735908563
 30
0.0
 10
56.19145828132866
 20
56.49323735908563
 30
0.0
  0
SPLINE
  5
117
330
1F
100
AcDbEntity
  8
0
  6
Continuous
 62
     7
370
    25
100
AcDbSpline
210
0.0
220
0.0
230
1.0
 70
     8
 71
     3
 72
    16
 73
    12
 74
     0
 42
0.000000001
 43
0.00000001
 40
0.0
 40
0.0
 40
0.0
 40
0.0
 40
0.2500000000000001
 40
0.2500000000000001
 40
0.5000000000000001
 40
0.5000000000000001
 40
0.625
 40
0.625
 40
0.7499999999999999
 40
0.7499999999999999
 40
1.0
 40
1.0
 40
1.0
 40
1.0
 10
55.56841002138558
 20
63.4932373590857
 30
0.0
 10
55.75890449237036
 20
62.92175394613135
 30
0.0
 10
55.91590650558346
 20
62.34610384419896
 30
0.0
 10
56.13340531642147
 20
61.18279773677053
 30
0.0
 10
56.19318467749154
 20
60.5950524772996
 30
0.0
 10
56.1938411783455
 20
59.70236082411374
 30
0.0
 10
56.17922741186202
 20
59.40339714519703
 30
0.0
 10
56.12224155398519
 20
58.81201539526249
 30
0.0
 10
56.07992728472595
 20
58.5183072049433
 30
0.0
 10
55.91653246483577
 20
57.64241171040878
 30
0.0
 10
55.75914193752234
 20
57.0654331074966
 30
0.0
 10
55.56841002138534
 20
56.4932373590856
 30
0.0
  0
SPLINE
  5
118
330
1F
100
AcDbEntity
  8
0
  6
Continuous
 62
     7
370
    25
100
AcDbSpline
210
0.0
220
0.0
230
1.0
 70
     8
 71
     3
 72
    16
 73
    12
 74
     0
 42
0.000000001
 43
0.00000001
 40
0.0
 40
0.0
 40
0.0
 40
0.0
 40
0.25
 40
0.25
 40
0.5
 40
0.5
 40
0.625
 40
0.625
 40
0.75
 40
0.75
 40
1.0
 40
1.0
 40
1.0
 40
1.0
 10
55.56841002138558
 20
70.4932373590857
 30
0.0
 10
55.75890449237036
 20
69.92175394613135
 30
0.0
 10
55.91590650558346
 20
69.34610384419895
 30
0.0
 10
56.13340531642147
 20
68.18279773677054
 30
0.0
 10
56.19318467749154
 20
67.5950524772996
 30
0.0
 10
56.1938411783455
 20
66.70236082411374
 30
0.0
 10
56.17922741186202
 20
66.40339714519702
 30
0.0
 10
56.12224155398519
 20
65.81201539526249
 30
0.0
 10
56.07992728472595
 20
65.5183072049433
 30
0.0
 10
55.91653246483577
 20
64.64241171040878
 30
0.0
 10
55.75914193752234
 20
64.0654331074966
 30
0.0
 10
55.56841002138534
 20
63.4932373590856
 30
0.0
  0
LINE
  5
119
330
1F
100
AcDbEntity
  8
0
  6
Continuous
 62
     7
370
    25
100
AcDbLine
 10
56.337962371
 20
70.2432373591
 30
0.0
 11
56.337962371
 21
56.7432373591
 31
0.0
  0
LINE
  5
11A
330
1F
100
AcDbEntity
  8
0
  6
Continuous
 62
     7
370
    25
100
AcDbLine
 10
53.2575776133
 20
63.4932373591
 30
0.0
 11
51.1075147207
 21
63.4932373591
 31
0.0
  0
SPLINE
  5
11B
330
1F
100
AcDbEntity
  8
0
  6
Continuous
 62
     7
370
    25
100
AcDbSpline
210
0.0
220
0.0
230
1.0
 70
     8
 71
     3
 72
    16
 73
    12
 74
     0
 42
0.000000001
 43
0.00000001
 40
0.0
 40
0.0
 40
0.0
 40
0.0
 40
0.2500000000000002
 40
0.2500000000000002
 40
0.5000000000000003
 40
0.5000000000000003
 40
0.6250000000000003
 40
0.6250000000000003
 40
0.7500000000000002
 40
0.7500000000000002
 40
1.0
 40
1.0
 40
1.0
 40
1.0
 10
51.10751472065797
 20
70.4932373590857
 30
0.0
 10
50.91702024967319
 20
69.92175394613135
 30
0.0
 10
50.76001823646009
 20
69.34610384419895
 30
0.0
 10
50.54251942562207
 20
68.18279773677054
 30
0.0
 10
50.48274006455201
 20
67.5950524772996
 30
0.0
 10
50.48208356369805
 20
66.70236082411374
 30
0.0
 10
50.49669733018153
 20
66.40339714519702
 30
0.0
 10
50.55368318805836
 20
65.81201539526249
 30
0.0
 10
50.5959974573176
 20
65.5183072049433
 30
0.0
 10
50.75939227720779
 20
64.64241171040878
 30
0.0
 10
50.91678280452121
 20
64.0654331074966
 30
0.0
 10
51.10751472065822
 20
63.4932373590856
 30
0.0
  0
LINE
  5
11C
330
1F
100
AcDbEntity
  8
0
  6
Continuous
 62
     7
370
    25
100
AcDbLine
 10
53.2575776133
 20
70.4932373591
 30
0.0
 11
51.1075147207
 21
70.4932373591
 31
0.0
  0
SPLINE
  5
11D
330
1F
100
AcDbEntity
  8
0
  6
Continuous
 62
     7
370
    25
100
AcDbSpline
210
0.0
220
0.0
230
1.0
 70
     8
 71
     3
 72
     8
 73
     4
 74
     0
 42
0.000000001
 43
0.00000001
 40
0.0
 40
0.0
 40
0.0
 40
0.0
 40
1.0
 40
1.0
 40
1.0
 40
1.0
 10
53.33796237102177
 20
69.93945413727853
 30
0.0
 10
53.31296195809908
 20
70.12430988344671
 30
0.0
 10
53.28609564663886
 20
70.3088938936705
 30
0.0
 10
53.25757761329245
 20
70.49323735908564
 30
0.0
  0
SPLINE
  5
11E
330
1F
100
AcDbEntity
  8
0
  6
Continuous
 62
     7
370
    25
100
AcDbSpline
210
0.0
220
0.0
230
1.0
 70
     8
 71
     3
 72
     8
 73
     4
 74
     0
 42
0.000000001
 43
0.00000001
 40
0.0
 40
0.0
 40
0.0
 40
0.0
 40
1.0
 40
1.0
 40
1.0
 40
1.0
 10
53.41834712875112
 20
70.49323735908564
 30
0.0
 10
53.38981331391302
 20
70.30879188050467
 30
0.0
 10
53.36294839210623
 20
70.12420346864444
 30
0.0
 10
53.33796237102177
 20
69.93945413727853
 30
0.0
  0
LINE
  5
11F
330
1F
100
AcDbEntity
  8
0
  6
Continuous
 62
     7
370
    25
100
AcDbLine
 10
55.5684100214
 20
70.4932373591
 30
0.0
 11
53.4183471288
 21
70.4932373591
 31
0.0
  0
LINE
  5
120
330
1F
100
AcDbEntity
  8
0
  6
Continuous
 62
     7
370
    25
100
AcDbLine
 10
55.5684100214
 20
63.4932373591
 30
0.0
 11
53.4183471288
 21
63.4932373591
 31
0.0
  0
SPLINE
  5
121
330
1F
100
AcDbEntity
  8
0
  6
Continuous
 62
     7
370
    25
100
AcDbSpline
210
0.0
220
0.0
230
1.0
 70
     8
 71
     3
 72
     8
 73
     4
 74
     0
 42
0.000000001
 43
0.00000001
 40
0.0
 40
0.0
 40
0.0
 40
0.0
 40
1.0
 40
1.0
 40
1.0
 40
1.0
 10
53.33796237102177
 20
64.04702058089273
 30
0.0
 10
53.36296278394448
 20
63.86216483472455
 30
0.0
 10
53.38982909540469
 20
63.67758082450079
 30
0.0
 10
53.41834712875112
 20
63.49323735908563
 30
0.0
  0
SPLINE
  5
122
330
1F
100
AcDbEntity
  8
0
  6
Continuous
 62
     7
370
    25
100
AcDbSpline
210
0.0
220
0.0
230
1.0
 70
     8
 71
     3
 72
     8
 73
     4
 74
     0
 42
0.000000001
 43
0.00000001
 40
0.0
 40
0.0
 40
0.0
 40
0.0
 40
1.0
 40
1.0
 40
1.0
 40
1.0
 10
53.25757761329245
 20
63.49323735908563
 30
0.0
 10
53.28611142813053
 20
63.6776828376666
 30
0.0
 10
53.31297634993733
 20
63.86227124952683
 30
0.0
 10
53.33796237102177
 20
64.04702058089273
 30
0.0
  0
SPLINE
  5
123
330
1F
100
AcDbEntity
  8
0
  6
Continuous
 62
     7
370
    25
100
AcDbSpline
210
0.0
220
0.0
230
1.0
 70
     8
 71
     3
 72
    16
 73
    12
 74
     0
 42
0.000000001
 43
0.00000001
 40
0.0
 40
0.0
 40
0.0
 40
0.0
 40
0.2500000000000001
 40
0.2500000000000001
 40
0.5000000000000001
 40
0.5000000000000001
 40
0.625
 40
0.625
 40
0.7499999999999999
 40
0.7499999999999999
 40
1.0
 40
1.0
 40
1.0
 40
1.0
 10
51.10751472065797
 20
63.4932373590857
 30
0.0
 10
50.91702024967319
 20
62.92175394613135
 30
0.0
 10
50.76001823646009
 20
62.34610384419896
 30
0.0
 10
50.54251942562207
 20
61.18279773677053
 30
0.0
 10
50.48274006455201
 20
60.5950524772996
 30
0.0
 10
50.48208356369805
 20
59.70236082411374
 30
0.0
 10
50.49669733018153
 20
59.40339714519703
 30
0.0
 10
50.55368318805836
 20
58.81201539526249
 30
0.0
 10
50.5959974573176
 20
58.5183072049433
 30
0.0
 10
50.75939227720779
 20
57.64241171040878
 30
0.0
 10
50.91678280452121
 20
57.0654331074966
 30
0.0
 10
51.10751472065822
 20
56.4932373590856
 30
0.0
  0
SPLINE
  5
124
330
1F
100
AcDbEntity
  8
0
  6
Continuous
 62
     7
370
    25
100
AcDbSpline
210
0.0
220
0.0
230
1.0
 70
    24
 71
     3
 72
    13
 73
     9
 74
     0
 42
0.000000001
 43
0.00000001
 40
0.0
 40
0.0
 40
0.0
 40
0.0
 40
0.1834900896423825
 40
0.3672881429943825
 40
0.5522810495210136
 40
0.7378125960060998
 40
0.9867786648415057
 40
1.0
 40
1.0
 40
1.0
 40
1.0
 10
51.10751472065846
 20
56.49323735908563
 30
0.0
 10
51.04037851195187
 20
56.49323735908563
 30
0.0
 10
50.9059934153421
 20
56.49323735908563
 30
0.0
 10
50.74202481257546
 20
56.49323735908563
 30
0.0
 10
50.61009503222927
 20
56.49323735908563
 30
0.0
 10
50.51635306644493
 20
56.49323735908563
 30
0.0
 10
50.46953607525658
 20
56.49323735908563
 30
0.0
 10
50.48374970920294
 20
56.49323735908563
 30
0.0
 10
50.48446646071489
 20
56.49323735908563
 30
0.0
  0
SPLINE
  5
125
330
1F
100
AcDbEntity
  8
0
  6
Continuous
 62
     7
370
    25
100
AcDbSpline
210
0.0
220
0.0
230
1.0
 70
    24
 71
     3
 72
    13
 73
     9
 74
     0
 42
0.000000001
 43
0.00000001
 40
0.0
 40
0.0
 40
0.0
 40
0.0
 40
0.0049686242405734
 40
0.2621826984821411
 40
0.4454270669273427
 40
0.6292327825529666
 40
0.8144405859096615
 40
1.0
 40
1.0
 40
1.0
 40
1.0
 10
50.48315739350695
 20
70.49323735908564
 30
0.0
 10
50.48287224632534
 20
70.49323735908564
 30
0.0
 10
50.46782569542489
 20
70.4932373590856
 30
0.0
 10
50.51517933586786
 20
70.49323735908564
 30
0.0
 10
50.60902879097617
 20
70.49323735908563
 30
0.0
 10
50.73992771047225
 20
70.49323735908564
 30
0.0
 10
50.90404174336788
 20
70.49323735908564
 30
0.0
 10
51.0396475284212
 20
70.49323735908564
 30
0.0
 10
51.10751472065846
 20
70.49323735908564
 30
0.0
  0
LINE
  5
126
330
1F
100
AcDbEntity
  8
0
  6
Continuous
 62
     7
370
    25
100
AcDbLine
 10
50.337962371
 20
70.2432373591
 30
0.0
 11
50.337962371
 21
56.7432373591
 31
0.0
  0
SPLINE
  5
127
330
1F
100
AcDbEntity
  8
0
  6
Continuous
 62
     7
370
    25
100
AcDbSpline
210
0.0
220
0.0
230
1.0
 70
     8
 71
     3
 72
     8
 73
     4
 74
     0
 42
0.000000001
 43
0.00000001
 40
0.0
 40
0.0
 40
0.0
 40
0.0
 40
1.0
 40
1.0
 40
1.0
 40
1.0
 10
53.41834712875112
 20
63.49323735908563
 30
0.0
 10
53.38981331391302
 20
63.30879188050467
 30
0.0
 10
53.36294839210623
 20
63.12420346864445
 30
0.0
 10
53.33796237102177
 20
62.93945413727853
 30
0.0
  0
LINE
  5
128
330
1F
100
AcDbEntity
  8
0
  6
Continuous
 62
     7
370
    25
100
AcDbLine
 10
53.337962371
 20
62.9394541373
 30
0.0
 11
53.337962371
 21
64.0470205809
 31
0.0
  0
SPLINE
  5
129
330
1F
100
AcDbEntity
  8
0
  6
Continuous
 62
     7
370
    25
100
AcDbSpline
210
0.0
220
0.0
230
1.0
 70
     8
 71
     3
 72
     8
 73
     4
 74
     0
 42
0.000000001
 43
0.00000001
 40
0.0
 40
0.0
 40
0.0
 40
0.0
 40
1.0
 40
1.0
 40
1.0
 40
1.0
 10
53.33796237102177
 20
62.93945413727853
 30
0.0
 10
53.31296195809908
 20
63.12430988344672
 30
0.0
 10
53.28609564663886
 20
63.30889389367049
 30
0.0
 10
53.25757761329245
 20
63.49323735908563
 30
0.0
  0
LINE
  5
12A
330
1F
100
AcDbEntity
  8
0
  6
Continuous
 62
     7
370
    25
100
AcDbLine
 10
53.2575776133
 20
56.4932373591
 30
0.0
 11
51.1075147207
 21
56.4932373591
 31
0.0
  0
LINE
  5
12B
330
1F
100
AcDbEntity
  8
0
  6
Continuous
 62
     7
370
    25
100
AcDbLine
 10
55.5684100214
 20
56.4932373591
 30
0.0
 11
53.4183471288
 21
56.4932373591
 31
0.0
  0
SPLINE
  5
12C
330
1F
100
AcDbEntity
  8
0
  6
Continuous
 62
     7
370
    25
100
AcDbSpline
210
0.0
220
0.0
230
1.0
 70
     8
 71
     3
 72
     8
 73
     4
 74
     0
 42
0.000000001
 43
0.00000001
 40
0.0
 40
0.0
 40
0.0
 40
0.0
 40
1.0
 40
1.0
 40
1.0
 40
1.0
 10
53.33796237102177
 20
57.04702058089273
 30
0.0
 10
53.36296278394448
 20
56.86216483472455
 30
0.0
 10
53.38982909540469
 20
56.67758082450077
 30
0.0
 10
53.41834712875112
 20
56.49323735908563
 30
0.0
  0
SPLINE
  5
12D
330
1F
100
AcDbEntity
  8
0
  6
Continuous
 62
     7
370
    25
100
AcDbSpline
210
0.0
220
0.0
230
1.0
 70
     8
 71
     3
 72
     8
 73
     4
 74
     0
 42
0.000000001
 43
0.00000001
 40
0.0
 40
0.0
 40
0.0
 40
0.0
 40
1.0
 40
1.0
 40
1.0
 40
1.0
 10
53.25757761329245
 20
56.49323735908563
 30
0.0
 10
53.28611142813053
 20
56.67768283766659
 30
0.0
 10
53.31297634993733
 20
56.86227124952681
 30
0.0
 10
53.33796237102177
 20
57.04702058089273
 30
0.0
  0
LINE
  5
12E
330
1F
100
AcDbEntity
  8
0
  6
Continuous
 62
     7
370
    25
100
AcDbLine
 10
41.4267500248
 20
69.9491994733
 30
0.0
 11
41.4267500248
 21
57.0372752449
 31
0.0
  0
LINE
  5
12F
330
1F
100
AcDbEntity
  8
0
  6
Continuous
 62
     7
370
    25
100
AcDbLine
 10
39.337962371
 20
58.2432373591
 30
0.0
 11
39.337962371
 21
68.7432373591
 31
0.0
  0
LINE
  5
130
330
1F
100
AcDbEntity
  8
0
  6
Continuous
 62
     7
370
    25
100
AcDbLine
 10
53.337962371
 20
69.9394541373
 30
0.0
 11
53.337962371
 21
70.4932373591
 31
0.0
  0
SPLINE
  5
131
330
1F
100
AcDbEntity
  8
0
  6
Continuous
 62
     7
370
    25
100
AcDbSpline
210
0.0
220
0.0
230
1.0
 70
    24
 71
     3
 72
     8
 73
     4
 74
     0
 42
0.000000001
 43
0.00000001
 40
0.0
 40
0.0
 40
0.0
 40
0.0
 40
1.0
 40
1.0
 40
1.0
 40
1.0
 10
53.33796237102177
 20
70.49323735908564
 30
0.0
 10
53.362962043016
 20
70.49323735908564
 30
0.0
 10
53.38982828380299
 20
70.49323735908564
 30
0.0
 10
53.41834712875112
 20
70.49323735908564
 30
0.0
  0
SPLINE
  5
132
330
1F
100
AcDbEntity
  8
0
  6
Continuous
 62
     7
370
    25
100
AcDbSpline
210
0.0
220
0.0
230
1.0
 70
    24
 71
     3
 72
     8
 73
     4
 74
     0
 42
0.000000001
 43
0.00000001
 40
0.0
 40
0.0
 40
0.0
 40
0.0
 40
1.0
 40
1.0
 40
1.0
 40
1.0
 10
53.25757761329245
 20
70.49323735908564
 30
0.0
 10
53.28611374360808
 20
70.49323735908564
 30
0.0
 10
53.3129784587915
 20
70.49323735908564
 30
0.0
 10
53.33796237102177
 20
70.49323735908564
 30
0.0
  0
SPLINE
  5
133
330
1F
100
AcDbEntity
  8
0
  6
Continuous
 62
     7
370
    25
100
AcDbSpline
210
0.0
220
0.0
230
1.0
 70
    24
 71
     3
 72
     8
 73
     4
 74
     0
 42
0.000000001
 43
0.00000001
 40
0.0
 40
0.0
 40
0.0
 40
0.0
 40
1.0
 40
1.0
 40
1.0
 40
1.0
 10
53.41834712875112
 20
56.49323735908563
 30
0.0
 10
53.38981099843547
 20
56.49323735908563
 30
0.0
 10
53.36294628325206
 20
56.49323735908563
 30
0.0
 10
53.33796237102177
 20
56.49323735908563
 30
0.0
  0
LINE
  5
134
330
1F
100
AcDbEntity
  8
0
  6
Continuous
 62
     7
370
    25
100
AcDbLine
 10
53.337962371
 20
56.4932373591
 30
0.0
 11
53.337962371
 21
57.0470205809
 31
0.0
  0
SPLINE
  5
135
330
1F
100
AcDbEntity
  8
0
  6
Continuous
 62
     7
370
    25
100
AcDbSpline
210
0.0
220
0.0
230
1.0
 70
    24
 71
     3
 72
     8
 73
     4
 74
     0
 42
0.000000001
 43
0.00000001
 40
0.0
 40
0.0
 40
0.0
 40
0.0
 40
1.0
 40
1.0
 40
1.0
 40
1.0
 10
53.33796237102177
 20
56.49323735908563
 30
0.0
 10
53.31296269902755
 20
56.49323735908563
 30
0.0
 10
53.28609645824056
 20
56.49323735908563
 30
0.0
 10
53.25757761329245
 20
56.49323735908563
 30
0.0
  0
LINE
  5
136
330
1F
100
AcDbEntity
  8
0
  6
Continuous
 62
     7
370
    25
100
AcDbLine
 10
73.837962371
 20
63.4932373591
 30
0.0
 11
73.837962371
 21
59.4932373591
 31
0.0
  0
LINE
  5
137
330
1F
100
AcDbEntity
  8
0
  6
Continuous
 62
     7
370
    25
100
AcDbLine
 10
73.837962371
 20
67.4932373591
 30
0.0
 11
73.837962371
 21
63.4932373591
 31
0.0
  0
LINE
  5
138
330
1F
100
AcDbEntity
  8
0
  6
Continuous
 62
     7
370
    25
100
AcDbLine
 10
60.337962371
 20
63.4932373591
 30
0.0
 11
60.337962371
 21
59.4932373591
 31
0.0
  0
LINE
  5
139
330
1F
100
AcDbEntity
  8
0
  6
Continuous
 62
     7
370
    25
100
AcDbLine
 10
60.337962371
 20
67.4932373591
 30
0.0
 11
60.337962371
 21
63.4932373591
 31
0.0
  0
LINE
  5
13A
330
1F
100
AcDbEntity
  8
0
  6
Continuous
 62
     7
370
    25
100
AcDbLine
 10
64.837962371
 20
63.4932373591
 30
0.0
 11
64.837962371
 21
59.4932373591
 31
0.0
  0
LINE
  5
13B
330
1F
100
AcDbEntity
  8
0
  6
Continuous
 62
     7
370
    25
100
AcDbLine
 10
64.837962371
 20
67.4932373591
 30
0.0
 11
64.837962371
 21
63.4932373591
 31
0.0
  0
LINE
  5
13C
330
1F
100
AcDbEntity
  8
0
  6
Continuous
 62
     7
370
    25
100
AcDbLine
 10
69.337962371
 20
63.4932373591
 30
0.0
 11
69.337962371
 21
59.4932373591
 31
0.0
  0
LINE
  5
13D
330
1F
100
AcDbEntity
  8
0
  6
Continuous
 62
     7
370
    25
100
AcDbLine
 10
69.337962371
 20
67.4932373591
 30
0.0
 11
69.337962371
 21
63.4932373591
 31
0.0
  0
LINE
  5
13E
330
1F
100
AcDbEntity
  8
0
  6
Continuous
 62
     7
370
    25
100
AcDbLine
 10
79.337962371
 20
63.4932373591
 30
0.0
 11
79.337962371
 21
60.5876260777
 31
0.0
  0
LINE
  5
13F
330
1F
100
AcDbEntity
  8
0
  6
Continuous
 62
     7
370
    25
100
AcDbLine
 10
79.337962371
 20
66.3988486404
 30
0.0
 11
79.337962371
 21
63.4932373591
 31
0.0
  0
LINE
  5
140
330
1F
100
AcDbEntity
  8
0
  6
Continuous
 62
     8
370
    25
100
AcDbLine
 10
78.8966448934
 20
63.4932373591
 30
0.0
 11
78.8966448934
 21
66.895393061
 31
0.0
  0
LINE
  5
141
330
1F
100
AcDbEntity
  8
0
  6
Continuous
 62
     8
370
    25
100
AcDbLine
 10
78.8966448934
 20
60.0910816572
 30
0.0
 11
78.8966448934
 21
63.4932373591
 31
0.0
  0
LINE
  5
142
330
1F
100
AcDbEntity
  8
0
  6
Continuous
 62
     7
370
    18
100
AcDbLine
 10
40.2031880936
 20
69.2427756629
 30
0.0
 11
49.837962371
 21
69.5438623591
 31
0.0
  0
LINE
  5
143
330
1F
100
AcDbEntity
  8
0
  6
Continuous
 62
     7
370
    18
100
AcDbLine
 10
40.2031880936
 20
57.7436990553
 30
0.0
 11
49.837962371
 21
57.4426123591
 31
0.0
  0
LINE
  5
144
330
1F
100
AcDbEntity
  8
0
  6
Continuous
 62
     7
370
    18
100
AcDbLine
 10
49.837962371
 20
56.7744248591
 30
0.0
 11
49.837962371
 21
70.2120498591
 31
0.0
  0
LINE
  5
145
330
1F
100
AcDbEntity
  8
0
  6
CENTERX2
 62
     7
370
    18
100
AcDbLine
 10
80.337962371
 20
63.4932373591
 30
0.0
 11
38.4245195746
 21
63.4932373591
 31
0.0
  0
ENDSEC
  0
SECTION
  2
OBJECTS
  0
DICTIONARY
  5
C
330
0
100
AcDbDictionary
281
     1
  3
ACAD_GROUP
350
D
  3
ACAD_LAYOUT
350
1A
  3
ACAD_MLINESTYLE
350
17
  3
ACAD_PLOTSETTINGS
350
19
  3
ACAD_PLOTSTYLENAME
350
E
  3
ACAD_SCALELIST
350
47
  0
DICTIONARY
  5
D
102
{ACAD_REACTORS
330
C
102
}
330
C
100
AcDbDictionary
281
     1
  0
DICTIONARY
  5
1A
102
{ACAD_REACTORS
330
C
102
}
330
C
100
AcDbDictionary
281
     1
  3
Layout1
350
1E
  3
Layout2
350
26
  3
Model
350
22
  0
DICTIONARY
  5
17
102
{ACAD_REACTORS
330
C
102
}
330
C
100
AcDbDictionary
281
     1
  3
Standard
350
18
  0
DICTIONARY
  5
19
102
{ACAD_REACTORS
330
C
102
}
330
C
100
AcDbDictionary
281
     1
  0
ACDBDICTIONARYWDFLT
  5
E
102
{ACAD_REACTORS
330
C
102
}
330
C
100
AcDbDictionary
281
     1
  3
Normal
350
F
100
AcDbDictionaryWithDefault
340
F
  0
DICTIONARY
  5
47
102
{ACAD_REACTORS
330
C
102
}
330
C
100
AcDbDictionary
281
     1
  3
A0
350
48
  3
A1
350
49
  3
A2
350
4A
  3
A3
350
4B
  3
A4
350
4C
  3
A5
350
4D
  3
A6
350
4E
  3
A7
350
4F
  3
A8
350
50
  3
A9
350
51
  3
B0
350
52
  3
B1
350
53
  3
B2
350
54
  3
B3
350
55
  3
B4
350
56
  3
B5
350
57
  3
B6
350
58
  3
B7
350
59
  3
B8
350
5A
  3
B9
350
5B
  3
C0
350
5C
  3
C1
350
5D
  3
C2
350
5E
  3
C3
350
5F
  3
C4
350
60
  3
C5
350
61
  3
C6
350
62
  3
C7
350
63
  3
C8
350
64
  3
C9
350
65
  3
D0
350
66
  3
D1
350
67
  3
D2
350
68
  0
LAYOUT
  5
1E
102
{ACAD_REACTORS
330
1A
102
}
330
1A
100
AcDbPlotSettings
  1

  2
none_device
  4

  6

 40
0.0
 41
0.0
 42
0.0
 43
0.0
 44
0.0
 45
0.0
 46
0.0
 47
0.0
 48
0.0
 49
0.0
140
0.0
141
0.0
142
1.0
143
1.0
 70
   688
 72
     1
 73
     0
 74
     5
  7

 75
    16
147
1.0
148
0.0
149
0.0
100
AcDbLayout
  1
Layout1
 70
     1
 71
     1
 10
0.0
 20
0.0
 11
420.0
 21
297.0
 12
0.0
 22
0.0
 32
0.0
 14
1.0000000000E+20
 24
1.0000000000E+20
 34
1.0000000000E+20
 15
-1.0000000000E+20
 25
-1.0000000000E+20
 35
-1.0000000000E+20
146
0.0
 13
0.0
 23
0.0
 33
0.0
 16
1.0
 26
0.0
 36
0.0
 17
0.0
 27
1.0
 37
0.0
 76
     0
330
1B
  0
LAYOUT
  5
26
102
{ACAD_REACTORS
330
1A
102
}
330
1A
100
AcDbPlotSettings
  1

  2
none_device
  4

  6

 40
0.0
 41
0.0
 42
0.0
 43
0.0
 44
0.0
 45
0.0
 46
0.0
 47
0.0
 48
0.0
 49
0.0
140
0.0
141
0.0
142
1.0
143
1.0
 70
   688
 72
     1
 73
     0
 74
     5
  7

 75
    16
147
1.0
148
0.0
149
0.0
100
AcDbLayout
  1
Layout2
 70
     1
 71
     2
 10
0.0
 20
0.0
 11
0.0
 21
0.0
 12
0.0
 22
0.0
 32
0.0
 14
0.0
 24
0.0
 34
0.0
 15
0.0
 25
0.0
 35
0.0
146
0.0
 13
0.0
 23
0.0
 33
0.0
 16
1.0
 26
0.0
 36
0.0
 17
0.0
 27
1.0
 37
0.0
 76
     0
330
23
  0
LAYOUT
  5
22
102
{ACAD_REACTORS
330
1A
102
}
330
1A
100
AcDbPlotSettings
  1

  2
none_device
  4
Letter_(8.50_x_11.00_Inches)
  6

 40
6.35
 41
6.35
 42
6.35000508
 43
6.35000508
 44
215.9
 45
279.4
 46
0.0
 47
0.0
 48
0.0
 49
0.0
140
0.0
141
0.0
142
1.0
143
1.0
 70
  1712
 72
     1
 73
     0
 74
     0
  7

 75
     0
147
1.0
148
0.0
149
0.0
100
AcDbLayout
  1
Model
 70
     1
 71
     0
 10
0.0
 20
0.0
 11
215.9
 21
139.7
 12
0.0
 22
0.0
 32
0.0
 14
0.0
 24
0.0
 34
0.0
 15
215.9
 25
139.7
 35
0.0
146
0.0
 13
0.0
 23
0.0
 33
0.0
 16
1.0
 26
0.0
 36
0.0
 17
0.0
 27
1.0
 37
0.0
 76
     0
330
1F
331
29
  0
MLINESTYLE
  5
18
102
{ACAD_REACTORS
330
17
102
}
330
17
100
AcDbMlineStyle
  2
Standard
 70
     0
  3

 62
   256
 51
90.0
 52
90.0
 71
     2
 49
0.5
 62
   256
  6
BYLAYER
 49
-0.5
 62
   256
  6
BYLAYER
  0
ACDBPLACEHOLDER
  5
F
102
{ACAD_REACTORS
330
E
102
}
330
E
  0
SCALE
  5
48
102
{ACAD_REACTORS
330
47
102
}
330
47
100
AcDbScale
 70
     0
300
1:1
140
1.0
141
1.0
290
     1
  0
SCALE
  5
49
102
{ACAD_REACTORS
330
47
102
}
330
47
100
AcDbScale
 70
     0
300
1:2
140
1.0
141
2.0
290
     0
  0
SCALE
  5
4A
102
{ACAD_REACTORS
330
47
102
}
330
47
100
AcDbScale
 70
     0
300
1:4
140
1.0
141
4.0
290
     0
  0
SCALE
  5
4B
102
{ACAD_REACTORS
330
47
102
}
330
47
100
AcDbScale
 70
     0
300
1:5
140
1.0
141
5.0
290
     0
  0
SCALE
  5
4C
102
{ACAD_REACTORS
330
47
102
}
330
47
100
AcDbScale
 70
     0
300
1:8
140
1.0
141
8.0
290
     0
  0
SCALE
  5
4D
102
{ACAD_REACTORS
330
47
102
}
330
47
100
AcDbScale
 70
     0
300
1:10
140
1.0
141
10.0
290
     0
  0
SCALE
  5
4E
102
{ACAD_REACTORS
330
47
102
}
330
47
100
AcDbScale
 70
     0
300
1:16
140
1.0
141
16.0
290
     0
  0
SCALE
  5
4F
102
{ACAD_REACTORS
330
47
102
}
330
47
100
AcDbScale
 70
     0
300
1:20
140
1.0
141
20.0
290
     0
  0
SCALE
  5
50
102
{ACAD_REACTORS
330
47
102
}
330
47
100
AcDbScale
 70
     0
300
1:30
140
1.0
141
30.0
290
     0
  0
SCALE
  5
51
102
{ACAD_REACTORS
330
47
102
}
330
47
100
AcDbScale
 70
     0
300
1:40
140
1.0
141
40.0
290
     0
  0
SCALE
  5
52
102
{ACAD_REACTORS
330
47
102
}
330
47
100
AcDbScale
 70
     0
300
1:50
140
1.0
141
50.0
290
     0
  0
SCALE
  5
53
102
{ACAD_REACTORS
330
47
102
}
330
47
100
AcDbScale
 70
     0
300
1:100
140
1.0
141
100.0
290
     0
  0
SCALE
  5
54
102
{ACAD_REACTORS
330
47
102
}
330
47
100
AcDbScale
 70
     0
300
2:1
140
2.0
141
1.0
290
     0
  0
SCALE
  5
55
102
{ACAD_REACTORS
330
47
102
}
330
47
100
AcDbScale
 70
     0
300
4:1
140
4.0
141
1.0
290
     0
  0
SCALE
  5
56
102
{ACAD_REACTORS
330
47
102
}
330
47
100
AcDbScale
 70
     0
300
8:1
140
8.0
141
1.0
290
     0
  0
SCALE
  5
57
102
{ACAD_REACTORS
330
47
102
}
330
47
100
AcDbScale
 70
     0
300
10:1
140
10.0
141
1.0
290
     0
  0
SCALE
  5
58
102
{ACAD_REACTORS
330
47
102
}
330
47
100
AcDbScale
 70
     0
300
100:1
140
100.0
141
1.0
290
     0
  0
SCALE
  5
59
102
{ACAD_REACTORS
330
47
102
}
330
47
100
AcDbScale
 70
     0
300
1/128" = 1'-0"
140
0.0078125
141
12.0
290
     0
  0
SCALE
  5
5A
102
{ACAD_REACTORS
330
47
102
}
330
47
100
AcDbScale
 70
     0
300
1/64" = 1'-0"
140
0.015625
141
12.0
290
     0
  0
SCALE
  5
5B
102
{ACAD_REACTORS
330
47
102
}
330
47
100
AcDbScale
 70
     0
300
1/32" = 1'-0"
140
0.03125
141
12.0
290
     0
  0
SCALE
  5
5C
102
{ACAD_REACTORS
330
47
102
}
330
47
100
AcDbScale
 70
     0
300
1/16" = 1'-0"
140
0.0625
141
12.0
290
     0
  0
SCALE
  5
5D
102
{ACAD_REACTORS
330
47
102
}
330
47
100
AcDbScale
 70
     0
300
3/32" = 1'-0"
140
0.09375
141
12.0
290
     0
  0
SCALE
  5
5E
102
{ACAD_REACTORS
330
47
102
}
330
47
100
AcDbScale
 70
     0
300
1/8" = 1'-0"
140
0.125
141
12.0
290
     0
  0
SCALE
  5
5F
102
{ACAD_REACTORS
330
47
102
}
330
47
100
AcDbScale
 70
     0
300
3/16" = 1'-0"
140
0.1875
141
12.0
290
     0
  0
SCALE
  5
60
102
{ACAD_REACTORS
330
47
102
}
330
47
100
AcDbScale
 70
     0
300
1/4" = 1'-0"
140
0.25
141
12.0
290
     0
  0
SCALE
  5
61
102
{ACAD_REACTORS
330
47
102
}
330
47
100
AcDbScale
 70
     0
300
3/8" = 1'-0"
140
0.375
141
12.0
290
     0
  0
SCALE
  5
62
102
{ACAD_REACTORS
330
47
102
}
330
47
100
AcDbScale
 70
     0
300
1/2" = 1'-0"
140
0.5
141
12.0
290
     0
  0
SCALE
  5
63
102
{ACAD_REACTORS
330
47
102
}
330
47
100
AcDbScale
 70
     0
300
3/4" = 1'-0"
140
0.75
141
12.0
290
     0
  0
SCALE
  5
64
102
{ACAD_REACTORS
330
47
102
}
330
47
100
AcDbScale
 70
     0
300
1" = 1'-0"
140
1.0
141
12.0
290
     0
  0
SCALE
  5
65
102
{ACAD_REACTORS
330
47
102
}
330
47
100
AcDbScale
 70
     0
300
1-1/2" = 1'-0"
140
1.5
141
12.0
290
     0
  0
SCALE
  5
66
102
{ACAD_REACTORS
330
47
102
}
330
47
100
AcDbScale
 70
     0
300
3" = 1'-0"
140
3.0
141
12.0
290
     0
  0
SCALE
  5
67
102
{ACAD_REACTORS
330
47
102
}
330
47
100
AcDbScale
 70
     0
300
6" = 1'-0"
140
6.0
141
12.0
290
     0
  0
SCALE
  5
68
102
{ACAD_REACTORS
330
47
102
}
330
47
100
AcDbScale
 70
     0
300
1'-0" = 1'-0"
140
12.0
141
12.0
290
     0
  0
ENDSEC
  0
EOF
