  0
SECTION
  2
HEADER
  9
$ACADVER
  1
AC1015
  9
$ACADMAINTVER
 70
     6
  9
$DWGCODEPAGE
  3
DOS932
  9
$INSBASE
 10
0.0
 20
0.0
 30
0.0
  9
$EXTMIN
 10
0.0
 20
0.0
 30
0.0
  9
$EXTMAX
 10
215.9
 20
139.7
 30
0.0
  9
$LIMMIN
 10
0.0
 20
0.0
  9
$LIMMAX
 10
215.9
 20
139.7
  9
$ORTHOMODE
 70
     0
  9
$REGENMODE
 70
     1
  9
$FILLMODE
 70
     1
  9
$QTEXTMODE
 70
     0
  9
$MIRRTEXT
 70
     1
  9
$LTSCALE
 40
0.5
  9
$ATTMODE
 70
     1
  9
$TEXTSIZE
 40
1.75
  9
$TRACEWID
 40
1.0
  9
$TEXTSTYLE
  7
Standard
  9
$CLAYER
  8
0
  9
$CELTYPE
  6
ByLayer
  9
$CECOLOR
 62
   256
  9
$CELTSCALE
 40
1.0
  9
$DISPSILH
 70
     0
  9
$DIMSCALE
 40
1.0
  9
$DIMASZ
 40
1.651
  9
$DIMEXO
 40
0.5
  9
$DIMDLI
 40
3.75
  9
$DIMRND
 40
0.0
  9
$DIMDLE
 40
0.0
  9
$DIMEXE
 40
0.5
  9
$DIMTP
 40
0.0
  9
$DIMTM
 40
0.0
  9
$DIMTXT
 40
1.75
  9
$DIMCEN
 40
2.5
  9
$DIMTSZ
 40
0.0
  9
$DIMTOL
 70
     0
  9
$DIMLIM
 70
     0
  9
$DIMTIH
 70
     1
  9
$DIMTOH
 70
     1
  9
$DIMSE1
 70
     0
  9
$DIMSE2
 70
     0
  9
$DIMTAD
 70
     1
  9
$DIMZIN
 70
     1
  9
$DIMBLK
  1

  9
$DIMASO
 70
     1
  9
$DIMSHO
 70
     1
  9
$DIMPOST
  1

  9
$DIMAPOST
  1

  9
$DIMALT
 70
     0
  9
$DIMALTD
 70
     3
  9
$DIMALTF
 40
0.0393700787
  9
$DIMLFAC
 40
1.0
  9
$DIMTOFL
 70
     1
  9
$DIMTVP
 40
0.0
  9
$DIMTIX
 70
     0
  9
$DIMSOXD
 70
     0
  9
$DIMSAH
 70
     0
  9
$DIMBLK1
  1

  9
$DIMBLK2
  1

  9
$DIMSTYLE
  2
ISO-25
  9
$DIMCLRD
 70
     0
  9
$DIMCLRE
 70
     0
  9
$DIMCLRT
 70
     0
  9
$DIMTFAC
 40
1.0
  9
$DIMGAP
 40
0.762
  9
$DIMJUST
 70
     0
  9
$DIMSD1
 70
     0
  9
$DIMSD2
 70
     0
  9
$DIMTOLJ
 70
     0
  9
$DIMTZIN
 70
     1
  9
$DIMALTZ
 70
     0
  9
$DIMALTTZ
 70
     0
  9
$DIMUPT
 70
     0
  9
$DIMDEC
 70
     2
  9
$DIMTDEC
 70
     2
  9
$DIMALTU
 70
     2
  9
$DIMALTTD
 70
     3
  9
$DIMTXSTY
  7
Standard
  9
$DIMAUNIT
 70
     0
  9
$DIMADEC
 70
     2
  9
$DIMALTRND
 40
0.0
  9
$DIMAZIN
 70
     0
  9
$DIMDSEP
 70
    44
  9
$DIMATFIT
 70
     3
  9
$DIMFRAC
 70
     0
  9
$DIMLDRBLK
  1

  9
$DIMLUNIT
 70
     2
  9
$DIMLWD
 70
    -2
  9
$DIMLWE
 70
    -2
  9
$DIMTMOVE
 70
     0
  9
$LUNITS
 70
     2
  9
$LUPREC
 70
     2
  9
$SKETCHINC
 40
1.0
  9
$FILLETRAD
 40
10.0
  9
$AUNITS
 70
     0
  9
$AUPREC
 70
     2
  9
$MENU
  1
.
  9
$ELEVATION
 40
0.0
  9
$PELEVATION
 40
0.0
  9
$THICKNESS
 40
0.0
  9
$LIMCHECK
 70
     0
  9
$CHAMFERA
 40
0.0
  9
$CHAMFERB
 40
0.0
  9
$CHAMFERC
 40
0.0
  9
$CHAMFERD
 40
0.0
  9
$SKPOLY
 70
     0
  9
$TDCREATE
 40
2460081.55731956
  9
$TDUCREATE
 40
2460081.18231956
  9
$TDUPDATE
 40
2460081.55732007
  9
$TDUUPDATE
 40
2460081.18232007
  9
$TDINDWG
 40
0.0000000116
  9
$TDUSRTIMER
 40
0.0000000116
  9
$USRTIMER
 70
     1
  9
$ANGBASE
 50
0.0
  9
$ANGDIR
 70
     0
  9
$PDMODE
 70
     0
  9
$PDSIZE
 40
-1.0
  9
$PLINEWID
 40
0.0
  9
$SPLFRAME
 70
     0
  9
$SPLINETYPE
 70
     6
  9
$SPLINESEGS
 70
     8
  9
$HANDSEED
  5
146
  9
$SURFTAB1
 70
     6
  9
$SURFTAB2
 70
     6
  9
$SURFTYPE
 70
     6
  9
$SURFU
 70
     6
  9
$SURFV
 70
     6
  9
$UCSBASE
  2

  9
$UCSNAME
  2

  9
$UCSORG
 10
0.0
 20
0.0
 30
0.0
  9
$UCSXDIR
 10
1.0
 20
0.0
 30
0.0
  9
$UCSYDIR
 10
0.0
 20
1.0
 30
0.0
  9
$UCSORTHOREF
  2

  9
$UCSORTHOVIEW
 70
     0
  9
$UCSORGTOP
 10
0.0
 20
0.0
 30
0.0
  9
$UCSORGBOTTOM
 10
0.0
 20
0.0
 30
0.0
  9
$UCSORGLEFT
 10
0.0
 20
0.0
 30
0.0
  9
$UCSORGRIGHT
 10
0.0
 20
0.0
 30
0.0
  9
$UCSORGFRONT
 10
0.0
 20
0.0
 30
0.0
  9
$UCSORGBACK
 10
0.0
 20
0.0
 30
0.0
  9
$PUCSBASE
  2

  9
$PUCSNAME
  2

  9
$PUCSORG
 10
0.0
 20
0.0
 30
0.0
  9
$PUCSXDIR
 10
1.0
 20
0.0
 30
0.0
  9
$PUCSYDIR
 10
0.0
 20
1.0
 30
0.0
  9
$PUCSORTHOREF
  2

  9
$PUCSORTHOVIEW
 70
     0
  9
$PUCSORGTOP
 10
0.0
 20
0.0
 30
0.0
  9
$PUCSORGBOTTOM
 10
0.0
 20
0.0
 30
0.0
  9
$PUCSORGLEFT
 10
0.0
 20
0.0
 30
0.0
  9
$PUCSORGRIGHT
 10
0.0
 20
0.0
 30
0.0
  9
$PUCSORGFRONT
 10
0.0
 20
0.0
 30
0.0
  9
$PUCSORGBACK
 10
0.0
 20
0.0
 30
0.0
  9
$USERI1
 70
     0
  9
$USERI2
 70
     0
  9
$USERI3
 70
     0
  9
$USERI4
 70
     0
  9
$USERI5
 70
     0
  9
$USERR1
 40
0.0
  9
$USERR2
 40
0.0
  9
$USERR3
 40
0.0
  9
$USERR4
 40
0.0
  9
$USERR5
 40
0.0
  9
$WORLDVIEW
 70
     1
  9
$SHADEDGE
 70
     3
  9
$SHADEDIF
 70
    70
  9
$TILEMODE
 70
     1
  9
$MAXACTVP
 70
    64
  9
$PINSBASE
 10
0.0
 20
0.0
 30
0.0
  9
$PLIMCHECK
 70
     0
  9
$PEXTMIN
 10
1.0000000000E+20
 20
1.0000000000E+20
 30
1.0000000000E+20
  9
$PEXTMAX
 10
-1.0000000000E+20
 20
-1.0000000000E+20
 30
-1.0000000000E+20
  9
$PLIMMIN
 10
0.0
 20
0.0
  9
$PLIMMAX
 10
420.0
 20
297.0
  9
$UNITMODE
 70
     0
  9
$VISRETAIN
 70
     1
  9
$PLINEGEN
 70
     0
  9
$PSLTSCALE
 70
     1
  9
$TREEDEPTH
 70
  3020
  9
$CMLSTYLE
  2
Standard
  9
$CMLJUST
 70
     0
  9
$CMLSCALE
 40
20.0
  9
$PROXYGRAPHICS
 70
     1
  9
$MEASUREMENT
 70
     1
  9
$CELWEIGHT
370
    -1
  9
$ENDCAPS
280
     0
  9
$JOINSTYLE
280
     0
  9
$LWDISPLAY
290
     1
  9
$INSUNITS
 70
     4
  9
$HYPERLINKBASE
  1

  9
$STYLESHEET
  1

  9
$XEDIT
290
     1
  9
$CEPSNTYPE
380
     0
  9
$PSTYLEMODE
290
     1
  9
$FINGERPRINTGUID
  2
{D694D05D-A205-4D6E-9FA3-E68A759D51AD}
  9
$VERSIONGUID
  2
{FAEB1C32-E019-11D5-929B-00C0DF256EC4}
  9
$EXTNAMES
290
     1
  9
$PSVPSCALE
 40
0.0
  9
$OLESTARTUP
290
     0
  0
ENDSEC
  0
SECTION
  2
CLASSES
  0
CLASS
  1
ACDBDICTIONARYWDFLT
  2
AcDbDictionaryWithDefault
  3
ObjectDBX Classes
 90
        0
280
     0
281
     0
  0
CLASS
  1
VISUALSTYLE
  2
AcDbVisualStyle
  3
ObjectDBX Classes
 90
     4095
280
     0
281
     0
  0
CLASS
  1
MATERIAL
  2
AcDbMaterial
  3
ObjectDBX Classes
 90
     1153
280
     0
281
     0
  0
CLASS
  1
SCALE
  2
AcDbScale
  3
ObjectDBX Classes
 90
     1153
280
     0
281
     0
  0
CLASS
  1
TABLESTYLE
  2
AcDbTableStyle
  3
ObjectDBX Classes
 90
     4095
280
     0
281
     0
  0
CLASS
  1
MLEADERSTYLE
  2
AcDbMLeaderStyle
  3
ACDB_MLEADERSTYLE_CLASS
 90
     4095
280
     0
281
     0
  0
CLASS
  1
SUN
  2
AcDbSun
  3
SCENEOE
 90
     1153
280
     0
281
     0
  0
CLASS
  1
ACDBPLACEHOLDER
  2
AcDbPlaceHolder
  3
ObjectDBX Classes
 90
        0
280
     0
281
     0
  0
CLASS
  1
LAYOUT
  2
AcDbLayout
  3
ObjectDBX Classes
 90
        0
280
     0
281
     0
  0
ENDSEC
  0
SECTION
  2
TABLES
  0
TABLE
  2
VPORT
  5
8
330
0
100
AcDbSymbolTable
 70
     1
  0
VPORT
  5
29
330
8
100
AcDbSymbolTableRecord
100
AcDbViewportTableRecord
  2
*Active
 70
     0
 10
0.0
 20
0.0
 11
1.0
 21
1.0
 12
107.95
 22
69.85
 13
0.0
 23
0.0
 14
10.0
 24
10.0
 15
10.0
 25
10.0
 16
0.0
 26
0.0
 36
1.0
 17
0.0
 27
0.0
 37
0.0
 40
139.7
 41
1.5454545455
 42
50.0
 43
0.0
 44
0.0
 50
0.0
 51
0.0
 71
     0
 72
  2000
 73
     1
 74
     3
 75
     0
 76
     0
 77
     0
 78
     0
281
     0
 65
     1
110
0.0
120
0.0
130
0.0
111
1.0
121
0.0
131
0.0
112
0.0
122
1.0
132
0.0
 79
     0
146
0.0
  0
ENDTAB
  0
TABLE
  2
LTYPE
  5
5
330
0
100
AcDbSymbolTable
 70
     6
  0
LTYPE
  5
14
330
5
100
AcDbSymbolTableRecord
100
AcDbLinetypeTableRecord
  2
ByBlock
 70
     0
  3

 72
    65
 73
     0
 40
0.0
  0
LTYPE
  5
15
330
5
100
AcDbSymbolTableRecord
100
AcDbLinetypeTableRecord
  2
ByLayer
 70
     0
  3

 72
    65
 73
     0
 40
0.0
  0
LTYPE
  5
16
330
5
100
AcDbSymbolTableRecord
100
AcDbLinetypeTableRecord
  2
Continuous
 70
     0
  3
Solid line
 72
    65
 73
     0
 40
0.0
  0
LTYPE
  5
6E
330
5
100
AcDbSymbolTableRecord
100
AcDbLinetypeTableRecord
  2
HIDDEN
 70
     0
  3
Hidden __ __ __ __ __ __ __ __ __ __ __ __ __ __
 72
    65
 73
     2
 40
1.905
 49
1.27
 74
     0
 49
-0.635
 74
     0
  0
LTYPE
  5
6F
330
5
100
AcDbSymbolTableRecord
100
AcDbLinetypeTableRecord
  2
PHANTOM
 70
     0
  3
Phantom ______  __  __  ______  __  __  ______
 72
    65
 73
     6
 40
12.7
 49
6.35
 74
     0
 49
-1.27
 74
     0
 49
1.27
 74
     0
 49
-1.27
 74
     0
 49
1.27
 74
     0
 49
-1.27
 74
     0
  0
LTYPE
  5
70
330
5
100
AcDbSymbolTableRecord
100
AcDbLinetypeTableRecord
  2
CENTER
 70
     0
  3
Center ____ _ ____ _ ____ _ ____ _ ____ _ ____
 72
    65
 73
     4
 40
10.16
 49
6.35
 74
     0
 49
-1.27
 74
     0
 49
1.27
 74
     0
 49
-1.27
 74
     0
  0
LTYPE
  5
71
330
5
100
AcDbSymbolTableRecord
100
AcDbLinetypeTableRecord
  2
CENTERX2
 70
     0
  3
Center (2x) ________  __  ________  __  _____
 72
    65
 73
     4
 40
20.32
 49
12.7
 74
     0
 49
-2.54
 74
     0
 49
2.54
 74
     0
 49
-2.54
 74
     0
  0
LTYPE
  5
72
330
5
100
AcDbSymbolTableRecord
100
AcDbLinetypeTableRecord
  2
DOT2
 70
     0
  3
Dot (.5x) ........................................
 72
    65
 73
     2
 40
0.635
 49
0.0
 74
     0
 49
-0.635
 74
     0
  0
ENDTAB
  0
TABLE
  2
LAYER
  5
2
330
0
100
AcDbSymbolTable
 70
     1
  0
LAYER
  5
10
330
2
100
AcDbSymbolTableRecord
100
AcDbLayerTableRecord
  2
0
 70
     0
 62
     7
  6
Continuous
370
    -3
390
F
  0
ENDTAB
  0
TABLE
  2
STYLE
  5
3
330
0
100
AcDbSymbolTable
 70
     2
  0
STYLE
  5
11
330
3
100
AcDbSymbolTableRecord
100
AcDbTextStyleTableRecord
  2
Standard
 70
     0
 40
0.0
 41
1.0
 50
0.0
 71
     0
 42
1.75
  3
txt
  4
bigfont
  0
STYLE
  5
73
330
3
100
AcDbSymbolTableRecord
100
AcDbTextStyleTableRecord
  2
SLDTEXTSTYLE0
 70
     0
 40
0.0
 41
0.7
 50
0.0
 71
     0
 42
1.75
  3
TXT
  4
bigfont
  0
ENDTAB
  0
TABLE
  2
VIEW
  5
6
330
0
100
AcDbSymbolTable
 70
     0
  0
ENDTAB
  0
TABLE
  2
UCS
  5
7
330
0
100
AcDbSymbolTable
 70
     0
  0
ENDTAB
  0
TABLE
  2
APPID
  5
9
330
0
100
AcDbSymbolTable
 70
     1
  0
APPID
  5
12
330
9
100
AcDbSymbolTableRecord
100
AcDbRegAppTableRecord
  2
ACAD
 70
     0
  0
ENDTAB
  0
TABLE
  2
DIMSTYLE
  5
A
330
0
100
AcDbSymbolTable
 70
     1
100
AcDbDimStyleTable
  0
DIMSTYLE
105
27
330
A
100
AcDbSymbolTableRecord
100
AcDbDimStyleTableRecord
  2
ISO-25
 70
     0
 41
2.5
 42
0.625
 43
3.75
 44
1.25
 73
     0
 74
     0
 77
     1
 78
     8
140
2.5
141
2.5
143
0.0393700787
147
0.625
171
     3
172
     1
178
     0
271
     2
272
     2
274
     3
278
    44
283
     0
284
     8
340
11
  0
ENDTAB
  0
TABLE
  2
BLOCK_RECORD
  5
1
330
0
100
AcDbSymbolTable
 70
     3
  0
BLOCK_RECORD
  5
1F
330
1
100
AcDbSymbolTableRecord
100
AcDbBlockTableRecord
  2
*Model_Space
340
22
  0
BLOCK_RECORD
  5
1B
330
1
100
AcDbSymbolTableRecord
100
AcDbBlockTableRecord
  2
*Paper_Space
340
1E
  0
BLOCK_RECORD
  5
23
330
1
100
AcDbSymbolTableRecord
100
AcDbBlockTableRecord
  2
*Paper_Space0
340
26
  0
BLOCK_RECORD
  5
E9
330
1
100
AcDbSymbolTableRecord
100
AcDbBlockTableRecord
  2
SW_CENTERMARKSYMBOL_0
340
0
102
{BLKREFS
331
F4
102
}
  0
BLOCK_RECORD
  5
F5
330
1
100
AcDbSymbolTableRecord
100
AcDbBlockTableRecord
  2
SW_CENTERMARKSYMBOL_1
340
0
102
{BLKREFS
331
100
102
}
  0
ENDTAB
  0
ENDSEC
  0
SECTION
  2
BLOCKS
  0
BLOCK
  5
20
330
1F
100
AcDbEntity
  8
0
100
AcDbBlockBegin
  2
*Model_Space
 70
     0
 10
0.0
 20
0.0
 30
0.0
  3
*Model_Space
  1

  0
ENDBLK
  5
21
330
1F
100
AcDbEntity
  8
0
100
AcDbBlockEnd
  0
BLOCK
  5
1C
330
1B
100
AcDbEntity
 67
     1
  8
0
100
AcDbBlockBegin
  2
*Paper_Space
 70
     0
 10
0.0
 20
0.0
 30
0.0
  3
*Paper_Space
  1

  0
ENDBLK
  5
1D
330
1B
100
AcDbEntity
 67
     1
  8
0
100
AcDbBlockEnd
  0
BLOCK
  5
24
330
23
100
AcDbEntity
  8
0
100
AcDbBlockBegin
  2
*Paper_Space0
 70
     0
 10
0.0
 20
0.0
 30
0.0
  3
*Paper_Space0
  1

  0
ENDBLK
  5
25
330
23
100
AcDbEntity
  8
0
100
AcDbBlockEnd
  0
BLOCK
  5
EA
330
E9
100
AcDbEntity
  8
0
100
AcDbBlockBegin
  2
SW_CENTERMARKSYMBOL_0
 70
     0
 10
0.0
 20
0.0
 30
0.0
  3
SW_CENTERMARKSYMBOL_0
  1

  0
LINE
  5
EC
330
E9
100
AcDbEntity
  8
0
  6
Continuous
 62
     0
370
    18
100
AcDbLine
 10
0.0
 20
0.0
 30
0.0
 11
0.0
 21
2.5
 31
0.0
  0
LINE
  5
ED
330
E9
100
AcDbEntity
  8
0
  6
Continuous
 62
     0
370
    18
100
AcDbLine
 10
0.0
 20
0.0
 30
0.0
 11
-2.5
 21
0.0
 31
0.0
  0
LINE
  5
EE
330
E9
100
AcDbEntity
  8
0
  6
Continuous
 62
     0
370
    18
100
AcDbLine
 10
0.0
 20
0.0
 30
0.0
 11
0.0
 21
-2.5
 31
0.0
  0
LINE
  5
EF
330
E9
100
AcDbEntity
  8
0
  6
Continuous
 62
     0
370
    18
100
AcDbLine
 10
0.0
 20
0.0
 30
0.0
 11
2.5
 21
0.0
 31
0.0
  0
LINE
  5
F0
330
E9
100
AcDbEntity
  8
0
  6
Continuous
 62
     0
370
    18
100
AcDbLine
 10
0.0
 20
2.5
 30
0.0
 11
0.0
 21
4.5
 31
0.0
  0
LINE
  5
F1
330
E9
100
AcDbEntity
  8
0
  6
Continuous
 62
     0
370
    18
100
AcDbLine
 10
-2.5
 20
0.0
 30
0.0
 11
-4.5
 21
0.0
 31
0.0
  0
LINE
  5
F2
330
E9
100
AcDbEntity
  8
0
  6
Continuous
 62
     0
370
    18
100
AcDbLine
 10
0.0
 20
-2.5
 30
0.0
 11
0.0
 21
-4.5
 31
0.0
  0
LINE
  5
F3
330
E9
100
AcDbEntity
  8
0
  6
Continuous
 62
     0
370
    18
100
AcDbLine
 10
2.5
 20
0.0
 30
0.0
 11
4.5
 21
0.0
 31
0.0
  0
ENDBLK
  5
EB
330
E9
100
AcDbEntity
  8
0
100
AcDbBlockEnd
  0
BLOCK
  5
F6
330
F5
100
AcDbEntity
  8
0
100
AcDbBlockBegin
  2
SW_CENTERMARKSYMBOL_1
 70
     0
 10
0.0
 20
0.0
 30
0.0
  3
SW_CENTERMARKSYMBOL_1
  1

  0
LINE
  5
F8
330
F5
100
AcDbEntity
  8
0
  6
Continuous
 62
     0
370
    18
100
AcDbLine
 10
0.0
 20
0.0
 30
0.0
 11
0.0
 21
2.5
 31
0.0
  0
LINE
  5
F9
330
F5
100
AcDbEntity
  8
0
  6
Continuous
 62
     0
370
    18
100
AcDbLine
 10
0.0
 20
0.0
 30
0.0
 11
-2.5
 21
0.0
 31
0.0
  0
LINE
  5
FA
330
F5
100
AcDbEntity
  8
0
  6
Continuous
 62
     0
370
    18
100
AcDbLine
 10
0.0
 20
0.0
 30
0.0
 11
0.0
 21
-2.5
 31
0.0
  0
LINE
  5
FB
330
F5
100
AcDbEntity
  8
0
  6
Continuous
 62
     0
370
    18
100
AcDbLine
 10
0.0
 20
0.0
 30
0.0
 11
2.5
 21
0.0
 31
0.0
  0
LINE
  5
FC
330
F5
100
AcDbEntity
  8
0
  6
Continuous
 62
     0
370
    18
100
AcDbLine
 10
0.0
 20
5.0
 30
0.0
 11
0.0
 21
9.25
 31
0.0
  0
LINE
  5
FD
330
F5
100
AcDbEntity
  8
0
  6
Continuous
 62
     0
370
    18
100
AcDbLine
 10
-5.0
 20
0.0
 30
0.0
 11
-9.25
 21
0.0
 31
0.0
  0
LINE
  5
FE
330
F5
100
AcDbEntity
  8
0
  6
Continuous
 62
     0
370
    18
100
AcDbLine
 10
0.0
 20
-5.0
 30
0.0
 11
0.0
 21
-9.25
 31
0.0
  0
LINE
  5
FF
330
F5
100
AcDbEntity
  8
0
  6
Continuous
 62
     0
370
    18
100
AcDbLine
 10
5.0
 20
0.0
 30
0.0
 11
9.25
 21
0.0
 31
0.0
  0
ENDBLK
  5
F7
330
F5
100
AcDbEntity
  8
0
100
AcDbBlockEnd
  0
ENDSEC
  0
SECTION
  2
ENTITIES
  0
MTEXT
  5
74
330
1F
100
AcDbEntity
  8
0
  6
Continuous
 62
     7
370
     0
100
AcDbMText
 10
77.2024774377
 20
55.3141607996
 30
0.0
 40
2.1166666667
 41
0.0
 71
     1
 72
     1
  1
エースニップル　HN-8207
  7
SLDTEXTSTYLE0
 73
     1
 44
1.0
  0
LINE
  5
75
330
1F
100
AcDbEntity
  8
0
  6
Continuous
 62
     7
370
    25
100
AcDbLine
 10
52.4827949519
 20
48.3607177774
 30
0.0
 11
51.7132426022
 21
47.0278140087
 31
0.0
  0
LINE
  5
76
330
1F
100
AcDbEntity
  8
0
  6
Continuous
 62
     7
370
    25
100
AcDbLine
 10
51.7132426022
 20
33.5278140087
 30
0.0
 11
52.4827949519
 21
32.19491024
 31
0.0
  0
LINE
  5
77
330
1F
100
AcDbEntity
  8
0
  6
Continuous
 62
     7
370
    25
100
AcDbLine
 10
56.9436902526
 20
32.19491024
 30
0.0
 11
57.7132426022
 21
33.5278140087
 31
0.0
  0
LINE
  5
78
330
1F
100
AcDbEntity
  8
0
  6
Continuous
 62
     7
370
    25
100
AcDbLine
 10
57.7132426022
 20
47.0278140087
 30
0.0
 11
56.9436902526
 21
48.3607177774
 31
0.0
  0
LINE
  5
79
330
1F
100
AcDbEntity
  8
0
  6
Continuous
 62
     7
370
    25
100
AcDbLine
 10
51.7132426022
 20
47.0122515087
 30
0.0
 11
42.802030256
 21
46.7337761229
 31
0.0
  0
LINE
  5
7A
330
1F
100
AcDbEntity
  8
0
  6
Continuous
 62
     7
370
    25
100
AcDbLine
 10
42.802030256
 20
33.8218518945
 30
0.0
 11
51.7132426022
 21
33.5433765087
 31
0.0
  0
LINE
  5
7B
330
1F
100
AcDbEntity
  8
0
  6
Continuous
 62
     7
370
    25
100
AcDbLine
 10
42.802030256
 20
46.7337761229
 30
0.0
 11
40.7132426022
 21
45.5278140087
 31
0.0
  0
LINE
  5
7C
330
1F
100
AcDbEntity
  8
0
  6
Continuous
 62
     7
370
    25
100
AcDbLine
 10
40.7132426022
 20
35.0278140087
 30
0.0
 11
42.802030256
 21
33.8218518945
 31
0.0
  0
LINE
  5
7D
330
1F
100
AcDbEntity
  8
0
  6
Continuous
 62
     7
370
    25
100
AcDbLine
 10
69.2132426022
 20
36.7778140087
 30
0.0
 11
73.2132426022
 21
37.4278140087
 31
0.0
  0
LINE
  5
7E
330
1F
100
AcDbEntity
  8
0
  6
Continuous
 62
     7
370
    25
100
AcDbLine
 10
73.2132426022
 20
43.1278140087
 30
0.0
 11
69.2132426022
 21
43.7778140087
 31
0.0
  0
LINE
  5
7F
330
1F
100
AcDbEntity
  8
0
  6
Continuous
 62
     7
370
    25
100
AcDbLine
 10
61.2132426022
 20
36.7778140087
 30
0.0
 11
65.2132426022
 21
37.4278140087
 31
0.0
  0
LINE
  5
80
330
1F
100
AcDbEntity
  8
0
  6
Continuous
 62
     7
370
    25
100
AcDbLine
 10
65.2132426022
 20
43.1278140087
 30
0.0
 11
61.2132426022
 21
43.7778140087
 31
0.0
  0
LINE
  5
81
330
1F
100
AcDbEntity
  8
0
  6
Continuous
 62
     7
370
    25
100
AcDbLine
 10
61.2132426022
 20
43.7778140087
 30
0.0
 11
57.7132426022
 21
43.7778140087
 31
0.0
  0
LINE
  5
82
330
1F
100
AcDbEntity
  8
0
  6
Continuous
 62
     7
370
    25
100
AcDbLine
 10
57.7132426022
 20
36.7778140087
 30
0.0
 11
61.2132426022
 21
36.7778140087
 31
0.0
  0
LINE
  5
83
330
1F
100
AcDbEntity
  8
0
  6
Continuous
 62
     7
370
    25
100
AcDbLine
 10
65.2132426022
 20
36.7778140087
 30
0.0
 11
69.2132426022
 21
37.4278140087
 31
0.0
  0
LINE
  5
84
330
1F
100
AcDbEntity
  8
0
  6
Continuous
 62
     7
370
    25
100
AcDbLine
 10
69.2132426022
 20
43.1278140087
 30
0.0
 11
65.2132426022
 21
43.7778140087
 31
0.0
  0
LINE
  5
85
330
1F
100
AcDbEntity
  8
0
  6
Continuous
 62
     7
370
    25
100
AcDbLine
 10
73.2132426022
 20
36.7778140087
 30
0.0
 11
77.2847229836
 21
37.3659167304
 31
0.0
  0
LINE
  5
86
330
1F
100
AcDbEntity
  8
0
  6
Continuous
 62
     7
370
    25
100
AcDbLine
 10
77.2847229836
 20
43.189711287
 30
0.0
 11
73.2132426022
 21
43.7778140087
 31
0.0
  0
ARC
  5
87
330
1F
100
AcDbEntity
  8
0
  6
Continuous
 62
     7
370
    25
100
AcDbCircle
 10
77.2132426022
 20
42.6948471085
 30
0.0
 40
0.5
100
AcDbArc
 50
0.0
 51
81.7807907511
  0
ARC
  5
88
330
1F
100
AcDbEntity
  8
0
  6
Continuous
 62
     7
370
    25
100
AcDbCircle
 10
77.2132426022
 20
37.8607809089
 30
0.0
 40
0.5
100
AcDbArc
 50
278.2192092489
 51
0.0
  0
LINE
  5
89
330
1F
100
AcDbEntity
  8
0
  6
Continuous
 62
     7
370
    25
100
AcDbLine
 10
54.79362736
 20
48.3607177774
 30
0.0
 11
54.7132426022
 21
48.0607177774
 31
0.0
  0
LINE
  5
8A
330
1F
100
AcDbEntity
  8
0
  6
Continuous
 62
     7
370
    25
100
AcDbLine
 10
54.7132426022
 20
48.0607177774
 30
0.0
 11
54.6328578445
 21
48.3607177774
 31
0.0
  0
LINE
  5
8B
330
1F
100
AcDbEntity
  8
0
  6
Continuous
 62
     7
370
    25
100
AcDbLine
 10
54.6328578445
 20
32.19491024
 30
0.0
 11
54.7132426022
 21
32.49491024
 31
0.0
  0
LINE
  5
8C
330
1F
100
AcDbEntity
  8
0
  6
Continuous
 62
     7
370
    25
100
AcDbLine
 10
54.7132426022
 20
32.49491024
 30
0.0
 11
54.79362736
 21
32.19491024
 31
0.0
  0
SPLINE
  5
8D
330
1F
100
AcDbEntity
  8
0
  6
Continuous
 62
     7
370
    25
100
AcDbSpline
210
0.0
220
0.0
230
1.0
 70
     8
 71
     3
 72
     8
 73
     4
 74
     0
 42
0.000000001
 43
0.00000001
 40
0.0
 40
0.0
 40
0.0
 40
0.0
 40
1.0
 40
1.0
 40
1.0
 40
1.0
 10
54.71324260223115
 20
43.67981210866086
 30
0.0
 10
54.68824293023692
 20
43.89325881225117
 30
0.0
 10
54.66137668944994
 20
44.10639833638777
 30
0.0
 10
54.63285784450181
 20
44.31926589302692
 30
0.0
  0
SPLINE
  5
8E
330
1F
100
AcDbEntity
  8
0
  6
Continuous
 62
     7
370
    25
100
AcDbSpline
210
0.0
220
0.0
230
1.0
 70
     8
 71
     3
 72
     8
 73
     4
 74
     0
 42
0.000000001
 43
0.00000001
 40
0.0
 40
0.0
 40
0.0
 40
0.0
 40
1.0
 40
1.0
 40
1.0
 40
1.0
 10
54.63285784450181
 20
44.31926589302692
 30
0.0
 10
54.66139165933991
 20
44.42575553973644
 30
0.0
 10
54.6882565811467
 20
44.53232770901322
 30
0.0
 10
54.71324260223115
 20
44.63899278520994
 30
0.0
  0
LINE
  5
8F
330
1F
100
AcDbEntity
  8
0
  6
Continuous
 62
     7
370
    25
100
AcDbLine
 10
54.7132426022
 20
43.6798121087
 30
0.0
 11
54.7132426022
 21
44.6389927852
 31
0.0
  0
LINE
  5
90
330
1F
100
AcDbEntity
  8
0
  6
Continuous
 62
     7
370
    25
100
AcDbLine
 10
54.6328578445
 20
36.2363621244
 30
0.0
 11
52.4827949519
 21
36.2363621244
 31
0.0
  0
SPLINE
  5
91
330
1F
100
AcDbEntity
  8
0
  6
Continuous
 62
     7
370
    25
100
AcDbSpline
210
0.0
220
0.0
230
1.0
 70
     8
 71
     3
 72
    14
 73
    10
 74
     0
 42
0.000000001
 43
0.00000001
 40
0.0
 40
0.0
 40
0.0
 40
0.0
 40
0.2500000000000001
 40
0.2500000000000001
 40
0.5000000000000001
 40
0.5000000000000001
 40
0.7500000000000002
 40
0.7500000000000002
 40
1.0
 40
1.0
 40
1.0
 40
1.0
 10
52.48279495186782
 20
36.23636212437214
 30
0.0
 10
52.29295043666959
 20
36.89400281609537
 30
0.0
 10
52.1337838112573
 20
37.5673993343562
 30
0.0
 10
51.91619754205466
 20
38.91707754823694
 30
0.0
 10
51.85750887662582
 20
39.59580112975059
 30
0.0
 10
51.85765159467049
 20
40.96235932916551
 30
0.0
 10
51.91804295468099
 20
41.65485714980094
 30
0.0
 10
52.13715163647669
 20
43.00414200660775
 30
0.0
 10
52.29420227691386
 20
43.66596170311569
 30
0.0
 10
52.48279495186784
 20
44.31926589302692
 30
0.0
  0
LINE
  5
92
330
1F
100
AcDbEntity
  8
0
  6
Continuous
 62
     7
370
    25
100
AcDbLine
 10
54.6328578445
 20
44.319265893
 30
0.0
 11
52.4827949519
 21
44.319265893
 31
0.0
  0
SPLINE
  5
93
330
1F
100
AcDbEntity
  8
0
  6
Continuous
 62
     7
370
    25
100
AcDbSpline
210
0.0
220
0.0
230
1.0
 70
     8
 71
     3
 72
     8
 73
     4
 74
     0
 42
0.000000001
 43
0.00000001
 40
0.0
 40
0.0
 40
0.0
 40
0.0
 40
1.0
 40
1.0
 40
1.0
 40
1.0
 10
54.79362735996049
 20
44.31926589302692
 30
0.0
 10
54.76509122964485
 20
44.10626931664815
 30
0.0
 10
54.73822651446143
 20
43.89312425569919
 30
0.0
 10
54.71324260223115
 20
43.67981210866086
 30
0.0
  0
LINE
  5
94
330
1F
100
AcDbEntity
  8
0
  6
Continuous
 62
     7
370
    25
100
AcDbLine
 10
56.9436902526
 20
44.319265893
 30
0.0
 11
54.79362736
 21
44.319265893
 31
0.0
  0
SPLINE
  5
95
330
1F
100
AcDbEntity
  8
0
  6
Continuous
 62
     7
370
    25
100
AcDbSpline
210
0.0
220
0.0
230
1.0
 70
     8
 71
     3
 72
    14
 73
    10
 74
     0
 42
0.000000001
 43
0.00000001
 40
0.0
 40
0.0
 40
0.0
 40
0.0
 40
0.2500000000000001
 40
0.2500000000000001
 40
0.5000000000000001
 40
0.5000000000000001
 40
0.7500000000000002
 40
0.7500000000000002
 40
1.0
 40
1.0
 40
1.0
 40
1.0
 10
56.94369025259449
 20
36.23636212437214
 30
0.0
 10
57.13353476779272
 20
36.89400281609537
 30
0.0
 10
57.29270139320501
 20
37.5673993343562
 30
0.0
 10
57.51028766240763
 20
38.91707754823694
 30
0.0
 10
57.56897632783648
 20
39.59580112975059
 30
0.0
 10
57.56883360979182
 20
40.96235932916551
 30
0.0
 10
57.50844224978131
 20
41.65485714980094
 30
0.0
 10
57.28933356798561
 20
43.00414200660775
 30
0.0
 10
57.13228292754844
 20
43.66596170311569
 30
0.0
 10
56.94369025259446
 20
44.31926589302692
 30
0.0
  0
LINE
  5
96
330
1F
100
AcDbEntity
  8
0
  6
Continuous
 62
     7
370
    25
100
AcDbLine
 10
56.9436902526
 20
36.2363621244
 30
0.0
 11
54.79362736
 21
36.2363621244
 31
0.0
  0
SPLINE
  5
97
330
1F
100
AcDbEntity
  8
0
  6
Continuous
 62
     7
370
    25
100
AcDbSpline
210
0.0
220
0.0
230
1.0
 70
     8
 71
     3
 72
     8
 73
     4
 74
     0
 42
0.000000001
 43
0.00000001
 40
0.0
 40
0.0
 40
0.0
 40
0.0
 40
1.0
 40
1.0
 40
1.0
 40
1.0
 10
54.71324260223115
 20
36.8758159087382
 30
0.0
 10
54.73824227422538
 20
36.66236920514789
 30
0.0
 10
54.76510851501236
 20
36.44922968101129
 30
0.0
 10
54.79362735996049
 20
36.23636212437215
 30
0.0
  0
SPLINE
  5
98
330
1F
100
AcDbEntity
  8
0
  6
Continuous
 62
     7
370
    25
100
AcDbSpline
210
0.0
220
0.0
230
1.0
 70
     8
 71
     3
 72
     8
 73
     4
 74
     0
 42
0.000000001
 43
0.00000001
 40
0.0
 40
0.0
 40
0.0
 40
0.0
 40
1.0
 40
1.0
 40
1.0
 40
1.0
 10
54.63285784450181
 20
36.23636212437214
 30
0.0
 10
54.66139397481746
 20
36.44935870075091
 30
0.0
 10
54.68825869000087
 20
36.66250376169987
 30
0.0
 10
54.71324260223115
 20
36.8758159087382
 30
0.0
  0
LINE
  5
99
330
1F
100
AcDbEntity
  8
0
  6
Continuous
 62
     7
370
    25
100
AcDbLine
 10
54.6672089484
 20
39.6804676083
 30
0.0
 11
55.3517041407
 21
39.2327512621
 31
0.0
  0
SPLINE
  5
9A
330
1F
100
AcDbEntity
  8
0
  6
Continuous
 62
     7
370
    25
100
AcDbSpline
210
0.0
220
0.0
230
1.0
 70
     8
 71
     3
 72
    19
 73
    15
 74
     0
 42
0.000000001
 43
0.00000001
 40
0.0
 40
0.0
 40
0.0
 40
0.0
 40
0.0978059775289525
 40
0.1996122522918966
 40
0.3052960258330041
 40
0.4158173591641854
 40
0.474240566618493
 40
0.5372869128296534
 40
0.6033858352934854
 40
0.6743111580696056
 40
0.749530467357482
 40
0.8286083142695116
 40
0.9120427387714447
 40
0.9999999999999999
 40
0.9999999999999999
 40
0.9999999999999999
 40
0.9999999999999999
 10
54.23151183300039
 20
39.84813587751182
 30
0.0
 10
54.24695388696371
 20
39.84759225681132
 30
0.0
 10
54.27846958006867
 20
39.84648278114162
 30
0.0
 10
54.32633905413107
 20
39.83986155816863
 30
0.0
 10
54.37512786731336
 20
39.82771742626959
 30
0.0
 10
54.41648743295939
 20
39.81457482130004
 30
0.0
 10
54.45074064676459
 20
39.80153338985501
 30
0.0
 10
54.47778950487165
 20
39.78944107453829
 30
0.0
 10
54.50635396754893
 20
39.77592039259881
 30
0.0
 10
54.53589356705452
 20
39.76007227047959
 30
0.0
 10
54.56725231372744
 20
39.7432719820799
 30
0.0
 10
54.59926889744413
 20
39.72364733873155
 30
0.0
 10
54.63311266270375
 20
39.70316872185121
 30
0.0
 10
54.65564531590547
 20
39.68816660918266
 30
0.0
 10
54.667208948385
 20
39.68046760828105
 30
0.0
  0
SPLINE
  5
9B
330
1F
100
AcDbEntity
  8
0
  6
Continuous
 62
     7
370
    25
100
AcDbSpline
210
0.0
220
0.0
230
1.0
 70
     8
 71
     3
 72
    19
 73
    15
 74
     0
 42
0.000000001
 43
0.00000001
 40
0.0
 40
0.0
 40
0.0
 40
0.0
 40
0.0843261511037433
 40
0.1670353409858406
 40
0.2495407139852792
 40
0.3327066655796642
 40
0.4158726171740492
 40
0.4977774155681174
 40
0.5803136056784763
 40
0.6645325781316563
 40
0.7495711764063215
 40
0.8324741628544073
 40
0.9156738488962566
 40
1.0
 40
1.0
 40
1.0
 40
1.0
 10
53.77478106376962
 20
39.3938089544349
 30
0.0
 10
53.77543600743476
 20
39.41399325860663
 30
0.0
 10
53.77673333616379
 20
39.45397483117645
 30
0.0
 10
53.78829019086663
 20
39.5127888289248
 30
0.0
 10
53.80702171478079
 20
39.56930176614313
 30
0.0
 10
53.83282817882832
 20
39.62311640384856
 30
0.0
 10
53.86542313225983
 20
39.67297111283041
 30
0.0
 10
53.90466883564797
 20
39.71755954625396
 30
0.0
 10
53.94969791389736
 20
39.75672657159551
 30
0.0
 10
54.00064849973855
 20
39.78914993893543
 30
0.0
 10
54.05504564097637
 20
39.81557507131933
 30
0.0
 10
54.112283249721
 20
39.83421309931626
 30
0.0
 10
54.17120939638347
 20
39.84626636067164
 30
0.0
 10
54.21132111535933
 20
39.84750991795259
 30
0.0
 10
54.23151183300039
 20
39.84813587751182
 30
0.0
  0
SPLINE
  5
9C
330
1F
100
AcDbEntity
  8
0
  6
Continuous
 62
     7
370
    25
100
AcDbSpline
210
0.0
220
0.0
230
1.0
 70
     8
 71
     3
 72
    19
 73
    15
 74
     0
 42
0.000000001
 43
0.00000001
 40
0.0
 40
0.0
 40
0.0
 40
0.0
 40
0.0859901205637198
 40
0.1691084375726415
 40
0.2505285789581879
 40
0.332255696176845
 40
0.4135763652356403
 40
0.4941261456201216
 40
0.576305934120417
 40
0.6607126719045473
 40
0.7461272722239103
 40
0.8300149859609743
 40
0.9144197259288509
 40
1.0
 40
1.0
 40
1.0
 40
1.0
 10
54.23421615992346
 20
38.92505895443489
 30
0.0
 10
54.21323733663734
 20
38.92584175243803
 30
0.0
 10
54.17198031775226
 20
38.92738120541679
 30
0.0
 10
54.11163856861051
 20
38.93858776925006
 30
0.0
 10
54.05461367338967
 20
38.95792779454622
 30
0.0
 10
54.00068153366668
 20
38.98380242922658
 30
0.0
 10
53.95141130820097
 20
39.01737273317924
 30
0.0
 10
53.90688423617068
 20
39.05715538903474
 30
0.0
 10
53.86807235176928
 20
39.10352645410921
 30
0.0
 10
53.83477725291152
 20
39.15538785134537
 30
0.0
 10
53.80832433879382
 20
39.21151798914239
 30
0.0
 10
53.78876715945276
 20
39.27037227466825
 30
0.0
 10
53.77708124777288
 20
39.33144765324995
 30
0.0
 10
53.77555131852083
 20
39.37292623876445
 30
0.0
 10
53.77478106376962
 20
39.3938089544349
 30
0.0
  0
SPLINE
  5
9D
330
1F
100
AcDbEntity
  8
0
  6
Continuous
 62
     7
370
    25
100
AcDbSpline
210
0.0
220
0.0
230
1.0
 70
     8
 71
     3
 72
    23
 73
    19
 74
     0
 42
0.000000001
 43
0.00000001
 40
0.0
 40
0.0
 40
0.0
 40
0.0
 40
0.0652308037420294
 40
0.1284048960032227
 40
0.1900670715964781
 40
0.25094336576828
 40
0.3115458328521431
 40
0.3728628021568291
 40
0.4350236738562383
 40
0.4990717247070431
 40
0.563091075049662
 40
0.625510106330375
 40
0.6866800359296492
 40
0.7472825030135124
 40
0.8085634952159588
 40
0.8707421035159856
 40
0.9343409515059125
 40
1.0
 40
1.0
 40
1.0
 40
1.0
 10
54.67862721761577
 20
39.37007097366566
 30
0.0
 10
54.67821745546043
 20
39.35482561809345
 30
0.0
 10
54.67741085085152
 20
39.32481558932661
 30
0.0
 10
54.67120348626931
 20
39.28075553125204
 30
0.0
 10
54.6614212954449
 20
39.23841741583497
 30
0.0
 10
54.64716175718138
 20
39.19797672486836
 30
0.0
 10
54.62894646245469
 20
39.15928830407141
 30
0.0
 10
54.60711551804876
 20
39.12213013431061
 30
0.0
 10
54.58054165503872
 20
39.08720070140794
 30
0.0
 10
54.5508566739885
 20
39.05405019603141
 30
0.0
 10
54.51797796634772
 20
39.0239528685773
 30
0.0
 10
54.48309167918798
 20
38.99730598762407
 30
0.0
 10
54.44623415876018
 20
38.97492307688088
 30
0.0
 10
54.40742407336019
 20
38.95676282476034
 30
0.0
 10
54.36672124783424
 20
38.94266073393268
 30
0.0
 10
54.32417775948207
 20
38.93238031462828
 30
0.0
 10
54.27976427171345
 20
38.92630334627691
 30
0.0
 10
54.24955933945652
 20
38.92547813597044
 30
0.0
 10
54.23421615992346
 20
38.92505895443489
 30
0.0
  0
SPLINE
  5
9E
330
1F
100
AcDbEntity
  8
0
  6
Continuous
 62
     7
370
    25
100
AcDbSpline
210
0.0
220
0.0
230
1.0
 70
     8
 71
     3
 72
     9
 73
     5
 74
     0
 42
0.000000001
 43
0.00000001
 40
0.0
 40
0.0
 40
0.0
 40
0.0
 40
0.5126593363417812
 40
1.0
 40
1.0
 40
1.0
 40
1.0
 10
54.66420414069269
 20
39.52541953135797
 30
0.0
 10
54.66841008097281
 20
39.49903226979368
 30
0.0
 10
54.67661424303903
 20
39.44756093260401
 30
0.0
 10
54.67796764823121
 20
39.39546126180784
 30
0.0
 10
54.67862721761577
 20
39.37007097366566
 30
0.0
  0
LINE
  5
9F
330
1F
100
AcDbEntity
  8
0
  6
Continuous
 62
     7
370
    25
100
AcDbLine
 10
55.2702738522
 20
39.1290853967
 30
0.0
 11
54.6642041407
 21
39.5254195314
 31
0.0
  0
LINE
  5
A0
330
1F
100
AcDbEntity
  8
0
  6
Continuous
 62
     7
370
    25
100
AcDbLine
 10
55.3517041407
 20
39.2327512621
 30
0.0
 11
55.2702738522
 21
39.1290853967
 31
0.0
  0
LINE
  5
A1
330
1F
100
AcDbEntity
  8
0
  6
Continuous
 62
     7
370
    25
100
AcDbLine
 10
55.1593964484
 20
40.5765182824
 30
0.0
 11
55.3132426022
 21
40.4884774171
 31
0.0
  0
LINE
  5
A2
330
1F
100
AcDbEntity
  8
0
  6
Continuous
 62
     7
370
    25
100
AcDbLine
 10
55.1593964484
 20
40.3457490517
 30
0.0
 11
55.1593964484
 21
40.5765182824
 31
0.0
  0
LINE
  5
A3
330
1F
100
AcDbEntity
  8
0
  6
Continuous
 62
     7
370
    25
100
AcDbLine
 10
53.8132426022
 20
40.3457490517
 30
0.0
 11
55.1593964484
 21
40.3457490517
 31
0.0
  0
LINE
  5
A4
330
1F
100
AcDbEntity
  8
0
  6
Continuous
 62
     7
370
    25
100
AcDbLine
 10
53.8132426022
 20
40.2111336671
 30
0.0
 11
53.8132426022
 21
40.3457490517
 31
0.0
  0
LINE
  5
A5
330
1F
100
AcDbEntity
  8
0
  6
Continuous
 62
     7
370
    25
100
AcDbLine
 10
55.3132426022
 20
40.2111336671
 30
0.0
 11
53.8132426022
 21
40.2111336671
 31
0.0
  0
LINE
  5
A6
330
1F
100
AcDbEntity
  8
0
  6
Continuous
 62
     7
370
    25
100
AcDbLine
 10
55.3132426022
 20
40.4884774171
 30
0.0
 11
55.3132426022
 21
40.2111336671
 31
0.0
  0
SPLINE
  5
A7
330
1F
100
AcDbEntity
  8
0
  6
Continuous
 62
     7
370
    25
100
AcDbSpline
210
0.0
220
0.0
230
1.0
 70
     8
 71
     3
 72
    19
 73
    15
 74
     0
 42
0.000000001
 43
0.00000001
 40
0.0
 40
0.0
 40
0.0
 40
0.0
 40
0.1227280999764553
 40
0.239716523588393
 40
0.3518621792202463
 40
0.4632019818032239
 40
0.5202611541541643
 40
0.5794324380306665
 40
0.6405963441586369
 40
0.70529822908802
 40
0.7732361059084537
 40
0.844648929340316
 40
0.9200459817773698
 40
1.0
 40
1.0
 40
1.0
 40
1.0
 10
55.19785798684654
 20
41.40385610332007
 30
0.0
 10
55.19726284549876
 20
41.42093595400532
 30
0.0
 10
55.19610039602743
 20
41.45429687485773
 30
0.0
 10
55.18588298914727
 20
41.50238111846496
 30
0.0
 10
55.1696945612157
 20
41.547035787494
 30
0.0
 10
55.15014708250249
 20
41.58105363757229
 30
0.0
 10
55.1309176001397
 20
41.60621624236393
 30
0.0
 10
55.11437447649264
 20
41.62454194434878
 30
0.0
 10
55.09561796261746
 20
41.64220979827121
 30
0.0
 10
55.0741335884477
 20
41.65852650152036
 30
0.0
 10
55.05066011465501
 20
41.67446978550722
 30
0.0
 10
55.02506825808599
 20
41.68988741570149
 30
0.0
 10
54.99699315545613
 20
41.70428417746439
 30
0.0
 10
54.97724993407914
 20
41.7130477220747
 30
0.0
 10
54.96708875607731
 20
41.71755802639699
 30
0.0
  0
SPLINE
  5
A8
330
1F
100
AcDbEntity
  8
0
  6
Continuous
 62
     7
370
    25
100
AcDbSpline
210
0.0
220
0.0
230
1.0
 70
     8
 71
     3
 72
    23
 73
    19
 74
     0
 42
0.000000001
 43
0.00000001
 40
0.0
 40
0.0
 40
0.0
 40
0.0
 40
0.0552698294993248
 40
0.1099567044850938
 40
0.1632335040550556
 40
0.2180575651623568
 40
0.2732775387226747
 40
0.330881045495497
 40
0.3904799376860887
 40
0.4536559730386417
 40
0.5189026226022311
 40
0.5833461108214766
 40
0.6485466930814431
 40
0.7150552190344909
 40
0.7825206438000536
 40
0.852335294426451
 40
0.9249348997257087
 40
0.9999999999999999
 40
0.9999999999999999
 40
0.9999999999999999
 40
0.9999999999999999
 10
54.96258154453885
 20
41.10217341101237
 30
0.0
 10
54.97041488271723
 20
41.10235099503388
 30
0.0
 10
54.98599893750833
 20
41.10270429002233
 30
0.0
 10
55.00876654776372
 20
41.10716056961017
 30
0.0
 10
55.03083941323372
 20
41.11385545462387
 30
0.0
 10
55.05211738037037
 20
41.12306539154584
 30
0.0
 10
55.07247694195481
 20
41.13537026182588
 30
0.0
 10
55.09194307518178
 20
41.15014020528678
 30
0.0
 10
55.1108420122851
 20
41.16738235067211
 30
0.0
 10
55.12826960498871
 20
41.18754732103145
 30
0.0
 10
55.1447082876811
 20
41.20937805208442
 30
0.0
 10
55.15891891735809
 20
41.23307995726837
 30
0.0
 10
55.17096383757556
 20
41.25813026213205
 30
0.0
 10
55.18091550934562
 20
41.28455200221335
 30
0.0
 10
55.18839675571442
 20
41.3124510221471
 30
0.0
 10
55.19376962496812
 20
41.34169071334786
 30
0.0
 10
55.19712851806182
 20
41.37232836492641
 30
0.0
 10
55.1976121389805
 20
41.39323052568382
 30
0.0
 10
55.19785798684654
 20
41.40385610332007
 30
0.0
  0
SPLINE
  5
A9
330
1F
100
AcDbEntity
  8
0
  6
Continuous
 62
     7
370
    25
100
AcDbSpline
210
0.0
220
0.0
230
1.0
 70
     8
 71
     3
 72
    19
 73
    15
 74
     0
 42
0.000000001
 43
0.00000001
 40
0.0
 40
0.0
 40
0.0
 40
0.0
 40
0.1101423815503176
 40
0.2157418685830274
 40
0.3179605426392306
 40
0.4180517606815226
 40
0.5115631470355316
 40
0.5965727584443461
 40
0.6733290469034968
 40
0.7440491927238595
 40
0.8107168223002833
 40
0.8740854521098849
 40
0.9367096168966699
 40
1.0
 40
1.0
 40
1.0
 40
1.0
 10
54.71708875607731
 20
41.48678879562775
 30
0.0
 10
54.71740504504591
 20
41.46823166609558
 30
0.0
 10
54.71802457743787
 20
41.43188280796799
 30
0.0
 10
54.72546582454846
 20
41.37877802848939
 30
0.0
 10
54.73587515036834
 20
41.32793647885775
 30
0.0
 10
54.75145132200982
 20
41.28051867478295
 30
0.0
 10
54.77014717370982
 20
41.23743995668468
 30
0.0
 10
54.79122811183242
 20
41.19986052133168
 30
0.0
 10
54.81511186887325
 20
41.16867098664101
 30
0.0
 10
54.84148499342146
 20
41.14379342833957
 30
0.0
 10
54.87010078281296
 20
41.12553418388764
 30
0.0
 10
54.89961371017378
 20
41.11182881243222
 30
0.0
 10
54.93071044337577
 20
41.10379416837942
 30
0.0
 10
54.95192043654369
 20
41.10271556577619
 30
0.0
 10
54.96258154453884
 20
41.10217341101237
 30
0.0
  0
LINE
  5
AA
330
1F
100
AcDbEntity
  8
0
  6
Continuous
 62
     7
370
    25
100
AcDbLine
 10
54.5632426022
 20
41.4867887956
 30
0.0
 11
54.7170887561
 21
41.4867887956
 31
0.0
  0
SPLINE
  5
AB
330
1F
100
AcDbEntity
  8
0
  6
Continuous
 62
     7
370
    25
100
AcDbSpline
210
0.0
220
0.0
230
1.0
 70
     8
 71
     3
 72
    23
 73
    19
 74
     0
 42
0.000000001
 43
0.00000001
 40
0.0
 40
0.0
 40
0.0
 40
0.0
 40
0.0669051223273616
 40
0.1334773340846825
 40
0.2010229080576287
 40
0.2712178684297488
 40
0.3428591616573978
 40
0.4138109980627169
 40
0.4855518488903453
 40
0.5598002749200529
 40
0.5998999649035781
 40
0.6436094423977958
 40
0.6919106424505659
 40
0.7447030291556902
 40
0.8015038302285953
 40
0.8628660266331954
 40
0.9293326711591618
 40
1.0
 40
1.0
 40
1.0
 40
1.0
 10
54.24593490992346
 20
41.02525033408929
 30
0.0
 10
54.259911213806
 20
41.02590616595431
 30
0.0
 10
54.28779427742961
 20
41.02721456635634
 30
0.0
 10
54.32881585838965
 20
41.0372041319814
 30
0.0
 10
54.36834110076165
 20
41.05363439343116
 30
0.0
 10
54.40568996696571
 20
41.07663956382443
 30
0.0
 10
54.44032203498103
 20
41.10463039749224
 30
0.0
 10
54.47110145393758
 20
41.13733594475869
 30
0.0
 10
54.49675432472964
 20
41.17483643224752
 30
0.0
 10
54.51441279896539
 20
41.20957329343224
 30
0.0
 10
54.52618142943106
 20
41.24041629518722
 30
0.0
 10
54.53443337279602
 20
41.26675866916933
 30
0.0
 10
54.54102983009999
 20
41.29627584747648
 30
0.0
 10
54.54741059082364
 20
41.32861348281335
 30
0.0
 10
54.55275981569174
 20
41.36390795900832
 30
0.0
 10
54.55724000118101
 20
41.40219107415836
 30
0.0
 10
54.56081922202505
 20
41.44347822985245
 30
0.0
 10
54.56241847935939
 20
41.47206010066093
 30
0.0
 10
54.56324260223115
 20
41.48678879562775
 30
0.0
  0
SPLINE
  5
AC
330
1F
100
AcDbEntity
  8
0
  6
Continuous
 62
     7
370
    25
100
AcDbSpline
210
0.0
220
0.0
230
1.0
 70
     8
 71
     3
 72
    23
 73
    19
 74
     0
 42
0.000000001
 43
0.00000001
 40
0.0
 40
0.0
 40
0.0
 40
0.0
 40
0.0760618905628339
 40
0.1487324608035359
 40
0.2183745247439722
 40
0.2857225935927383
 40
0.3510576941824569
 40
0.414934915729319
 40
0.4784859417740854
 40
0.542169035281216
 40
0.6047501165431387
 40
0.6641185017301124
 40
0.7214996756099116
 40
0.7776159163852547
 40
0.832666108697549
 40
0.8878580281135741
 40
0.9434676608977686
 40
1.0
 40
1.0
 40
1.0
 40
1.0
 10
53.92862721761576
 20
41.4071613917816
 30
0.0
 10
53.92889074772503
 20
41.39312398634581
 30
0.0
 10
53.92940605810392
 20
41.36567505182271
 30
0.0
 10
53.93415878712694
 20
41.32562562395901
 30
0.0
 10
53.94105039225283
 20
41.28751294684411
 30
0.0
 10
53.95183020261486
 20
41.25172596023245
 30
0.0
 10
53.96476236593924
 20
41.21777769105592
 30
0.0
 10
53.98169294121194
 20
41.18642596276185
 30
0.0
 10
54.00081328884771
 20
41.15674907327275
 30
0.0
 10
54.02305393056367
 20
41.12961641829845
 30
0.0
 10
54.04709365688839
 20
41.10515500312758
 30
0.0
 10
54.0725976641505
 20
41.08401763777479
 30
0.0
 10
54.09877516215344
 20
41.06571026191125
 30
0.0
 10
54.12623681901208
 20
41.05099418693023
 30
0.0
 10
54.15471325794899
 20
41.03935308091344
 30
0.0
 10
54.18431106652731
 20
41.03143308553052
 30
0.0
 10
54.21478101267918
 20
41.0259249269378
 30
0.0
 10
54.23549347000859
 20
41.02547642845686
 30
0.0
 10
54.24593490992346
 20
41.02525033408929
 30
0.0
  0
SPLINE
  5
AD
330
1F
100
AcDbEntity
  8
0
  6
Continuous
 62
     7
370
    25
100
AcDbSpline
210
0.0
220
0.0
230
1.0
 70
     8
 71
     3
 72
    15
 73
    11
 74
     0
 42
0.000000001
 43
0.00000001
 40
0.0
 40
0.0
 40
0.0
 40
0.0
 40
0.1182713048357256
 40
0.2361775330837632
 40
0.355662932948509
 40
0.4759041646706825
 40
0.6001273417110832
 40
0.7286081161551193
 40
0.8613134756739422
 40
1.0
 40
1.0
 40
1.0
 40
1.0
 10
54.00975702530808
 20
41.65776235332006
 30
0.0
 10
54.00328202507143
 20
41.64936382052357
 30
0.0
 10
53.99035201144951
 20
41.63259267928898
 30
0.0
 10
53.97385131350475
 20
41.60526343738965
 30
0.0
 10
53.95955373121843
 20
41.57652134335291
 30
0.0
 10
53.94863214734001
 20
41.54574362582967
 30
0.0
 10
53.93938457843036
 20
41.51359443849221
 30
0.0
 10
53.93333292737359
 20
41.47955413910715
 30
0.0
 10
53.92918085394079
 20
41.44392304605926
 30
0.0
 10
53.92881445472976
 20
41.41959400456652
 30
0.0
 10
53.92862721761576
 20
41.4071613917816
 30
0.0
  0
SPLINE
  5
AE
330
1F
100
AcDbEntity
  8
0
  6
Continuous
 62
     7
370
    25
100
AcDbSpline
210
0.0
220
0.0
230
1.0
 70
     8
 71
     3
 72
    15
 73
    11
 74
     0
 42
0.000000001
 43
0.00000001
 40
0.0
 40
0.0
 40
0.0
 40
0.0
 40
0.1497703860319681
 40
0.2913164099952446
 40
0.4259663731047426
 40
0.5521595739695285
 40
0.6715274135235928
 40
0.7861216286916589
 40
0.8953250730704446
 40
1.0
 40
1.0
 40
1.0
 40
1.0
 10
54.21708875607731
 20
41.77525033408929
 30
0.0
 10
54.20553917896218
 20
41.77174320918631
 30
0.0
 10
54.1830742482687
 20
41.76492154661864
 30
0.0
 10
54.15074268869375
 20
41.7533097046036
 30
0.0
 10
54.12110352302598
 20
41.74008044514483
 30
0.0
 10
54.09393932789257
 20
41.72588849144366
 30
0.0
 10
54.06898258397934
 20
41.71098344314821
 30
0.0
 10
54.04689321153617
 20
41.69430561808974
 30
0.0
 10
54.02670098201769
 20
41.67709027016947
 30
0.0
 10
54.0153247197576
 20
41.66411340444746
 30
0.0
 10
54.00975702530808
 20
41.65776235332006
 30
0.0
  0
LINE
  5
AF
330
1F
100
AcDbEntity
  8
0
  6
Continuous
 62
     7
370
    25
100
AcDbLine
 10
54.2170887561
 20
41.9098657187
 30
0.0
 11
54.2170887561
 21
41.7752503341
 31
0.0
  0
SPLINE
  5
B0
330
1F
100
AcDbEntity
  8
0
  6
Continuous
 62
     7
370
    25
100
AcDbSpline
210
0.0
220
0.0
230
1.0
 70
     8
 71
     3
 72
    23
 73
    19
 74
     0
 42
0.000000001
 43
0.00000001
 40
0.0
 40
0.0
 40
0.0
 40
0.0
 40
0.0655411703374033
 40
0.1289631677825933
 40
0.1903771361885609
 40
0.2500923616690527
 40
0.308548432459201
 40
0.3663979630552958
 40
0.42454218926668
 40
0.4831699964229055
 40
0.5422433998311199
 40
0.6017393520173299
 40
0.6625060022496068
 40
0.7248555134488469
 40
0.7891278292811811
 40
0.8563463998785099
 40
0.9262952349869055
 40
1.0
 40
1.0
 40
1.0
 40
1.0
 10
53.77478106376962
 20
41.40956523793545
 30
0.0
 10
53.77515315516611
 20
41.42560208091393
 30
0.0
 10
53.77588530695635
 20
41.45715724022968
 30
0.0
 10
53.78089042175488
 20
41.50354731096668
 30
0.0
 10
53.79003185257108
 20
41.54782803926575
 30
0.0
 10
53.80233326915655
 20
41.59005929549005
 30
0.0
 10
53.8179297300482
 20
41.63027859680157
 30
0.0
 10
53.83735202920019
 20
41.6683632133063
 30
0.0
 10
53.86019981579383
 20
41.70454745338635
 30
0.0
 10
53.88674278199665
 20
41.73848986101973
 30
0.0
 10
53.91643478474954
 20
41.77018639003669
 30
0.0
 10
53.94980293187855
 20
41.79879470042103
 30
0.0
 10
53.98623039070186
 20
41.82479175453907
 30
0.0
 10
54.02614027192988
 20
41.847481456844
 30
0.0
 10
54.06901681076321
 20
41.86789729367937
 30
0.0
 10
54.11540902435534
 20
41.8846891322425
 30
0.0
 10
54.16490217663635
 20
41.89946866165805
 30
0.0
 10
54.19939263671171
 20
41.90634014633494
 30
0.0
 10
54.21708875607731
 20
41.90986571870468
 30
0.0
  0
SPLINE
  5
B1
330
1F
100
AcDbEntity
  8
0
  6
Continuous
 62
     7
370
    25
100
AcDbSpline
210
0.0
220
0.0
230
1.0
 70
     8
 71
     3
 72
    19
 73
    15
 74
     0
 42
0.000000001
 43
0.00000001
 40
0.0
 40
0.0
 40
0.0
 40
0.0
 40
0.079641704194991
 40
0.1589086132578561
 40
0.2395997983184508
 40
0.3224093988203484
 40
0.405827748173513
 40
0.4876442139503137
 40
0.5697199979738974
 40
0.6530646649976934
 40
0.7374573001733065
 40
0.8224924079539125
 40
0.9097550737466981
 40
1.0
 40
1.0
 40
1.0
 40
1.0
 10
54.25885558300038
 20
40.89063494947391
 30
0.0
 10
54.23785225199707
 20
40.89140572018542
 30
0.0
 10
54.19594443200163
 20
40.89294363434917
 30
0.0
 10
54.13401416595897
 20
40.90663426405222
 30
0.0
 10
54.0735809918967
 20
40.92798086835244
 30
0.0
 10
54.0155403329717
 20
40.95776481205287
 30
0.0
 10
53.96134894261208
 20
40.99461537444251
 30
0.0
 10
53.91308235857553
 20
41.03869951998191
 30
0.0
 10
53.87131425232819
 20
41.08894557012449
 30
0.0
 10
53.83652854607164
 20
41.14502467449534
 30
0.0
 10
53.80870148199432
 20
41.20575525364363
 30
0.0
 10
53.78939253635035
 20
41.27071767276333
 30
0.0
 10
53.77681530152262
 20
41.33896730059983
 30
0.0
 10
53.77546669555066
 20
41.38577048265563
 30
0.0
 10
53.77478106376962
 20
41.40956523793545
 30
0.0
  0
SPLINE
  5
B2
330
1F
100
AcDbEntity
  8
0
  6
Continuous
 62
     7
370
    25
100
AcDbSpline
210
0.0
220
0.0
230
1.0
 70
     8
 71
     3
 72
    15
 73
    11
 74
     0
 42
0.000000001
 43
0.00000001
 40
0.0
 40
0.0
 40
0.0
 40
0.0
 40
0.1281455049994643
 40
0.2541925386280419
 40
0.3781411397135888
 40
0.5013808330744057
 40
0.6239569784447038
 40
0.7470758858273289
 40
0.8728647202442611
 40
1.0
 40
1.0
 40
1.0
 40
1.0
 10
54.52538202530807
 20
40.98017821870468
 30
0.0
 10
54.51550118488308
 20
40.97295756251712
 30
0.0
 10
54.49590130963642
 20
40.95863449338658
 30
0.0
 10
54.46437031307082
 20
40.94100504472266
 30
0.0
 10
54.43259421383532
 20
40.92482883730157
 30
0.0
 10
54.39932361669149
 20
40.91292361689147
 30
0.0
 10
54.36562723207096
 20
40.9026498834534
 30
0.0
 10
54.33078348570506
 20
40.89589010894107
 30
0.0
 10
54.29512342267748
 20
40.89155060409537
 30
0.0
 10
54.27098769186848
 20
40.89094124898477
 30
0.0
 10
54.25885558300038
 20
40.89063494947391
 30
0.0
  0
SPLINE
  5
B3
330
1F
100
AcDbEntity
  8
0
  6
Continuous
 62
     7
370
    25
100
AcDbSpline
210
0.0
220
0.0
230
1.0
 70
     8
 71
     3
 72
    11
 73
     7
 74
     0
 42
0.000000001
 43
0.00000001
 40
0.0
 40
0.0
 40
0.0
 40
0.0
 40
0.253879600326656
 40
0.5030089172783633
 40
0.7502910806899731
 40
1.0
 40
1.0
 40
1.0
 40
1.0
 10
54.65338683300038
 20
41.14273831485852
 30
0.0
 10
54.64568190233975
 20
41.12678184861281
 30
0.0
 10
54.63041620622109
 20
41.09516747392686
 30
0.0
 10
54.60047802442799
 20
41.05207438984134
 30
0.0
 10
54.56591101841918
 20
41.01295530040264
 30
0.0
 10
54.53893559574193
 20
40.99113942082958
 30
0.0
 10
54.52538202530807
 20
40.98017821870468
 30
0.0
  0
SPLINE
  5
B4
330
1F
100
AcDbEntity
  8
0
  6
Continuous
 62
     7
370
    25
100
AcDbSpline
210
0.0
220
0.0
230
1.0
 70
     8
 71
     3
 72
    15
 73
    11
 74
     0
 42
0.000000001
 43
0.00000001
 40
0.0
 40
0.0
 40
0.0
 40
0.0
 40
0.1280675485958904
 40
0.2506083188676684
 40
0.3706301659145029
 40
0.4900722467299488
 40
0.6103747641546199
 40
0.7343130699115256
 40
0.8632165042449895
 40
1.0
 40
1.0
 40
1.0
 40
1.0
 10
54.96198058300038
 20
40.96755802639699
 30
0.0
 10
54.94612052812656
 20
40.9680567082743
 30
0.0
 10
54.91508486192809
 20
40.96903255132192
 30
0.0
 10
54.86977564886887
 20
40.97731842513435
 30
0.0
 10
54.82707210589078
 20
40.99126253779558
 30
0.0
 10
54.78679446498072
 20
41.01057815032895
 30
0.0
 10
54.74919810505653
 20
41.03558167186051
 30
0.0
 10
54.71419843754489
 20
41.06586997052779
 30
0.0
 10
54.6816402269185
 20
41.10165682557443
 30
0.0
 10
54.66298902421472
 20
41.12877637044155
 30
0.0
 10
54.65338683300038
 20
41.14273831485852
 30
0.0
  0
SPLINE
  5
B5
330
1F
100
AcDbEntity
  8
0
  6
Continuous
 62
     7
370
    25
100
AcDbSpline
210
0.0
220
0.0
230
1.0
 70
     8
 71
     3
 72
    19
 73
    15
 74
     0
 42
0.000000001
 43
0.00000001
 40
0.0
 40
0.0
 40
0.0
 40
0.0
 40
0.0902542493426766
 40
0.1785397915286843
 40
0.2660930338538198
 40
0.3546309779571733
 40
0.4418861533505626
 40
0.5257469151636484
 40
0.6081136336036366
 40
0.6901972728278825
 40
0.770821484330335
 40
0.8483261812554109
 40
0.9240117400247433
 40
1.0
 40
1.0
 40
1.0
 40
1.0
 10
55.35170414069269
 20
41.40565898793545
 30
0.0
 10
55.35111304201628
 20
41.38608066990327
 30
0.0
 10
55.34994373824136
 20
41.34735109378464
 30
0.0
 10
55.33926612260747
 20
41.29045264509158
 30
0.0
 10
55.32236963731282
 20
41.23558400833352
 30
0.0
 10
55.2990237542541
 20
41.18334575926938
 30
0.0
 10
55.27022919147034
 20
41.13482357387098
 30
0.0
 10
55.23595858994402
 20
41.09165092240793
 30
0.0
 10
55.19687317502087
 20
41.05441298920623
 30
0.0
 10
55.15370207602719
 20
41.02317254163761
 30
0.0
 10
55.10756400057565
 20
40.99871182775746
 30
0.0
 10
55.06007821894109
 20
40.98067481055187
 30
0.0
 10
55.01135737406013
 20
40.96969409012387
 30
0.0
 10
54.97846139727077
 20
40.96827099434806
 30
0.0
 10
54.96198058300038
 20
40.96755802639699
 30
0.0
  0
SPLINE
  5
B6
330
1F
100
AcDbEntity
  8
0
  6
Continuous
 62
     7
370
    25
100
AcDbSpline
210
0.0
220
0.0
230
1.0
 70
     8
 71
     3
 72
    23
 73
    19
 74
     0
 42
0.000000001
 43
0.00000001
 40
0.0
 40
0.0
 40
0.0
 40
0.0
 40
0.0726253460834355
 40
0.1419766113262345
 40
0.2089849284189386
 40
0.2739568703644447
 40
0.336889347396841
 40
0.3987449534945902
 40
0.4601158852788617
 40
0.5208249225900291
 40
0.5809944586324857
 40
0.6401519276014648
 40
0.6986224507562546
 40
0.7572710809271643
 40
0.8164266940046602
 40
0.8762540482034705
 40
0.9371652930625374
 40
1.0
 40
1.0
 40
1.0
 40
1.0
 10
54.96708875607731
 20
41.85217341101237
 30
0.0
 10
54.98218839206675
 20
41.84852646072051
 30
0.0
 10
55.01170694537704
 20
41.84139697119604
 30
0.0
 10
55.05388148574017
 20
41.82652658256651
 30
0.0
 10
55.09379156633619
 20
41.81032690176882
 30
0.0
 10
55.13068988363422
 20
41.79087442838392
 30
0.0
 10
55.16531798480537
 20
41.76965639085844
 30
0.0
 10
55.19689046672028
 20
41.74534665305736
 30
0.0
 10
55.22621030906334
 20
41.71906677195768
 30
0.0
 10
55.25223026801643
 20
41.68999893654263
 30
0.0
 10
55.27579215196216
 20
41.65951522441086
 30
0.0
 10
55.29588146225174
 20
41.62718610166054
 30
0.0
 10
55.31316324205081
 20
41.59366200437314
 30
0.0
 10
55.32740048428311
 20
41.55871066168089
 30
0.0
 10
55.33812570871144
 20
41.52222801667003
 30
0.0
 10
55.34590719682178
 20
41.48454389238968
 30
0.0
 10
55.35096053148511
 20
41.44555953519769
 30
0.0
 10
55.35145371566497
 20
41.41909628208415
 30
0.0
 10
55.35170414069269
 20
41.40565898793545
 30
0.0
  0
LINE
  5
B7
330
1F
100
AcDbEntity
  8
0
  6
Continuous
 62
     7
370
    25
100
AcDbLine
 10
54.9670887561
 20
41.7175580264
 30
0.0
 11
54.9670887561
 21
41.852173411
 31
0.0
  0
SPLINE
  5
B8
330
1F
100
AcDbEntity
  8
0
  6
Continuous
 62
     7
370
    25
100
AcDbSpline
210
0.0
220
0.0
230
1.0
 70
     8
 71
     3
 72
    16
 73
    12
 74
     0
 42
0.000000001
 43
0.00000001
 40
0.0
 40
0.0
 40
0.0
 40
0.0
 40
0.2500000000000001
 40
0.2500000000000001
 40
0.5000000000000001
 40
0.5000000000000001
 40
0.625
 40
0.625
 40
0.7499999999999999
 40
0.7499999999999999
 40
1.0
 40
1.0
 40
1.0
 40
1.0
 10
52.48279495186735
 20
48.36071777735433
 30
0.0
 10
52.29230048088256
 20
48.03077167504773
 30
0.0
 10
52.13529846766947
 20
47.69841993373802
 30
0.0
 10
51.91779965683145
 20
47.02678483946429
 30
0.0
 10
51.85802029576139
 20
46.68744995569383
 30
0.0
 10
51.85736379490743
 20
46.17205418942363
 30
0.0
 10
51.87197756139091
 20
45.99944742892315
 30
0.0
 10
51.92896341926774
 20
45.65801301640462
 30
0.0
 10
51.97127768852698
 20
45.48844051366063
 30
0.0
 10
52.13467250841716
 20
44.98274201410914
 30
0.0
 10
52.29206303573059
 20
44.64962326240114
 30
0.0
 10
52.48279495186759
 20
44.31926589302689
 30
0.0
  0
LINE
  5
B9
330
1F
100
AcDbEntity
  8
0
  6
Continuous
 62
     7
370
    25
100
AcDbLine
 10
54.6328578445
 20
48.3607177774
 30
0.0
 11
52.4827949519
 21
48.3607177774
 31
0.0
  0
SPLINE
  5
BA
330
1F
100
AcDbEntity
  8
0
  6
Continuous
 62
     7
370
    25
100
AcDbSpline
210
0.0
220
0.0
230
1.0
 70
     8
 71
     3
 72
     8
 73
     4
 74
     0
 42
0.000000001
 43
0.00000001
 40
0.0
 40
0.0
 40
0.0
 40
0.0
 40
1.0
 40
1.0
 40
1.0
 40
1.0
 10
54.71324260223115
 20
48.04099088517127
 30
0.0
 10
54.68824218930845
 20
48.14771739998271
 30
0.0
 10
54.66137587784824
 20
48.25428702797351
 30
0.0
 10
54.63285784450181
 20
48.36071777735429
 30
0.0
  0
SPLINE
  5
BB
330
1F
100
AcDbEntity
  8
0
  6
Continuous
 62
     7
370
    25
100
AcDbSpline
210
0.0
220
0.0
230
1.0
 70
     8
 71
     3
 72
     8
 73
     4
 74
     0
 42
0.000000001
 43
0.00000001
 40
0.0
 40
0.0
 40
0.0
 40
0.0
 40
1.0
 40
1.0
 40
1.0
 40
1.0
 10
54.79362735996049
 20
48.3607177773543
 30
0.0
 10
54.76509354512239
 20
48.25422813064476
 30
0.0
 10
54.73822862331561
 20
48.14765596136797
 30
0.0
 10
54.71324260223115
 20
48.04099088517127
 30
0.0
  0
LINE
  5
BC
330
1F
100
AcDbEntity
  8
0
  6
Continuous
 62
     7
370
    25
100
AcDbLine
 10
56.9436902526
 20
48.3607177774
 30
0.0
 11
54.79362736
 21
48.3607177774
 31
0.0
  0
SPLINE
  5
BD
330
1F
100
AcDbEntity
  8
0
  6
Continuous
 62
     7
370
    25
100
AcDbSpline
210
0.0
220
0.0
230
1.0
 70
     8
 71
     3
 72
    16
 73
    12
 74
     0
 42
0.000000001
 43
0.00000001
 40
0.0
 40
0.0
 40
0.0
 40
0.0
 40
0.2500000000000001
 40
0.2500000000000001
 40
0.5000000000000001
 40
0.5000000000000001
 40
0.625
 40
0.625
 40
0.7499999999999999
 40
0.7499999999999999
 40
1.0
 40
1.0
 40
1.0
 40
1.0
 10
56.94369025259495
 20
48.36071777735433
 30
0.0
 10
57.13418472357974
 20
48.03077167504773
 30
0.0
 10
57.29118673679284
 20
47.69841993373802
 30
0.0
 10
57.50868554763085
 20
47.02678483946429
 30
0.0
 10
57.56846490870091
 20
46.68744995569383
 30
0.0
 10
57.56912140955487
 20
46.17205418942363
 30
0.0
 10
57.5545076430714
 20
45.99944742892315
 30
0.0
 10
57.49752178519456
 20
45.65801301640462
 30
0.0
 10
57.45520751593532
 20
45.48844051366063
 30
0.0
 10
57.29181269604514
 20
44.98274201410914
 30
0.0
 10
57.13442216873171
 20
44.64962326240114
 30
0.0
 10
56.94369025259471
 20
44.31926589302689
 30
0.0
  0
SPLINE
  5
BE
330
1F
100
AcDbEntity
  8
0
  6
Continuous
 62
     7
370
    25
100
AcDbSpline
210
0.0
220
0.0
230
1.0
 70
     8
 71
     3
 72
     8
 73
     4
 74
     0
 42
0.000000001
 43
0.00000001
 40
0.0
 40
0.0
 40
0.0
 40
0.0
 40
1.0
 40
1.0
 40
1.0
 40
1.0
 10
54.71324260223115
 20
44.63899278520994
 30
0.0
 10
54.73824301515385
 20
44.53226627039849
 30
0.0
 10
54.76510932661407
 20
44.42569664240769
 30
0.0
 10
54.79362735996049
 20
44.31926589302692
 30
0.0
  0
SPLINE
  5
BF
330
1F
100
AcDbEntity
  8
0
  6
Continuous
 62
     7
370
    25
100
AcDbSpline
210
0.0
220
0.0
230
1.0
 70
     8
 71
     3
 72
     8
 73
     4
 74
     0
 42
0.000000001
 43
0.00000001
 40
0.0
 40
0.0
 40
0.0
 40
0.0
 40
1.0
 40
1.0
 40
1.0
 40
1.0
 10
54.79362735996049
 20
36.23636212437215
 30
0.0
 10
54.76509354512239
 20
36.12987247766262
 30
0.0
 10
54.73822862331561
 20
36.02330030838584
 30
0.0
 10
54.71324260223115
 20
35.91663523218912
 30
0.0
  0
LINE
  5
C0
330
1F
100
AcDbEntity
  8
0
  6
Continuous
 62
     7
370
    25
100
AcDbLine
 10
54.7132426022
 20
35.9166352322
 30
0.0
 11
54.7132426022
 21
36.8758159087
 31
0.0
  0
LINE
  5
C1
330
1F
100
AcDbEntity
  8
0
  6
Continuous
 62
     7
370
    25
100
AcDbLine
 10
54.6328578445
 20
32.19491024
 30
0.0
 11
52.4827949519
 21
32.19491024
 31
0.0
  0
SPLINE
  5
C2
330
1F
100
AcDbEntity
  8
0
  6
Continuous
 62
     7
370
    25
100
AcDbSpline
210
0.0
220
0.0
230
1.0
 70
     8
 71
     3
 72
    16
 73
    12
 74
     0
 42
0.000000001
 43
0.00000001
 40
0.0
 40
0.0
 40
0.0
 40
0.0
 40
0.2499999999999999
 40
0.2499999999999999
 40
0.4999999999999999
 40
0.4999999999999999
 40
0.6249999999999999
 40
0.6249999999999999
 40
0.7499999999999998
 40
0.7499999999999998
 40
1.0
 40
1.0
 40
1.0
 40
1.0
 10
52.48279495186735
 20
36.23636212437219
 30
0.0
 10
52.29230048088256
 20
35.90641602206559
 30
0.0
 10
52.13529846766947
 20
35.57406428075588
 30
0.0
 10
51.91779965683145
 20
34.90242918648214
 30
0.0
 10
51.85802029576139
 20
34.56309430271168
 30
0.0
 10
51.85736379490742
 20
34.04769853644149
 30
0.0
 10
51.87197756139091
 20
33.87509177594101
 30
0.0
 10
51.92896341926774
 20
33.53365736342247
 30
0.0
 10
51.97127768852697
 20
33.36408486067849
 30
0.0
 10
52.13467250841716
 20
32.858386361127
 30
0.0
 10
52.29206303573059
 20
32.525267609419
 30
0.0
 10
52.48279495186759
 20
32.19491024004475
 30
0.0
  0
SPLINE
  5
C3
330
1F
100
AcDbEntity
  8
0
  6
Continuous
 62
     7
370
    25
100
AcDbSpline
210
0.0
220
0.0
230
1.0
 70
     8
 71
     3
 72
     8
 73
     4
 74
     0
 42
0.000000001
 43
0.00000001
 40
0.0
 40
0.0
 40
0.0
 40
0.0
 40
1.0
 40
1.0
 40
1.0
 40
1.0
 10
54.71324260223115
 20
35.91663523218912
 30
0.0
 10
54.68824218930845
 20
36.02336174700058
 30
0.0
 10
54.66137587784824
 20
36.12993137499137
 30
0.0
 10
54.63285784450181
 20
36.23636212437215
 30
0.0
  0
SPLINE
  5
C4
330
1F
100
AcDbEntity
  8
0
  6
Continuous
 62
     7
370
    25
100
AcDbSpline
210
0.0
220
0.0
230
1.0
 70
     8
 71
     3
 72
    16
 73
    12
 74
     0
 42
0.000000001
 43
0.00000001
 40
0.0
 40
0.0
 40
0.0
 40
0.0
 40
0.2499999999999999
 40
0.2499999999999999
 40
0.4999999999999999
 40
0.4999999999999999
 40
0.6249999999999999
 40
0.6249999999999999
 40
0.7499999999999998
 40
0.7499999999999998
 40
1.0
 40
1.0
 40
1.0
 40
1.0
 10
56.94369025259495
 20
36.23636212437219
 30
0.0
 10
57.13418472357974
 20
35.90641602206559
 30
0.0
 10
57.29118673679284
 20
35.57406428075588
 30
0.0
 10
57.50868554763085
 20
34.90242918648214
 30
0.0
 10
57.56846490870092
 20
34.56309430271168
 30
0.0
 10
57.56912140955487
 20
34.04769853644149
 30
0.0
 10
57.5545076430714
 20
33.87509177594101
 30
0.0
 10
57.49752178519456
 20
33.53365736342247
 30
0.0
 10
57.45520751593533
 20
33.36408486067849
 30
0.0
 10
57.29181269604514
 20
32.858386361127
 30
0.0
 10
57.13442216873171
 20
32.525267609419
 30
0.0
 10
56.94369025259471
 20
32.19491024004475
 30
0.0
  0
LINE
  5
C5
330
1F
100
AcDbEntity
  8
0
  6
Continuous
 62
     7
370
    25
100
AcDbLine
 10
56.9436902526
 20
32.19491024
 30
0.0
 11
54.79362736
 21
32.19491024
 31
0.0
  0
SPLINE
  5
C6
330
1F
100
AcDbEntity
  8
0
  6
Continuous
 62
     7
370
    25
100
AcDbSpline
210
0.0
220
0.0
230
1.0
 70
     8
 71
     3
 72
     8
 73
     4
 74
     0
 42
0.000000001
 43
0.00000001
 40
0.0
 40
0.0
 40
0.0
 40
0.0
 40
1.0
 40
1.0
 40
1.0
 40
1.0
 10
54.71324260223115
 20
32.51463713222779
 30
0.0
 10
54.73824301515385
 20
32.40791061741635
 30
0.0
 10
54.76510932661407
 20
32.30134098942555
 30
0.0
 10
54.79362735996049
 20
32.19491024004477
 30
0.0
  0
SPLINE
  5
C7
330
1F
100
AcDbEntity
  8
0
  6
Continuous
 62
     7
370
    25
100
AcDbSpline
210
0.0
220
0.0
230
1.0
 70
     8
 71
     3
 72
     8
 73
     4
 74
     0
 42
0.000000001
 43
0.00000001
 40
0.0
 40
0.0
 40
0.0
 40
0.0
 40
1.0
 40
1.0
 40
1.0
 40
1.0
 10
54.63285784450182
 20
32.19491024004477
 30
0.0
 10
54.66139165933991
 20
32.3013998867543
 30
0.0
 10
54.6882565811467
 20
32.40797205603108
 30
0.0
 10
54.71324260223115
 20
32.51463713222779
 30
0.0
  0
LINE
  5
C8
330
1F
100
AcDbEntity
  8
0
  6
Continuous
 62
     7
370
    25
100
AcDbLine
 10
51.7132426022
 20
47.0278140087
 30
0.0
 11
51.7132426022
 21
33.5278140087
 31
0.0
  0
LINE
  5
C9
330
1F
100
AcDbEntity
  8
0
  6
Continuous
 62
     7
370
    25
100
AcDbLine
 10
57.7132426022
 20
47.0278140087
 30
0.0
 11
57.7132426022
 21
33.5278140087
 31
0.0
  0
SPLINE
  5
CA
330
1F
100
AcDbEntity
  8
0
  6
Continuous
 62
     7
370
    25
100
AcDbSpline
210
0.0
220
0.0
230
1.0
 70
     8
 71
     3
 72
    23
 73
    19
 74
     0
 42
0.000000001
 43
0.00000001
 40
0.0
 40
0.0
 40
0.0
 40
0.0
 40
0.0611415679303346
 40
0.1200010135310723
 40
0.1782359705414083
 40
0.2364955434070171
 40
0.2948872487049731
 40
0.3546771928192958
 40
0.4166948132897783
 40
0.4806333779628393
 40
0.5458046334786407
 40
0.6097347883178743
 40
0.6729516883751544
 40
0.7360010960706834
 40
0.7998274385165249
 40
0.864767276939387
 40
0.9310835057306723
 40
1.0
 40
1.0
 40
1.0
 40
1.0
 10
54.22610317915423
 20
39.05967433905028
 30
0.0
 10
54.23634488960437
 20
39.05990743009332
 30
0.0
 10
54.25644603643316
 20
39.06036491200549
 30
0.0
 10
54.2858666500362
 20
39.06563948706168
 30
0.0
 10
54.31439145876973
 20
39.07276367850349
 30
0.0
 10
54.34137789529451
 20
39.08427702484083
 30
0.0
 10
54.36757224312488
 20
39.09799036010449
 30
0.0
 10
54.39222584823596
 20
39.11546024839986
 30
0.0
 10
54.41603715167995
 20
39.13548990293784
 30
0.0
 10
54.43812956541008
 20
39.1586861864027
 30
0.0
 10
54.45833708507462
 20
39.18392166625225
 30
0.0
 10
54.47617360761035
 20
39.21075776000548
 30
0.0
 10
54.49122728225595
 20
39.23883238405952
 30
0.0
 10
54.50378743872463
 20
39.26811841859489
 30
0.0
 10
54.51285150728005
 20
39.29895106649578
 30
0.0
 10
54.51998860919895
 20
39.3308326448472
 30
0.0
 10
54.52378661740924
 20
39.36417089049267
 30
0.0
 10
54.5244453595343
 20
39.38678943707982
 30
0.0
 10
54.52478106376962
 20
39.39831616597336
 30
0.0
  0
SPLINE
  5
CB
330
1F
100
AcDbEntity
  8
0
  6
Continuous
 62
     7
370
    25
100
AcDbSpline
210
0.0
220
0.0
230
1.0
 70
     8
 71
     3
 72
    23
 73
    19
 74
     0
 42
0.000000001
 43
0.00000001
 40
0.0
 40
0.0
 40
0.0
 40
0.0
 40
0.0679503475997537
 40
0.1332598223836998
 40
0.1978002967596474
 40
0.2608458295516822
 40
0.3233192927503671
 40
0.3862817224595722
 40
0.450061516233313
 40
0.5152075844858154
 40
0.5796407692199316
 40
0.6418172023841522
 40
0.7016924412115348
 40
0.7607690981778945
 40
0.8192540511346832
 40
0.8787376269055537
 40
0.9381582970160912
 40
1.0
 40
1.0
 40
1.0
 40
1.0
 10
53.92862721761576
 20
39.38659741597336
 30
0.0
 10
53.92895680665689
 20
39.37546932694997
 30
0.0
 10
53.92960317534568
 20
39.35364563922638
 30
0.0
 10
53.9334948293439
 20
39.32142870114168
 30
0.0
 10
53.94037832045453
 20
39.29053703512196
 30
0.0
 10
53.95016015767473
 20
39.26094915627867
 30
0.0
 10
53.96207919951079
 20
39.2324185468179
 30
0.0
 10
53.97728755953859
 20
39.20534999259346
 30
0.0
 10
53.99506481104618
 20
39.17937804866236
 30
0.0
 10
54.01540336426439
 20
39.15506803595722
 30
0.0
 10
54.037261137733
 20
39.13241635019388
 30
0.0
 10
54.06126973920154
 20
39.11346629912306
 30
0.0
 10
54.08558486154661
 20
39.09636401732775
 30
0.0
 10
54.11168328356047
 20
39.08340963668567
 30
0.0
 10
54.13861968303934
 20
39.07254946703102
 30
0.0
 10
54.16680464378329
 20
39.06524871746373
 30
0.0
 10
54.19609286359875
 20
39.06046915180576
 30
0.0
 10
54.21596747349008
 20
39.05994277968473
 30
0.0
 10
54.22610317915423
 20
39.05967433905028
 30
0.0
  0
SPLINE
  5
CC
330
1F
100
AcDbEntity
  8
0
  6
Continuous
 62
     7
370
    25
100
AcDbSpline
210
0.0
220
0.0
230
1.0
 70
     8
 71
     3
 72
    23
 73
    19
 74
     0
 42
0.000000001
 43
0.00000001
 40
0.0
 40
0.0
 40
0.0
 40
0.0
 40
0.0618526459466917
 40
0.1212838306153701
 40
0.1807779320756125
 40
0.2392732340142805
 40
0.2986414352139417
 40
0.3581858222417117
 40
0.4207600867589709
 40
0.4852046730216432
 40
0.5503622689482871
 40
0.613649924530912
 40
0.6766234955168249
 40
0.7391080134690126
 40
0.8021647022429448
 40
0.8667165971324778
 40
0.9320376285055445
 40
1.0
 40
1.0
 40
1.0
 40
1.0
 10
54.22610317915423
 20
39.71352049289644
 30
0.0
 10
54.21596785929732
 20
39.71325136058897
 30
0.0
 10
54.19609400591654
 20
39.71272363220013
 30
0.0
 10
54.16680028050304
 20
39.70795393694693
 30
0.0
 10
54.13863597025207
 20
39.70061616529367
 30
0.0
 10
54.11158047555116
 20
39.68987561187188
 30
0.0
 10
54.08578137988777
 20
39.67640381741422
 30
0.0
 10
54.06105542474753
 20
39.6598252888823
 30
0.0
 10
54.03738554370745
 20
39.64042074079427
 30
0.0
 10
54.01536860715645
 20
39.61786333864893
 30
0.0
 10
53.99517413791703
 20
39.59353736741439
 30
0.0
 10
53.97719294459501
 20
39.56781104160925
 30
0.0
 10
53.96209355042105
 20
39.54076616096201
 30
0.0
 10
53.95015628916899
 20
39.51224840479092
 30
0.0
 10
53.94037938762669
 20
39.48265704396456
 30
0.0
 10
53.93349453851287
 20
39.45176633597821
 30
0.0
 10
53.92960325186711
 20
39.41954913873658
 30
0.0
 10
53.92895683249882
 20
39.39772548676599
 30
0.0
 10
53.92862721761576
 20
39.38659741597336
 30
0.0
  0
SPLINE
  5
CD
330
1F
100
AcDbEntity
  8
0
  6
Continuous
 62
     7
370
    25
100
AcDbSpline
210
0.0
220
0.0
230
1.0
 70
     8
 71
     3
 72
    23
 73
    19
 74
     0
 42
0.000000001
 43
0.00000001
 40
0.0
 40
0.0
 40
0.0
 40
0.0
 40
0.0705921865358071
 40
0.1385012886049299
 40
0.2037899961427012
 40
0.266787572669601
 40
0.3290979656467183
 40
0.3911745246039658
 40
0.4531677986176573
 40
0.5157967602265844
 40
0.5779688050530403
 40
0.6389663383752914
 40
0.698381066162843
 40
0.7573204555574266
 40
0.8164122397216688
 40
0.876279358230831
 40
0.936823465650193
 40
1.0
 40
1.0
 40
1.0
 40
1.0
 10
54.52478106376962
 20
39.39831616597336
 30
0.0
 10
54.52444319931502
 20
39.40974248381117
 30
0.0
 10
54.52378031203766
 20
39.43216082530487
 30
0.0
 10
54.5200363199187
 20
39.46501028152009
 30
0.0
 10
54.5129424812983
 20
39.4960162152058
 30
0.0
 10
54.50376643774203
 20
39.52553276468994
 30
0.0
 10
54.49127261234521
 20
39.55325229003744
 30
0.0
 10
54.47627647980089
 20
39.57949098866578
 30
0.0
 10
54.45844705852811
 20
39.6039884966127
 30
0.0
 10
54.43798314219205
 20
39.62631459514489
 30
0.0
 10
54.41590538791216
 20
39.64681546757924
 30
0.0
 10
54.39211646417351
 20
39.6644495656542
 30
0.0
 10
54.36734316419272
 20
39.67967732676253
 30
0.0
 10
54.34135264900887
 20
39.6920542274655
 30
0.0
 10
54.31416159053418
 20
39.70169310576337
 30
0.0
 10
54.2858932596781
 20
39.70866513870605
 30
0.0
 10
54.25635857892306
 20
39.7125453379059
 30
0.0
 10
54.23633036044426
 20
39.71319086291467
 30
0.0
 10
54.22610317915423
 20
39.71352049289644
 30
0.0
  0
LINE
  5
CE
330
1F
100
AcDbEntity
  8
0
  6
Continuous
 62
     7
370
    25
100
AcDbLine
 10
42.802030256
 20
46.7337761229
 30
0.0
 11
42.802030256
 21
33.8218518945
 31
0.0
  0
LINE
  5
CF
330
1F
100
AcDbEntity
  8
0
  6
Continuous
 62
     7
370
    25
100
AcDbLine
 10
40.7132426022
 20
40.2778140087
 30
0.0
 11
40.7132426022
 21
45.5278140087
 31
0.0
  0
LINE
  5
D0
330
1F
100
AcDbEntity
  8
0
  6
Continuous
 62
     7
370
    25
100
AcDbLine
 10
40.7132426022
 20
35.0278140087
 30
0.0
 11
40.7132426022
 21
40.2778140087
 31
0.0
  0
LINE
  5
D1
330
1F
100
AcDbEntity
  8
0
  6
Continuous
 62
     7
370
    25
100
AcDbLine
 10
69.2132426022
 20
43.7778140087
 30
0.0
 11
69.2132426022
 21
36.7778140087
 31
0.0
  0
LINE
  5
D2
330
1F
100
AcDbEntity
  8
0
  6
Continuous
 62
     7
370
    25
100
AcDbLine
 10
61.2132426022
 20
43.7778140087
 30
0.0
 11
61.2132426022
 21
36.7778140087
 31
0.0
  0
LINE
  5
D3
330
1F
100
AcDbEntity
  8
0
  6
Continuous
 62
     7
370
    25
100
AcDbLine
 10
65.2132426022
 20
43.7778140087
 30
0.0
 11
65.2132426022
 21
36.7778140087
 31
0.0
  0
LINE
  5
D4
330
1F
100
AcDbEntity
  8
0
  6
Continuous
 62
     7
370
    25
100
AcDbLine
 10
73.2132426022
 20
43.7778140087
 30
0.0
 11
73.2132426022
 21
36.7778140087
 31
0.0
  0
LINE
  5
D5
330
1F
100
AcDbEntity
  8
0
  6
Continuous
 62
     7
370
    25
100
AcDbLine
 10
77.7132426022
 20
42.6948471085
 30
0.0
 11
77.7132426022
 21
37.8607809159
 31
0.0
  0
LINE
  5
D6
330
1F
100
AcDbEntity
  8
0
  6
Continuous
 62
     7
370
    25
100
AcDbLine
 10
54.7132426022
 20
48.0409908852
 30
0.0
 11
54.7132426022
 21
48.0607177774
 31
0.0
  0
LINE
  5
D7
330
1F
100
AcDbEntity
  8
0
  6
Continuous
 62
     7
370
    25
100
AcDbLine
 10
54.7132426022
 20
32.49491024
 30
0.0
 11
54.7132426022
 21
32.5146371322
 31
0.0
  0
LINE
  5
D8
330
1F
100
AcDbEntity
  8
0
  6
Continuous
 62
     8
370
    25
100
AcDbLine
 10
77.2847229836
 20
37.3659167304
 30
0.0
 11
77.2847229836
 21
43.189711287
 31
0.0
  0
LINE
  5
D9
330
1F
100
AcDbEntity
  8
0
  6
Continuous
 62
     7
370
    18
100
AcDbLine
 10
41.5784683248
 20
46.0273523125
 30
0.0
 11
51.2132426022
 21
46.3284390087
 31
0.0
  0
LINE
  5
DA
330
1F
100
AcDbEntity
  8
0
  6
Continuous
 62
     7
370
    18
100
AcDbLine
 10
41.5784683248
 20
34.5282757049
 30
0.0
 11
51.2132426022
 21
34.2271890087
 31
0.0
  0
LINE
  5
DB
330
1F
100
AcDbEntity
  8
0
  6
Continuous
 62
     7
370
    18
100
AcDbLine
 10
51.2132426022
 20
33.5590015087
 30
0.0
 11
51.2132426022
 21
46.9966265087
 31
0.0
  0
LINE
  5
DC
330
1F
100
AcDbEntity
  8
0
  6
CENTERX2
 62
     7
370
    18
100
AcDbLine
 10
78.7132426022
 20
40.2778140087
 30
0.0
 11
39.9574949333
 21
40.2778140087
 31
0.0
  0
CIRCLE
  5
DD
330
1F
100
AcDbEntity
  8
0
  6
Continuous
 62
     7
370
    25
100
AcDbCircle
 10
96.76971976
 20
40.2778140087
 30
0.0
 40
2.417033099830697
  0
CIRCLE
  5
DE
330
1F
100
AcDbEntity
  8
0
  6
Continuous
 62
     7
370
    25
100
AcDbCircle
 10
96.76971976
 20
40.2778140087
 30
0.0
 40
2.911897278252674
  0
CIRCLE
  5
DF
330
1F
100
AcDbEntity
  8
0
  6
Continuous
 62
     7
370
    25
100
AcDbCircle
 10
96.76971976
 20
40.2778140087
 30
0.0
 40
2.0
  0
CIRCLE
  5
E0
330
1F
100
AcDbEntity
  8
0
  6
Continuous
 62
     7
370
    25
100
AcDbCircle
 10
96.76971976
 20
40.2778140087
 30
0.0
 40
2.199999999999996
  0
CIRCLE
  5
E1
330
1F
100
AcDbEntity
  8
0
  6
Continuous
 62
     7
370
    25
100
AcDbCircle
 10
96.76971976
 20
40.2778140087
 30
0.0
 40
3.5
  0
SPLINE
  5
E2
330
1F
100
AcDbEntity
  8
0
  6
Continuous
 62
     7
370
    25
100
AcDbSpline
210
0.0
220
0.0
230
1.0
 70
    24
 71
     3
 72
    14
 73
    10
 74
     0
 42
0.000000001
 43
0.00000001
 40
0.0
 40
0.0
 40
0.0
 40
0.0
 40
0.25
 40
0.25
 40
0.5
 40
0.5
 40
0.75
 40
0.75
 40
1.0
 40
1.0
 40
1.0
 40
1.0
 10
103.7697197599982
 20
36.23636212437213
 30
0.0
 10
103.7697197599982
 20
36.89400281609537
 30
0.0
 10
103.7697197599982
 20
37.5673993343562
 30
0.0
 10
103.7697197599982
 20
38.91707754823694
 30
0.0
 10
103.7697197599982
 20
39.59580112975059
 30
0.0
 10
103.7697197599982
 20
40.96235932916551
 30
0.0
 10
103.7697197599982
 20
41.65485714980094
 30
0.0
 10
103.7697197599982
 20
43.00414200660776
 30
0.0
 10
103.7697197599982
 20
43.66596170311569
 30
0.0
 10
103.7697197599982
 20
44.31926589302692
 30
0.0
  0
SPLINE
  5
E3
330
1F
100
AcDbEntity
  8
0
  6
Continuous
 62
     7
370
    25
100
AcDbSpline
210
0.0
220
0.0
230
1.0
 70
    24
 71
     3
 72
    16
 73
    12
 74
     0
 42
0.000000001
 43
0.00000001
 40
0.0
 40
0.0
 40
0.0
 40
0.0
 40
0.2500000000000001
 40
0.2500000000000001
 40
0.5
 40
0.5
 40
0.625
 40
0.625
 40
0.7499999999999999
 40
0.7499999999999999
 40
1.0
 40
1.0
 40
1.0
 40
1.0
 10
96.76971975999818
 20
32.19491024004473
 30
0.0
 10
97.34120317295252
 20
32.52485634235133
 30
0.0
 10
97.91685327488491
 20
32.85720808366104
 30
0.0
 10
99.08015938231334
 20
33.52884317793477
 30
0.0
 10
99.66790464178426
 20
33.86817806170524
 30
0.0
 10
100.5605962949701
 20
34.38357382797543
 30
0.0
 10
100.8595599738868
 20
34.55618058847591
 30
0.0
 10
101.4509417238214
 20
34.89761500099444
 30
0.0
 10
101.7446499141406
 20
35.06718750373842
 30
0.0
 10
102.6205454086751
 20
35.57288600328991
 30
0.0
 10
103.1975240115873
 20
35.90600475499792
 30
0.0
 10
103.7697197599983
 20
36.23636212437216
 30
0.0
  0
SPLINE
  5
E4
330
1F
100
AcDbEntity
  8
0
  6
Continuous
 62
     7
370
    25
100
AcDbSpline
210
0.0
220
0.0
230
1.0
 70
    24
 71
     3
 72
    16
 73
    12
 74
     0
 42
0.000000001
 43
0.00000001
 40
0.0
 40
0.0
 40
0.0
 40
0.0
 40
0.2499999999999999
 40
0.2499999999999999
 40
0.4999999999999999
 40
0.4999999999999999
 40
0.6249999999999999
 40
0.6249999999999999
 40
0.7499999999999998
 40
0.7499999999999998
 40
1.0
 40
1.0
 40
1.0
 40
1.0
 10
89.76971975999817
 20
36.23636212437219
 30
0.0
 10
90.34120317295252
 20
35.90641602206559
 30
0.0
 10
90.91685327488491
 20
35.57406428075588
 30
0.0
 10
92.08015938231334
 20
34.90242918648214
 30
0.0
 10
92.66790464178426
 20
34.56309430271168
 30
0.0
 10
93.56059629497013
 20
34.04769853644149
 30
0.0
 10
93.85955997388685
 20
33.87509177594101
 30
0.0
 10
94.45094172382137
 20
33.53365736342247
 30
0.0
 10
94.74464991414057
 20
33.36408486067849
 30
0.0
 10
95.62054540867508
 20
32.858386361127
 30
0.0
 10
96.19752401158728
 20
32.525267609419
 30
0.0
 10
96.76971975999828
 20
32.19491024004475
 30
0.0
  0
SPLINE
  5
E5
330
1F
100
AcDbEntity
  8
0
  6
Continuous
 62
     7
370
    25
100
AcDbSpline
210
0.0
220
0.0
230
1.0
 70
    24
 71
     3
 72
    14
 73
    10
 74
     0
 42
0.000000001
 43
0.00000001
 40
0.0
 40
0.0
 40
0.0
 40
0.0
 40
0.2500000000000001
 40
0.2500000000000001
 40
0.5000000000000001
 40
0.5000000000000001
 40
0.7500000000000002
 40
0.7500000000000002
 40
1.0
 40
1.0
 40
1.0
 40
1.0
 10
89.76971975999824
 20
36.23636212437214
 30
0.0
 10
89.76971975999824
 20
36.89400281609537
 30
0.0
 10
89.76971975999824
 20
37.5673993343562
 30
0.0
 10
89.76971975999822
 20
38.91707754823694
 30
0.0
 10
89.76971975999824
 20
39.59580112975059
 30
0.0
 10
89.76971975999822
 20
40.96235932916551
 30
0.0
 10
89.76971975999824
 20
41.65485714980094
 30
0.0
 10
89.76971975999824
 20
43.00414200660775
 30
0.0
 10
89.76971975999824
 20
43.66596170311569
 30
0.0
 10
89.76971975999824
 20
44.31926589302692
 30
0.0
  0
SPLINE
  5
E6
330
1F
100
AcDbEntity
  8
0
  6
Continuous
 62
     7
370
    25
100
AcDbSpline
210
0.0
220
0.0
230
1.0
 70
    24
 71
     3
 72
    16
 73
    12
 74
     0
 42
0.000000001
 43
0.00000001
 40
0.0
 40
0.0
 40
0.0
 40
0.0
 40
0.2500000000000001
 40
0.2500000000000001
 40
0.5000000000000001
 40
0.5000000000000001
 40
0.625
 40
0.625
 40
0.7499999999999999
 40
0.7499999999999999
 40
1.0
 40
1.0
 40
1.0
 40
1.0
 10
96.76971975999831
 20
48.36071777735433
 30
0.0
 10
96.19823634704396
 20
48.03077167504773
 30
0.0
 10
95.62258624511156
 20
47.69841993373802
 30
0.0
 10
94.45928013768314
 20
47.02678483946429
 30
0.0
 10
93.8715348782122
 20
46.68744995569383
 30
0.0
 10
92.97884322502634
 20
46.17205418942363
 30
0.0
 10
92.67987954610963
 20
45.99944742892315
 30
0.0
 10
92.0884977961751
 20
45.65801301640462
 30
0.0
 10
91.79478960585591
 20
45.48844051366063
 30
0.0
 10
90.91889411132138
 20
44.98274201410914
 30
0.0
 10
90.3419155084092
 20
44.64962326240114
 30
0.0
 10
89.7697197599982
 20
44.31926589302689
 30
0.0
  0
SPLINE
  5
E7
330
1F
100
AcDbEntity
  8
0
  6
Continuous
 62
     7
370
    25
100
AcDbSpline
210
0.0
220
0.0
230
1.0
 70
    24
 71
     3
 72
    16
 73
    12
 74
     0
 42
0.000000001
 43
0.00000001
 40
0.0
 40
0.0
 40
0.0
 40
0.0
 40
0.25
 40
0.25
 40
0.5
 40
0.5
 40
0.625
 40
0.625
 40
0.75
 40
0.75
 40
1.0
 40
1.0
 40
1.0
 40
1.0
 10
103.7697197599983
 20
44.31926589302688
 30
0.0
 10
103.1982363470439
 20
44.64921199533347
 30
0.0
 10
102.6225862451116
 20
44.98156373664319
 30
0.0
 10
101.4592801376831
 20
45.65319883091691
 30
0.0
 10
100.8715348782122
 20
45.99253371468738
 30
0.0
 10
99.97884322502634
 20
46.50792948095758
 30
0.0
 10
99.67987954610963
 20
46.68053624145806
 30
0.0
 10
99.08849779617509
 20
47.02197065397659
 30
0.0
 10
98.79478960585591
 20
47.19154315672058
 30
0.0
 10
97.91889411132139
 20
47.69724165627206
 30
0.0
 10
97.3419155084092
 20
48.03036040798007
 30
0.0
 10
96.76971975999821
 20
48.36071777735432
 30
0.0
  0
CIRCLE
  5
E8
330
1F
100
AcDbEntity
  8
0
  6
Continuous
 62
     7
370
    25
100
AcDbCircle
 10
96.76971976
 20
40.2778140087
 30
0.0
 40
6.75
  0
INSERT
  5
F4
330
1F
100
AcDbEntity
  8
0
  6
Continuous
 62
     7
370
    18
100
AcDbBlockReference
  2
SW_CENTERMARKSYMBOL_0
 10
96.76971976
 20
40.2778140087
 30
0.0
  0
INSERT
  5
100
330
1F
100
AcDbEntity
  8
0
  6
Continuous
 62
     7
370
    18
100
AcDbBlockReference
  2
SW_CENTERMARKSYMBOL_1
 10
96.76971976
 20
40.2778140087
 30
0.0
  0
LINE
  5
101
330
1F
100
AcDbEntity
  8
0
  6
Continuous
 62
     7
370
    25
100
AcDbLine
 10
51.8575801695
 20
72.2320066091
 30
0.0
 11
51.7132426022
 21
71.9820066091
 31
0.0
  0
LINE
  5
102
330
1F
100
AcDbEntity
  8
0
  6
Continuous
 62
     7
370
    25
100
AcDbLine
 10
51.7132426022
 20
58.4820066091
 30
0.0
 11
51.8575801695
 21
58.2320066091
 31
0.0
  0
LINE
  5
103
330
1F
100
AcDbEntity
  8
0
  6
Continuous
 62
     7
370
    25
100
AcDbLine
 10
57.5689050349
 20
58.2320066091
 30
0.0
 11
57.7132426022
 21
58.4820066091
 31
0.0
  0
LINE
  5
104
330
1F
100
AcDbEntity
  8
0
  6
Continuous
 62
     7
370
    25
100
AcDbLine
 10
57.7132426022
 20
71.9820066091
 30
0.0
 11
57.5689050349
 21
72.2320066091
 31
0.0
  0
LINE
  5
105
330
1F
100
AcDbEntity
  8
0
  6
Continuous
 62
     7
370
    25
100
AcDbLine
 10
51.7132426022
 20
71.9664441091
 30
0.0
 11
42.802030256
 21
71.6879687233
 31
0.0
  0
LINE
  5
106
330
1F
100
AcDbEntity
  8
0
  6
Continuous
 62
     7
370
    25
100
AcDbLine
 10
42.802030256
 20
58.7760444949
 30
0.0
 11
51.7132426022
 21
58.4975691091
 31
0.0
  0
LINE
  5
107
330
1F
100
AcDbEntity
  8
0
  6
Continuous
 62
     7
370
    25
100
AcDbLine
 10
42.802030256
 20
71.6879687233
 30
0.0
 11
40.7132426022
 21
70.4820066091
 31
0.0
  0
LINE
  5
108
330
1F
100
AcDbEntity
  8
0
  6
Continuous
 62
     7
370
    25
100
AcDbLine
 10
40.7132426022
 20
59.9820066091
 30
0.0
 11
42.802030256
 21
58.7760444949
 31
0.0
  0
LINE
  5
109
330
1F
100
AcDbEntity
  8
0
  6
Continuous
 62
     7
370
    25
100
AcDbLine
 10
61.2132426022
 20
61.7320066091
 30
0.0
 11
65.2132426022
 21
62.3820066091
 31
0.0
  0
LINE
  5
10A
330
1F
100
AcDbEntity
  8
0
  6
Continuous
 62
     7
370
    25
100
AcDbLine
 10
65.2132426022
 20
68.0820066091
 30
0.0
 11
61.2132426022
 21
68.7320066091
 31
0.0
  0
LINE
  5
10B
330
1F
100
AcDbEntity
  8
0
  6
Continuous
 62
     7
370
    25
100
AcDbLine
 10
73.2132426022
 20
61.7320066091
 30
0.0
 11
77.2847229836
 21
62.3201093308
 31
0.0
  0
LINE
  5
10C
330
1F
100
AcDbEntity
  8
0
  6
Continuous
 62
     7
370
    25
100
AcDbLine
 10
77.2847229836
 20
68.1439038873
 30
0.0
 11
73.2132426022
 21
68.7320066091
 31
0.0
  0
LINE
  5
10D
330
1F
100
AcDbEntity
  8
0
  6
Continuous
 62
     7
370
    25
100
AcDbLine
 10
61.2132426022
 20
68.7320066091
 30
0.0
 11
57.7132426022
 21
68.7320066091
 31
0.0
  0
LINE
  5
10E
330
1F
100
AcDbEntity
  8
0
  6
Continuous
 62
     7
370
    25
100
AcDbLine
 10
57.7132426022
 20
61.7320066091
 30
0.0
 11
61.2132426022
 21
61.7320066091
 31
0.0
  0
LINE
  5
10F
330
1F
100
AcDbEntity
  8
0
  6
Continuous
 62
     7
370
    25
100
AcDbLine
 10
65.2132426022
 20
61.7320066091
 30
0.0
 11
69.2132426022
 21
62.3820066091
 31
0.0
  0
LINE
  5
110
330
1F
100
AcDbEntity
  8
0
  6
Continuous
 62
     7
370
    25
100
AcDbLine
 10
69.2132426022
 20
68.0820066091
 30
0.0
 11
65.2132426022
 21
68.7320066091
 31
0.0
  0
LINE
  5
111
330
1F
100
AcDbEntity
  8
0
  6
Continuous
 62
     7
370
    25
100
AcDbLine
 10
69.2132426022
 20
61.7320066091
 30
0.0
 11
73.2132426022
 21
62.3820066091
 31
0.0
  0
LINE
  5
112
330
1F
100
AcDbEntity
  8
0
  6
Continuous
 62
     7
370
    25
100
AcDbLine
 10
73.2132426022
 20
68.0820066091
 30
0.0
 11
69.2132426022
 21
68.7320066091
 31
0.0
  0
ARC
  5
113
330
1F
100
AcDbEntity
  8
0
  6
Continuous
 62
     7
370
    25
100
AcDbCircle
 10
77.2132426022
 20
67.6490397089
 30
0.0
 40
0.5000000000000123
100
AcDbArc
 50
0.0
 51
81.7807907511
  0
ARC
  5
114
330
1F
100
AcDbEntity
  8
0
  6
Continuous
 62
     7
370
    25
100
AcDbCircle
 10
77.2132426022
 20
62.8149735093
 30
0.0
 40
0.5
100
AcDbArc
 50
278.2192092489
 51
0.0
  0
SPLINE
  5
115
330
1F
100
AcDbEntity
  8
0
  6
Continuous
 62
     7
370
    25
100
AcDbSpline
210
0.0
220
0.0
230
1.0
 70
     8
 71
     3
 72
    16
 73
    12
 74
     0
 42
0.000000001
 43
0.00000001
 40
0.0
 40
0.0
 40
0.0
 40
0.0
 40
0.2500000000000002
 40
0.2500000000000002
 40
0.5000000000000003
 40
0.5000000000000003
 40
0.6250000000000003
 40
0.6250000000000003
 40
0.7500000000000002
 40
0.7500000000000002
 40
1.0
 40
1.0
 40
1.0
 40
1.0
 10
52.48279495186735
 20
72.23200660908259
 30
0.0
 10
52.29230048088256
 20
71.66052319612824
 30
0.0
 10
52.13529846766947
 20
71.08487309419586
 30
0.0
 10
51.91779965683145
 20
69.92156698676743
 30
0.0
 10
51.85802029576139
 20
69.33382172729651
 30
0.0
 10
51.85736379490743
 20
68.44113007411063
 30
0.0
 10
51.87197756139091
 20
68.14216639519393
 30
0.0
 10
51.92896341926774
 20
67.55078464525938
 30
0.0
 10
51.97127768852698
 20
67.25707645494019
 30
0.0
 10
52.13467250841716
 20
66.38118096040569
 30
0.0
 10
52.29206303573059
 20
65.8042023574935
 30
0.0
 10
52.48279495186759
 20
65.2320066090825
 30
0.0
  0
SPLINE
  5
116
330
1F
100
AcDbEntity
  8
0
  6
Continuous
 62
     7
370
    25
100
AcDbSpline
210
0.0
220
0.0
230
1.0
 70
     8
 71
     3
 72
    16
 73
    12
 74
     0
 42
0.000000001
 43
0.00000001
 40
0.0
 40
0.0
 40
0.0
 40
0.0
 40
0.2500000000000001
 40
0.2500000000000001
 40
0.5000000000000001
 40
0.5000000000000001
 40
0.625
 40
0.625
 40
0.7499999999999999
 40
0.7499999999999999
 40
1.0
 40
1.0
 40
1.0
 40
1.0
 10
52.48279495186735
 20
65.2320066090826
 30
0.0
 10
52.29230048088256
 20
64.66052319612825
 30
0.0
 10
52.13529846766947
 20
64.08487309419584
 30
0.0
 10
51.91779965683145
 20
62.92156698676743
 30
0.0
 10
51.85802029576139
 20
62.3338217272965
 30
0.0
 10
51.85736379490743
 20
61.44113007411064
 30
0.0
 10
51.87197756139091
 20
61.14216639519393
 30
0.0
 10
51.92896341926774
 20
60.55078464525939
 30
0.0
 10
51.97127768852698
 20
60.2570764549402
 30
0.0
 10
52.13467250841716
 20
59.38118096040568
 30
0.0
 10
52.29206303573059
 20
58.80420235749349
 30
0.0
 10
52.48279495186759
 20
58.2320066090825
 30
0.0
  0
SPLINE
  5
117
330
1F
100
AcDbEntity
  8
0
  6
Continuous
 62
     7
370
    25
100
AcDbSpline
210
0.0
220
0.0
230
1.0
 70
    24
 71
     3
 72
    13
 73
     9
 74
     0
 42
0.000000001
 43
0.00000001
 40
0.0
 40
0.0
 40
0.0
 40
0.0
 40
0.1834897094758335
 40
0.3672873820232255
 40
0.5522799052696751
 40
0.7378110673585909
 40
0.98677662037011
 40
0.9999999999999999
 40
0.9999999999999999
 40
0.9999999999999999
 40
0.9999999999999999
 10
52.48279495186784
 20
58.23200660908253
 30
0.0
 10
52.41565874350373
 20
58.23200660908253
 30
0.0
 10
52.2812736475795
 20
58.23200660908253
 30
0.0
 10
52.11730503965353
 20
58.23200660908253
 30
0.0
 10
51.98537527906184
 20
58.23200660908253
 30
0.0
 10
51.89163323069518
 20
58.23200660908253
 30
0.0
 10
51.84481629379741
 20
58.23200660908253
 30
0.0
 10
51.85903014325792
 20
58.23200660908253
 30
0.0
 10
51.85974701229402
 20
58.23200660908253
 30
0.0
  0
SPLINE
  5
118
330
1F
100
AcDbEntity
  8
0
  6
Continuous
 62
     7
370
    25
100
AcDbSpline
210
0.0
220
0.0
230
1.0
 70
    24
 71
     3
 72
    13
 73
     9
 74
     0
 42
0.000000001
 43
0.00000001
 40
0.0
 40
0.0
 40
0.0
 40
0.0
 40
0.0049708634499916
 40
0.2621843588593822
 40
0.4454283149331494
 40
0.6292336169240885
 40
0.8144410034908534
 40
1.0
 40
1.0
 40
1.0
 40
1.0
 10
51.85843800518268
 20
72.23200660908253
 30
0.0
 10
51.85815272657567
 20
72.23200660908253
 30
0.0
 10
51.84310592647257
 20
72.23200660908253
 30
0.0
 10
51.8904594903078
 20
72.23200660908252
 30
0.0
 10
51.9843090398083
 20
72.23200660908253
 30
0.0
 10
52.11520793693637
 20
72.23200660908253
 30
0.0
 10
52.27932197576997
 20
72.23200660908253
 30
0.0
 10
52.41492776002839
 20
72.23200660908252
 30
0.0
 10
52.48279495186784
 20
72.23200660908253
 30
0.0
  0
LINE
  5
119
330
1F
100
AcDbEntity
  8
0
  6
Continuous
 62
     7
370
    25
100
AcDbLine
 10
51.7132426022
 20
71.9820066091
 30
0.0
 11
51.7132426022
 21
58.4820066091
 31
0.0
  0
LINE
  5
11A
330
1F
100
AcDbEntity
  8
0
  6
Continuous
 62
     7
370
    25
100
AcDbLine
 10
54.6328578445
 20
65.2320066091
 30
0.0
 11
52.4827949519
 21
65.2320066091
 31
0.0
  0
LINE
  5
11B
330
1F
100
AcDbEntity
  8
0
  6
Continuous
 62
     7
370
    25
100
AcDbLine
 10
54.6328578445
 20
72.2320066091
 30
0.0
 11
52.4827949519
 21
72.2320066091
 31
0.0
  0
SPLINE
  5
11C
330
1F
100
AcDbEntity
  8
0
  6
Continuous
 62
     7
370
    25
100
AcDbSpline
210
0.0
220
0.0
230
1.0
 70
     8
 71
     3
 72
     8
 73
     4
 74
     0
 42
0.000000001
 43
0.00000001
 40
0.0
 40
0.0
 40
0.0
 40
0.0
 40
1.0
 40
1.0
 40
1.0
 40
1.0
 10
54.71324260223115
 20
71.67822338727544
 30
0.0
 10
54.68824218930845
 20
71.86307913344362
 30
0.0
 10
54.66137587784824
 20
72.04766314366738
 30
0.0
 10
54.63285784450181
 20
72.23200660908252
 30
0.0
  0
SPLINE
  5
11D
330
1F
100
AcDbEntity
  8
0
  6
Continuous
 62
     7
370
    25
100
AcDbSpline
210
0.0
220
0.0
230
1.0
 70
     8
 71
     3
 72
     8
 73
     4
 74
     0
 42
0.000000001
 43
0.00000001
 40
0.0
 40
0.0
 40
0.0
 40
0.0
 40
1.0
 40
1.0
 40
1.0
 40
1.0
 10
54.79362735996049
 20
72.23200660908253
 30
0.0
 10
54.76509354512239
 20
72.04756113050156
 30
0.0
 10
54.73822862331561
 20
71.86297271864134
 30
0.0
 10
54.71324260223115
 20
71.67822338727544
 30
0.0
  0
LINE
  5
11E
330
1F
100
AcDbEntity
  8
0
  6
Continuous
 62
     7
370
    25
100
AcDbLine
 10
56.9436902526
 20
72.2320066091
 30
0.0
 11
54.79362736
 21
72.2320066091
 31
0.0
  0
SPLINE
  5
11F
330
1F
100
AcDbEntity
  8
0
  6
Continuous
 62
     7
370
    25
100
AcDbSpline
210
0.0
220
0.0
230
1.0
 70
     8
 71
     3
 72
    16
 73
    12
 74
     0
 42
0.000000001
 43
0.00000001
 40
0.0
 40
0.0
 40
0.0
 40
0.0
 40
0.25
 40
0.25
 40
0.5
 40
0.5
 40
0.625
 40
0.625
 40
0.75
 40
0.75
 40
1.0
 40
1.0
 40
1.0
 40
1.0
 10
56.94369025259495
 20
72.23200660908259
 30
0.0
 10
57.13418472357974
 20
71.66052319612824
 30
0.0
 10
57.29118673679284
 20
71.08487309419586
 30
0.0
 10
57.50868554763085
 20
69.92156698676743
 30
0.0
 10
57.56846490870091
 20
69.33382172729651
 30
0.0
 10
57.56912140955487
 20
68.44113007411063
 30
0.0
 10
57.5545076430714
 20
68.14216639519393
 30
0.0
 10
57.49752178519456
 20
67.55078464525938
 30
0.0
 10
57.45520751593532
 20
67.25707645494019
 30
0.0
 10
57.29181269604514
 20
66.38118096040569
 30
0.0
 10
57.13442216873171
 20
65.8042023574935
 30
0.0
 10
56.94369025259471
 20
65.2320066090825
 30
0.0
  0
LINE
  5
120
330
1F
100
AcDbEntity
  8
0
  6
Continuous
 62
     7
370
    25
100
AcDbLine
 10
56.9436902526
 20
65.2320066091
 30
0.0
 11
54.79362736
 21
65.2320066091
 31
0.0
  0
SPLINE
  5
121
330
1F
100
AcDbEntity
  8
0
  6
Continuous
 62
     7
370
    25
100
AcDbSpline
210
0.0
220
0.0
230
1.0
 70
     8
 71
     3
 72
     8
 73
     4
 74
     0
 42
0.000000001
 43
0.00000001
 40
0.0
 40
0.0
 40
0.0
 40
0.0
 40
1.0
 40
1.0
 40
1.0
 40
1.0
 10
54.71324260223115
 20
65.78578983088963
 30
0.0
 10
54.73824301515385
 20
65.60093408472144
 30
0.0
 10
54.76510932661407
 20
65.41635007449769
 30
0.0
 10
54.79362735996049
 20
65.23200660908253
 30
0.0
  0
SPLINE
  5
122
330
1F
100
AcDbEntity
  8
0
  6
Continuous
 62
     7
370
    25
100
AcDbSpline
210
0.0
220
0.0
230
1.0
 70
     8
 71
     3
 72
     8
 73
     4
 74
     0
 42
0.000000001
 43
0.00000001
 40
0.0
 40
0.0
 40
0.0
 40
0.0
 40
1.0
 40
1.0
 40
1.0
 40
1.0
 10
54.63285784450181
 20
65.23200660908253
 30
0.0
 10
54.66139165933991
 20
65.4164520876635
 30
0.0
 10
54.6882565811467
 20
65.60104049952373
 30
0.0
 10
54.71324260223115
 20
65.78578983088963
 30
0.0
  0
SPLINE
  5
123
330
1F
100
AcDbEntity
  8
0
  6
Continuous
 62
     7
370
    25
100
AcDbSpline
210
0.0
220
0.0
230
1.0
 70
    24
 71
     3
 72
    13
 73
     9
 74
     0
 42
0.000000001
 43
0.00000001
 40
0.0
 40
0.0
 40
0.0
 40
0.0
 40
0.0049708634499916
 40
0.2621843588593822
 40
0.4454283149331494
 40
0.6292336169240885
 40
0.8144410034908534
 40
1.0
 40
1.0
 40
1.0
 40
1.0
 10
57.56804719927963
 20
72.23200660908253
 30
0.0
 10
57.56833247788663
 20
72.23200660908253
 30
0.0
 10
57.58337927798974
 20
72.23200660908253
 30
0.0
 10
57.53602571415449
 20
72.23200660908252
 30
0.0
 10
57.442176164654
 20
72.23200660908253
 30
0.0
 10
57.31127726752594
 20
72.23200660908253
 30
0.0
 10
57.14716322869234
 20
72.23200660908253
 30
0.0
 10
57.01155744443391
 20
72.23200660908252
 30
0.0
 10
56.94369025259446
 20
72.23200660908253
 30
0.0
  0
SPLINE
  5
124
330
1F
100
AcDbEntity
  8
0
  6
Continuous
 62
     7
370
    25
100
AcDbSpline
210
0.0
220
0.0
230
1.0
 70
    24
 71
     3
 72
    13
 73
     9
 74
     0
 42
0.000000001
 43
0.00000001
 40
0.0
 40
0.0
 40
0.0
 40
0.0
 40
0.1834897094758335
 40
0.3672873820232255
 40
0.5522799052696751
 40
0.7378110673585909
 40
0.98677662037011
 40
0.9999999999999999
 40
0.9999999999999999
 40
0.9999999999999999
 40
0.9999999999999999
 10
56.94369025259446
 20
58.23200660908253
 30
0.0
 10
57.01082646095857
 20
58.23200660908253
 30
0.0
 10
57.14521155688281
 20
58.23200660908253
 30
0.0
 10
57.30918016480877
 20
58.23200660908253
 30
0.0
 10
57.44110992540045
 20
58.23200660908253
 30
0.0
 10
57.53485197376712
 20
58.23200660908253
 30
0.0
 10
57.5816689106649
 20
58.23200660908253
 30
0.0
 10
57.56745506120438
 20
58.23200660908253
 30
0.0
 10
57.56673819216829
 20
58.23200660908253
 30
0.0
  0
SPLINE
  5
125
330
1F
100
AcDbEntity
  8
0
  6
Continuous
 62
     7
370
    25
100
AcDbSpline
210
0.0
220
0.0
230
1.0
 70
     8
 71
     3
 72
    16
 73
    12
 74
     0
 42
0.000000001
 43
0.00000001
 40
0.0
 40
0.0
 40
0.0
 40
0.0
 40
0.2500000000000001
 40
0.2500000000000001
 40
0.5000000000000001
 40
0.5000000000000001
 40
0.625
 40
0.625
 40
0.7499999999999999
 40
0.7499999999999999
 40
1.0
 40
1.0
 40
1.0
 40
1.0
 10
56.94369025259495
 20
65.2320066090826
 30
0.0
 10
57.13418472357974
 20
64.66052319612825
 30
0.0
 10
57.29118673679284
 20
64.08487309419584
 30
0.0
 10
57.50868554763085
 20
62.92156698676743
 30
0.0
 10
57.56846490870091
 20
62.3338217272965
 30
0.0
 10
57.56912140955487
 20
61.44113007411064
 30
0.0
 10
57.5545076430714
 20
61.14216639519393
 30
0.0
 10
57.49752178519456
 20
60.55078464525939
 30
0.0
 10
57.45520751593532
 20
60.2570764549402
 30
0.0
 10
57.29181269604514
 20
59.38118096040568
 30
0.0
 10
57.13442216873171
 20
58.80420235749349
 30
0.0
 10
56.94369025259471
 20
58.2320066090825
 30
0.0
  0
LINE
  5
126
330
1F
100
AcDbEntity
  8
0
  6
Continuous
 62
     7
370
    25
100
AcDbLine
 10
57.7132426022
 20
71.9820066091
 30
0.0
 11
57.7132426022
 21
58.4820066091
 31
0.0
  0
SPLINE
  5
127
330
1F
100
AcDbEntity
  8
0
  6
Continuous
 62
     7
370
    25
100
AcDbSpline
210
0.0
220
0.0
230
1.0
 70
     8
 71
     3
 72
     8
 73
     4
 74
     0
 42
0.000000001
 43
0.00000001
 40
0.0
 40
0.0
 40
0.0
 40
0.0
 40
1.0
 40
1.0
 40
1.0
 40
1.0
 10
54.79362735996049
 20
65.23200660908253
 30
0.0
 10
54.76509354512239
 20
65.04756113050158
 30
0.0
 10
54.73822862331561
 20
64.86297271864134
 30
0.0
 10
54.71324260223115
 20
64.67822338727542
 30
0.0
  0
LINE
  5
128
330
1F
100
AcDbEntity
  8
0
  6
Continuous
 62
     7
370
    25
100
AcDbLine
 10
54.7132426022
 20
64.6782233873
 30
0.0
 11
54.7132426022
 21
65.7857898309
 31
0.0
  0
SPLINE
  5
129
330
1F
100
AcDbEntity
  8
0
  6
Continuous
 62
     7
370
    25
100
AcDbSpline
210
0.0
220
0.0
230
1.0
 70
     8
 71
     3
 72
     8
 73
     4
 74
     0
 42
0.000000001
 43
0.00000001
 40
0.0
 40
0.0
 40
0.0
 40
0.0
 40
1.0
 40
1.0
 40
1.0
 40
1.0
 10
54.71324260223115
 20
64.67822338727544
 30
0.0
 10
54.68824218930845
 20
64.86307913344362
 30
0.0
 10
54.66137587784824
 20
65.04766314366739
 30
0.0
 10
54.63285784450181
 20
65.23200660908253
 30
0.0
  0
LINE
  5
12A
330
1F
100
AcDbEntity
  8
0
  6
Continuous
 62
     7
370
    25
100
AcDbLine
 10
54.6328578445
 20
58.2320066091
 30
0.0
 11
52.4827949519
 21
58.2320066091
 31
0.0
  0
LINE
  5
12B
330
1F
100
AcDbEntity
  8
0
  6
Continuous
 62
     7
370
    25
100
AcDbLine
 10
56.9436902526
 20
58.2320066091
 30
0.0
 11
54.79362736
 21
58.2320066091
 31
0.0
  0
SPLINE
  5
12C
330
1F
100
AcDbEntity
  8
0
  6
Continuous
 62
     7
370
    25
100
AcDbSpline
210
0.0
220
0.0
230
1.0
 70
     8
 71
     3
 72
     8
 73
     4
 74
     0
 42
0.000000001
 43
0.00000001
 40
0.0
 40
0.0
 40
0.0
 40
0.0
 40
1.0
 40
1.0
 40
1.0
 40
1.0
 10
54.71324260223115
 20
58.78578983088963
 30
0.0
 10
54.73824301515385
 20
58.60093408472144
 30
0.0
 10
54.76510932661407
 20
58.41635007449767
 30
0.0
 10
54.79362735996049
 20
58.23200660908253
 30
0.0
  0
SPLINE
  5
12D
330
1F
100
AcDbEntity
  8
0
  6
Continuous
 62
     7
370
    25
100
AcDbSpline
210
0.0
220
0.0
230
1.0
 70
     8
 71
     3
 72
     8
 73
     4
 74
     0
 42
0.000000001
 43
0.00000001
 40
0.0
 40
0.0
 40
0.0
 40
0.0
 40
1.0
 40
1.0
 40
1.0
 40
1.0
 10
54.63285784450181
 20
58.23200660908253
 30
0.0
 10
54.66139165933991
 20
58.41645208766349
 30
0.0
 10
54.6882565811467
 20
58.60104049952371
 30
0.0
 10
54.71324260223115
 20
58.78578983088963
 30
0.0
  0
LINE
  5
12E
330
1F
100
AcDbEntity
  8
0
  6
Continuous
 62
     7
370
    25
100
AcDbLine
 10
42.802030256
 20
71.6879687233
 30
0.0
 11
42.802030256
 21
58.7760444949
 31
0.0
  0
LINE
  5
12F
330
1F
100
AcDbEntity
  8
0
  6
Continuous
 62
     7
370
    25
100
AcDbLine
 10
40.7132426022
 20
59.9820066091
 30
0.0
 11
40.7132426022
 21
70.4820066091
 31
0.0
  0
LINE
  5
130
330
1F
100
AcDbEntity
  8
0
  6
Continuous
 62
     7
370
    25
100
AcDbLine
 10
54.7132426022
 20
71.6782233873
 30
0.0
 11
54.7132426022
 21
72.2320066091
 31
0.0
  0
SPLINE
  5
131
330
1F
100
AcDbEntity
  8
0
  6
Continuous
 62
     7
370
    25
100
AcDbSpline
210
0.0
220
0.0
230
1.0
 70
    24
 71
     3
 72
     8
 73
     4
 74
     0
 42
0.000000001
 43
0.00000001
 40
0.0
 40
0.0
 40
0.0
 40
0.0
 40
1.0
 40
1.0
 40
1.0
 40
1.0
 10
54.71324260223115
 20
72.23200660908253
 30
0.0
 10
54.73824227422538
 20
72.23200660908253
 30
0.0
 10
54.76510851501236
 20
72.23200660908253
 30
0.0
 10
54.79362735996049
 20
72.23200660908253
 30
0.0
  0
SPLINE
  5
132
330
1F
100
AcDbEntity
  8
0
  6
Continuous
 62
     7
370
    25
100
AcDbSpline
210
0.0
220
0.0
230
1.0
 70
    24
 71
     3
 72
     8
 73
     4
 74
     0
 42
0.000000001
 43
0.00000001
 40
0.0
 40
0.0
 40
0.0
 40
0.0
 40
1.0
 40
1.0
 40
1.0
 40
1.0
 10
54.63285784450181
 20
72.23200660908253
 30
0.0
 10
54.66139397481746
 20
72.23200660908253
 30
0.0
 10
54.68825869000087
 20
72.23200660908253
 30
0.0
 10
54.71324260223115
 20
72.23200660908253
 30
0.0
  0
SPLINE
  5
133
330
1F
100
AcDbEntity
  8
0
  6
Continuous
 62
     7
370
    25
100
AcDbSpline
210
0.0
220
0.0
230
1.0
 70
    24
 71
     3
 72
     8
 73
     4
 74
     0
 42
0.000000001
 43
0.00000001
 40
0.0
 40
0.0
 40
0.0
 40
0.0
 40
1.0
 40
1.0
 40
1.0
 40
1.0
 10
54.71324260223115
 20
58.23200660908253
 30
0.0
 10
54.68824293023692
 20
58.23200660908253
 30
0.0
 10
54.66137668944994
 20
58.23200660908253
 30
0.0
 10
54.63285784450181
 20
58.23200660908253
 30
0.0
  0
LINE
  5
134
330
1F
100
AcDbEntity
  8
0
  6
Continuous
 62
     7
370
    25
100
AcDbLine
 10
54.7132426022
 20
58.2320066091
 30
0.0
 11
54.7132426022
 21
58.7857898309
 31
0.0
  0
SPLINE
  5
135
330
1F
100
AcDbEntity
  8
0
  6
Continuous
 62
     7
370
    25
100
AcDbSpline
210
0.0
220
0.0
230
1.0
 70
    24
 71
     3
 72
     8
 73
     4
 74
     0
 42
0.000000001
 43
0.00000001
 40
0.0
 40
0.0
 40
0.0
 40
0.0
 40
1.0
 40
1.0
 40
1.0
 40
1.0
 10
54.79362735996049
 20
58.23200660908253
 30
0.0
 10
54.76509122964485
 20
58.23200660908253
 30
0.0
 10
54.73822651446143
 20
58.23200660908253
 30
0.0
 10
54.71324260223115
 20
58.23200660908253
 30
0.0
  0
LINE
  5
136
330
1F
100
AcDbEntity
  8
0
  6
Continuous
 62
     7
370
    25
100
AcDbLine
 10
61.2132426022
 20
65.2320066091
 30
0.0
 11
61.2132426022
 21
61.7320066091
 31
0.0
  0
LINE
  5
137
330
1F
100
AcDbEntity
  8
0
  6
Continuous
 62
     7
370
    25
100
AcDbLine
 10
61.2132426022
 20
68.7320066091
 30
0.0
 11
61.2132426022
 21
65.2320066091
 31
0.0
  0
LINE
  5
138
330
1F
100
AcDbEntity
  8
0
  6
Continuous
 62
     7
370
    25
100
AcDbLine
 10
73.2132426022
 20
65.2320066091
 30
0.0
 11
73.2132426022
 21
61.7320066091
 31
0.0
  0
LINE
  5
139
330
1F
100
AcDbEntity
  8
0
  6
Continuous
 62
     7
370
    25
100
AcDbLine
 10
73.2132426022
 20
68.7320066091
 30
0.0
 11
73.2132426022
 21
65.2320066091
 31
0.0
  0
LINE
  5
13A
330
1F
100
AcDbEntity
  8
0
  6
Continuous
 62
     7
370
    25
100
AcDbLine
 10
65.2132426022
 20
65.2320066091
 30
0.0
 11
65.2132426022
 21
61.7320066091
 31
0.0
  0
LINE
  5
13B
330
1F
100
AcDbEntity
  8
0
  6
Continuous
 62
     7
370
    25
100
AcDbLine
 10
65.2132426022
 20
68.7320066091
 30
0.0
 11
65.2132426022
 21
65.2320066091
 31
0.0
  0
LINE
  5
13C
330
1F
100
AcDbEntity
  8
0
  6
Continuous
 62
     7
370
    25
100
AcDbLine
 10
69.2132426022
 20
65.2320066091
 30
0.0
 11
69.2132426022
 21
61.7320066091
 31
0.0
  0
LINE
  5
13D
330
1F
100
AcDbEntity
  8
0
  6
Continuous
 62
     7
370
    25
100
AcDbLine
 10
69.2132426022
 20
68.7320066091
 30
0.0
 11
69.2132426022
 21
65.2320066091
 31
0.0
  0
LINE
  5
13E
330
1F
100
AcDbEntity
  8
0
  6
Continuous
 62
     7
370
    25
100
AcDbLine
 10
77.7132426022
 20
65.2320066091
 30
0.0
 11
77.7132426022
 21
62.8149735093
 31
0.0
  0
LINE
  5
13F
330
1F
100
AcDbEntity
  8
0
  6
Continuous
 62
     7
370
    25
100
AcDbLine
 10
77.7132426022
 20
67.6490397089
 30
0.0
 11
77.7132426022
 21
65.2320066091
 31
0.0
  0
LINE
  5
140
330
1F
100
AcDbEntity
  8
0
  6
Continuous
 62
     8
370
    25
100
AcDbLine
 10
77.2847229836
 20
65.2320066091
 30
0.0
 11
77.2847229836
 21
68.1439038873
 31
0.0
  0
LINE
  5
141
330
1F
100
AcDbEntity
  8
0
  6
Continuous
 62
     8
370
    25
100
AcDbLine
 10
77.2847229836
 20
62.3201093308
 30
0.0
 11
77.2847229836
 21
65.2320066091
 31
0.0
  0
LINE
  5
142
330
1F
100
AcDbEntity
  8
0
  6
Continuous
 62
     7
370
    18
100
AcDbLine
 10
41.5784683248
 20
70.9815449129
 30
0.0
 11
51.2132426022
 21
71.2826316091
 31
0.0
  0
LINE
  5
143
330
1F
100
AcDbEntity
  8
0
  6
Continuous
 62
     7
370
    18
100
AcDbLine
 10
41.5784683248
 20
59.4824683053
 30
0.0
 11
51.2132426022
 21
59.1813816091
 31
0.0
  0
LINE
  5
144
330
1F
100
AcDbEntity
  8
0
  6
Continuous
 62
     7
370
    18
100
AcDbLine
 10
51.2132426022
 20
58.5131941091
 30
0.0
 11
51.2132426022
 21
71.9508191091
 31
0.0
  0
LINE
  5
145
330
1F
100
AcDbEntity
  8
0
  6
CENTERX2
 62
     7
370
    18
100
AcDbLine
 10
78.7132426022
 20
65.2320066091
 30
0.0
 11
39.6922969311
 21
65.2320066091
 31
0.0
  0
ENDSEC
  0
SECTION
  2
OBJECTS
  0
DICTIONARY
  5
C
330
0
100
AcDbDictionary
281
     1
  3
ACAD_GROUP
350
D
  3
ACAD_LAYOUT
350
1A
  3
ACAD_MLINESTYLE
350
17
  3
ACAD_PLOTSETTINGS
350
19
  3
ACAD_PLOTSTYLENAME
350
E
  3
ACAD_SCALELIST
350
47
  0
DICTIONARY
  5
D
102
{ACAD_REACTORS
330
C
102
}
330
C
100
AcDbDictionary
281
     1
  0
DICTIONARY
  5
1A
102
{ACAD_REACTORS
330
C
102
}
330
C
100
AcDbDictionary
281
     1
  3
Layout1
350
1E
  3
Layout2
350
26
  3
Model
350
22
  0
DICTIONARY
  5
17
102
{ACAD_REACTORS
330
C
102
}
330
C
100
AcDbDictionary
281
     1
  3
Standard
350
18
  0
DICTIONARY
  5
19
102
{ACAD_REACTORS
330
C
102
}
330
C
100
AcDbDictionary
281
     1
  0
ACDBDICTIONARYWDFLT
  5
E
102
{ACAD_REACTORS
330
C
102
}
330
C
100
AcDbDictionary
281
     1
  3
Normal
350
F
100
AcDbDictionaryWithDefault
340
F
  0
DICTIONARY
  5
47
102
{ACAD_REACTORS
330
C
102
}
330
C
100
AcDbDictionary
281
     1
  3
A0
350
48
  3
A1
350
49
  3
A2
350
4A
  3
A3
350
4B
  3
A4
350
4C
  3
A5
350
4D
  3
A6
350
4E
  3
A7
350
4F
  3
A8
350
50
  3
A9
350
51
  3
B0
350
52
  3
B1
350
53
  3
B2
350
54
  3
B3
350
55
  3
B4
350
56
  3
B5
350
57
  3
B6
350
58
  3
B7
350
59
  3
B8
350
5A
  3
B9
350
5B
  3
C0
350
5C
  3
C1
350
5D
  3
C2
350
5E
  3
C3
350
5F
  3
C4
350
60
  3
C5
350
61
  3
C6
350
62
  3
C7
350
63
  3
C8
350
64
  3
C9
350
65
  3
D0
350
66
  3
D1
350
67
  3
D2
350
68
  0
LAYOUT
  5
1E
102
{ACAD_REACTORS
330
1A
102
}
330
1A
100
AcDbPlotSettings
  1

  2
none_device
  4

  6

 40
0.0
 41
0.0
 42
0.0
 43
0.0
 44
0.0
 45
0.0
 46
0.0
 47
0.0
 48
0.0
 49
0.0
140
0.0
141
0.0
142
1.0
143
1.0
 70
   688
 72
     1
 73
     0
 74
     5
  7

 75
    16
147
1.0
148
0.0
149
0.0
100
AcDbLayout
  1
Layout1
 70
     1
 71
     1
 10
0.0
 20
0.0
 11
420.0
 21
297.0
 12
0.0
 22
0.0
 32
0.0
 14
1.0000000000E+20
 24
1.0000000000E+20
 34
1.0000000000E+20
 15
-1.0000000000E+20
 25
-1.0000000000E+20
 35
-1.0000000000E+20
146
0.0
 13
0.0
 23
0.0
 33
0.0
 16
1.0
 26
0.0
 36
0.0
 17
0.0
 27
1.0
 37
0.0
 76
     0
330
1B
  0
LAYOUT
  5
26
102
{ACAD_REACTORS
330
1A
102
}
330
1A
100
AcDbPlotSettings
  1

  2
none_device
  4

  6

 40
0.0
 41
0.0
 42
0.0
 43
0.0
 44
0.0
 45
0.0
 46
0.0
 47
0.0
 48
0.0
 49
0.0
140
0.0
141
0.0
142
1.0
143
1.0
 70
   688
 72
     1
 73
     0
 74
     5
  7

 75
    16
147
1.0
148
0.0
149
0.0
100
AcDbLayout
  1
Layout2
 70
     1
 71
     2
 10
0.0
 20
0.0
 11
0.0
 21
0.0
 12
0.0
 22
0.0
 32
0.0
 14
0.0
 24
0.0
 34
0.0
 15
0.0
 25
0.0
 35
0.0
146
0.0
 13
0.0
 23
0.0
 33
0.0
 16
1.0
 26
0.0
 36
0.0
 17
0.0
 27
1.0
 37
0.0
 76
     0
330
23
  0
LAYOUT
  5
22
102
{ACAD_REACTORS
330
1A
102
}
330
1A
100
AcDbPlotSettings
  1

  2
none_device
  4
Letter_(8.50_x_11.00_Inches)
  6

 40
6.35
 41
6.35
 42
6.35000508
 43
6.35000508
 44
215.9
 45
279.4
 46
0.0
 47
0.0
 48
0.0
 49
0.0
140
0.0
141
0.0
142
1.0
143
1.0
 70
  1712
 72
     1
 73
     0
 74
     0
  7

 75
     0
147
1.0
148
0.0
149
0.0
100
AcDbLayout
  1
Model
 70
     1
 71
     0
 10
0.0
 20
0.0
 11
215.9
 21
139.7
 12
0.0
 22
0.0
 32
0.0
 14
0.0
 24
0.0
 34
0.0
 15
215.9
 25
139.7
 35
0.0
146
0.0
 13
0.0
 23
0.0
 33
0.0
 16
1.0
 26
0.0
 36
0.0
 17
0.0
 27
1.0
 37
0.0
 76
     0
330
1F
331
29
  0
MLINESTYLE
  5
18
102
{ACAD_REACTORS
330
17
102
}
330
17
100
AcDbMlineStyle
  2
Standard
 70
     0
  3

 62
   256
 51
90.0
 52
90.0
 71
     2
 49
0.5
 62
   256
  6
BYLAYER
 49
-0.5
 62
   256
  6
BYLAYER
  0
ACDBPLACEHOLDER
  5
F
102
{ACAD_REACTORS
330
E
102
}
330
E
  0
SCALE
  5
48
102
{ACAD_REACTORS
330
47
102
}
330
47
100
AcDbScale
 70
     0
300
1:1
140
1.0
141
1.0
290
     1
  0
SCALE
  5
49
102
{ACAD_REACTORS
330
47
102
}
330
47
100
AcDbScale
 70
     0
300
1:2
140
1.0
141
2.0
290
     0
  0
SCALE
  5
4A
102
{ACAD_REACTORS
330
47
102
}
330
47
100
AcDbScale
 70
     0
300
1:4
140
1.0
141
4.0
290
     0
  0
SCALE
  5
4B
102
{ACAD_REACTORS
330
47
102
}
330
47
100
AcDbScale
 70
     0
300
1:5
140
1.0
141
5.0
290
     0
  0
SCALE
  5
4C
102
{ACAD_REACTORS
330
47
102
}
330
47
100
AcDbScale
 70
     0
300
1:8
140
1.0
141
8.0
290
     0
  0
SCALE
  5
4D
102
{ACAD_REACTORS
330
47
102
}
330
47
100
AcDbScale
 70
     0
300
1:10
140
1.0
141
10.0
290
     0
  0
SCALE
  5
4E
102
{ACAD_REACTORS
330
47
102
}
330
47
100
AcDbScale
 70
     0
300
1:16
140
1.0
141
16.0
290
     0
  0
SCALE
  5
4F
102
{ACAD_REACTORS
330
47
102
}
330
47
100
AcDbScale
 70
     0
300
1:20
140
1.0
141
20.0
290
     0
  0
SCALE
  5
50
102
{ACAD_REACTORS
330
47
102
}
330
47
100
AcDbScale
 70
     0
300
1:30
140
1.0
141
30.0
290
     0
  0
SCALE
  5
51
102
{ACAD_REACTORS
330
47
102
}
330
47
100
AcDbScale
 70
     0
300
1:40
140
1.0
141
40.0
290
     0
  0
SCALE
  5
52
102
{ACAD_REACTORS
330
47
102
}
330
47
100
AcDbScale
 70
     0
300
1:50
140
1.0
141
50.0
290
     0
  0
SCALE
  5
53
102
{ACAD_REACTORS
330
47
102
}
330
47
100
AcDbScale
 70
     0
300
1:100
140
1.0
141
100.0
290
     0
  0
SCALE
  5
54
102
{ACAD_REACTORS
330
47
102
}
330
47
100
AcDbScale
 70
     0
300
2:1
140
2.0
141
1.0
290
     0
  0
SCALE
  5
55
102
{ACAD_REACTORS
330
47
102
}
330
47
100
AcDbScale
 70
     0
300
4:1
140
4.0
141
1.0
290
     0
  0
SCALE
  5
56
102
{ACAD_REACTORS
330
47
102
}
330
47
100
AcDbScale
 70
     0
300
8:1
140
8.0
141
1.0
290
     0
  0
SCALE
  5
57
102
{ACAD_REACTORS
330
47
102
}
330
47
100
AcDbScale
 70
     0
300
10:1
140
10.0
141
1.0
290
     0
  0
SCALE
  5
58
102
{ACAD_REACTORS
330
47
102
}
330
47
100
AcDbScale
 70
     0
300
100:1
140
100.0
141
1.0
290
     0
  0
SCALE
  5
59
102
{ACAD_REACTORS
330
47
102
}
330
47
100
AcDbScale
 70
     0
300
1/128" = 1'-0"
140
0.0078125
141
12.0
290
     0
  0
SCALE
  5
5A
102
{ACAD_REACTORS
330
47
102
}
330
47
100
AcDbScale
 70
     0
300
1/64" = 1'-0"
140
0.015625
141
12.0
290
     0
  0
SCALE
  5
5B
102
{ACAD_REACTORS
330
47
102
}
330
47
100
AcDbScale
 70
     0
300
1/32" = 1'-0"
140
0.03125
141
12.0
290
     0
  0
SCALE
  5
5C
102
{ACAD_REACTORS
330
47
102
}
330
47
100
AcDbScale
 70
     0
300
1/16" = 1'-0"
140
0.0625
141
12.0
290
     0
  0
SCALE
  5
5D
102
{ACAD_REACTORS
330
47
102
}
330
47
100
AcDbScale
 70
     0
300
3/32" = 1'-0"
140
0.09375
141
12.0
290
     0
  0
SCALE
  5
5E
102
{ACAD_REACTORS
330
47
102
}
330
47
100
AcDbScale
 70
     0
300
1/8" = 1'-0"
140
0.125
141
12.0
290
     0
  0
SCALE
  5
5F
102
{ACAD_REACTORS
330
47
102
}
330
47
100
AcDbScale
 70
     0
300
3/16" = 1'-0"
140
0.1875
141
12.0
290
     0
  0
SCALE
  5
60
102
{ACAD_REACTORS
330
47
102
}
330
47
100
AcDbScale
 70
     0
300
1/4" = 1'-0"
140
0.25
141
12.0
290
     0
  0
SCALE
  5
61
102
{ACAD_REACTORS
330
47
102
}
330
47
100
AcDbScale
 70
     0
300
3/8" = 1'-0"
140
0.375
141
12.0
290
     0
  0
SCALE
  5
62
102
{ACAD_REACTORS
330
47
102
}
330
47
100
AcDbScale
 70
     0
300
1/2" = 1'-0"
140
0.5
141
12.0
290
     0
  0
SCALE
  5
63
102
{ACAD_REACTORS
330
47
102
}
330
47
100
AcDbScale
 70
     0
300
3/4" = 1'-0"
140
0.75
141
12.0
290
     0
  0
SCALE
  5
64
102
{ACAD_REACTORS
330
47
102
}
330
47
100
AcDbScale
 70
     0
300
1" = 1'-0"
140
1.0
141
12.0
290
     0
  0
SCALE
  5
65
102
{ACAD_REACTORS
330
47
102
}
330
47
100
AcDbScale
 70
     0
300
1-1/2" = 1'-0"
140
1.5
141
12.0
290
     0
  0
SCALE
  5
66
102
{ACAD_REACTORS
330
47
102
}
330
47
100
AcDbScale
 70
     0
300
3" = 1'-0"
140
3.0
141
12.0
290
     0
  0
SCALE
  5
67
102
{ACAD_REACTORS
330
47
102
}
330
47
100
AcDbScale
 70
     0
300
6" = 1'-0"
140
6.0
141
12.0
290
     0
  0
SCALE
  5
68
102
{ACAD_REACTORS
330
47
102
}
330
47
100
AcDbScale
 70
     0
300
1'-0" = 1'-0"
140
12.0
141
12.0
290
     0
  0
ENDSEC
  0
EOF
