  0
SECTION
  2
HEADER
  9
$ACADVER
  1
AC1015
  9
$ACADMAINTVER
 70
     6
  9
$DWGCODEPAGE
  3
DOS932
  9
$INSBASE
 10
0.0
 20
0.0
 30
0.0
  9
$EXTMIN
 10
0.0
 20
0.0
 30
0.0
  9
$EXTMAX
 10
215.9
 20
139.7
 30
0.0
  9
$LIMMIN
 10
0.0
 20
0.0
  9
$LIMMAX
 10
215.9
 20
139.7
  9
$ORTHOMODE
 70
     0
  9
$REGENMODE
 70
     1
  9
$FILLMODE
 70
     1
  9
$QTEXTMODE
 70
     0
  9
$MIRRTEXT
 70
     1
  9
$LTSCALE
 40
0.5
  9
$ATTMODE
 70
     1
  9
$TEXTSIZE
 40
1.75
  9
$TRACEWID
 40
1.0
  9
$TEXTSTYLE
  7
Standard
  9
$CLAYER
  8
0
  9
$CELTYPE
  6
ByLayer
  9
$CECOLOR
 62
   256
  9
$CELTSCALE
 40
1.0
  9
$DISPSILH
 70
     0
  9
$DIMSCALE
 40
1.0
  9
$DIMASZ
 40
1.651
  9
$DIMEXO
 40
0.5
  9
$DIMDLI
 40
3.75
  9
$DIMRND
 40
0.0
  9
$DIMDLE
 40
0.0
  9
$DIMEXE
 40
0.5
  9
$DIMTP
 40
0.0
  9
$DIMTM
 40
0.0
  9
$DIMTXT
 40
1.75
  9
$DIMCEN
 40
2.5
  9
$DIMTSZ
 40
0.0
  9
$DIMTOL
 70
     0
  9
$DIMLIM
 70
     0
  9
$DIMTIH
 70
     1
  9
$DIMTOH
 70
     1
  9
$DIMSE1
 70
     0
  9
$DIMSE2
 70
     0
  9
$DIMTAD
 70
     1
  9
$DIMZIN
 70
     1
  9
$DIMBLK
  1

  9
$DIMASO
 70
     1
  9
$DIMSHO
 70
     1
  9
$DIMPOST
  1

  9
$DIMAPOST
  1

  9
$DIMALT
 70
     0
  9
$DIMALTD
 70
     3
  9
$DIMALTF
 40
0.0393700787
  9
$DIMLFAC
 40
1.0
  9
$DIMTOFL
 70
     1
  9
$DIMTVP
 40
0.0
  9
$DIMTIX
 70
     0
  9
$DIMSOXD
 70
     0
  9
$DIMSAH
 70
     0
  9
$DIMBLK1
  1

  9
$DIMBLK2
  1

  9
$DIMSTYLE
  2
ISO-25
  9
$DIMCLRD
 70
     0
  9
$DIMCLRE
 70
     0
  9
$DIMCLRT
 70
     0
  9
$DIMTFAC
 40
1.0
  9
$DIMGAP
 40
0.762
  9
$DIMJUST
 70
     0
  9
$DIMSD1
 70
     0
  9
$DIMSD2
 70
     0
  9
$DIMTOLJ
 70
     0
  9
$DIMTZIN
 70
     1
  9
$DIMALTZ
 70
     0
  9
$DIMALTTZ
 70
     0
  9
$DIMUPT
 70
     0
  9
$DIMDEC
 70
     2
  9
$DIMTDEC
 70
     2
  9
$DIMALTU
 70
     2
  9
$DIMALTTD
 70
     3
  9
$DIMTXSTY
  7
Standard
  9
$DIMAUNIT
 70
     0
  9
$DIMADEC
 70
     2
  9
$DIMALTRND
 40
0.0
  9
$DIMAZIN
 70
     0
  9
$DIMDSEP
 70
    44
  9
$DIMATFIT
 70
     3
  9
$DIMFRAC
 70
     0
  9
$DIMLDRBLK
  1

  9
$DIMLUNIT
 70
     2
  9
$DIMLWD
 70
    -2
  9
$DIMLWE
 70
    -2
  9
$DIMTMOVE
 70
     0
  9
$LUNITS
 70
     2
  9
$LUPREC
 70
     2
  9
$SKETCHINC
 40
1.0
  9
$FILLETRAD
 40
10.0
  9
$AUNITS
 70
     0
  9
$AUPREC
 70
     2
  9
$MENU
  1
.
  9
$ELEVATION
 40
0.0
  9
$PELEVATION
 40
0.0
  9
$THICKNESS
 40
0.0
  9
$LIMCHECK
 70
     0
  9
$CHAMFERA
 40
0.0
  9
$CHAMFERB
 40
0.0
  9
$CHAMFERC
 40
0.0
  9
$CHAMFERD
 40
0.0
  9
$SKPOLY
 70
     0
  9
$TDCREATE
 40
2460081.556315162
  9
$TDUCREATE
 40
2460081.181315162
  9
$TDUPDATE
 40
2460081.556315995
  9
$TDUUPDATE
 40
2460081.181315995
  9
$TDINDWG
 40
0.0000000116
  9
$TDUSRTIMER
 40
0.0000000116
  9
$USRTIMER
 70
     1
  9
$ANGBASE
 50
0.0
  9
$ANGDIR
 70
     0
  9
$PDMODE
 70
     0
  9
$PDSIZE
 40
-1.0
  9
$PLINEWID
 40
0.0
  9
$SPLFRAME
 70
     0
  9
$SPLINETYPE
 70
     6
  9
$SPLINESEGS
 70
     8
  9
$HANDSEED
  5
13A
  9
$SURFTAB1
 70
     6
  9
$SURFTAB2
 70
     6
  9
$SURFTYPE
 70
     6
  9
$SURFU
 70
     6
  9
$SURFV
 70
     6
  9
$UCSBASE
  2

  9
$UCSNAME
  2

  9
$UCSORG
 10
0.0
 20
0.0
 30
0.0
  9
$UCSXDIR
 10
1.0
 20
0.0
 30
0.0
  9
$UCSYDIR
 10
0.0
 20
1.0
 30
0.0
  9
$UCSORTHOREF
  2

  9
$UCSORTHOVIEW
 70
     0
  9
$UCSORGTOP
 10
0.0
 20
0.0
 30
0.0
  9
$UCSORGBOTTOM
 10
0.0
 20
0.0
 30
0.0
  9
$UCSORGLEFT
 10
0.0
 20
0.0
 30
0.0
  9
$UCSORGRIGHT
 10
0.0
 20
0.0
 30
0.0
  9
$UCSORGFRONT
 10
0.0
 20
0.0
 30
0.0
  9
$UCSORGBACK
 10
0.0
 20
0.0
 30
0.0
  9
$PUCSBASE
  2

  9
$PUCSNAME
  2

  9
$PUCSORG
 10
0.0
 20
0.0
 30
0.0
  9
$PUCSXDIR
 10
1.0
 20
0.0
 30
0.0
  9
$PUCSYDIR
 10
0.0
 20
1.0
 30
0.0
  9
$PUCSORTHOREF
  2

  9
$PUCSORTHOVIEW
 70
     0
  9
$PUCSORGTOP
 10
0.0
 20
0.0
 30
0.0
  9
$PUCSORGBOTTOM
 10
0.0
 20
0.0
 30
0.0
  9
$PUCSORGLEFT
 10
0.0
 20
0.0
 30
0.0
  9
$PUCSORGRIGHT
 10
0.0
 20
0.0
 30
0.0
  9
$PUCSORGFRONT
 10
0.0
 20
0.0
 30
0.0
  9
$PUCSORGBACK
 10
0.0
 20
0.0
 30
0.0
  9
$USERI1
 70
     0
  9
$USERI2
 70
     0
  9
$USERI3
 70
     0
  9
$USERI4
 70
     0
  9
$USERI5
 70
     0
  9
$USERR1
 40
0.0
  9
$USERR2
 40
0.0
  9
$USERR3
 40
0.0
  9
$USERR4
 40
0.0
  9
$USERR5
 40
0.0
  9
$WORLDVIEW
 70
     1
  9
$SHADEDGE
 70
     3
  9
$SHADEDIF
 70
    70
  9
$TILEMODE
 70
     1
  9
$MAXACTVP
 70
    64
  9
$PINSBASE
 10
0.0
 20
0.0
 30
0.0
  9
$PLIMCHECK
 70
     0
  9
$PEXTMIN
 10
1.0000000000E+20
 20
1.0000000000E+20
 30
1.0000000000E+20
  9
$PEXTMAX
 10
-1.0000000000E+20
 20
-1.0000000000E+20
 30
-1.0000000000E+20
  9
$PLIMMIN
 10
0.0
 20
0.0
  9
$PLIMMAX
 10
420.0
 20
297.0
  9
$UNITMODE
 70
     0
  9
$VISRETAIN
 70
     1
  9
$PLINEGEN
 70
     0
  9
$PSLTSCALE
 70
     1
  9
$TREEDEPTH
 70
  3020
  9
$CMLSTYLE
  2
Standard
  9
$CMLJUST
 70
     0
  9
$CMLSCALE
 40
20.0
  9
$PROXYGRAPHICS
 70
     1
  9
$MEASUREMENT
 70
     1
  9
$CELWEIGHT
370
    -1
  9
$ENDCAPS
280
     0
  9
$JOINSTYLE
280
     0
  9
$LWDISPLAY
290
     1
  9
$INSUNITS
 70
     4
  9
$HYPERLINKBASE
  1

  9
$STYLESHEET
  1

  9
$XEDIT
290
     1
  9
$CEPSNTYPE
380
     0
  9
$PSTYLEMODE
290
     1
  9
$FINGERPRINTGUID
  2
{50A18B5C-0995-4894-9CD7-2C3E0488DE18}
  9
$VERSIONGUID
  2
{FAEB1C32-E019-11D5-929B-00C0DF256EC4}
  9
$EXTNAMES
290
     1
  9
$PSVPSCALE
 40
0.0
  9
$OLESTARTUP
290
     0
  0
ENDSEC
  0
SECTION
  2
CLASSES
  0
CLASS
  1
ACDBDICTIONARYWDFLT
  2
AcDbDictionaryWithDefault
  3
ObjectDBX Classes
 90
        0
280
     0
281
     0
  0
CLASS
  1
VISUALSTYLE
  2
AcDbVisualStyle
  3
ObjectDBX Classes
 90
     4095
280
     0
281
     0
  0
CLASS
  1
MATERIAL
  2
AcDbMaterial
  3
ObjectDBX Classes
 90
     1153
280
     0
281
     0
  0
CLASS
  1
SCALE
  2
AcDbScale
  3
ObjectDBX Classes
 90
     1153
280
     0
281
     0
  0
CLASS
  1
TABLESTYLE
  2
AcDbTableStyle
  3
ObjectDBX Classes
 90
     4095
280
     0
281
     0
  0
CLASS
  1
MLEADERSTYLE
  2
AcDbMLeaderStyle
  3
ACDB_MLEADERSTYLE_CLASS
 90
     4095
280
     0
281
     0
  0
CLASS
  1
SUN
  2
AcDbSun
  3
SCENEOE
 90
     1153
280
     0
281
     0
  0
CLASS
  1
ACDBPLACEHOLDER
  2
AcDbPlaceHolder
  3
ObjectDBX Classes
 90
        0
280
     0
281
     0
  0
CLASS
  1
LAYOUT
  2
AcDbLayout
  3
ObjectDBX Classes
 90
        0
280
     0
281
     0
  0
ENDSEC
  0
SECTION
  2
TABLES
  0
TABLE
  2
VPORT
  5
8
330
0
100
AcDbSymbolTable
 70
     1
  0
VPORT
  5
29
330
8
100
AcDbSymbolTableRecord
100
AcDbViewportTableRecord
  2
*Active
 70
     0
 10
0.0
 20
0.0
 11
1.0
 21
1.0
 12
107.95
 22
69.85
 13
0.0
 23
0.0
 14
10.0
 24
10.0
 15
10.0
 25
10.0
 16
0.0
 26
0.0
 36
1.0
 17
0.0
 27
0.0
 37
0.0
 40
139.7
 41
1.5454545455
 42
50.0
 43
0.0
 44
0.0
 50
0.0
 51
0.0
 71
     0
 72
  2000
 73
     1
 74
     3
 75
     0
 76
     0
 77
     0
 78
     0
281
     0
 65
     1
110
0.0
120
0.0
130
0.0
111
1.0
121
0.0
131
0.0
112
0.0
122
1.0
132
0.0
 79
     0
146
0.0
  0
ENDTAB
  0
TABLE
  2
LTYPE
  5
5
330
0
100
AcDbSymbolTable
 70
     6
  0
LTYPE
  5
14
330
5
100
AcDbSymbolTableRecord
100
AcDbLinetypeTableRecord
  2
ByBlock
 70
     0
  3

 72
    65
 73
     0
 40
0.0
  0
LTYPE
  5
15
330
5
100
AcDbSymbolTableRecord
100
AcDbLinetypeTableRecord
  2
ByLayer
 70
     0
  3

 72
    65
 73
     0
 40
0.0
  0
LTYPE
  5
16
330
5
100
AcDbSymbolTableRecord
100
AcDbLinetypeTableRecord
  2
Continuous
 70
     0
  3
Solid line
 72
    65
 73
     0
 40
0.0
  0
LTYPE
  5
6E
330
5
100
AcDbSymbolTableRecord
100
AcDbLinetypeTableRecord
  2
HIDDEN
 70
     0
  3
Hidden __ __ __ __ __ __ __ __ __ __ __ __ __ __
 72
    65
 73
     2
 40
1.905
 49
1.27
 74
     0
 49
-0.635
 74
     0
  0
LTYPE
  5
6F
330
5
100
AcDbSymbolTableRecord
100
AcDbLinetypeTableRecord
  2
PHANTOM
 70
     0
  3
Phantom ______  __  __  ______  __  __  ______
 72
    65
 73
     6
 40
12.7
 49
6.35
 74
     0
 49
-1.27
 74
     0
 49
1.27
 74
     0
 49
-1.27
 74
     0
 49
1.27
 74
     0
 49
-1.27
 74
     0
  0
LTYPE
  5
70
330
5
100
AcDbSymbolTableRecord
100
AcDbLinetypeTableRecord
  2
CENTER
 70
     0
  3
Center ____ _ ____ _ ____ _ ____ _ ____ _ ____
 72
    65
 73
     4
 40
10.16
 49
6.35
 74
     0
 49
-1.27
 74
     0
 49
1.27
 74
     0
 49
-1.27
 74
     0
  0
LTYPE
  5
71
330
5
100
AcDbSymbolTableRecord
100
AcDbLinetypeTableRecord
  2
CENTERX2
 70
     0
  3
Center (2x) ________  __  ________  __  _____
 72
    65
 73
     4
 40
20.32
 49
12.7
 74
     0
 49
-2.54
 74
     0
 49
2.54
 74
     0
 49
-2.54
 74
     0
  0
LTYPE
  5
72
330
5
100
AcDbSymbolTableRecord
100
AcDbLinetypeTableRecord
  2
DOT2
 70
     0
  3
Dot (.5x) ........................................
 72
    65
 73
     2
 40
0.635
 49
0.0
 74
     0
 49
-0.635
 74
     0
  0
ENDTAB
  0
TABLE
  2
LAYER
  5
2
330
0
100
AcDbSymbolTable
 70
     1
  0
LAYER
  5
10
330
2
100
AcDbSymbolTableRecord
100
AcDbLayerTableRecord
  2
0
 70
     0
 62
     7
  6
Continuous
370
    -3
390
F
  0
ENDTAB
  0
TABLE
  2
STYLE
  5
3
330
0
100
AcDbSymbolTable
 70
     2
  0
STYLE
  5
11
330
3
100
AcDbSymbolTableRecord
100
AcDbTextStyleTableRecord
  2
Standard
 70
     0
 40
0.0
 41
1.0
 50
0.0
 71
     0
 42
1.75
  3
txt
  4
bigfont
  0
STYLE
  5
73
330
3
100
AcDbSymbolTableRecord
100
AcDbTextStyleTableRecord
  2
SLDTEXTSTYLE0
 70
     0
 40
0.0
 41
0.7
 50
0.0
 71
     0
 42
1.75
  3
TXT
  4
bigfont
  0
ENDTAB
  0
TABLE
  2
VIEW
  5
6
330
0
100
AcDbSymbolTable
 70
     0
  0
ENDTAB
  0
TABLE
  2
UCS
  5
7
330
0
100
AcDbSymbolTable
 70
     0
  0
ENDTAB
  0
TABLE
  2
APPID
  5
9
330
0
100
AcDbSymbolTable
 70
     1
  0
APPID
  5
12
330
9
100
AcDbSymbolTableRecord
100
AcDbRegAppTableRecord
  2
ACAD
 70
     0
  0
ENDTAB
  0
TABLE
  2
DIMSTYLE
  5
A
330
0
100
AcDbSymbolTable
 70
     1
100
AcDbDimStyleTable
  0
DIMSTYLE
105
27
330
A
100
AcDbSymbolTableRecord
100
AcDbDimStyleTableRecord
  2
ISO-25
 70
     0
 41
2.5
 42
0.625
 43
3.75
 44
1.25
 73
     0
 74
     0
 77
     1
 78
     8
140
2.5
141
2.5
143
0.0393700787
147
0.625
171
     3
172
     1
178
     0
271
     2
272
     2
274
     3
278
    44
283
     0
284
     8
340
11
  0
ENDTAB
  0
TABLE
  2
BLOCK_RECORD
  5
1
330
0
100
AcDbSymbolTable
 70
     2
  0
BLOCK_RECORD
  5
1F
330
1
100
AcDbSymbolTableRecord
100
AcDbBlockTableRecord
  2
*Model_Space
340
22
  0
BLOCK_RECORD
  5
1B
330
1
100
AcDbSymbolTableRecord
100
AcDbBlockTableRecord
  2
*Paper_Space
340
1E
  0
BLOCK_RECORD
  5
23
330
1
100
AcDbSymbolTableRecord
100
AcDbBlockTableRecord
  2
*Paper_Space0
340
26
  0
BLOCK_RECORD
  5
E9
330
1
100
AcDbSymbolTableRecord
100
AcDbBlockTableRecord
  2
SW_CENTERMARKSYMBOL_0
340
0
102
{BLKREFS
331
F4
102
}
  0
ENDTAB
  0
ENDSEC
  0
SECTION
  2
BLOCKS
  0
BLOCK
  5
20
330
1F
100
AcDbEntity
  8
0
100
AcDbBlockBegin
  2
*Model_Space
 70
     0
 10
0.0
 20
0.0
 30
0.0
  3
*Model_Space
  1

  0
ENDBLK
  5
21
330
1F
100
AcDbEntity
  8
0
100
AcDbBlockEnd
  0
BLOCK
  5
1C
330
1B
100
AcDbEntity
 67
     1
  8
0
100
AcDbBlockBegin
  2
*Paper_Space
 70
     0
 10
0.0
 20
0.0
 30
0.0
  3
*Paper_Space
  1

  0
ENDBLK
  5
1D
330
1B
100
AcDbEntity
 67
     1
  8
0
100
AcDbBlockEnd
  0
BLOCK
  5
24
330
23
100
AcDbEntity
  8
0
100
AcDbBlockBegin
  2
*Paper_Space0
 70
     0
 10
0.0
 20
0.0
 30
0.0
  3
*Paper_Space0
  1

  0
ENDBLK
  5
25
330
23
100
AcDbEntity
  8
0
100
AcDbBlockEnd
  0
BLOCK
  5
EA
330
E9
100
AcDbEntity
  8
0
100
AcDbBlockBegin
  2
SW_CENTERMARKSYMBOL_0
 70
     0
 10
0.0
 20
0.0
 30
0.0
  3
SW_CENTERMARKSYMBOL_0
  1

  0
LINE
  5
EC
330
E9
100
AcDbEntity
  8
0
  6
Continuous
 62
     0
370
    18
100
AcDbLine
 10
0.0
 20
0.0
 30
0.0
 11
0.0
 21
2.5
 31
0.0
  0
LINE
  5
ED
330
E9
100
AcDbEntity
  8
0
  6
Continuous
 62
     0
370
    18
100
AcDbLine
 10
0.0
 20
0.0
 30
0.0
 11
-2.5
 21
0.0
 31
0.0
  0
LINE
  5
EE
330
E9
100
AcDbEntity
  8
0
  6
Continuous
 62
     0
370
    18
100
AcDbLine
 10
0.0
 20
0.0
 30
0.0
 11
0.0
 21
-2.5
 31
0.0
  0
LINE
  5
EF
330
E9
100
AcDbEntity
  8
0
  6
Continuous
 62
     0
370
    18
100
AcDbLine
 10
0.0
 20
0.0
 30
0.0
 11
2.5
 21
0.0
 31
0.0
  0
LINE
  5
F0
330
E9
100
AcDbEntity
  8
0
  6
Continuous
 62
     0
370
    18
100
AcDbLine
 10
0.0
 20
2.5
 30
0.0
 11
0.0
 21
8.7640545264
 31
0.0
  0
LINE
  5
F1
330
E9
100
AcDbEntity
  8
0
  6
Continuous
 62
     0
370
    18
100
AcDbLine
 10
-2.5
 20
0.0
 30
0.0
 11
-7.8364654037
 21
0.0
 31
0.0
  0
LINE
  5
F2
330
E9
100
AcDbEntity
  8
0
  6
Continuous
 62
     0
370
    18
100
AcDbLine
 10
0.0
 20
-2.5
 30
0.0
 11
0.0
 21
-8.8663816257
 31
0.0
  0
LINE
  5
F3
330
E9
100
AcDbEntity
  8
0
  6
Continuous
 62
     0
370
    18
100
AcDbLine
 10
2.5
 20
0.0
 30
0.0
 11
7.4533132721
 21
0.0
 31
0.0
  0
ENDBLK
  5
EB
330
E9
100
AcDbEntity
  8
0
100
AcDbBlockEnd
  0
ENDSEC
  0
SECTION
  2
ENTITIES
  0
MTEXT
  5
74
330
1F
100
AcDbEntity
  8
0
  6
Continuous
 62
     7
370
     0
100
AcDbMText
 10
77.8701481427
 20
55.4810784759
 30
0.0
 40
2.1166666667
 41
0.0
 71
     1
 72
     1
  1
エースニップル　HN-8206
  7
SLDTEXTSTYLE0
 73
     1
 44
1.0
  0
LINE
  5
75
330
1F
100
AcDbEntity
  8
0
  6
Continuous
 62
     7
370
    25
100
AcDbLine
 10
58.8962904249
 20
32.8564638614
 30
0.0
 11
59.6658427746
 21
34.1893676301
 31
0.0
  0
LINE
  5
76
330
1F
100
AcDbEntity
  8
0
  6
Continuous
 62
     7
370
    25
100
AcDbLine
 10
59.6658427746
 20
47.6893676301
 30
0.0
 11
58.8962904249
 21
49.0222713987
 31
0.0
  0
LINE
  5
77
330
1F
100
AcDbEntity
  8
0
  6
Continuous
 62
     7
370
    25
100
AcDbLine
 10
54.4353951242
 20
49.0222713987
 30
0.0
 11
53.6658427746
 21
47.6893676301
 31
0.0
  0
LINE
  5
78
330
1F
100
AcDbEntity
  8
0
  6
Continuous
 62
     7
370
    25
100
AcDbLine
 10
53.6658427746
 20
34.1893676301
 30
0.0
 11
54.4353951242
 21
32.8564638614
 31
0.0
  0
LINE
  5
79
330
1F
100
AcDbEntity
  8
0
  6
Continuous
 62
     7
370
    25
100
AcDbLine
 10
53.6658427746
 20
47.6738051301
 30
0.0
 11
44.7546304283
 21
47.3953297442
 31
0.0
  0
LINE
  5
7A
330
1F
100
AcDbEntity
  8
0
  6
Continuous
 62
     7
370
    25
100
AcDbLine
 10
44.7546304283
 20
34.4834055159
 30
0.0
 11
53.6658427746
 21
34.2049301301
 31
0.0
  0
LINE
  5
7B
330
1F
100
AcDbEntity
  8
0
  6
Continuous
 62
     7
370
    25
100
AcDbLine
 10
44.7546304283
 20
47.3953297442
 30
0.0
 11
42.6658427746
 21
46.1893676301
 31
0.0
  0
LINE
  5
7C
330
1F
100
AcDbEntity
  8
0
  6
Continuous
 62
     7
370
    25
100
AcDbLine
 10
42.6658427746
 20
35.6893676301
 30
0.0
 11
44.7546304283
 21
34.4834055159
 31
0.0
  0
LINE
  5
7D
330
1F
100
AcDbEntity
  8
0
  6
Continuous
 62
     7
370
    25
100
AcDbLine
 10
63.1658427746
 20
37.9393676301
 30
0.0
 11
67.1658427746
 21
38.5893676301
 31
0.0
  0
LINE
  5
7E
330
1F
100
AcDbEntity
  8
0
  6
Continuous
 62
     7
370
    25
100
AcDbLine
 10
67.1658427746
 20
43.2893676301
 30
0.0
 11
63.1658427746
 21
43.9393676301
 31
0.0
  0
LINE
  5
7F
330
1F
100
AcDbEntity
  8
0
  6
Continuous
 62
     7
370
    25
100
AcDbLine
 10
75.1658427746
 20
37.9393676301
 30
0.0
 11
79.2373231559
 21
38.5274703518
 31
0.0
  0
LINE
  5
80
330
1F
100
AcDbEntity
  8
0
  6
Continuous
 62
     7
370
    25
100
AcDbLine
 10
79.2373231559
 20
43.3512649083
 30
0.0
 11
75.1658427746
 21
43.9393676301
 31
0.0
  0
LINE
  5
81
330
1F
100
AcDbEntity
  8
0
  6
Continuous
 62
     7
370
    25
100
AcDbLine
 10
63.1658427746
 20
43.9393676301
 30
0.0
 11
59.6658427746
 21
43.9393676301
 31
0.0
  0
LINE
  5
82
330
1F
100
AcDbEntity
  8
0
  6
Continuous
 62
     7
370
    25
100
AcDbLine
 10
59.6658427746
 20
37.9393676301
 30
0.0
 11
63.1658427746
 21
37.9393676301
 31
0.0
  0
LINE
  5
83
330
1F
100
AcDbEntity
  8
0
  6
Continuous
 62
     7
370
    25
100
AcDbLine
 10
71.1658427746
 20
37.9393676301
 30
0.0
 11
75.1658427746
 21
38.5893676301
 31
0.0
  0
LINE
  5
84
330
1F
100
AcDbEntity
  8
0
  6
Continuous
 62
     7
370
    25
100
AcDbLine
 10
75.1658427746
 20
43.2893676301
 30
0.0
 11
71.1658427746
 21
43.9393676301
 31
0.0
  0
LINE
  5
85
330
1F
100
AcDbEntity
  8
0
  6
Continuous
 62
     7
370
    25
100
AcDbLine
 10
67.1658427746
 20
37.9393676301
 30
0.0
 11
71.1658427746
 21
38.5893676301
 31
0.0
  0
LINE
  5
86
330
1F
100
AcDbEntity
  8
0
  6
Continuous
 62
     7
370
    25
100
AcDbLine
 10
71.1658427746
 20
43.2893676301
 30
0.0
 11
67.1658427746
 21
43.9393676301
 31
0.0
  0
ARC
  5
87
330
1F
100
AcDbEntity
  8
0
  6
Continuous
 62
     7
370
    25
100
AcDbCircle
 10
79.1658427746
 20
42.8564007299
 30
0.0
 40
0.5000000000000003
100
AcDbArc
 50
0.0
 51
81.7807907511
  0
ARC
  5
88
330
1F
100
AcDbEntity
  8
0
  6
Continuous
 62
     7
370
    25
100
AcDbCircle
 10
79.1658427746
 20
39.0223345302
 30
0.0
 40
0.5000000000000003
100
AcDbArc
 50
278.2192092489
 51
0.0
  0
LINE
  5
89
330
1F
100
AcDbEntity
  8
0
  6
Continuous
 62
     7
370
    25
100
AcDbLine
 10
56.7462275323
 20
49.0222713987
 30
0.0
 11
56.6658427746
 21
48.7222713987
 31
0.0
  0
LINE
  5
8A
330
1F
100
AcDbEntity
  8
0
  6
Continuous
 62
     7
370
    25
100
AcDbLine
 10
56.6658427746
 20
48.7222713987
 30
0.0
 11
56.5854580168
 21
49.0222713987
 31
0.0
  0
LINE
  5
8B
330
1F
100
AcDbEntity
  8
0
  6
Continuous
 62
     7
370
    25
100
AcDbLine
 10
56.6658427746
 20
33.1564638614
 30
0.0
 11
56.7462275323
 21
32.8564638614
 31
0.0
  0
LINE
  5
8C
330
1F
100
AcDbEntity
  8
0
  6
Continuous
 62
     7
370
    25
100
AcDbLine
 10
56.5854580168
 20
32.8564638614
 30
0.0
 11
56.6658427746
 21
33.1564638614
 31
0.0
  0
LINE
  5
8D
330
1F
100
AcDbEntity
  8
0
  6
Continuous
 62
     7
370
    25
100
AcDbLine
 10
56.5854580168
 20
32.8564638614
 30
0.0
 11
54.4353951242
 21
32.8564638614
 31
0.0
  0
SPLINE
  5
8E
330
1F
100
AcDbEntity
  8
0
  6
Continuous
 62
     7
370
    25
100
AcDbSpline
210
0.0
220
0.0
230
1.0
 70
     8
 71
     3
 72
    16
 73
    12
 74
     0
 42
0.000000001
 43
0.00000001
 40
0.0
 40
0.0
 40
0.0
 40
0.0
 40
0.2499999999999999
 40
0.2499999999999999
 40
0.4999999999999999
 40
0.4999999999999999
 40
0.6249999999999999
 40
0.6249999999999999
 40
0.7499999999999998
 40
0.7499999999999998
 40
1.0
 40
1.0
 40
1.0
 40
1.0
 10
54.43539512420267
 20
36.89791574573047
 30
0.0
 10
54.24490065321789
 20
36.56796964342387
 30
0.0
 10
54.08789864000479
 20
36.23561790211417
 30
0.0
 10
53.87039982916678
 20
35.56398280784043
 30
0.0
 10
53.81062046809672
 20
35.22464792406997
 30
0.0
 10
53.80996396724274
 20
34.70925215779977
 30
0.0
 10
53.82457773372623
 20
34.5366453972993
 30
0.0
 10
53.88156359160307
 20
34.19521098478076
 30
0.0
 10
53.9238778608623
 20
34.02563848203678
 30
0.0
 10
54.08727268075249
 20
33.51993998248528
 30
0.0
 10
54.24466320806592
 20
33.18682123077728
 30
0.0
 10
54.43539512420292
 20
32.85646386140304
 30
0.0
  0
LINE
  5
8F
330
1F
100
AcDbEntity
  8
0
  6
Continuous
 62
     7
370
    25
100
AcDbLine
 10
56.5854580168
 20
36.8979157457
 30
0.0
 11
54.4353951242
 21
36.8979157457
 31
0.0
  0
SPLINE
  5
90
330
1F
100
AcDbEntity
  8
0
  6
Continuous
 62
     7
370
    25
100
AcDbSpline
210
0.0
220
0.0
230
1.0
 70
     8
 71
     3
 72
     8
 73
     4
 74
     0
 42
0.000000001
 43
0.00000001
 40
0.0
 40
0.0
 40
0.0
 40
0.0
 40
1.0
 40
1.0
 40
1.0
 40
1.0
 10
56.66584277456647
 20
36.57818885354741
 30
0.0
 10
56.64084236164378
 20
36.68491536835886
 30
0.0
 10
56.61397605018356
 20
36.79148499634965
 30
0.0
 10
56.58545801683714
 20
36.89791574573044
 30
0.0
  0
SPLINE
  5
91
330
1F
100
AcDbEntity
  8
0
  6
Continuous
 62
     7
370
    25
100
AcDbSpline
210
0.0
220
0.0
230
1.0
 70
     8
 71
     3
 72
     8
 73
     4
 74
     0
 42
0.000000001
 43
0.00000001
 40
0.0
 40
0.0
 40
0.0
 40
0.0
 40
1.0
 40
1.0
 40
1.0
 40
1.0
 10
56.74622753229581
 20
36.89791574573044
 30
0.0
 10
56.71769371745772
 20
36.79142609902091
 30
0.0
 10
56.69082879565093
 20
36.68485392974412
 30
0.0
 10
56.66584277456647
 20
36.57818885354741
 30
0.0
  0
LINE
  5
92
330
1F
100
AcDbEntity
  8
0
  6
Continuous
 62
     7
370
    25
100
AcDbLine
 10
58.8962904249
 20
36.8979157457
 30
0.0
 11
56.7462275323
 21
36.8979157457
 31
0.0
  0
SPLINE
  5
93
330
1F
100
AcDbEntity
  8
0
  6
Continuous
 62
     7
370
    25
100
AcDbSpline
210
0.0
220
0.0
230
1.0
 70
     8
 71
     3
 72
    16
 73
    12
 74
     0
 42
0.000000001
 43
0.00000001
 40
0.0
 40
0.0
 40
0.0
 40
0.0
 40
0.2499999999999999
 40
0.2499999999999999
 40
0.4999999999999999
 40
0.4999999999999999
 40
0.6249999999999999
 40
0.6249999999999999
 40
0.7499999999999998
 40
0.7499999999999998
 40
1.0
 40
1.0
 40
1.0
 40
1.0
 10
58.89629042493029
 20
36.89791574573047
 30
0.0
 10
59.08678489591507
 20
36.56796964342387
 30
0.0
 10
59.24378690912816
 20
36.23561790211417
 30
0.0
 10
59.46128571996618
 20
35.56398280784043
 30
0.0
 10
59.52106508103625
 20
35.22464792406997
 30
0.0
 10
59.5217215818902
 20
34.70925215779977
 30
0.0
 10
59.50710781540673
 20
34.5366453972993
 30
0.0
 10
59.45012195752989
 20
34.19521098478076
 30
0.0
 10
59.40780768827066
 20
34.02563848203678
 30
0.0
 10
59.24441286838046
 20
33.51993998248528
 30
0.0
 10
59.08702234106704
 20
33.18682123077728
 30
0.0
 10
58.89629042493004
 20
32.85646386140304
 30
0.0
  0
LINE
  5
94
330
1F
100
AcDbEntity
  8
0
  6
Continuous
 62
     7
370
    25
100
AcDbLine
 10
58.8962904249
 20
32.8564638614
 30
0.0
 11
56.7462275323
 21
32.8564638614
 31
0.0
  0
SPLINE
  5
95
330
1F
100
AcDbEntity
  8
0
  6
Continuous
 62
     7
370
    25
100
AcDbSpline
210
0.0
220
0.0
230
1.0
 70
     8
 71
     3
 72
     8
 73
     4
 74
     0
 42
0.000000001
 43
0.00000001
 40
0.0
 40
0.0
 40
0.0
 40
0.0
 40
1.0
 40
1.0
 40
1.0
 40
1.0
 10
56.66584277456647
 20
33.17619075358608
 30
0.0
 10
56.69084318748917
 20
33.06946423877463
 30
0.0
 10
56.7177094989494
 20
32.96289461078383
 30
0.0
 10
56.74622753229581
 20
32.85646386140306
 30
0.0
  0
SPLINE
  5
96
330
1F
100
AcDbEntity
  8
0
  6
Continuous
 62
     7
370
    25
100
AcDbSpline
210
0.0
220
0.0
230
1.0
 70
     8
 71
     3
 72
     8
 73
     4
 74
     0
 42
0.000000001
 43
0.00000001
 40
0.0
 40
0.0
 40
0.0
 40
0.0
 40
1.0
 40
1.0
 40
1.0
 40
1.0
 10
56.58545801683714
 20
32.85646386140306
 30
0.0
 10
56.61399183167524
 20
32.96295350811258
 30
0.0
 10
56.64085675348203
 20
33.06952567738937
 30
0.0
 10
56.66584277456647
 20
33.17619075358608
 30
0.0
  0
SPLINE
  5
97
330
1F
100
AcDbEntity
  8
0
  6
Continuous
 62
     7
370
    25
100
AcDbSpline
210
0.0
220
0.0
230
1.0
 70
     8
 71
     3
 72
    14
 73
    10
 74
     0
 42
0.000000001
 43
0.00000001
 40
0.0
 40
0.0
 40
0.0
 40
0.0
 40
0.2500000000000001
 40
0.2500000000000001
 40
0.5000000000000001
 40
0.5000000000000001
 40
0.7500000000000002
 40
0.7500000000000002
 40
1.0
 40
1.0
 40
1.0
 40
1.0
 10
54.43539512420315
 20
36.89791574573042
 30
0.0
 10
54.24555060900492
 20
37.55555643745365
 30
0.0
 10
54.08638398359262
 20
38.22895295571449
 30
0.0
 10
53.86879771438998
 20
39.57863116959522
 30
0.0
 10
53.81010904896115
 20
40.25735475110888
 30
0.0
 10
53.81025176700581
 20
41.6239129505238
 30
0.0
 10
53.87064312701632
 20
42.31641077115923
 30
0.0
 10
54.08975180881203
 20
43.66569562796604
 30
0.0
 10
54.24680244924919
 20
44.32751532447398
 30
0.0
 10
54.43539512420317
 20
44.9808195143852
 30
0.0
  0
LINE
  5
98
330
1F
100
AcDbEntity
  8
0
  6
Continuous
 62
     7
370
    25
100
AcDbLine
 10
56.5854580168
 20
44.9808195144
 30
0.0
 11
54.4353951242
 21
44.9808195144
 31
0.0
  0
SPLINE
  5
99
330
1F
100
AcDbEntity
  8
0
  6
Continuous
 62
     7
370
    25
100
AcDbSpline
210
0.0
220
0.0
230
1.0
 70
     8
 71
     3
 72
     8
 73
     4
 74
     0
 42
0.000000001
 43
0.00000001
 40
0.0
 40
0.0
 40
0.0
 40
0.0
 40
1.0
 40
1.0
 40
1.0
 40
1.0
 10
56.66584277456647
 20
44.34136573001915
 30
0.0
 10
56.64084310257225
 20
44.55481243360946
 30
0.0
 10
56.61397686178526
 20
44.76795195774606
 30
0.0
 10
56.58545801683714
 20
44.9808195143852
 30
0.0
  0
SPLINE
  5
9A
330
1F
100
AcDbEntity
  8
0
  6
Continuous
 62
     7
370
    25
100
AcDbSpline
210
0.0
220
0.0
230
1.0
 70
     8
 71
     3
 72
     8
 73
     4
 74
     0
 42
0.000000001
 43
0.00000001
 40
0.0
 40
0.0
 40
0.0
 40
0.0
 40
1.0
 40
1.0
 40
1.0
 40
1.0
 10
56.74622753229581
 20
44.9808195143852
 30
0.0
 10
56.71769140198017
 20
44.76782293800643
 30
0.0
 10
56.69082668679676
 20
44.55467787705748
 30
0.0
 10
56.66584277456647
 20
44.34136573001915
 30
0.0
  0
LINE
  5
9B
330
1F
100
AcDbEntity
  8
0
  6
Continuous
 62
     7
370
    25
100
AcDbLine
 10
58.8962904249
 20
44.9808195144
 30
0.0
 11
56.7462275323
 21
44.9808195144
 31
0.0
  0
SPLINE
  5
9C
330
1F
100
AcDbEntity
  8
0
  6
Continuous
 62
     7
370
    25
100
AcDbSpline
210
0.0
220
0.0
230
1.0
 70
     8
 71
     3
 72
    14
 73
    10
 74
     0
 42
0.000000001
 43
0.00000001
 40
0.0
 40
0.0
 40
0.0
 40
0.0
 40
0.2500000000000001
 40
0.2500000000000001
 40
0.5000000000000001
 40
0.5000000000000001
 40
0.7500000000000002
 40
0.7500000000000002
 40
1.0
 40
1.0
 40
1.0
 40
1.0
 10
58.89629042492981
 20
36.89791574573042
 30
0.0
 10
59.08613494012804
 20
37.55555643745365
 30
0.0
 10
59.24530156554034
 20
38.22895295571449
 30
0.0
 10
59.46288783474296
 20
39.57863116959522
 30
0.0
 10
59.5215765001718
 20
40.25735475110888
 30
0.0
 10
59.52143378212715
 20
41.6239129505238
 30
0.0
 10
59.46104242211664
 20
42.31641077115923
 30
0.0
 10
59.24193374032093
 20
43.66569562796604
 30
0.0
 10
59.08488309988377
 20
44.32751532447398
 30
0.0
 10
58.89629042492979
 20
44.9808195143852
 30
0.0
  0
SPLINE
  5
9D
330
1F
100
AcDbEntity
  8
0
  6
Continuous
 62
     7
370
    25
100
AcDbSpline
210
0.0
220
0.0
230
1.0
 70
     8
 71
     3
 72
     8
 73
     4
 74
     0
 42
0.000000001
 43
0.00000001
 40
0.0
 40
0.0
 40
0.0
 40
0.0
 40
1.0
 40
1.0
 40
1.0
 40
1.0
 10
56.66584277456647
 20
37.53736953009648
 30
0.0
 10
56.6908424465607
 20
37.32392282650618
 30
0.0
 10
56.71770868734769
 20
37.11078330236958
 30
0.0
 10
56.74622753229581
 20
36.89791574573044
 30
0.0
  0
SPLINE
  5
9E
330
1F
100
AcDbEntity
  8
0
  6
Continuous
 62
     7
370
    25
100
AcDbSpline
210
0.0
220
0.0
230
1.0
 70
     8
 71
     3
 72
     8
 73
     4
 74
     0
 42
0.000000001
 43
0.00000001
 40
0.0
 40
0.0
 40
0.0
 40
0.0
 40
1.0
 40
1.0
 40
1.0
 40
1.0
 10
56.58545801683714
 20
36.89791574573044
 30
0.0
 10
56.61399414715278
 20
37.11091232210919
 30
0.0
 10
56.6408588623362
 20
37.32405738305816
 30
0.0
 10
56.66584277456647
 20
37.53736953009649
 30
0.0
  0
LINE
  5
9F
330
1F
100
AcDbEntity
  8
0
  6
Continuous
 62
     7
370
    25
100
AcDbLine
 10
56.6198091207
 20
40.3420212296
 30
0.0
 11
57.304304313
 21
39.8943048835
 31
0.0
  0
SPLINE
  5
A0
330
1F
100
AcDbEntity
  8
0
  6
Continuous
 62
     7
370
    25
100
AcDbSpline
210
0.0
220
0.0
230
1.0
 70
     8
 71
     3
 72
    19
 73
    15
 74
     0
 42
0.000000001
 43
0.00000001
 40
0.0
 40
0.0
 40
0.0
 40
0.0
 40
0.0978059775289525
 40
0.1996122522918966
 40
0.3052960258330041
 40
0.4158173591641854
 40
0.474240566618493
 40
0.5372869128296534
 40
0.6033858352934854
 40
0.6743111580696056
 40
0.749530467357482
 40
0.8286083142695116
 40
0.9120427387714447
 40
0.9999999999999999
 40
0.9999999999999999
 40
0.9999999999999999
 40
0.9999999999999999
 10
56.18411200533571
 20
40.5096894988701
 30
0.0
 10
56.19955405929904
 20
40.5091458781696
 30
0.0
 10
56.231069752404
 20
40.5080364024999
 30
0.0
 10
56.27893922646639
 20
40.50141517952692
 30
0.0
 10
56.32772803964869
 20
40.48927104762787
 30
0.0
 10
56.36908760529472
 20
40.47612844265833
 30
0.0
 10
56.40334081909992
 20
40.4630870112133
 30
0.0
 10
56.43038967720697
 20
40.45099469589658
 30
0.0
 10
56.45895413988425
 20
40.4374740139571
 30
0.0
 10
56.48849373938984
 20
40.42162589183788
 30
0.0
 10
56.51985248606276
 20
40.40482560343818
 30
0.0
 10
56.55186906977945
 20
40.38520096008984
 30
0.0
 10
56.58571283503908
 20
40.36472234320949
 30
0.0
 10
56.60824548824079
 20
40.34972023054095
 30
0.0
 10
56.61980912072033
 20
40.34202122963934
 30
0.0
  0
SPLINE
  5
A1
330
1F
100
AcDbEntity
  8
0
  6
Continuous
 62
     7
370
    25
100
AcDbSpline
210
0.0
220
0.0
230
1.0
 70
     8
 71
     3
 72
    19
 73
    15
 74
     0
 42
0.000000001
 43
0.00000001
 40
0.0
 40
0.0
 40
0.0
 40
0.0
 40
0.0843261511037433
 40
0.1670353409858406
 40
0.2495407139852792
 40
0.3327066655796642
 40
0.4158726171740492
 40
0.4977774155681174
 40
0.5803136056784763
 40
0.6645325781316563
 40
0.7495711764063215
 40
0.8324741628544073
 40
0.9156738488962566
 40
1.0
 40
1.0
 40
1.0
 40
1.0
 10
55.72738123610494
 20
40.05536257579318
 30
0.0
 10
55.72803617977009
 20
40.07554687996492
 30
0.0
 10
55.72933350849912
 20
40.11552845253474
 30
0.0
 10
55.74089036320196
 20
40.17434245028308
 30
0.0
 10
55.75962188711611
 20
40.23085538750142
 30
0.0
 10
55.78542835116365
 20
40.28467002520685
 30
0.0
 10
55.81802330459516
 20
40.3345247341887
 30
0.0
 10
55.85726900798331
 20
40.37911316761225
 30
0.0
 10
55.90229808623268
 20
40.4182801929538
 30
0.0
 10
55.95324867207388
 20
40.45070356029372
 30
0.0
 10
56.00764581331169
 20
40.47712869267762
 30
0.0
 10
56.06488342205633
 20
40.49576672067455
 30
0.0
 10
56.1238095687188
 20
40.50781998202993
 30
0.0
 10
56.16392128769465
 20
40.50906353931087
 30
0.0
 10
56.18411200533571
 20
40.5096894988701
 30
0.0
  0
SPLINE
  5
A2
330
1F
100
AcDbEntity
  8
0
  6
Continuous
 62
     7
370
    25
100
AcDbSpline
210
0.0
220
0.0
230
1.0
 70
     8
 71
     3
 72
    19
 73
    15
 74
     0
 42
0.000000001
 43
0.00000001
 40
0.0
 40
0.0
 40
0.0
 40
0.0
 40
0.0859901205637198
 40
0.1691084375726415
 40
0.2505285789581879
 40
0.332255696176845
 40
0.4135763652356403
 40
0.4941261456201216
 40
0.576305934120417
 40
0.6607126719045473
 40
0.7461272722239103
 40
0.8300149859609743
 40
0.9144197259288509
 40
1.0
 40
1.0
 40
1.0
 40
1.0
 10
56.18681633225879
 20
39.58661257579318
 30
0.0
 10
56.16583750897266
 20
39.58739537379632
 30
0.0
 10
56.12458049008758
 20
39.58893482677507
 30
0.0
 10
56.06423874094583
 20
39.60014139060834
 30
0.0
 10
56.00721384572499
 20
39.61948141590451
 30
0.0
 10
55.95328170600201
 20
39.64535605058487
 30
0.0
 10
55.9040114805363
 20
39.67892635453753
 30
0.0
 10
55.859484408506
 20
39.71870901039303
 30
0.0
 10
55.8206725241046
 20
39.76508007546749
 30
0.0
 10
55.78737742524685
 20
39.81694147270366
 30
0.0
 10
55.76092451112914
 20
39.87307161050068
 30
0.0
 10
55.74136733178808
 20
39.93192589602653
 30
0.0
 10
55.7296814201082
 20
39.99300127460824
 30
0.0
 10
55.72815149085616
 20
40.03447986012274
 30
0.0
 10
55.72738123610494
 20
40.05536257579318
 30
0.0
  0
SPLINE
  5
A3
330
1F
100
AcDbEntity
  8
0
  6
Continuous
 62
     7
370
    25
100
AcDbSpline
210
0.0
220
0.0
230
1.0
 70
     8
 71
     3
 72
    23
 73
    19
 74
     0
 42
0.000000001
 43
0.00000001
 40
0.0
 40
0.0
 40
0.0
 40
0.0
 40
0.0652308037420294
 40
0.1284048960032227
 40
0.1900670715964781
 40
0.25094336576828
 40
0.3115458328521431
 40
0.3728628021568291
 40
0.4350236738562383
 40
0.4990717247070431
 40
0.563091075049662
 40
0.625510106330375
 40
0.6866800359296492
 40
0.7472825030135124
 40
0.8085634952159588
 40
0.8707421035159856
 40
0.9343409515059125
 40
1.0
 40
1.0
 40
1.0
 40
1.0
 10
56.63122738995109
 20
40.03162459502395
 30
0.0
 10
56.63081762779576
 20
40.01637923945174
 30
0.0
 10
56.63001102318685
 20
39.9863692106849
 30
0.0
 10
56.62380365860463
 20
39.94230915261033
 30
0.0
 10
56.61402146778023
 20
39.89997103719325
 30
0.0
 10
56.5997619295167
 20
39.85953034622665
 30
0.0
 10
56.58154663479001
 20
39.8208419254297
 30
0.0
 10
56.55971569038409
 20
39.7836837556689
 30
0.0
 10
56.53314182737405
 20
39.74875432276622
 30
0.0
 10
56.50345684632382
 20
39.7156038173897
 30
0.0
 10
56.47057813868305
 20
39.68550648993558
 30
0.0
 10
56.43569185152331
 20
39.65885960898235
 30
0.0
 10
56.39883433109551
 20
39.63647669823916
 30
0.0
 10
56.36002424569551
 20
39.61831644611863
 30
0.0
 10
56.31932142016957
 20
39.60421435529096
 30
0.0
 10
56.27677793181739
 20
39.59393393598656
 30
0.0
 10
56.23236444404877
 20
39.5878569676352
 30
0.0
 10
56.20215951179184
 20
39.58703175732873
 30
0.0
 10
56.18681633225879
 20
39.58661257579318
 30
0.0
  0
SPLINE
  5
A4
330
1F
100
AcDbEntity
  8
0
  6
Continuous
 62
     7
370
    25
100
AcDbSpline
210
0.0
220
0.0
230
1.0
 70
     8
 71
     3
 72
     9
 73
     5
 74
     0
 42
0.000000001
 43
0.00000001
 40
0.0
 40
0.0
 40
0.0
 40
0.0
 40
0.5126593363417812
 40
1.0
 40
1.0
 40
1.0
 40
1.0
 10
56.61680431302801
 20
40.18697315271626
 30
0.0
 10
56.62101025330813
 20
40.16058589115197
 30
0.0
 10
56.62921441537436
 20
40.10911455396229
 30
0.0
 10
56.63056782056654
 20
40.05701488316613
 30
0.0
 10
56.63122738995109
 20
40.03162459502395
 30
0.0
  0
LINE
  5
A5
330
1F
100
AcDbEntity
  8
0
  6
Continuous
 62
     7
370
    25
100
AcDbLine
 10
57.2228740246
 20
39.7906390181
 30
0.0
 11
56.616804313
 21
40.1869731527
 31
0.0
  0
LINE
  5
A6
330
1F
100
AcDbEntity
  8
0
  6
Continuous
 62
     7
370
    25
100
AcDbLine
 10
57.304304313
 20
39.8943048835
 30
0.0
 11
57.2228740246
 21
39.7906390181
 31
0.0
  0
LINE
  5
A7
330
1F
100
AcDbEntity
  8
0
  6
Continuous
 62
     7
370
    25
100
AcDbLine
 10
57.1119966207
 20
41.2380719038
 30
0.0
 11
57.2658427746
 21
41.1500310384
 31
0.0
  0
LINE
  5
A8
330
1F
100
AcDbEntity
  8
0
  6
Continuous
 62
     7
370
    25
100
AcDbLine
 10
57.1119966207
 20
41.007302673
 30
0.0
 11
57.1119966207
 21
41.2380719038
 31
0.0
  0
LINE
  5
A9
330
1F
100
AcDbEntity
  8
0
  6
Continuous
 62
     7
370
    25
100
AcDbLine
 10
55.7658427746
 20
41.007302673
 30
0.0
 11
57.1119966207
 21
41.007302673
 31
0.0
  0
LINE
  5
AA
330
1F
100
AcDbEntity
  8
0
  6
Continuous
 62
     7
370
    25
100
AcDbLine
 10
55.7658427746
 20
40.8726872884
 30
0.0
 11
55.7658427746
 21
41.007302673
 31
0.0
  0
LINE
  5
AB
330
1F
100
AcDbEntity
  8
0
  6
Continuous
 62
     7
370
    25
100
AcDbLine
 10
57.2658427746
 20
40.8726872884
 30
0.0
 11
55.7658427746
 21
40.8726872884
 31
0.0
  0
LINE
  5
AC
330
1F
100
AcDbEntity
  8
0
  6
Continuous
 62
     7
370
    25
100
AcDbLine
 10
57.2658427746
 20
41.1500310384
 30
0.0
 11
57.2658427746
 21
40.8726872884
 31
0.0
  0
SPLINE
  5
AD
330
1F
100
AcDbEntity
  8
0
  6
Continuous
 62
     7
370
    25
100
AcDbSpline
210
0.0
220
0.0
230
1.0
 70
     8
 71
     3
 72
    19
 73
    15
 74
     0
 42
0.000000001
 43
0.00000001
 40
0.0
 40
0.0
 40
0.0
 40
0.0
 40
0.1227280999764553
 40
0.239716523588393
 40
0.3518621792202463
 40
0.4632019818032239
 40
0.5202611541541643
 40
0.5794324380306665
 40
0.6405963441586369
 40
0.70529822908802
 40
0.7732361059084537
 40
0.844648929340316
 40
0.9200459817773698
 40
1.0
 40
1.0
 40
1.0
 40
1.0
 10
57.15045815918187
 20
42.06540972467835
 30
0.0
 10
57.14986301783409
 20
42.08248957536361
 30
0.0
 10
57.14870056836276
 20
42.11585049621602
 30
0.0
 10
57.1384831614826
 20
42.16393473982325
 30
0.0
 10
57.12229473355102
 20
42.20858940885229
 30
0.0
 10
57.10274725483782
 20
42.24260725893058
 30
0.0
 10
57.08351777247503
 20
42.26776986372222
 30
0.0
 10
57.06697464882797
 20
42.28609556570707
 30
0.0
 10
57.04821813495278
 20
42.3037634196295
 30
0.0
 10
57.02673376078302
 20
42.32008012287865
 30
0.0
 10
57.00326028699033
 20
42.33602340686551
 30
0.0
 10
56.97766843042132
 20
42.35144103705978
 30
0.0
 10
56.94959332779145
 20
42.36583779882267
 30
0.0
 10
56.92985010641446
 20
42.37460134343299
 30
0.0
 10
56.91968892841263
 20
42.37911164775527
 30
0.0
  0
SPLINE
  5
AE
330
1F
100
AcDbEntity
  8
0
  6
Continuous
 62
     7
370
    25
100
AcDbSpline
210
0.0
220
0.0
230
1.0
 70
     8
 71
     3
 72
    23
 73
    19
 74
     0
 42
0.000000001
 43
0.00000001
 40
0.0
 40
0.0
 40
0.0
 40
0.0
 40
0.0552698294993248
 40
0.1099567044850938
 40
0.1632335040550556
 40
0.2180575651623568
 40
0.2732775387226747
 40
0.330881045495497
 40
0.3904799376860887
 40
0.4536559730386417
 40
0.5189026226022311
 40
0.5833461108214766
 40
0.6485466930814431
 40
0.7150552190344909
 40
0.7825206438000536
 40
0.852335294426451
 40
0.9249348997257087
 40
0.9999999999999999
 40
0.9999999999999999
 40
0.9999999999999999
 40
0.9999999999999999
 10
56.91518171687417
 20
41.76372703237065
 30
0.0
 10
56.92301505505255
 20
41.76390461639216
 30
0.0
 10
56.93859910984366
 20
41.76425791138062
 30
0.0
 10
56.96136672009904
 20
41.76871419096845
 30
0.0
 10
56.98343958556905
 20
41.77540907598215
 30
0.0
 10
57.0047175527057
 20
41.78461901290413
 30
0.0
 10
57.02507711429013
 20
41.79692388318416
 30
0.0
 10
57.0445432475171
 20
41.81169382664507
 30
0.0
 10
57.06344218462042
 20
41.82893597203039
 30
0.0
 10
57.08086977732404
 20
41.84910094238973
 30
0.0
 10
57.09730846001642
 20
41.87093167344271
 30
0.0
 10
57.11151908969342
 20
41.89463357862665
 30
0.0
 10
57.12356400991088
 20
41.91968388349034
 30
0.0
 10
57.13351568168094
 20
41.94610562357163
 30
0.0
 10
57.14099692804974
 20
41.97400464350539
 30
0.0
 10
57.14636979730345
 20
42.00324433470615
 30
0.0
 10
57.14972869039714
 20
42.0338819862847
 30
0.0
 10
57.15021231131582
 20
42.05478414704211
 30
0.0
 10
57.15045815918187
 20
42.06540972467835
 30
0.0
  0
SPLINE
  5
AF
330
1F
100
AcDbEntity
  8
0
  6
Continuous
 62
     7
370
    25
100
AcDbSpline
210
0.0
220
0.0
230
1.0
 70
     8
 71
     3
 72
    19
 73
    15
 74
     0
 42
0.000000001
 43
0.00000001
 40
0.0
 40
0.0
 40
0.0
 40
0.0
 40
0.1101423815503176
 40
0.2157418685830274
 40
0.3179605426392306
 40
0.4180517606815226
 40
0.5115631470355316
 40
0.5965727584443461
 40
0.6733290469034968
 40
0.7440491927238595
 40
0.8107168223002833
 40
0.8740854521098849
 40
0.9367096168966699
 40
1.0
 40
1.0
 40
1.0
 40
1.0
 10
56.66968892841263
 20
42.14834241698604
 30
0.0
 10
56.67000521738123
 20
42.12978528745387
 30
0.0
 10
56.67062474977319
 20
42.09343642932628
 30
0.0
 10
56.67806599688379
 20
42.04033164984767
 30
0.0
 10
56.68847532270367
 20
41.98949010021603
 30
0.0
 10
56.70405149434514
 20
41.94207229614123
 30
0.0
 10
56.72274734604514
 20
41.89899357804297
 30
0.0
 10
56.74382828416775
 20
41.86141414268997
 30
0.0
 10
56.76771204120857
 20
41.8302246079993
 30
0.0
 10
56.79408516575678
 20
41.80534704969786
 30
0.0
 10
56.82270095514829
 20
41.78708780524593
 30
0.0
 10
56.8522138825091
 20
41.7733824337905
 30
0.0
 10
56.8833106157111
 20
41.7653477897377
 30
0.0
 10
56.90452060887903
 20
41.76426918713448
 30
0.0
 10
56.91518171687417
 20
41.76372703237065
 30
0.0
  0
LINE
  5
B0
330
1F
100
AcDbEntity
  8
0
  6
Continuous
 62
     7
370
    25
100
AcDbLine
 10
56.5158427746
 20
42.148342417
 30
0.0
 11
56.6696889284
 21
42.148342417
 31
0.0
  0
SPLINE
  5
B1
330
1F
100
AcDbEntity
  8
0
  6
Continuous
 62
     7
370
    25
100
AcDbSpline
210
0.0
220
0.0
230
1.0
 70
     8
 71
     3
 72
    23
 73
    19
 74
     0
 42
0.000000001
 43
0.00000001
 40
0.0
 40
0.0
 40
0.0
 40
0.0
 40
0.0669051223273616
 40
0.1334773340846825
 40
0.2010229080576287
 40
0.2712178684297488
 40
0.3428591616573978
 40
0.4138109980627169
 40
0.4855518488903453
 40
0.5598002749200529
 40
0.5998999649035781
 40
0.6436094423977958
 40
0.6919106424505659
 40
0.7447030291556902
 40
0.8015038302285953
 40
0.8628660266331954
 40
0.9293326711591618
 40
1.0
 40
1.0
 40
1.0
 40
1.0
 10
56.19853508225879
 20
41.68680395544758
 30
0.0
 10
56.21251138614133
 20
41.6874597873126
 30
0.0
 10
56.24039444976494
 20
41.68876818771462
 30
0.0
 10
56.28141603072497
 20
41.69875775333969
 30
0.0
 10
56.32094127309698
 20
41.71518801478945
 30
0.0
 10
56.35829013930103
 20
41.73819318518272
 30
0.0
 10
56.39292220731636
 20
41.76618401885053
 30
0.0
 10
56.4237016262729
 20
41.79888956611698
 30
0.0
 10
56.44935449706496
 20
41.83639005360581
 30
0.0
 10
56.46701297130071
 20
41.87112691479052
 30
0.0
 10
56.47878160176638
 20
41.9019699165455
 30
0.0
 10
56.48703354513135
 20
41.92831229052762
 30
0.0
 10
56.49363000243532
 20
41.95782946883477
 30
0.0
 10
56.50001076315896
 20
41.99016710417163
 30
0.0
 10
56.50535998802707
 20
42.0254615803666
 30
0.0
 10
56.50984017351634
 20
42.06374469551665
 30
0.0
 10
56.51341939436038
 20
42.10503185121074
 30
0.0
 10
56.51501865169472
 20
42.13361372201921
 30
0.0
 10
56.51584277456648
 20
42.14834241698604
 30
0.0
  0
SPLINE
  5
B2
330
1F
100
AcDbEntity
  8
0
  6
Continuous
 62
     7
370
    25
100
AcDbSpline
210
0.0
220
0.0
230
1.0
 70
     8
 71
     3
 72
    23
 73
    19
 74
     0
 42
0.000000001
 43
0.00000001
 40
0.0
 40
0.0
 40
0.0
 40
0.0
 40
0.0760618905628339
 40
0.1487324608035359
 40
0.2183745247439722
 40
0.2857225935927383
 40
0.3510576941824569
 40
0.414934915729319
 40
0.4784859417740854
 40
0.542169035281216
 40
0.6047501165431387
 40
0.6641185017301124
 40
0.7214996756099116
 40
0.7776159163852547
 40
0.832666108697549
 40
0.8878580281135741
 40
0.9434676608977686
 40
1.0
 40
1.0
 40
1.0
 40
1.0
 10
55.88122738995109
 20
42.06871501313989
 30
0.0
 10
55.88149092006035
 20
42.05467760770409
 30
0.0
 10
55.88200623043925
 20
42.027228673181
 30
0.0
 10
55.88675895946227
 20
41.9871792453173
 30
0.0
 10
55.89365056458815
 20
41.9490665682024
 30
0.0
 10
55.90443037495019
 20
41.91327958159074
 30
0.0
 10
55.91736253827456
 20
41.87933131241421
 30
0.0
 10
55.93429311354726
 20
41.84797958412014
 30
0.0
 10
55.95341346118304
 20
41.81830269463104
 30
0.0
 10
55.97565410289899
 20
41.79117003965674
 30
0.0
 10
55.99969382922372
 20
41.76670862448587
 30
0.0
 10
56.02519783648582
 20
41.74557125913307
 30
0.0
 10
56.05137533448876
 20
41.72726388326954
 30
0.0
 10
56.07883699134741
 20
41.71254780828852
 30
0.0
 10
56.10731343028431
 20
41.70090670227172
 30
0.0
 10
56.13691123886264
 20
41.69298670688881
 30
0.0
 10
56.16738118501451
 20
41.68747854829608
 30
0.0
 10
56.18809364234392
 20
41.68703004981514
 30
0.0
 10
56.19853508225879
 20
41.68680395544758
 30
0.0
  0
SPLINE
  5
B3
330
1F
100
AcDbEntity
  8
0
  6
Continuous
 62
     7
370
    25
100
AcDbSpline
210
0.0
220
0.0
230
1.0
 70
     8
 71
     3
 72
    15
 73
    11
 74
     0
 42
0.000000001
 43
0.00000001
 40
0.0
 40
0.0
 40
0.0
 40
0.0
 40
0.1182713048357256
 40
0.2361775330837632
 40
0.355662932948509
 40
0.4759041646706825
 40
0.6001273417110832
 40
0.7286081161551193
 40
0.8613134756739422
 40
1.0
 40
1.0
 40
1.0
 40
1.0
 10
55.9623571976434
 20
42.31931597467835
 30
0.0
 10
55.95588219740676
 20
42.31091744188186
 30
0.0
 10
55.94295218378483
 20
42.29414630064727
 30
0.0
 10
55.92645148584008
 20
42.26681705874793
 30
0.0
 10
55.91215390355375
 20
42.2380749647112
 30
0.0
 10
55.90123231967534
 20
42.20729724718795
 30
0.0
 10
55.89198475076569
 20
42.1751480598505
 30
0.0
 10
55.88593309970891
 20
42.14110776046544
 30
0.0
 10
55.88178102627611
 20
42.10547666741755
 30
0.0
 10
55.88141462706508
 20
42.08114762592481
 30
0.0
 10
55.88122738995109
 20
42.06871501313989
 30
0.0
  0
SPLINE
  5
B4
330
1F
100
AcDbEntity
  8
0
  6
Continuous
 62
     7
370
    25
100
AcDbSpline
210
0.0
220
0.0
230
1.0
 70
     8
 71
     3
 72
    15
 73
    11
 74
     0
 42
0.000000001
 43
0.00000001
 40
0.0
 40
0.0
 40
0.0
 40
0.0
 40
0.1497703860319681
 40
0.2913164099952446
 40
0.4259663731047426
 40
0.5521595739695285
 40
0.6715274135235928
 40
0.7861216286916589
 40
0.8953250730704446
 40
1.0
 40
1.0
 40
1.0
 40
1.0
 10
56.16968892841263
 20
42.43680395544758
 30
0.0
 10
56.1581393512975
 20
42.4332968305446
 30
0.0
 10
56.13567442060403
 20
42.42647516797693
 30
0.0
 10
56.10334286102908
 20
42.41486332596189
 30
0.0
 10
56.0737036953613
 20
42.40163406650311
 30
0.0
 10
56.04653950022789
 20
42.38744211280195
 30
0.0
 10
56.02158275631466
 20
42.3725370645065
 30
0.0
 10
55.9994933838715
 20
42.35585923944803
 30
0.0
 10
55.97930115435301
 20
42.33864389152776
 30
0.0
 10
55.96792489209292
 20
42.32566702580575
 30
0.0
 10
55.9623571976434
 20
42.31931597467835
 30
0.0
  0
LINE
  5
B5
330
1F
100
AcDbEntity
  8
0
  6
Continuous
 62
     7
370
    25
100
AcDbLine
 10
56.1696889284
 20
42.5714193401
 30
0.0
 11
56.1696889284
 21
42.4368039554
 31
0.0
  0
SPLINE
  5
B6
330
1F
100
AcDbEntity
  8
0
  6
Continuous
 62
     7
370
    25
100
AcDbSpline
210
0.0
220
0.0
230
1.0
 70
     8
 71
     3
 72
    23
 73
    19
 74
     0
 42
0.000000001
 43
0.00000001
 40
0.0
 40
0.0
 40
0.0
 40
0.0
 40
0.0655411703374033
 40
0.1289631677825933
 40
0.1903771361885609
 40
0.2500923616690527
 40
0.308548432459201
 40
0.3663979630552958
 40
0.42454218926668
 40
0.4831699964229055
 40
0.5422433998311199
 40
0.6017393520173299
 40
0.6625060022496068
 40
0.7248555134488469
 40
0.7891278292811811
 40
0.8563463998785099
 40
0.9262952349869055
 40
1.0
 40
1.0
 40
1.0
 40
1.0
 10
55.72738123610494
 20
42.07111885929373
 30
0.0
 10
55.72775332750143
 20
42.08715570227222
 30
0.0
 10
55.72848547929168
 20
42.11871086158797
 30
0.0
 10
55.73349059409021
 20
42.16510093232496
 30
0.0
 10
55.74263202490641
 20
42.20938166062404
 30
0.0
 10
55.75493344149188
 20
42.25161291684834
 30
0.0
 10
55.77052990238352
 20
42.29183221815985
 30
0.0
 10
55.78995220153551
 20
42.32991683466458
 30
0.0
 10
55.81279998812916
 20
42.36610107474463
 30
0.0
 10
55.83934295433198
 20
42.40004348237802
 30
0.0
 10
55.86903495708487
 20
42.43174001139498
 30
0.0
 10
55.90240310421387
 20
42.46034832177932
 30
0.0
 10
55.93883056303718
 20
42.48634537589736
 30
0.0
 10
55.97874044426521
 20
42.50903507820229
 30
0.0
 10
56.02161698309854
 20
42.52945091503765
 30
0.0
 10
56.06800919669067
 20
42.54624275360079
 30
0.0
 10
56.11750234897167
 20
42.56102228301634
 30
0.0
 10
56.15199280904704
 20
42.56789376769322
 30
0.0
 10
56.16968892841263
 20
42.57141934006296
 30
0.0
  0
SPLINE
  5
B7
330
1F
100
AcDbEntity
  8
0
  6
Continuous
 62
     7
370
    25
100
AcDbSpline
210
0.0
220
0.0
230
1.0
 70
     8
 71
     3
 72
    19
 73
    15
 74
     0
 42
0.000000001
 43
0.00000001
 40
0.0
 40
0.0
 40
0.0
 40
0.0
 40
0.079641704194991
 40
0.1589086132578561
 40
0.2395997983184508
 40
0.3224093988203484
 40
0.405827748173513
 40
0.4876442139503137
 40
0.5697199979738974
 40
0.6530646649976934
 40
0.7374573001733065
 40
0.8224924079539125
 40
0.9097550737466981
 40
1.0
 40
1.0
 40
1.0
 40
1.0
 10
56.21145575533571
 20
41.55218857083219
 30
0.0
 10
56.19045242433239
 20
41.5529593415437
 30
0.0
 10
56.14854460433695
 20
41.55449725570745
 30
0.0
 10
56.08661433829429
 20
41.5681878854105
 30
0.0
 10
56.02618116423203
 20
41.58953448971072
 30
0.0
 10
55.96814050530703
 20
41.61931843341115
 30
0.0
 10
55.9139491149474
 20
41.6561689958008
 30
0.0
 10
55.86568253091086
 20
41.7002531413402
 30
0.0
 10
55.82391442466351
 20
41.75049919148277
 30
0.0
 10
55.78912871840696
 20
41.80657829585363
 30
0.0
 10
55.76130165432964
 20
41.86730887500192
 30
0.0
 10
55.74199270868568
 20
41.93227129412162
 30
0.0
 10
55.72941547385794
 20
42.00052092195812
 30
0.0
 10
55.72806686788599
 20
42.04732410401392
 30
0.0
 10
55.72738123610494
 20
42.07111885929373
 30
0.0
  0
SPLINE
  5
B8
330
1F
100
AcDbEntity
  8
0
  6
Continuous
 62
     7
370
    25
100
AcDbSpline
210
0.0
220
0.0
230
1.0
 70
     8
 71
     3
 72
    15
 73
    11
 74
     0
 42
0.000000001
 43
0.00000001
 40
0.0
 40
0.0
 40
0.0
 40
0.0
 40
0.1281455049994643
 40
0.2541925386280419
 40
0.3781411397135888
 40
0.5013808330744057
 40
0.6239569784447038
 40
0.7470758858273289
 40
0.8728647202442611
 40
1.0
 40
1.0
 40
1.0
 40
1.0
 10
56.4779821976434
 20
41.64173184006297
 30
0.0
 10
56.4681013572184
 20
41.6345111838754
 30
0.0
 10
56.44850148197174
 20
41.62018811474487
 30
0.0
 10
56.41697048540615
 20
41.60255866608095
 30
0.0
 10
56.38519438617065
 20
41.58638245865985
 30
0.0
 10
56.35192378902681
 20
41.57447723824975
 30
0.0
 10
56.31822740440629
 20
41.56420350481169
 30
0.0
 10
56.28338365804038
 20
41.55744373029935
 30
0.0
 10
56.24772359501281
 20
41.55310422545366
 30
0.0
 10
56.22358786420381
 20
41.55249487034305
 30
0.0
 10
56.21145575533571
 20
41.55218857083219
 30
0.0
  0
SPLINE
  5
B9
330
1F
100
AcDbEntity
  8
0
  6
Continuous
 62
     7
370
    25
100
AcDbSpline
210
0.0
220
0.0
230
1.0
 70
     8
 71
     3
 72
    11
 73
     7
 74
     0
 42
0.000000001
 43
0.00000001
 40
0.0
 40
0.0
 40
0.0
 40
0.0
 40
0.253879600326656
 40
0.5030089172783633
 40
0.7502910806899731
 40
1.0
 40
1.0
 40
1.0
 40
1.0
 10
56.60598700533571
 20
41.80429193621681
 30
0.0
 10
56.59828207467507
 20
41.78833546997109
 30
0.0
 10
56.58301637855642
 20
41.75672109528514
 30
0.0
 10
56.55307819676332
 20
41.71362801119962
 30
0.0
 10
56.5185111907545
 20
41.67450892176092
 30
0.0
 10
56.49153576807726
 20
41.65269304218786
 30
0.0
 10
56.4779821976434
 20
41.64173184006297
 30
0.0
  0
SPLINE
  5
BA
330
1F
100
AcDbEntity
  8
0
  6
Continuous
 62
     7
370
    25
100
AcDbSpline
210
0.0
220
0.0
230
1.0
 70
     8
 71
     3
 72
    15
 73
    11
 74
     0
 42
0.000000001
 43
0.00000001
 40
0.0
 40
0.0
 40
0.0
 40
0.0
 40
0.1280675485958904
 40
0.2506083188676684
 40
0.3706301659145029
 40
0.4900722467299488
 40
0.6103747641546199
 40
0.7343130699115256
 40
0.8632165042449895
 40
1.0
 40
1.0
 40
1.0
 40
1.0
 10
56.91458075533571
 20
41.62911164775527
 30
0.0
 10
56.89872070046188
 20
41.62961032963258
 30
0.0
 10
56.86768503426341
 20
41.63058617268021
 30
0.0
 10
56.8223758212042
 20
41.63887204649264
 30
0.0
 10
56.77967227822611
 20
41.65281615915387
 30
0.0
 10
56.73939463731605
 20
41.67213177168724
 30
0.0
 10
56.70179827739186
 20
41.69713529321879
 30
0.0
 10
56.66679860988021
 20
41.72742359188607
 30
0.0
 10
56.63424039925382
 20
41.76321044693272
 30
0.0
 10
56.61558919655004
 20
41.79032999179984
 30
0.0
 10
56.60598700533571
 20
41.80429193621681
 30
0.0
  0
SPLINE
  5
BB
330
1F
100
AcDbEntity
  8
0
  6
Continuous
 62
     7
370
    25
100
AcDbSpline
210
0.0
220
0.0
230
1.0
 70
     8
 71
     3
 72
    19
 73
    15
 74
     0
 42
0.000000001
 43
0.00000001
 40
0.0
 40
0.0
 40
0.0
 40
0.0
 40
0.0902542493426766
 40
0.1785397915286843
 40
0.2660930338538198
 40
0.3546309779571733
 40
0.4418861533505626
 40
0.5257469151636484
 40
0.6081136336036366
 40
0.6901972728278825
 40
0.770821484330335
 40
0.8483261812554109
 40
0.9240117400247433
 40
1.0
 40
1.0
 40
1.0
 40
1.0
 10
57.30430431302801
 20
42.06721260929373
 30
0.0
 10
57.3037132143516
 20
42.04763429126156
 30
0.0
 10
57.30254391057669
 20
42.00890471514293
 30
0.0
 10
57.2918662949428
 20
41.95200626644986
 30
0.0
 10
57.27496980964814
 20
41.89713762969181
 30
0.0
 10
57.25162392658942
 20
41.84489938062767
 30
0.0
 10
57.22282936380567
 20
41.79637719522927
 30
0.0
 10
57.18855876227934
 20
41.75320454376622
 30
0.0
 10
57.14947334735619
 20
41.71596661056452
 30
0.0
 10
57.10630224836252
 20
41.6847261629959
 30
0.0
 10
57.06016417291097
 20
41.66026544911575
 30
0.0
 10
57.01267839127642
 20
41.64222843191015
 30
0.0
 10
56.96395754639546
 20
41.63124771148216
 30
0.0
 10
56.93106156960609
 20
41.62982461570634
 30
0.0
 10
56.91458075533571
 20
41.62911164775527
 30
0.0
  0
SPLINE
  5
BC
330
1F
100
AcDbEntity
  8
0
  6
Continuous
 62
     7
370
    25
100
AcDbSpline
210
0.0
220
0.0
230
1.0
 70
     8
 71
     3
 72
    23
 73
    19
 74
     0
 42
0.000000001
 43
0.00000001
 40
0.0
 40
0.0
 40
0.0
 40
0.0
 40
0.0726253460834355
 40
0.1419766113262345
 40
0.2089849284189386
 40
0.2739568703644447
 40
0.336889347396841
 40
0.3987449534945902
 40
0.4601158852788617
 40
0.5208249225900291
 40
0.5809944586324857
 40
0.6401519276014648
 40
0.6986224507562546
 40
0.7572710809271643
 40
0.8164266940046602
 40
0.8762540482034705
 40
0.9371652930625374
 40
1.0
 40
1.0
 40
1.0
 40
1.0
 10
56.91968892841263
 20
42.51372703237065
 30
0.0
 10
56.93478856440208
 20
42.5100800820788
 30
0.0
 10
56.96430711771236
 20
42.50295059255433
 30
0.0
 10
57.00648165807549
 20
42.4880802039248
 30
0.0
 10
57.04639173867152
 20
42.4718805231271
 30
0.0
 10
57.08329005596954
 20
42.45242804974221
 30
0.0
 10
57.11791815714069
 20
42.43121001221673
 30
0.0
 10
57.14949063905561
 20
42.40690027441565
 30
0.0
 10
57.17881048139867
 20
42.38062039331597
 30
0.0
 10
57.20483044035176
 20
42.35155255790092
 30
0.0
 10
57.22839232429748
 20
42.32106884576915
 30
0.0
 10
57.24848163458707
 20
42.28873972301883
 30
0.0
 10
57.26576341438614
 20
42.25521562573143
 30
0.0
 10
57.28000065661844
 20
42.22026428303918
 30
0.0
 10
57.29072588104676
 20
42.18378163802831
 30
0.0
 10
57.2985073691571
 20
42.14609751374797
 30
0.0
 10
57.30356070382044
 20
42.10711315655598
 30
0.0
 10
57.3040538880003
 20
42.08064990344243
 30
0.0
 10
57.30430431302801
 20
42.06721260929373
 30
0.0
  0
LINE
  5
BD
330
1F
100
AcDbEntity
  8
0
  6
Continuous
 62
     7
370
    25
100
AcDbLine
 10
56.9196889284
 20
42.3791116478
 30
0.0
 11
56.9196889284
 21
42.5137270324
 31
0.0
  0
LINE
  5
BE
330
1F
100
AcDbEntity
  8
0
  6
Continuous
 62
     7
370
    25
100
AcDbLine
 10
56.6658427746
 20
36.5781888535
 30
0.0
 11
56.6658427746
 21
37.5373695301
 31
0.0
  0
SPLINE
  5
BF
330
1F
100
AcDbEntity
  8
0
  6
Continuous
 62
     7
370
    25
100
AcDbSpline
210
0.0
220
0.0
230
1.0
 70
     8
 71
     3
 72
    16
 73
    12
 74
     0
 42
0.000000001
 43
0.00000001
 40
0.0
 40
0.0
 40
0.0
 40
0.0
 40
0.2500000000000001
 40
0.2500000000000001
 40
0.5000000000000001
 40
0.5000000000000001
 40
0.625
 40
0.625
 40
0.7499999999999999
 40
0.7499999999999999
 40
1.0
 40
1.0
 40
1.0
 40
1.0
 10
54.43539512420267
 20
49.02227139871262
 30
0.0
 10
54.24490065321789
 20
48.69232529640602
 30
0.0
 10
54.08789864000479
 20
48.35997355509632
 30
0.0
 10
53.87039982916678
 20
47.68833846082258
 30
0.0
 10
53.81062046809672
 20
47.34900357705212
 30
0.0
 10
53.80996396724275
 20
46.83360781078192
 30
0.0
 10
53.82457773372623
 20
46.66100105028144
 30
0.0
 10
53.88156359160307
 20
46.3195666377629
 30
0.0
 10
53.92387786086231
 20
46.14999413501892
 30
0.0
 10
54.08727268075249
 20
45.64429563546743
 30
0.0
 10
54.24466320806592
 20
45.31117688375943
 30
0.0
 10
54.43539512420292
 20
44.98081951438518
 30
0.0
  0
LINE
  5
C0
330
1F
100
AcDbEntity
  8
0
  6
Continuous
 62
     7
370
    25
100
AcDbLine
 10
56.5854580168
 20
49.0222713987
 30
0.0
 11
54.4353951242
 21
49.0222713987
 31
0.0
  0
SPLINE
  5
C1
330
1F
100
AcDbEntity
  8
0
  6
Continuous
 62
     7
370
    25
100
AcDbSpline
210
0.0
220
0.0
230
1.0
 70
     8
 71
     3
 72
     8
 73
     4
 74
     0
 42
0.000000001
 43
0.00000001
 40
0.0
 40
0.0
 40
0.0
 40
0.0
 40
1.0
 40
1.0
 40
1.0
 40
1.0
 10
56.66584277456647
 20
48.70254450652956
 30
0.0
 10
56.64084236164378
 20
48.809271021341
 30
0.0
 10
56.61397605018356
 20
48.9158406493318
 30
0.0
 10
56.58545801683714
 20
49.02227139871258
 30
0.0
  0
SPLINE
  5
C2
330
1F
100
AcDbEntity
  8
0
  6
Continuous
 62
     7
370
    25
100
AcDbSpline
210
0.0
220
0.0
230
1.0
 70
     8
 71
     3
 72
     8
 73
     4
 74
     0
 42
0.000000001
 43
0.00000001
 40
0.0
 40
0.0
 40
0.0
 40
0.0
 40
1.0
 40
1.0
 40
1.0
 40
1.0
 10
56.74622753229581
 20
49.02227139871258
 30
0.0
 10
56.71769371745772
 20
48.91578175200305
 30
0.0
 10
56.69082879565093
 20
48.80920958272626
 30
0.0
 10
56.66584277456647
 20
48.70254450652956
 30
0.0
  0
LINE
  5
C3
330
1F
100
AcDbEntity
  8
0
  6
Continuous
 62
     7
370
    25
100
AcDbLine
 10
58.8962904249
 20
49.0222713987
 30
0.0
 11
56.7462275323
 21
49.0222713987
 31
0.0
  0
SPLINE
  5
C4
330
1F
100
AcDbEntity
  8
0
  6
Continuous
 62
     7
370
    25
100
AcDbSpline
210
0.0
220
0.0
230
1.0
 70
     8
 71
     3
 72
    16
 73
    12
 74
     0
 42
0.000000001
 43
0.00000001
 40
0.0
 40
0.0
 40
0.0
 40
0.0
 40
0.2500000000000001
 40
0.2500000000000001
 40
0.5000000000000001
 40
0.5000000000000001
 40
0.625
 40
0.625
 40
0.7499999999999999
 40
0.7499999999999999
 40
1.0
 40
1.0
 40
1.0
 40
1.0
 10
58.89629042493029
 20
49.02227139871262
 30
0.0
 10
59.08678489591507
 20
48.69232529640602
 30
0.0
 10
59.24378690912816
 20
48.35997355509632
 30
0.0
 10
59.46128571996618
 20
47.68833846082258
 30
0.0
 10
59.52106508103624
 20
47.34900357705212
 30
0.0
 10
59.5217215818902
 20
46.83360781078192
 30
0.0
 10
59.50710781540673
 20
46.66100105028144
 30
0.0
 10
59.45012195752989
 20
46.3195666377629
 30
0.0
 10
59.40780768827065
 20
46.14999413501892
 30
0.0
 10
59.24441286838046
 20
45.64429563546743
 30
0.0
 10
59.08702234106704
 20
45.31117688375943
 30
0.0
 10
58.89629042493004
 20
44.98081951438518
 30
0.0
  0
SPLINE
  5
C5
330
1F
100
AcDbEntity
  8
0
  6
Continuous
 62
     7
370
    25
100
AcDbSpline
210
0.0
220
0.0
230
1.0
 70
     8
 71
     3
 72
     8
 73
     4
 74
     0
 42
0.000000001
 43
0.00000001
 40
0.0
 40
0.0
 40
0.0
 40
0.0
 40
1.0
 40
1.0
 40
1.0
 40
1.0
 10
56.66584277456647
 20
45.30054640656823
 30
0.0
 10
56.69084318748917
 20
45.19381989175677
 30
0.0
 10
56.7177094989494
 20
45.08725026376597
 30
0.0
 10
56.74622753229581
 20
44.9808195143852
 30
0.0
  0
SPLINE
  5
C6
330
1F
100
AcDbEntity
  8
0
  6
Continuous
 62
     7
370
    25
100
AcDbSpline
210
0.0
220
0.0
230
1.0
 70
     8
 71
     3
 72
     8
 73
     4
 74
     0
 42
0.000000001
 43
0.00000001
 40
0.0
 40
0.0
 40
0.0
 40
0.0
 40
1.0
 40
1.0
 40
1.0
 40
1.0
 10
56.58545801683714
 20
44.9808195143852
 30
0.0
 10
56.61399183167524
 20
45.08730916109473
 30
0.0
 10
56.64085675348203
 20
45.19388133037151
 30
0.0
 10
56.66584277456647
 20
45.30054640656823
 30
0.0
  0
LINE
  5
C7
330
1F
100
AcDbEntity
  8
0
  6
Continuous
 62
     7
370
    25
100
AcDbLine
 10
56.6658427746
 20
44.34136573
 30
0.0
 11
56.6658427746
 21
45.3005464066
 31
0.0
  0
LINE
  5
C8
330
1F
100
AcDbEntity
  8
0
  6
Continuous
 62
     7
370
    25
100
AcDbLine
 10
59.6658427746
 20
47.6893676301
 30
0.0
 11
59.6658427746
 21
34.1893676301
 31
0.0
  0
SPLINE
  5
C9
330
1F
100
AcDbEntity
  8
0
  6
Continuous
 62
     7
370
    25
100
AcDbSpline
210
0.0
220
0.0
230
1.0
 70
     8
 71
     3
 72
    23
 73
    19
 74
     0
 42
0.000000001
 43
0.00000001
 40
0.0
 40
0.0
 40
0.0
 40
0.0
 40
0.0611415679303346
 40
0.1200010135310723
 40
0.1782359705414083
 40
0.2364955434070171
 40
0.2948872487049731
 40
0.3546771928192958
 40
0.4166948132897783
 40
0.4806333779628393
 40
0.5458046334786407
 40
0.6097347883178743
 40
0.6729516883751544
 40
0.7360010960706834
 40
0.7998274385165249
 40
0.864767276939387
 40
0.9310835057306723
 40
1.0
 40
1.0
 40
1.0
 40
1.0
 10
56.17870335148956
 20
39.72122796040856
 30
0.0
 10
56.1889450619397
 20
39.72146105145161
 30
0.0
 10
56.20904620876848
 20
39.72191853336378
 30
0.0
 10
56.23846682237153
 20
39.72719310841997
 30
0.0
 10
56.26699163110506
 20
39.73431729986178
 30
0.0
 10
56.29397806762984
 20
39.74583064619912
 30
0.0
 10
56.32017241546021
 20
39.75954398146278
 30
0.0
 10
56.34482602057128
 20
39.77701386975815
 30
0.0
 10
56.36863732401528
 20
39.79704352429612
 30
0.0
 10
56.39072973774541
 20
39.82023980776098
 30
0.0
 10
56.41093725740995
 20
39.84547528761054
 30
0.0
 10
56.42877377994567
 20
39.87231138136377
 30
0.0
 10
56.44382745459128
 20
39.90038600541781
 30
0.0
 10
56.45638761105996
 20
39.92967203995318
 30
0.0
 10
56.46545167961537
 20
39.96050468785407
 30
0.0
 10
56.47258878153428
 20
39.99238626620549
 30
0.0
 10
56.47638678974457
 20
40.02572451185095
 30
0.0
 10
56.47704553186962
 20
40.04834305843811
 30
0.0
 10
56.47738123610494
 20
40.05986978733164
 30
0.0
  0
SPLINE
  5
CA
330
1F
100
AcDbEntity
  8
0
  6
Continuous
 62
     7
370
    25
100
AcDbSpline
210
0.0
220
0.0
230
1.0
 70
     8
 71
     3
 72
    23
 73
    19
 74
     0
 42
0.000000001
 43
0.00000001
 40
0.0
 40
0.0
 40
0.0
 40
0.0
 40
0.0679503475997537
 40
0.1332598223836998
 40
0.1978002967596474
 40
0.2608458295516822
 40
0.3233192927503671
 40
0.3862817224595722
 40
0.450061516233313
 40
0.5152075844858154
 40
0.5796407692199316
 40
0.6418172023841522
 40
0.7016924412115348
 40
0.7607690981778945
 40
0.8192540511346832
 40
0.8787376269055537
 40
0.9381582970160912
 40
1.0
 40
1.0
 40
1.0
 40
1.0
 10
55.88122738995109
 20
40.04815103733164
 30
0.0
 10
55.88155697899222
 20
40.03702294830826
 30
0.0
 10
55.882203347681
 20
40.01519926058467
 30
0.0
 10
55.88609500167922
 20
39.98298232249996
 30
0.0
 10
55.89297849278985
 20
39.95209065648024
 30
0.0
 10
55.90276033001005
 20
39.92250277763695
 30
0.0
 10
55.91467937184611
 20
39.89397216817619
 30
0.0
 10
55.92988773187391
 20
39.86690361395175
 30
0.0
 10
55.94766498338151
 20
39.84093167002065
 30
0.0
 10
55.96800353659972
 20
39.81662165731551
 30
0.0
 10
55.98986131006833
 20
39.79396997155217
 30
0.0
 10
56.01386991153687
 20
39.77501992048135
 30
0.0
 10
56.03818503388193
 20
39.75791763868604
 30
0.0
 10
56.0642834558958
 20
39.74496325804395
 30
0.0
 10
56.09121985537467
 20
39.73410308838931
 30
0.0
 10
56.11940481611862
 20
39.72680233882202
 30
0.0
 10
56.14869303593407
 20
39.72202277316405
 30
0.0
 10
56.16856764582541
 20
39.72149640104301
 30
0.0
 10
56.17870335148956
 20
39.72122796040856
 30
0.0
  0
SPLINE
  5
CB
330
1F
100
AcDbEntity
  8
0
  6
Continuous
 62
     7
370
    25
100
AcDbSpline
210
0.0
220
0.0
230
1.0
 70
     8
 71
     3
 72
    23
 73
    19
 74
     0
 42
0.000000001
 43
0.00000001
 40
0.0
 40
0.0
 40
0.0
 40
0.0
 40
0.0618526459466917
 40
0.1212838306153701
 40
0.1807779320756125
 40
0.2392732340142805
 40
0.2986414352139417
 40
0.3581858222417117
 40
0.4207600867589709
 40
0.4852046730216432
 40
0.5503622689482871
 40
0.613649924530912
 40
0.6766234955168249
 40
0.7391080134690126
 40
0.8021647022429448
 40
0.8667165971324778
 40
0.9320376285055445
 40
1.0
 40
1.0
 40
1.0
 40
1.0
 10
56.17870335148956
 20
40.37507411425472
 30
0.0
 10
56.16856803163265
 20
40.37480498194726
 30
0.0
 10
56.14869417825187
 20
40.37427725355842
 30
0.0
 10
56.11940045283836
 20
40.36950755830522
 30
0.0
 10
56.0912361425874
 20
40.36216978665195
 30
0.0
 10
56.0641806478865
 20
40.35142923323016
 30
0.0
 10
56.03838155222309
 20
40.33795743877251
 30
0.0
 10
56.01365559708286
 20
40.32137891024059
 30
0.0
 10
55.98998571604278
 20
40.30197436215256
 30
0.0
 10
55.96796877949177
 20
40.27941696000722
 30
0.0
 10
55.94777431025236
 20
40.25509098877267
 30
0.0
 10
55.92979311693034
 20
40.22936466296754
 30
0.0
 10
55.91469372275638
 20
40.2023197823203
 30
0.0
 10
55.90275646150431
 20
40.17380202614921
 30
0.0
 10
55.89297955996201
 20
40.14421066532285
 30
0.0
 10
55.88609471084819
 20
40.11331995733649
 30
0.0
 10
55.88220342420244
 20
40.08110276009487
 30
0.0
 10
55.88155700483414
 20
40.05927910812427
 30
0.0
 10
55.88122738995109
 20
40.04815103733164
 30
0.0
  0
SPLINE
  5
CC
330
1F
100
AcDbEntity
  8
0
  6
Continuous
 62
     7
370
    25
100
AcDbSpline
210
0.0
220
0.0
230
1.0
 70
     8
 71
     3
 72
    23
 73
    19
 74
     0
 42
0.000000001
 43
0.00000001
 40
0.0
 40
0.0
 40
0.0
 40
0.0
 40
0.0705921865358071
 40
0.1385012886049299
 40
0.2037899961427012
 40
0.266787572669601
 40
0.3290979656467183
 40
0.3911745246039658
 40
0.4531677986176573
 40
0.5157967602265844
 40
0.5779688050530403
 40
0.6389663383752914
 40
0.698381066162843
 40
0.7573204555574266
 40
0.8164122397216688
 40
0.876279358230831
 40
0.936823465650193
 40
1.0
 40
1.0
 40
1.0
 40
1.0
 10
56.47738123610494
 20
40.05986978733164
 30
0.0
 10
56.47704337165034
 20
40.07129610516946
 30
0.0
 10
56.47638048437299
 20
40.09371444666316
 30
0.0
 10
56.47263649225403
 20
40.12656390287838
 30
0.0
 10
56.46554265363363
 20
40.15756983656409
 30
0.0
 10
56.45636661007736
 20
40.18708638604822
 30
0.0
 10
56.44387278468054
 20
40.21480591139573
 30
0.0
 10
56.42887665213622
 20
40.24104461002407
 30
0.0
 10
56.41104723086343
 20
40.26554211797099
 30
0.0
 10
56.39058331452737
 20
40.28786821650317
 30
0.0
 10
56.36850556024748
 20
40.30836908893752
 30
0.0
 10
56.34471663650883
 20
40.32600318701249
 30
0.0
 10
56.31994333652805
 20
40.34123094812082
 30
0.0
 10
56.29395282134419
 20
40.35360784882379
 30
0.0
 10
56.26676176286951
 20
40.36324672712166
 30
0.0
 10
56.23849343201343
 20
40.37021876006434
 30
0.0
 10
56.20895875125838
 20
40.37409895926419
 30
0.0
 10
56.18893053277958
 20
40.37474448427295
 30
0.0
 10
56.17870335148956
 20
40.37507411425472
 30
0.0
  0
LINE
  5
CD
330
1F
100
AcDbEntity
  8
0
  6
Continuous
 62
     7
370
    25
100
AcDbLine
 10
53.6658427746
 20
47.6893676301
 30
0.0
 11
53.6658427746
 21
34.1893676301
 31
0.0
  0
LINE
  5
CE
330
1F
100
AcDbEntity
  8
0
  6
Continuous
 62
     7
370
    25
100
AcDbLine
 10
44.7546304283
 20
47.3953297442
 30
0.0
 11
44.7546304283
 21
34.4834055159
 31
0.0
  0
LINE
  5
CF
330
1F
100
AcDbEntity
  8
0
  6
Continuous
 62
     7
370
    25
100
AcDbLine
 10
42.6658427746
 20
40.9393676301
 30
0.0
 11
42.6658427746
 21
46.1893676301
 31
0.0
  0
LINE
  5
D0
330
1F
100
AcDbEntity
  8
0
  6
Continuous
 62
     7
370
    25
100
AcDbLine
 10
42.6658427746
 20
35.6893676301
 30
0.0
 11
42.6658427746
 21
40.9393676301
 31
0.0
  0
LINE
  5
D1
330
1F
100
AcDbEntity
  8
0
  6
Continuous
 62
     7
370
    25
100
AcDbLine
 10
63.1658427746
 20
43.9393676301
 30
0.0
 11
63.1658427746
 21
37.9393676301
 31
0.0
  0
LINE
  5
D2
330
1F
100
AcDbEntity
  8
0
  6
Continuous
 62
     7
370
    25
100
AcDbLine
 10
75.1658427746
 20
43.9393676301
 30
0.0
 11
75.1658427746
 21
37.9393676301
 31
0.0
  0
LINE
  5
D3
330
1F
100
AcDbEntity
  8
0
  6
Continuous
 62
     7
370
    25
100
AcDbLine
 10
71.1658427746
 20
43.9393676301
 30
0.0
 11
71.1658427746
 21
37.9393676301
 31
0.0
  0
LINE
  5
D4
330
1F
100
AcDbEntity
  8
0
  6
Continuous
 62
     7
370
    25
100
AcDbLine
 10
67.1658427746
 20
43.9393676301
 30
0.0
 11
67.1658427746
 21
37.9393676301
 31
0.0
  0
LINE
  5
D5
330
1F
100
AcDbEntity
  8
0
  6
Continuous
 62
     7
370
    25
100
AcDbLine
 10
79.6658427746
 20
42.8564007299
 30
0.0
 11
79.6658427746
 21
39.0223345302
 31
0.0
  0
LINE
  5
D6
330
1F
100
AcDbEntity
  8
0
  6
Continuous
 62
     7
370
    25
100
AcDbLine
 10
56.6658427746
 20
48.7025445065
 30
0.0
 11
56.6658427746
 21
48.7222713987
 31
0.0
  0
LINE
  5
D7
330
1F
100
AcDbEntity
  8
0
  6
Continuous
 62
     7
370
    25
100
AcDbLine
 10
56.6658427746
 20
33.1564638614
 30
0.0
 11
56.6658427746
 21
33.1761907536
 31
0.0
  0
LINE
  5
D8
330
1F
100
AcDbEntity
  8
0
  6
Continuous
 62
     8
370
    25
100
AcDbLine
 10
79.2373231559
 20
38.5274703518
 30
0.0
 11
79.2373231559
 21
43.3512649083
 31
0.0
  0
LINE
  5
D9
330
1F
100
AcDbEntity
  8
0
  6
Continuous
 62
     7
370
    18
100
AcDbLine
 10
43.5310684971
 20
46.6889059339
 30
0.0
 11
53.1658427746
 21
46.9899926301
 31
0.0
  0
LINE
  5
DA
330
1F
100
AcDbEntity
  8
0
  6
Continuous
 62
     7
370
    18
100
AcDbLine
 10
43.5310684971
 20
35.1898293262
 30
0.0
 11
53.1658427746
 21
34.8887426301
 31
0.0
  0
LINE
  5
DB
330
1F
100
AcDbEntity
  8
0
  6
Continuous
 62
     7
370
    18
100
AcDbLine
 10
53.1658427746
 20
34.2205551301
 30
0.0
 11
53.1658427746
 21
47.6581801301
 31
0.0
  0
LINE
  5
DC
330
1F
100
AcDbEntity
  8
0
  6
CENTERX2
 62
     7
370
    18
100
AcDbLine
 10
80.6658427746
 20
40.9393676301
 30
0.0
 11
41.7285035134
 21
40.9393676301
 31
0.0
  0
CIRCLE
  5
DD
330
1F
100
AcDbEntity
  8
0
  6
Continuous
 62
     7
370
    25
100
AcDbCircle
 10
95.2593072497
 20
40.9393676301
 30
0.0
 40
1.499999999999986
  0
CIRCLE
  5
DE
330
1F
100
AcDbEntity
  8
0
  6
Continuous
 62
     7
370
    25
100
AcDbCircle
 10
95.2593072497
 20
40.9393676301
 30
0.0
 40
1.699999999999996
  0
CIRCLE
  5
DF
330
1F
100
AcDbEntity
  8
0
  6
Continuous
 62
     7
370
    25
100
AcDbCircle
 10
95.2593072497
 20
40.9393676301
 30
0.0
 40
1.917033099830697
  0
CIRCLE
  5
E0
330
1F
100
AcDbEntity
  8
0
  6
Continuous
 62
     7
370
    25
100
AcDbCircle
 10
95.2593072497
 20
40.9393676301
 30
0.0
 40
2.411897278252674
  0
CIRCLE
  5
E1
330
1F
100
AcDbEntity
  8
0
  6
Continuous
 62
     7
370
    25
100
AcDbCircle
 10
95.2593072497
 20
40.9393676301
 30
0.0
 40
3.0
  0
SPLINE
  5
E2
330
1F
100
AcDbEntity
  8
0
  6
Continuous
 62
     7
370
    25
100
AcDbSpline
210
0.0
220
0.0
230
1.0
 70
    24
 71
     3
 72
    14
 73
    10
 74
     0
 42
0.000000001
 43
0.00000001
 40
0.0
 40
0.0
 40
0.0
 40
0.0
 40
0.25
 40
0.25
 40
0.5
 40
0.5
 40
0.75
 40
0.75
 40
1.0
 40
1.0
 40
1.0
 40
1.0
 10
102.2593072496986
 20
36.89791574573042
 30
0.0
 10
102.2593072496986
 20
37.55555643745365
 30
0.0
 10
102.2593072496986
 20
38.22895295571448
 30
0.0
 10
102.2593072496986
 20
39.57863116959522
 30
0.0
 10
102.2593072496986
 20
40.25735475110888
 30
0.0
 10
102.2593072496986
 20
41.6239129505238
 30
0.0
 10
102.2593072496986
 20
42.31641077115923
 30
0.0
 10
102.2593072496986
 20
43.66569562796604
 30
0.0
 10
102.2593072496986
 20
44.32751532447398
 30
0.0
 10
102.2593072496986
 20
44.9808195143852
 30
0.0
  0
SPLINE
  5
E3
330
1F
100
AcDbEntity
  8
0
  6
Continuous
 62
     7
370
    25
100
AcDbSpline
210
0.0
220
0.0
230
1.0
 70
    24
 71
     3
 72
    16
 73
    12
 74
     0
 42
0.000000001
 43
0.00000001
 40
0.0
 40
0.0
 40
0.0
 40
0.0
 40
0.2500000000000001
 40
0.2500000000000001
 40
0.5
 40
0.5
 40
0.625
 40
0.625
 40
0.7499999999999999
 40
0.7499999999999999
 40
1.0
 40
1.0
 40
1.0
 40
1.0
 10
95.25930724969854
 20
32.85646386140302
 30
0.0
 10
95.83079066265287
 20
33.18640996370961
 30
0.0
 10
96.40644076458528
 20
33.51876170501932
 30
0.0
 10
97.5697468720137
 20
34.19039679929305
 30
0.0
 10
98.15749213148463
 20
34.52973168306352
 30
0.0
 10
99.0501837846705
 20
35.04512744933371
 30
0.0
 10
99.34914746358722
 20
35.2177342098342
 30
0.0
 10
99.94052921352174
 20
35.55916862235273
 30
0.0
 10
100.2342374038409
 20
35.72874112509671
 30
0.0
 10
101.1101328983755
 20
36.2344396246482
 30
0.0
 10
101.6871115012876
 20
36.5675583763562
 30
0.0
 10
102.2593072496986
 20
36.89791574573045
 30
0.0
  0
SPLINE
  5
E4
330
1F
100
AcDbEntity
  8
0
  6
Continuous
 62
     7
370
    25
100
AcDbSpline
210
0.0
220
0.0
230
1.0
 70
    24
 71
     3
 72
    16
 73
    12
 74
     0
 42
0.000000001
 43
0.00000001
 40
0.0
 40
0.0
 40
0.0
 40
0.0
 40
0.2499999999999999
 40
0.2499999999999999
 40
0.4999999999999999
 40
0.4999999999999999
 40
0.6249999999999999
 40
0.6249999999999999
 40
0.7499999999999998
 40
0.7499999999999998
 40
1.0
 40
1.0
 40
1.0
 40
1.0
 10
88.25930724969854
 20
36.89791574573047
 30
0.0
 10
88.83079066265289
 20
36.56796964342387
 30
0.0
 10
89.40644076458527
 20
36.23561790211417
 30
0.0
 10
90.5697468720137
 20
35.56398280784043
 30
0.0
 10
91.15749213148462
 20
35.22464792406997
 30
0.0
 10
92.0501837846705
 20
34.70925215779977
 30
0.0
 10
92.3491474635872
 20
34.5366453972993
 30
0.0
 10
92.94052921352174
 20
34.19521098478076
 30
0.0
 10
93.23423740384094
 20
34.02563848203678
 30
0.0
 10
94.11013289837544
 20
33.51993998248528
 30
0.0
 10
94.68711150128765
 20
33.18682123077728
 30
0.0
 10
95.25930724969864
 20
32.85646386140304
 30
0.0
  0
SPLINE
  5
E5
330
1F
100
AcDbEntity
  8
0
  6
Continuous
 62
     7
370
    25
100
AcDbSpline
210
0.0
220
0.0
230
1.0
 70
    24
 71
     3
 72
    14
 73
    10
 74
     0
 42
0.000000001
 43
0.00000001
 40
0.0
 40
0.0
 40
0.0
 40
0.0
 40
0.2500000000000001
 40
0.2500000000000001
 40
0.5000000000000001
 40
0.5000000000000001
 40
0.7500000000000002
 40
0.7500000000000002
 40
1.0
 40
1.0
 40
1.0
 40
1.0
 10
88.25930724969861
 20
36.89791574573042
 30
0.0
 10
88.25930724969861
 20
37.55555643745365
 30
0.0
 10
88.25930724969861
 20
38.22895295571449
 30
0.0
 10
88.25930724969861
 20
39.57863116959522
 30
0.0
 10
88.25930724969861
 20
40.25735475110888
 30
0.0
 10
88.25930724969861
 20
41.6239129505238
 30
0.0
 10
88.25930724969861
 20
42.31641077115923
 30
0.0
 10
88.25930724969861
 20
43.66569562796604
 30
0.0
 10
88.25930724969861
 20
44.32751532447398
 30
0.0
 10
88.25930724969861
 20
44.9808195143852
 30
0.0
  0
SPLINE
  5
E6
330
1F
100
AcDbEntity
  8
0
  6
Continuous
 62
     7
370
    25
100
AcDbSpline
210
0.0
220
0.0
230
1.0
 70
    24
 71
     3
 72
    16
 73
    12
 74
     0
 42
0.000000001
 43
0.00000001
 40
0.0
 40
0.0
 40
0.0
 40
0.0
 40
0.2500000000000001
 40
0.2500000000000001
 40
0.5000000000000001
 40
0.5000000000000001
 40
0.625
 40
0.625
 40
0.7499999999999999
 40
0.7499999999999999
 40
1.0
 40
1.0
 40
1.0
 40
1.0
 10
95.25930724969867
 20
49.02227139871262
 30
0.0
 10
94.68782383674431
 20
48.69232529640602
 30
0.0
 10
94.11217373481193
 20
48.35997355509632
 30
0.0
 10
92.94886762738349
 20
47.68833846082258
 30
0.0
 10
92.36112236791257
 20
47.34900357705212
 30
0.0
 10
91.4684307147267
 20
46.83360781078192
 30
0.0
 10
91.16946703581
 20
46.66100105028144
 30
0.0
 10
90.57808528587546
 20
46.3195666377629
 30
0.0
 10
90.28437709555627
 20
46.14999413501892
 30
0.0
 10
89.40848160102175
 20
45.64429563546743
 30
0.0
 10
88.83150299810956
 20
45.31117688375943
 30
0.0
 10
88.25930724969857
 20
44.98081951438518
 30
0.0
  0
SPLINE
  5
E7
330
1F
100
AcDbEntity
  8
0
  6
Continuous
 62
     7
370
    25
100
AcDbSpline
210
0.0
220
0.0
230
1.0
 70
    24
 71
     3
 72
    16
 73
    12
 74
     0
 42
0.000000001
 43
0.00000001
 40
0.0
 40
0.0
 40
0.0
 40
0.0
 40
0.25
 40
0.25
 40
0.5
 40
0.5
 40
0.625
 40
0.625
 40
0.75
 40
0.75
 40
1.0
 40
1.0
 40
1.0
 40
1.0
 10
102.2593072496987
 20
44.98081951438517
 30
0.0
 10
101.6878238367443
 20
45.31076561669176
 30
0.0
 10
101.1121737348119
 20
45.64311735800148
 30
0.0
 10
99.9488676273835
 20
46.31475245227519
 30
0.0
 10
99.36112236791257
 20
46.65408733604567
 30
0.0
 10
98.46843071472671
 20
47.16948310231587
 30
0.0
 10
98.16946703580999
 20
47.34208986281634
 30
0.0
 10
97.57808528587546
 20
47.68352427533488
 30
0.0
 10
97.28437709555628
 20
47.85309677807886
 30
0.0
 10
96.40848160102175
 20
48.35879527763034
 30
0.0
 10
95.83150299810957
 20
48.69191402933836
 30
0.0
 10
95.25930724969857
 20
49.0222713987126
 30
0.0
  0
CIRCLE
  5
E8
330
1F
100
AcDbEntity
  8
0
  6
Continuous
 62
     7
370
    25
100
AcDbCircle
 10
95.2593072497
 20
40.9393676301
 30
0.0
 40
6.750000000000014
  0
INSERT
  5
F4
330
1F
100
AcDbEntity
  8
0
  6
Continuous
 62
     7
370
    18
100
AcDbBlockReference
  2
SW_CENTERMARKSYMBOL_0
 10
95.2593072497
 20
40.9393676301
 30
0.0
  0
LINE
  5
F5
330
1F
100
AcDbEntity
  8
0
  6
Continuous
 62
     7
370
    25
100
AcDbLine
 10
53.8101803419
 20
70.1783156069
 30
0.0
 11
53.6658427746
 21
69.9283156069
 31
0.0
  0
LINE
  5
F6
330
1F
100
AcDbEntity
  8
0
  6
Continuous
 62
     7
370
    25
100
AcDbLine
 10
53.6658427746
 20
56.4283156069
 30
0.0
 11
53.8101803419
 21
56.1783156069
 31
0.0
  0
LINE
  5
F7
330
1F
100
AcDbEntity
  8
0
  6
Continuous
 62
     7
370
    25
100
AcDbLine
 10
59.5215052073
 20
56.1783156069
 30
0.0
 11
59.6658427746
 21
56.4283156069
 31
0.0
  0
LINE
  5
F8
330
1F
100
AcDbEntity
  8
0
  6
Continuous
 62
     7
370
    25
100
AcDbLine
 10
59.6658427746
 20
69.9283156069
 30
0.0
 11
59.5215052073
 21
70.1783156069
 31
0.0
  0
LINE
  5
F9
330
1F
100
AcDbEntity
  8
0
  6
Continuous
 62
     7
370
    25
100
AcDbLine
 10
53.6658427746
 20
69.9127531069
 30
0.0
 11
44.7546304283
 21
69.6342777211
 31
0.0
  0
LINE
  5
FA
330
1F
100
AcDbEntity
  8
0
  6
Continuous
 62
     7
370
    25
100
AcDbLine
 10
44.7546304283
 20
56.7223534928
 30
0.0
 11
53.6658427746
 21
56.4438781069
 31
0.0
  0
LINE
  5
FB
330
1F
100
AcDbEntity
  8
0
  6
Continuous
 62
     7
370
    25
100
AcDbLine
 10
44.7546304283
 20
69.6342777211
 30
0.0
 11
42.6658427746
 21
68.4283156069
 31
0.0
  0
LINE
  5
FC
330
1F
100
AcDbEntity
  8
0
  6
Continuous
 62
     7
370
    25
100
AcDbLine
 10
42.6658427746
 20
57.9283156069
 30
0.0
 11
44.7546304283
 21
56.7223534928
 31
0.0
  0
LINE
  5
FD
330
1F
100
AcDbEntity
  8
0
  6
Continuous
 62
     7
370
    25
100
AcDbLine
 10
63.1658427746
 20
60.1783156069
 30
0.0
 11
67.1658427746
 21
60.8283156069
 31
0.0
  0
LINE
  5
FE
330
1F
100
AcDbEntity
  8
0
  6
Continuous
 62
     7
370
    25
100
AcDbLine
 10
67.1658427746
 20
65.5283156069
 30
0.0
 11
63.1658427746
 21
66.1783156069
 31
0.0
  0
LINE
  5
FF
330
1F
100
AcDbEntity
  8
0
  6
Continuous
 62
     7
370
    25
100
AcDbLine
 10
67.1658427746
 20
60.1783156069
 30
0.0
 11
71.1658427746
 21
60.8283156069
 31
0.0
  0
LINE
  5
100
330
1F
100
AcDbEntity
  8
0
  6
Continuous
 62
     7
370
    25
100
AcDbLine
 10
71.1658427746
 20
65.5283156069
 30
0.0
 11
67.1658427746
 21
66.1783156069
 31
0.0
  0
LINE
  5
101
330
1F
100
AcDbEntity
  8
0
  6
Continuous
 62
     7
370
    25
100
AcDbLine
 10
63.1658427746
 20
66.1783156069
 30
0.0
 11
59.6658427746
 21
66.1783156069
 31
0.0
  0
LINE
  5
102
330
1F
100
AcDbEntity
  8
0
  6
Continuous
 62
     7
370
    25
100
AcDbLine
 10
59.6658427746
 20
60.1783156069
 30
0.0
 11
63.1658427746
 21
60.1783156069
 31
0.0
  0
LINE
  5
103
330
1F
100
AcDbEntity
  8
0
  6
Continuous
 62
     7
370
    25
100
AcDbLine
 10
71.1658427746
 20
60.1783156069
 30
0.0
 11
75.1658427746
 21
60.8283156069
 31
0.0
  0
LINE
  5
104
330
1F
100
AcDbEntity
  8
0
  6
Continuous
 62
     7
370
    25
100
AcDbLine
 10
75.1658427746
 20
65.5283156069
 30
0.0
 11
71.1658427746
 21
66.1783156069
 31
0.0
  0
LINE
  5
105
330
1F
100
AcDbEntity
  8
0
  6
Continuous
 62
     7
370
    25
100
AcDbLine
 10
75.1658427746
 20
60.1783156069
 30
0.0
 11
79.2373231559
 21
60.7664183287
 31
0.0
  0
LINE
  5
106
330
1F
100
AcDbEntity
  8
0
  6
Continuous
 62
     7
370
    25
100
AcDbLine
 10
79.2373231559
 20
65.5902128852
 30
0.0
 11
75.1658427746
 21
66.1783156069
 31
0.0
  0
ARC
  5
107
330
1F
100
AcDbEntity
  8
0
  6
Continuous
 62
     7
370
    25
100
AcDbCircle
 10
79.1658427746
 20
65.0953487068
 30
0.0
 40
0.5000000000000143
100
AcDbArc
 50
0.0
 51
81.7807907511
  0
ARC
  5
108
330
1F
100
AcDbEntity
  8
0
  6
Continuous
 62
     7
370
    25
100
AcDbCircle
 10
79.1658427746
 20
61.2612825071
 30
0.0
 40
0.5000000000000003
100
AcDbArc
 50
278.2192092489
 51
0.0
  0
SPLINE
  5
109
330
1F
100
AcDbEntity
  8
0
  6
Continuous
 62
     7
370
    25
100
AcDbSpline
210
0.0
220
0.0
230
1.0
 70
     8
 71
     3
 72
    16
 73
    12
 74
     0
 42
0.000000001
 43
0.00000001
 40
0.0
 40
0.0
 40
0.0
 40
0.0
 40
0.2500000000000002
 40
0.2500000000000002
 40
0.5000000000000003
 40
0.5000000000000003
 40
0.6250000000000003
 40
0.6250000000000003
 40
0.7500000000000002
 40
0.7500000000000002
 40
1.0
 40
1.0
 40
1.0
 40
1.0
 10
54.43539512420267
 20
70.1783156069365
 30
0.0
 10
54.24490065321789
 20
69.60683219398214
 30
0.0
 10
54.08789864000479
 20
69.03118209204975
 30
0.0
 10
53.87039982916678
 20
67.86787598462134
 30
0.0
 10
53.81062046809672
 20
67.2801307251504
 30
0.0
 10
53.80996396724275
 20
66.38743907196454
 30
0.0
 10
53.82457773372623
 20
66.08847539304783
 30
0.0
 10
53.88156359160307
 20
65.49709364311329
 30
0.0
 10
53.92387786086231
 20
65.2033854527941
 30
0.0
 10
54.08727268075249
 20
64.32748995825959
 30
0.0
 10
54.24466320806592
 20
63.7505113553474
 30
0.0
 10
54.43539512420292
 20
63.1783156069364
 30
0.0
  0
SPLINE
  5
10A
330
1F
100
AcDbEntity
  8
0
  6
Continuous
 62
     7
370
    25
100
AcDbSpline
210
0.0
220
0.0
230
1.0
 70
     8
 71
     3
 72
    16
 73
    12
 74
     0
 42
0.000000001
 43
0.00000001
 40
0.0
 40
0.0
 40
0.0
 40
0.0
 40
0.2500000000000001
 40
0.2500000000000001
 40
0.5000000000000001
 40
0.5000000000000001
 40
0.625
 40
0.625
 40
0.7499999999999999
 40
0.7499999999999999
 40
1.0
 40
1.0
 40
1.0
 40
1.0
 10
54.43539512420267
 20
63.1783156069365
 30
0.0
 10
54.24490065321789
 20
62.60683219398215
 30
0.0
 10
54.08789864000479
 20
62.03118209204975
 30
0.0
 10
53.87039982916678
 20
60.86787598462133
 30
0.0
 10
53.81062046809672
 20
60.2801307251504
 30
0.0
 10
53.80996396724275
 20
59.38743907196454
 30
0.0
 10
53.82457773372623
 20
59.08847539304782
 30
0.0
 10
53.88156359160307
 20
58.49709364311329
 30
0.0
 10
53.92387786086231
 20
58.20338545279409
 30
0.0
 10
54.08727268075249
 20
57.32748995825958
 30
0.0
 10
54.24466320806592
 20
56.75051135534739
 30
0.0
 10
54.43539512420292
 20
56.17831560693639
 30
0.0
  0
SPLINE
  5
10B
330
1F
100
AcDbEntity
  8
0
  6
Continuous
 62
     7
370
    25
100
AcDbSpline
210
0.0
220
0.0
230
1.0
 70
    24
 71
     3
 72
    13
 73
     9
 74
     0
 42
0.000000001
 43
0.00000001
 40
0.0
 40
0.0
 40
0.0
 40
0.0
 40
0.1834897094758335
 40
0.3672873820232255
 40
0.5522799052696751
 40
0.7378110673585909
 40
0.98677662037011
 40
0.9999999999999999
 40
0.9999999999999999
 40
0.9999999999999999
 40
0.9999999999999999
 10
54.43539512420317
 20
56.17831560693643
 30
0.0
 10
54.36825891583906
 20
56.17831560693643
 30
0.0
 10
54.23387381991483
 20
56.17831560693643
 30
0.0
 10
54.06990521198886
 20
56.17831560693643
 30
0.0
 10
53.93797545139717
 20
56.17831560693643
 30
0.0
 10
53.84423340303051
 20
56.17831560693643
 30
0.0
 10
53.79741646613274
 20
56.17831560693643
 30
0.0
 10
53.81163031559325
 20
56.17831560693643
 30
0.0
 10
53.81234718462935
 20
56.17831560693643
 30
0.0
  0
SPLINE
  5
10C
330
1F
100
AcDbEntity
  8
0
  6
Continuous
 62
     7
370
    25
100
AcDbSpline
210
0.0
220
0.0
230
1.0
 70
    24
 71
     3
 72
    13
 73
     9
 74
     0
 42
0.000000001
 43
0.00000001
 40
0.0
 40
0.0
 40
0.0
 40
0.0
 40
0.0049708634499916
 40
0.2621843588593822
 40
0.4454283149331494
 40
0.6292336169240885
 40
0.8144410034908534
 40
1.0
 40
1.0
 40
1.0
 40
1.0
 10
53.811038177518
 20
70.17831560693644
 30
0.0
 10
53.810752898911
 20
70.17831560693644
 30
0.0
 10
53.79570609880789
 20
70.17831560693644
 30
0.0
 10
53.84305966264314
 20
70.17831560693642
 30
0.0
 10
53.93690921214363
 20
70.17831560693644
 30
0.0
 10
54.0678081092717
 20
70.17831560693644
 30
0.0
 10
54.23192214810529
 20
70.17831560693644
 30
0.0
 10
54.36752793236372
 20
70.17831560693642
 30
0.0
 10
54.43539512420317
 20
70.17831560693644
 30
0.0
  0
LINE
  5
10D
330
1F
100
AcDbEntity
  8
0
  6
Continuous
 62
     7
370
    25
100
AcDbLine
 10
53.6658427746
 20
69.9283156069
 30
0.0
 11
53.6658427746
 21
56.4283156069
 31
0.0
  0
SPLINE
  5
10E
330
1F
100
AcDbEntity
  8
0
  6
Continuous
 62
     7
370
    25
100
AcDbSpline
210
0.0
220
0.0
230
1.0
 70
    24
 71
     3
 72
    13
 73
     9
 74
     0
 42
0.000000001
 43
0.00000001
 40
0.0
 40
0.0
 40
0.0
 40
0.0
 40
0.0049708634499916
 40
0.2621843588593822
 40
0.4454283149331494
 40
0.6292336169240885
 40
0.8144410034908534
 40
1.0
 40
1.0
 40
1.0
 40
1.0
 10
59.52064737161496
 20
70.17831560693644
 30
0.0
 10
59.52093265022196
 20
70.17831560693644
 30
0.0
 10
59.53597945032507
 20
70.17831560693644
 30
0.0
 10
59.48862588648981
 20
70.17831560693642
 30
0.0
 10
59.39477633698933
 20
70.17831560693644
 30
0.0
 10
59.26387743986127
 20
70.17831560693644
 30
0.0
 10
59.09976340102767
 20
70.17831560693644
 30
0.0
 10
58.96415761676923
 20
70.17831560693642
 30
0.0
 10
58.89629042492979
 20
70.17831560693644
 30
0.0
  0
SPLINE
  5
10F
330
1F
100
AcDbEntity
  8
0
  6
Continuous
 62
     7
370
    25
100
AcDbSpline
210
0.0
220
0.0
230
1.0
 70
    24
 71
     3
 72
    13
 73
     9
 74
     0
 42
0.000000001
 43
0.00000001
 40
0.0
 40
0.0
 40
0.0
 40
0.0
 40
0.1834897094758335
 40
0.3672873820232255
 40
0.5522799052696751
 40
0.7378110673585909
 40
0.98677662037011
 40
0.9999999999999999
 40
0.9999999999999999
 40
0.9999999999999999
 40
0.9999999999999999
 10
58.89629042492979
 20
56.17831560693643
 30
0.0
 10
58.9634266332939
 20
56.17831560693643
 30
0.0
 10
59.09781172921813
 20
56.17831560693643
 30
0.0
 10
59.2617803371441
 20
56.17831560693643
 30
0.0
 10
59.39371009773578
 20
56.17831560693643
 30
0.0
 10
59.48745214610245
 20
56.17831560693643
 30
0.0
 10
59.53426908300022
 20
56.17831560693643
 30
0.0
 10
59.52005523353971
 20
56.17831560693643
 30
0.0
 10
59.51933836450361
 20
56.17831560693643
 30
0.0
  0
SPLINE
  5
110
330
1F
100
AcDbEntity
  8
0
  6
Continuous
 62
     7
370
    25
100
AcDbSpline
210
0.0
220
0.0
230
1.0
 70
     8
 71
     3
 72
    16
 73
    12
 74
     0
 42
0.000000001
 43
0.00000001
 40
0.0
 40
0.0
 40
0.0
 40
0.0
 40
0.2500000000000001
 40
0.2500000000000001
 40
0.5000000000000001
 40
0.5000000000000001
 40
0.625
 40
0.625
 40
0.7499999999999999
 40
0.7499999999999999
 40
1.0
 40
1.0
 40
1.0
 40
1.0
 10
58.89629042493029
 20
63.1783156069365
 30
0.0
 10
59.08678489591507
 20
62.60683219398215
 30
0.0
 10
59.24378690912816
 20
62.03118209204975
 30
0.0
 10
59.46128571996618
 20
60.86787598462133
 30
0.0
 10
59.52106508103624
 20
60.2801307251504
 30
0.0
 10
59.5217215818902
 20
59.38743907196454
 30
0.0
 10
59.50710781540673
 20
59.08847539304782
 30
0.0
 10
59.45012195752989
 20
58.49709364311329
 30
0.0
 10
59.40780768827065
 20
58.20338545279409
 30
0.0
 10
59.24441286838046
 20
57.32748995825958
 30
0.0
 10
59.08702234106704
 20
56.75051135534739
 30
0.0
 10
58.89629042493004
 20
56.17831560693639
 30
0.0
  0
SPLINE
  5
111
330
1F
100
AcDbEntity
  8
0
  6
Continuous
 62
     7
370
    25
100
AcDbSpline
210
0.0
220
0.0
230
1.0
 70
     8
 71
     3
 72
    16
 73
    12
 74
     0
 42
0.000000001
 43
0.00000001
 40
0.0
 40
0.0
 40
0.0
 40
0.0
 40
0.25
 40
0.25
 40
0.5
 40
0.5
 40
0.625
 40
0.625
 40
0.75
 40
0.75
 40
1.0
 40
1.0
 40
1.0
 40
1.0
 10
58.89629042493029
 20
70.1783156069365
 30
0.0
 10
59.08678489591507
 20
69.60683219398214
 30
0.0
 10
59.24378690912816
 20
69.03118209204975
 30
0.0
 10
59.46128571996618
 20
67.86787598462134
 30
0.0
 10
59.52106508103624
 20
67.2801307251504
 30
0.0
 10
59.5217215818902
 20
66.38743907196454
 30
0.0
 10
59.50710781540673
 20
66.08847539304783
 30
0.0
 10
59.45012195752989
 20
65.49709364311329
 30
0.0
 10
59.40780768827065
 20
65.2033854527941
 30
0.0
 10
59.24441286838046
 20
64.32748995825959
 30
0.0
 10
59.08702234106704
 20
63.7505113553474
 30
0.0
 10
58.89629042493004
 20
63.1783156069364
 30
0.0
  0
LINE
  5
112
330
1F
100
AcDbEntity
  8
0
  6
Continuous
 62
     7
370
    25
100
AcDbLine
 10
59.6658427746
 20
69.9283156069
 30
0.0
 11
59.6658427746
 21
56.4283156069
 31
0.0
  0
LINE
  5
113
330
1F
100
AcDbEntity
  8
0
  6
Continuous
 62
     7
370
    25
100
AcDbLine
 10
56.5854580168
 20
63.1783156069
 30
0.0
 11
54.4353951242
 21
63.1783156069
 31
0.0
  0
LINE
  5
114
330
1F
100
AcDbEntity
  8
0
  6
Continuous
 62
     7
370
    25
100
AcDbLine
 10
56.5854580168
 20
70.1783156069
 30
0.0
 11
54.4353951242
 21
70.1783156069
 31
0.0
  0
SPLINE
  5
115
330
1F
100
AcDbEntity
  8
0
  6
Continuous
 62
     7
370
    25
100
AcDbSpline
210
0.0
220
0.0
230
1.0
 70
     8
 71
     3
 72
     8
 73
     4
 74
     0
 42
0.000000001
 43
0.00000001
 40
0.0
 40
0.0
 40
0.0
 40
0.0
 40
1.0
 40
1.0
 40
1.0
 40
1.0
 10
56.66584277456647
 20
69.62453238512933
 30
0.0
 10
56.64084236164378
 20
69.80938813129751
 30
0.0
 10
56.61397605018356
 20
69.99397214152128
 30
0.0
 10
56.58545801683714
 20
70.17831560693642
 30
0.0
  0
SPLINE
  5
116
330
1F
100
AcDbEntity
  8
0
  6
Continuous
 62
     7
370
    25
100
AcDbSpline
210
0.0
220
0.0
230
1.0
 70
     8
 71
     3
 72
     8
 73
     4
 74
     0
 42
0.000000001
 43
0.00000001
 40
0.0
 40
0.0
 40
0.0
 40
0.0
 40
1.0
 40
1.0
 40
1.0
 40
1.0
 10
56.74622753229581
 20
70.17831560693644
 30
0.0
 10
56.71769371745772
 20
69.99387012835547
 30
0.0
 10
56.69082879565093
 20
69.80928171649524
 30
0.0
 10
56.66584277456647
 20
69.62453238512933
 30
0.0
  0
LINE
  5
117
330
1F
100
AcDbEntity
  8
0
  6
Continuous
 62
     7
370
    25
100
AcDbLine
 10
58.8962904249
 20
70.1783156069
 30
0.0
 11
56.7462275323
 21
70.1783156069
 31
0.0
  0
LINE
  5
118
330
1F
100
AcDbEntity
  8
0
  6
Continuous
 62
     7
370
    25
100
AcDbLine
 10
58.8962904249
 20
63.1783156069
 30
0.0
 11
56.7462275323
 21
63.1783156069
 31
0.0
  0
SPLINE
  5
119
330
1F
100
AcDbEntity
  8
0
  6
Continuous
 62
     7
370
    25
100
AcDbSpline
210
0.0
220
0.0
230
1.0
 70
     8
 71
     3
 72
     8
 73
     4
 74
     0
 42
0.000000001
 43
0.00000001
 40
0.0
 40
0.0
 40
0.0
 40
0.0
 40
1.0
 40
1.0
 40
1.0
 40
1.0
 10
56.66584277456647
 20
63.73209882874353
 30
0.0
 10
56.69084318748917
 20
63.54724308257535
 30
0.0
 10
56.7177094989494
 20
63.36265907235158
 30
0.0
 10
56.74622753229581
 20
63.17831560693643
 30
0.0
  0
SPLINE
  5
11A
330
1F
100
AcDbEntity
  8
0
  6
Continuous
 62
     7
370
    25
100
AcDbSpline
210
0.0
220
0.0
230
1.0
 70
     8
 71
     3
 72
     8
 73
     4
 74
     0
 42
0.000000001
 43
0.00000001
 40
0.0
 40
0.0
 40
0.0
 40
0.0
 40
1.0
 40
1.0
 40
1.0
 40
1.0
 10
56.58545801683714
 20
63.17831560693643
 30
0.0
 10
56.61399183167524
 20
63.36276108551741
 30
0.0
 10
56.64085675348203
 20
63.54734949737763
 30
0.0
 10
56.66584277456647
 20
63.73209882874353
 30
0.0
  0
SPLINE
  5
11B
330
1F
100
AcDbEntity
  8
0
  6
Continuous
 62
     7
370
    25
100
AcDbSpline
210
0.0
220
0.0
230
1.0
 70
     8
 71
     3
 72
     8
 73
     4
 74
     0
 42
0.000000001
 43
0.00000001
 40
0.0
 40
0.0
 40
0.0
 40
0.0
 40
1.0
 40
1.0
 40
1.0
 40
1.0
 10
56.74622753229581
 20
63.17831560693643
 30
0.0
 10
56.71769371745772
 20
62.99387012835547
 30
0.0
 10
56.69082879565093
 20
62.80928171649525
 30
0.0
 10
56.66584277456647
 20
62.62453238512933
 30
0.0
  0
LINE
  5
11C
330
1F
100
AcDbEntity
  8
0
  6
Continuous
 62
     7
370
    25
100
AcDbLine
 10
56.6658427746
 20
62.6245323851
 30
0.0
 11
56.6658427746
 21
63.7320988287
 31
0.0
  0
SPLINE
  5
11D
330
1F
100
AcDbEntity
  8
0
  6
Continuous
 62
     7
370
    25
100
AcDbSpline
210
0.0
220
0.0
230
1.0
 70
     8
 71
     3
 72
     8
 73
     4
 74
     0
 42
0.000000001
 43
0.00000001
 40
0.0
 40
0.0
 40
0.0
 40
0.0
 40
1.0
 40
1.0
 40
1.0
 40
1.0
 10
56.66584277456647
 20
62.62453238512934
 30
0.0
 10
56.64084236164378
 20
62.80938813129752
 30
0.0
 10
56.61397605018356
 20
62.99397214152129
 30
0.0
 10
56.58545801683714
 20
63.17831560693643
 30
0.0
  0
LINE
  5
11E
330
1F
100
AcDbEntity
  8
0
  6
Continuous
 62
     7
370
    25
100
AcDbLine
 10
56.5854580168
 20
56.1783156069
 30
0.0
 11
54.4353951242
 21
56.1783156069
 31
0.0
  0
LINE
  5
11F
330
1F
100
AcDbEntity
  8
0
  6
Continuous
 62
     7
370
    25
100
AcDbLine
 10
58.8962904249
 20
56.1783156069
 30
0.0
 11
56.7462275323
 21
56.1783156069
 31
0.0
  0
SPLINE
  5
120
330
1F
100
AcDbEntity
  8
0
  6
Continuous
 62
     7
370
    25
100
AcDbSpline
210
0.0
220
0.0
230
1.0
 70
     8
 71
     3
 72
     8
 73
     4
 74
     0
 42
0.000000001
 43
0.00000001
 40
0.0
 40
0.0
 40
0.0
 40
0.0
 40
1.0
 40
1.0
 40
1.0
 40
1.0
 10
56.66584277456647
 20
56.73209882874352
 30
0.0
 10
56.69084318748917
 20
56.54724308257535
 30
0.0
 10
56.7177094989494
 20
56.36265907235157
 30
0.0
 10
56.74622753229581
 20
56.17831560693643
 30
0.0
  0
SPLINE
  5
121
330
1F
100
AcDbEntity
  8
0
  6
Continuous
 62
     7
370
    25
100
AcDbSpline
210
0.0
220
0.0
230
1.0
 70
     8
 71
     3
 72
     8
 73
     4
 74
     0
 42
0.000000001
 43
0.00000001
 40
0.0
 40
0.0
 40
0.0
 40
0.0
 40
1.0
 40
1.0
 40
1.0
 40
1.0
 10
56.58545801683714
 20
56.17831560693643
 30
0.0
 10
56.61399183167524
 20
56.3627610855174
 30
0.0
 10
56.64085675348203
 20
56.54734949737762
 30
0.0
 10
56.66584277456647
 20
56.73209882874352
 30
0.0
  0
LINE
  5
122
330
1F
100
AcDbEntity
  8
0
  6
Continuous
 62
     7
370
    25
100
AcDbLine
 10
44.7546304283
 20
69.6342777211
 30
0.0
 11
44.7546304283
 21
56.7223534928
 31
0.0
  0
LINE
  5
123
330
1F
100
AcDbEntity
  8
0
  6
Continuous
 62
     7
370
    25
100
AcDbLine
 10
42.6658427746
 20
57.9283156069
 30
0.0
 11
42.6658427746
 21
68.4283156069
 31
0.0
  0
LINE
  5
124
330
1F
100
AcDbEntity
  8
0
  6
Continuous
 62
     7
370
    25
100
AcDbLine
 10
56.6658427746
 20
69.6245323851
 30
0.0
 11
56.6658427746
 21
70.1783156069
 31
0.0
  0
SPLINE
  5
125
330
1F
100
AcDbEntity
  8
0
  6
Continuous
 62
     7
370
    25
100
AcDbSpline
210
0.0
220
0.0
230
1.0
 70
    24
 71
     3
 72
     8
 73
     4
 74
     0
 42
0.000000001
 43
0.00000001
 40
0.0
 40
0.0
 40
0.0
 40
0.0
 40
1.0
 40
1.0
 40
1.0
 40
1.0
 10
56.66584277456647
 20
70.17831560693644
 30
0.0
 10
56.6908424465607
 20
70.17831560693644
 30
0.0
 10
56.71770868734769
 20
70.17831560693644
 30
0.0
 10
56.74622753229581
 20
70.17831560693644
 30
0.0
  0
SPLINE
  5
126
330
1F
100
AcDbEntity
  8
0
  6
Continuous
 62
     7
370
    25
100
AcDbSpline
210
0.0
220
0.0
230
1.0
 70
    24
 71
     3
 72
     8
 73
     4
 74
     0
 42
0.000000001
 43
0.00000001
 40
0.0
 40
0.0
 40
0.0
 40
0.0
 40
1.0
 40
1.0
 40
1.0
 40
1.0
 10
56.58545801683714
 20
70.17831560693644
 30
0.0
 10
56.61399414715278
 20
70.17831560693644
 30
0.0
 10
56.6408588623362
 20
70.17831560693644
 30
0.0
 10
56.66584277456647
 20
70.17831560693644
 30
0.0
  0
SPLINE
  5
127
330
1F
100
AcDbEntity
  8
0
  6
Continuous
 62
     7
370
    25
100
AcDbSpline
210
0.0
220
0.0
230
1.0
 70
    24
 71
     3
 72
     8
 73
     4
 74
     0
 42
0.000000001
 43
0.00000001
 40
0.0
 40
0.0
 40
0.0
 40
0.0
 40
1.0
 40
1.0
 40
1.0
 40
1.0
 10
56.74622753229581
 20
56.17831560693643
 30
0.0
 10
56.71769140198017
 20
56.17831560693643
 30
0.0
 10
56.69082668679676
 20
56.17831560693643
 30
0.0
 10
56.66584277456647
 20
56.17831560693643
 30
0.0
  0
LINE
  5
128
330
1F
100
AcDbEntity
  8
0
  6
Continuous
 62
     7
370
    25
100
AcDbLine
 10
56.6658427746
 20
56.1783156069
 30
0.0
 11
56.6658427746
 21
56.7320988287
 31
0.0
  0
SPLINE
  5
129
330
1F
100
AcDbEntity
  8
0
  6
Continuous
 62
     7
370
    25
100
AcDbSpline
210
0.0
220
0.0
230
1.0
 70
    24
 71
     3
 72
     8
 73
     4
 74
     0
 42
0.000000001
 43
0.00000001
 40
0.0
 40
0.0
 40
0.0
 40
0.0
 40
1.0
 40
1.0
 40
1.0
 40
1.0
 10
56.66584277456647
 20
56.17831560693643
 30
0.0
 10
56.64084310257225
 20
56.17831560693643
 30
0.0
 10
56.61397686178526
 20
56.17831560693643
 30
0.0
 10
56.58545801683714
 20
56.17831560693643
 30
0.0
  0
LINE
  5
12A
330
1F
100
AcDbEntity
  8
0
  6
Continuous
 62
     7
370
    25
100
AcDbLine
 10
63.1658427746
 20
63.1783156069
 30
0.0
 11
63.1658427746
 21
60.1783156069
 31
0.0
  0
LINE
  5
12B
330
1F
100
AcDbEntity
  8
0
  6
Continuous
 62
     7
370
    25
100
AcDbLine
 10
63.1658427746
 20
66.1783156069
 30
0.0
 11
63.1658427746
 21
63.1783156069
 31
0.0
  0
LINE
  5
12C
330
1F
100
AcDbEntity
  8
0
  6
Continuous
 62
     7
370
    25
100
AcDbLine
 10
67.1658427746
 20
63.1783156069
 30
0.0
 11
67.1658427746
 21
60.1783156069
 31
0.0
  0
LINE
  5
12D
330
1F
100
AcDbEntity
  8
0
  6
Continuous
 62
     7
370
    25
100
AcDbLine
 10
67.1658427746
 20
66.1783156069
 30
0.0
 11
67.1658427746
 21
63.1783156069
 31
0.0
  0
LINE
  5
12E
330
1F
100
AcDbEntity
  8
0
  6
Continuous
 62
     7
370
    25
100
AcDbLine
 10
71.1658427746
 20
63.1783156069
 30
0.0
 11
71.1658427746
 21
60.1783156069
 31
0.0
  0
LINE
  5
12F
330
1F
100
AcDbEntity
  8
0
  6
Continuous
 62
     7
370
    25
100
AcDbLine
 10
71.1658427746
 20
66.1783156069
 30
0.0
 11
71.1658427746
 21
63.1783156069
 31
0.0
  0
LINE
  5
130
330
1F
100
AcDbEntity
  8
0
  6
Continuous
 62
     7
370
    25
100
AcDbLine
 10
75.1658427746
 20
63.1783156069
 30
0.0
 11
75.1658427746
 21
60.1783156069
 31
0.0
  0
LINE
  5
131
330
1F
100
AcDbEntity
  8
0
  6
Continuous
 62
     7
370
    25
100
AcDbLine
 10
75.1658427746
 20
66.1783156069
 30
0.0
 11
75.1658427746
 21
63.1783156069
 31
0.0
  0
LINE
  5
132
330
1F
100
AcDbEntity
  8
0
  6
Continuous
 62
     7
370
    25
100
AcDbLine
 10
79.6658427746
 20
63.1783156069
 30
0.0
 11
79.6658427746
 21
61.2612825071
 31
0.0
  0
LINE
  5
133
330
1F
100
AcDbEntity
  8
0
  6
Continuous
 62
     7
370
    25
100
AcDbLine
 10
79.6658427746
 20
65.0953487068
 30
0.0
 11
79.6658427746
 21
63.1783156069
 31
0.0
  0
LINE
  5
134
330
1F
100
AcDbEntity
  8
0
  6
Continuous
 62
     8
370
    25
100
AcDbLine
 10
79.2373231559
 20
63.1783156069
 30
0.0
 11
79.2373231559
 21
65.5902128852
 31
0.0
  0
LINE
  5
135
330
1F
100
AcDbEntity
  8
0
  6
Continuous
 62
     8
370
    25
100
AcDbLine
 10
79.2373231559
 20
60.7664183287
 30
0.0
 11
79.2373231559
 21
63.1783156069
 31
0.0
  0
LINE
  5
136
330
1F
100
AcDbEntity
  8
0
  6
Continuous
 62
     7
370
    18
100
AcDbLine
 10
43.5310684971
 20
68.9278539108
 30
0.0
 11
53.1658427746
 21
69.2289406069
 31
0.0
  0
LINE
  5
137
330
1F
100
AcDbEntity
  8
0
  6
Continuous
 62
     7
370
    18
100
AcDbLine
 10
43.5310684971
 20
57.4287773031
 30
0.0
 11
53.1658427746
 21
57.1276906069
 31
0.0
  0
LINE
  5
138
330
1F
100
AcDbEntity
  8
0
  6
Continuous
 62
     7
370
    18
100
AcDbLine
 10
53.1658427746
 20
56.4595031069
 30
0.0
 11
53.1658427746
 21
69.8971281069
 31
0.0
  0
LINE
  5
139
330
1F
100
AcDbEntity
  8
0
  6
CENTERX2
 62
     7
370
    18
100
AcDbLine
 10
80.6658427746
 20
63.1783156069
 30
0.0
 11
41.8539047675
 21
63.1783156069
 31
0.0
  0
ENDSEC
  0
SECTION
  2
OBJECTS
  0
DICTIONARY
  5
C
330
0
100
AcDbDictionary
281
     1
  3
ACAD_GROUP
350
D
  3
ACAD_LAYOUT
350
1A
  3
ACAD_MLINESTYLE
350
17
  3
ACAD_PLOTSETTINGS
350
19
  3
ACAD_PLOTSTYLENAME
350
E
  3
ACAD_SCALELIST
350
47
  0
DICTIONARY
  5
D
102
{ACAD_REACTORS
330
C
102
}
330
C
100
AcDbDictionary
281
     1
  0
DICTIONARY
  5
1A
102
{ACAD_REACTORS
330
C
102
}
330
C
100
AcDbDictionary
281
     1
  3
Layout1
350
1E
  3
Layout2
350
26
  3
Model
350
22
  0
DICTIONARY
  5
17
102
{ACAD_REACTORS
330
C
102
}
330
C
100
AcDbDictionary
281
     1
  3
Standard
350
18
  0
DICTIONARY
  5
19
102
{ACAD_REACTORS
330
C
102
}
330
C
100
AcDbDictionary
281
     1
  0
ACDBDICTIONARYWDFLT
  5
E
102
{ACAD_REACTORS
330
C
102
}
330
C
100
AcDbDictionary
281
     1
  3
Normal
350
F
100
AcDbDictionaryWithDefault
340
F
  0
DICTIONARY
  5
47
102
{ACAD_REACTORS
330
C
102
}
330
C
100
AcDbDictionary
281
     1
  3
A0
350
48
  3
A1
350
49
  3
A2
350
4A
  3
A3
350
4B
  3
A4
350
4C
  3
A5
350
4D
  3
A6
350
4E
  3
A7
350
4F
  3
A8
350
50
  3
A9
350
51
  3
B0
350
52
  3
B1
350
53
  3
B2
350
54
  3
B3
350
55
  3
B4
350
56
  3
B5
350
57
  3
B6
350
58
  3
B7
350
59
  3
B8
350
5A
  3
B9
350
5B
  3
C0
350
5C
  3
C1
350
5D
  3
C2
350
5E
  3
C3
350
5F
  3
C4
350
60
  3
C5
350
61
  3
C6
350
62
  3
C7
350
63
  3
C8
350
64
  3
C9
350
65
  3
D0
350
66
  3
D1
350
67
  3
D2
350
68
  0
LAYOUT
  5
1E
102
{ACAD_REACTORS
330
1A
102
}
330
1A
100
AcDbPlotSettings
  1

  2
none_device
  4

  6

 40
0.0
 41
0.0
 42
0.0
 43
0.0
 44
0.0
 45
0.0
 46
0.0
 47
0.0
 48
0.0
 49
0.0
140
0.0
141
0.0
142
1.0
143
1.0
 70
   688
 72
     1
 73
     0
 74
     5
  7

 75
    16
147
1.0
148
0.0
149
0.0
100
AcDbLayout
  1
Layout1
 70
     1
 71
     1
 10
0.0
 20
0.0
 11
420.0
 21
297.0
 12
0.0
 22
0.0
 32
0.0
 14
1.0000000000E+20
 24
1.0000000000E+20
 34
1.0000000000E+20
 15
-1.0000000000E+20
 25
-1.0000000000E+20
 35
-1.0000000000E+20
146
0.0
 13
0.0
 23
0.0
 33
0.0
 16
1.0
 26
0.0
 36
0.0
 17
0.0
 27
1.0
 37
0.0
 76
     0
330
1B
  0
LAYOUT
  5
26
102
{ACAD_REACTORS
330
1A
102
}
330
1A
100
AcDbPlotSettings
  1

  2
none_device
  4

  6

 40
0.0
 41
0.0
 42
0.0
 43
0.0
 44
0.0
 45
0.0
 46
0.0
 47
0.0
 48
0.0
 49
0.0
140
0.0
141
0.0
142
1.0
143
1.0
 70
   688
 72
     1
 73
     0
 74
     5
  7

 75
    16
147
1.0
148
0.0
149
0.0
100
AcDbLayout
  1
Layout2
 70
     1
 71
     2
 10
0.0
 20
0.0
 11
0.0
 21
0.0
 12
0.0
 22
0.0
 32
0.0
 14
0.0
 24
0.0
 34
0.0
 15
0.0
 25
0.0
 35
0.0
146
0.0
 13
0.0
 23
0.0
 33
0.0
 16
1.0
 26
0.0
 36
0.0
 17
0.0
 27
1.0
 37
0.0
 76
     0
330
23
  0
LAYOUT
  5
22
102
{ACAD_REACTORS
330
1A
102
}
330
1A
100
AcDbPlotSettings
  1

  2
none_device
  4
Letter_(8.50_x_11.00_Inches)
  6

 40
6.35
 41
6.35
 42
6.35000508
 43
6.35000508
 44
215.9
 45
279.4
 46
0.0
 47
0.0
 48
0.0
 49
0.0
140
0.0
141
0.0
142
1.0
143
1.0
 70
  1712
 72
     1
 73
     0
 74
     0
  7

 75
     0
147
1.0
148
0.0
149
0.0
100
AcDbLayout
  1
Model
 70
     1
 71
     0
 10
0.0
 20
0.0
 11
215.9
 21
139.7
 12
0.0
 22
0.0
 32
0.0
 14
0.0
 24
0.0
 34
0.0
 15
215.9
 25
139.7
 35
0.0
146
0.0
 13
0.0
 23
0.0
 33
0.0
 16
1.0
 26
0.0
 36
0.0
 17
0.0
 27
1.0
 37
0.0
 76
     0
330
1F
331
29
  0
MLINESTYLE
  5
18
102
{ACAD_REACTORS
330
17
102
}
330
17
100
AcDbMlineStyle
  2
Standard
 70
     0
  3

 62
   256
 51
90.0
 52
90.0
 71
     2
 49
0.5
 62
   256
  6
BYLAYER
 49
-0.5
 62
   256
  6
BYLAYER
  0
ACDBPLACEHOLDER
  5
F
102
{ACAD_REACTORS
330
E
102
}
330
E
  0
SCALE
  5
48
102
{ACAD_REACTORS
330
47
102
}
330
47
100
AcDbScale
 70
     0
300
1:1
140
1.0
141
1.0
290
     1
  0
SCALE
  5
49
102
{ACAD_REACTORS
330
47
102
}
330
47
100
AcDbScale
 70
     0
300
1:2
140
1.0
141
2.0
290
     0
  0
SCALE
  5
4A
102
{ACAD_REACTORS
330
47
102
}
330
47
100
AcDbScale
 70
     0
300
1:4
140
1.0
141
4.0
290
     0
  0
SCALE
  5
4B
102
{ACAD_REACTORS
330
47
102
}
330
47
100
AcDbScale
 70
     0
300
1:5
140
1.0
141
5.0
290
     0
  0
SCALE
  5
4C
102
{ACAD_REACTORS
330
47
102
}
330
47
100
AcDbScale
 70
     0
300
1:8
140
1.0
141
8.0
290
     0
  0
SCALE
  5
4D
102
{ACAD_REACTORS
330
47
102
}
330
47
100
AcDbScale
 70
     0
300
1:10
140
1.0
141
10.0
290
     0
  0
SCALE
  5
4E
102
{ACAD_REACTORS
330
47
102
}
330
47
100
AcDbScale
 70
     0
300
1:16
140
1.0
141
16.0
290
     0
  0
SCALE
  5
4F
102
{ACAD_REACTORS
330
47
102
}
330
47
100
AcDbScale
 70
     0
300
1:20
140
1.0
141
20.0
290
     0
  0
SCALE
  5
50
102
{ACAD_REACTORS
330
47
102
}
330
47
100
AcDbScale
 70
     0
300
1:30
140
1.0
141
30.0
290
     0
  0
SCALE
  5
51
102
{ACAD_REACTORS
330
47
102
}
330
47
100
AcDbScale
 70
     0
300
1:40
140
1.0
141
40.0
290
     0
  0
SCALE
  5
52
102
{ACAD_REACTORS
330
47
102
}
330
47
100
AcDbScale
 70
     0
300
1:50
140
1.0
141
50.0
290
     0
  0
SCALE
  5
53
102
{ACAD_REACTORS
330
47
102
}
330
47
100
AcDbScale
 70
     0
300
1:100
140
1.0
141
100.0
290
     0
  0
SCALE
  5
54
102
{ACAD_REACTORS
330
47
102
}
330
47
100
AcDbScale
 70
     0
300
2:1
140
2.0
141
1.0
290
     0
  0
SCALE
  5
55
102
{ACAD_REACTORS
330
47
102
}
330
47
100
AcDbScale
 70
     0
300
4:1
140
4.0
141
1.0
290
     0
  0
SCALE
  5
56
102
{ACAD_REACTORS
330
47
102
}
330
47
100
AcDbScale
 70
     0
300
8:1
140
8.0
141
1.0
290
     0
  0
SCALE
  5
57
102
{ACAD_REACTORS
330
47
102
}
330
47
100
AcDbScale
 70
     0
300
10:1
140
10.0
141
1.0
290
     0
  0
SCALE
  5
58
102
{ACAD_REACTORS
330
47
102
}
330
47
100
AcDbScale
 70
     0
300
100:1
140
100.0
141
1.0
290
     0
  0
SCALE
  5
59
102
{ACAD_REACTORS
330
47
102
}
330
47
100
AcDbScale
 70
     0
300
1/128" = 1'-0"
140
0.0078125
141
12.0
290
     0
  0
SCALE
  5
5A
102
{ACAD_REACTORS
330
47
102
}
330
47
100
AcDbScale
 70
     0
300
1/64" = 1'-0"
140
0.015625
141
12.0
290
     0
  0
SCALE
  5
5B
102
{ACAD_REACTORS
330
47
102
}
330
47
100
AcDbScale
 70
     0
300
1/32" = 1'-0"
140
0.03125
141
12.0
290
     0
  0
SCALE
  5
5C
102
{ACAD_REACTORS
330
47
102
}
330
47
100
AcDbScale
 70
     0
300
1/16" = 1'-0"
140
0.0625
141
12.0
290
     0
  0
SCALE
  5
5D
102
{ACAD_REACTORS
330
47
102
}
330
47
100
AcDbScale
 70
     0
300
3/32" = 1'-0"
140
0.09375
141
12.0
290
     0
  0
SCALE
  5
5E
102
{ACAD_REACTORS
330
47
102
}
330
47
100
AcDbScale
 70
     0
300
1/8" = 1'-0"
140
0.125
141
12.0
290
     0
  0
SCALE
  5
5F
102
{ACAD_REACTORS
330
47
102
}
330
47
100
AcDbScale
 70
     0
300
3/16" = 1'-0"
140
0.1875
141
12.0
290
     0
  0
SCALE
  5
60
102
{ACAD_REACTORS
330
47
102
}
330
47
100
AcDbScale
 70
     0
300
1/4" = 1'-0"
140
0.25
141
12.0
290
     0
  0
SCALE
  5
61
102
{ACAD_REACTORS
330
47
102
}
330
47
100
AcDbScale
 70
     0
300
3/8" = 1'-0"
140
0.375
141
12.0
290
     0
  0
SCALE
  5
62
102
{ACAD_REACTORS
330
47
102
}
330
47
100
AcDbScale
 70
     0
300
1/2" = 1'-0"
140
0.5
141
12.0
290
     0
  0
SCALE
  5
63
102
{ACAD_REACTORS
330
47
102
}
330
47
100
AcDbScale
 70
     0
300
3/4" = 1'-0"
140
0.75
141
12.0
290
     0
  0
SCALE
  5
64
102
{ACAD_REACTORS
330
47
102
}
330
47
100
AcDbScale
 70
     0
300
1" = 1'-0"
140
1.0
141
12.0
290
     0
  0
SCALE
  5
65
102
{ACAD_REACTORS
330
47
102
}
330
47
100
AcDbScale
 70
     0
300
1-1/2" = 1'-0"
140
1.5
141
12.0
290
     0
  0
SCALE
  5
66
102
{ACAD_REACTORS
330
47
102
}
330
47
100
AcDbScale
 70
     0
300
3" = 1'-0"
140
3.0
141
12.0
290
     0
  0
SCALE
  5
67
102
{ACAD_REACTORS
330
47
102
}
330
47
100
AcDbScale
 70
     0
300
6" = 1'-0"
140
6.0
141
12.0
290
     0
  0
SCALE
  5
68
102
{ACAD_REACTORS
330
47
102
}
330
47
100
AcDbScale
 70
     0
300
1'-0" = 1'-0"
140
12.0
141
12.0
290
     0
  0
ENDSEC
  0
EOF
