  0
SECTION
  2
HEADER
  9
$ACADVER
  1
AC1015
  9
$ACADMAINTVER
 70
     6
  9
$DWGCODEPAGE
  3
DOS932
  9
$INSBASE
 10
0.0
 20
0.0
 30
0.0
  9
$EXTMIN
 10
0.0
 20
0.0
 30
0.0
  9
$EXTMAX
 10
215.9
 20
139.7
 30
0.0
  9
$LIMMIN
 10
0.0
 20
0.0
  9
$LIMMAX
 10
215.9
 20
139.7
  9
$ORTHOMODE
 70
     0
  9
$REGENMODE
 70
     1
  9
$FILLMODE
 70
     1
  9
$QTEXTMODE
 70
     0
  9
$MIRRTEXT
 70
     1
  9
$LTSCALE
 40
0.5
  9
$ATTMODE
 70
     1
  9
$TEXTSIZE
 40
1.75
  9
$TRACEWID
 40
1.0
  9
$TEXTSTYLE
  7
Standard
  9
$CLAYER
  8
0
  9
$CELTYPE
  6
ByLayer
  9
$CECOLOR
 62
   256
  9
$CELTSCALE
 40
1.0
  9
$DISPSILH
 70
     0
  9
$DIMSCALE
 40
1.0
  9
$DIMASZ
 40
1.651
  9
$DIMEXO
 40
0.5
  9
$DIMDLI
 40
3.75
  9
$DIMRND
 40
0.0
  9
$DIMDLE
 40
0.0
  9
$DIMEXE
 40
0.5
  9
$DIMTP
 40
0.0
  9
$DIMTM
 40
0.0
  9
$DIMTXT
 40
1.75
  9
$DIMCEN
 40
2.5
  9
$DIMTSZ
 40
0.0
  9
$DIMTOL
 70
     0
  9
$DIMLIM
 70
     0
  9
$DIMTIH
 70
     1
  9
$DIMTOH
 70
     1
  9
$DIMSE1
 70
     0
  9
$DIMSE2
 70
     0
  9
$DIMTAD
 70
     1
  9
$DIMZIN
 70
     1
  9
$DIMBLK
  1

  9
$DIMASO
 70
     1
  9
$DIMSHO
 70
     1
  9
$DIMPOST
  1

  9
$DIMAPOST
  1

  9
$DIMALT
 70
     0
  9
$DIMALTD
 70
     3
  9
$DIMALTF
 40
0.0393700787
  9
$DIMLFAC
 40
1.0
  9
$DIMTOFL
 70
     1
  9
$DIMTVP
 40
0.0
  9
$DIMTIX
 70
     0
  9
$DIMSOXD
 70
     0
  9
$DIMSAH
 70
     0
  9
$DIMBLK1
  1

  9
$DIMBLK2
  1

  9
$DIMSTYLE
  2
ISO-25
  9
$DIMCLRD
 70
     0
  9
$DIMCLRE
 70
     0
  9
$DIMCLRT
 70
     0
  9
$DIMTFAC
 40
1.0
  9
$DIMGAP
 40
0.762
  9
$DIMJUST
 70
     0
  9
$DIMSD1
 70
     0
  9
$DIMSD2
 70
     0
  9
$DIMTOLJ
 70
     0
  9
$DIMTZIN
 70
     1
  9
$DIMALTZ
 70
     0
  9
$DIMALTTZ
 70
     0
  9
$DIMUPT
 70
     0
  9
$DIMDEC
 70
     2
  9
$DIMTDEC
 70
     2
  9
$DIMALTU
 70
     2
  9
$DIMALTTD
 70
     3
  9
$DIMTXSTY
  7
Standard
  9
$DIMAUNIT
 70
     0
  9
$DIMADEC
 70
     2
  9
$DIMALTRND
 40
0.0
  9
$DIMAZIN
 70
     0
  9
$DIMDSEP
 70
    44
  9
$DIMATFIT
 70
     3
  9
$DIMFRAC
 70
     0
  9
$DIMLDRBLK
  1

  9
$DIMLUNIT
 70
     2
  9
$DIMLWD
 70
    -2
  9
$DIMLWE
 70
    -2
  9
$DIMTMOVE
 70
     0
  9
$LUNITS
 70
     2
  9
$LUPREC
 70
     2
  9
$SKETCHINC
 40
1.0
  9
$FILLETRAD
 40
10.0
  9
$AUNITS
 70
     0
  9
$AUPREC
 70
     2
  9
$MENU
  1
.
  9
$ELEVATION
 40
0.0
  9
$PELEVATION
 40
0.0
  9
$THICKNESS
 40
0.0
  9
$LIMCHECK
 70
     0
  9
$CHAMFERA
 40
0.0
  9
$CHAMFERB
 40
0.0
  9
$CHAMFERC
 40
0.0
  9
$CHAMFERD
 40
0.0
  9
$SKPOLY
 70
     0
  9
$TDCREATE
 40
2460066.384594502
  9
$TDUCREATE
 40
2460066.009594502
  9
$TDUPDATE
 40
2460066.384595046
  9
$TDUUPDATE
 40
2460066.009595046
  9
$TDINDWG
 40
0.0000000116
  9
$TDUSRTIMER
 40
0.0000000116
  9
$USRTIMER
 70
     1
  9
$ANGBASE
 50
0.0
  9
$ANGDIR
 70
     0
  9
$PDMODE
 70
     0
  9
$PDSIZE
 40
-1.0
  9
$PLINEWID
 40
0.0
  9
$SPLFRAME
 70
     0
  9
$SPLINETYPE
 70
     6
  9
$SPLINESEGS
 70
     8
  9
$HANDSEED
  5
146
  9
$SURFTAB1
 70
     6
  9
$SURFTAB2
 70
     6
  9
$SURFTYPE
 70
     6
  9
$SURFU
 70
     6
  9
$SURFV
 70
     6
  9
$UCSBASE
  2

  9
$UCSNAME
  2

  9
$UCSORG
 10
0.0
 20
0.0
 30
0.0
  9
$UCSXDIR
 10
1.0
 20
0.0
 30
0.0
  9
$UCSYDIR
 10
0.0
 20
1.0
 30
0.0
  9
$UCSORTHOREF
  2

  9
$UCSORTHOVIEW
 70
     0
  9
$UCSORGTOP
 10
0.0
 20
0.0
 30
0.0
  9
$UCSORGBOTTOM
 10
0.0
 20
0.0
 30
0.0
  9
$UCSORGLEFT
 10
0.0
 20
0.0
 30
0.0
  9
$UCSORGRIGHT
 10
0.0
 20
0.0
 30
0.0
  9
$UCSORGFRONT
 10
0.0
 20
0.0
 30
0.0
  9
$UCSORGBACK
 10
0.0
 20
0.0
 30
0.0
  9
$PUCSBASE
  2

  9
$PUCSNAME
  2

  9
$PUCSORG
 10
0.0
 20
0.0
 30
0.0
  9
$PUCSXDIR
 10
1.0
 20
0.0
 30
0.0
  9
$PUCSYDIR
 10
0.0
 20
1.0
 30
0.0
  9
$PUCSORTHOREF
  2

  9
$PUCSORTHOVIEW
 70
     0
  9
$PUCSORGTOP
 10
0.0
 20
0.0
 30
0.0
  9
$PUCSORGBOTTOM
 10
0.0
 20
0.0
 30
0.0
  9
$PUCSORGLEFT
 10
0.0
 20
0.0
 30
0.0
  9
$PUCSORGRIGHT
 10
0.0
 20
0.0
 30
0.0
  9
$PUCSORGFRONT
 10
0.0
 20
0.0
 30
0.0
  9
$PUCSORGBACK
 10
0.0
 20
0.0
 30
0.0
  9
$USERI1
 70
     0
  9
$USERI2
 70
     0
  9
$USERI3
 70
     0
  9
$USERI4
 70
     0
  9
$USERI5
 70
     0
  9
$USERR1
 40
0.0
  9
$USERR2
 40
0.0
  9
$USERR3
 40
0.0
  9
$USERR4
 40
0.0
  9
$USERR5
 40
0.0
  9
$WORLDVIEW
 70
     1
  9
$SHADEDGE
 70
     3
  9
$SHADEDIF
 70
    70
  9
$TILEMODE
 70
     1
  9
$MAXACTVP
 70
    64
  9
$PINSBASE
 10
0.0
 20
0.0
 30
0.0
  9
$PLIMCHECK
 70
     0
  9
$PEXTMIN
 10
1.0000000000E+20
 20
1.0000000000E+20
 30
1.0000000000E+20
  9
$PEXTMAX
 10
-1.0000000000E+20
 20
-1.0000000000E+20
 30
-1.0000000000E+20
  9
$PLIMMIN
 10
0.0
 20
0.0
  9
$PLIMMAX
 10
420.0
 20
297.0
  9
$UNITMODE
 70
     0
  9
$VISRETAIN
 70
     1
  9
$PLINEGEN
 70
     0
  9
$PSLTSCALE
 70
     1
  9
$TREEDEPTH
 70
  3020
  9
$CMLSTYLE
  2
Standard
  9
$CMLJUST
 70
     0
  9
$CMLSCALE
 40
20.0
  9
$PROXYGRAPHICS
 70
     1
  9
$MEASUREMENT
 70
     1
  9
$CELWEIGHT
370
    -1
  9
$ENDCAPS
280
     0
  9
$JOINSTYLE
280
     0
  9
$LWDISPLAY
290
     1
  9
$INSUNITS
 70
     4
  9
$HYPERLINKBASE
  1

  9
$STYLESHEET
  1

  9
$XEDIT
290
     1
  9
$CEPSNTYPE
380
     0
  9
$PSTYLEMODE
290
     1
  9
$FINGERPRINTGUID
  2
{790038EC-5219-4FE5-A288-0E3024A04259}
  9
$VERSIONGUID
  2
{FAEB1C32-E019-11D5-929B-00C0DF256EC4}
  9
$EXTNAMES
290
     1
  9
$PSVPSCALE
 40
0.0
  9
$OLESTARTUP
290
     0
  0
ENDSEC
  0
SECTION
  2
CLASSES
  0
CLASS
  1
ACDBDICTIONARYWDFLT
  2
AcDbDictionaryWithDefault
  3
ObjectDBX Classes
 90
        0
280
     0
281
     0
  0
CLASS
  1
VISUALSTYLE
  2
AcDbVisualStyle
  3
ObjectDBX Classes
 90
     4095
280
     0
281
     0
  0
CLASS
  1
MATERIAL
  2
AcDbMaterial
  3
ObjectDBX Classes
 90
     1153
280
     0
281
     0
  0
CLASS
  1
SCALE
  2
AcDbScale
  3
ObjectDBX Classes
 90
     1153
280
     0
281
     0
  0
CLASS
  1
TABLESTYLE
  2
AcDbTableStyle
  3
ObjectDBX Classes
 90
     4095
280
     0
281
     0
  0
CLASS
  1
MLEADERSTYLE
  2
AcDbMLeaderStyle
  3
ACDB_MLEADERSTYLE_CLASS
 90
     4095
280
     0
281
     0
  0
CLASS
  1
SUN
  2
AcDbSun
  3
SCENEOE
 90
     1153
280
     0
281
     0
  0
CLASS
  1
ACDBPLACEHOLDER
  2
AcDbPlaceHolder
  3
ObjectDBX Classes
 90
        0
280
     0
281
     0
  0
CLASS
  1
LAYOUT
  2
AcDbLayout
  3
ObjectDBX Classes
 90
        0
280
     0
281
     0
  0
ENDSEC
  0
SECTION
  2
TABLES
  0
TABLE
  2
VPORT
  5
8
330
0
100
AcDbSymbolTable
 70
     1
  0
VPORT
  5
29
330
8
100
AcDbSymbolTableRecord
100
AcDbViewportTableRecord
  2
*Active
 70
     0
 10
0.0
 20
0.0
 11
1.0
 21
1.0
 12
107.95
 22
69.85
 13
0.0
 23
0.0
 14
10.0
 24
10.0
 15
10.0
 25
10.0
 16
0.0
 26
0.0
 36
1.0
 17
0.0
 27
0.0
 37
0.0
 40
139.7
 41
1.5454545455
 42
50.0
 43
0.0
 44
0.0
 50
0.0
 51
0.0
 71
     0
 72
  2000
 73
     1
 74
     3
 75
     0
 76
     0
 77
     0
 78
     0
281
     0
 65
     1
110
0.0
120
0.0
130
0.0
111
1.0
121
0.0
131
0.0
112
0.0
122
1.0
132
0.0
 79
     0
146
0.0
  0
ENDTAB
  0
TABLE
  2
LTYPE
  5
5
330
0
100
AcDbSymbolTable
 70
     6
  0
LTYPE
  5
14
330
5
100
AcDbSymbolTableRecord
100
AcDbLinetypeTableRecord
  2
ByBlock
 70
     0
  3

 72
    65
 73
     0
 40
0.0
  0
LTYPE
  5
15
330
5
100
AcDbSymbolTableRecord
100
AcDbLinetypeTableRecord
  2
ByLayer
 70
     0
  3

 72
    65
 73
     0
 40
0.0
  0
LTYPE
  5
16
330
5
100
AcDbSymbolTableRecord
100
AcDbLinetypeTableRecord
  2
Continuous
 70
     0
  3
Solid line
 72
    65
 73
     0
 40
0.0
  0
LTYPE
  5
6E
330
5
100
AcDbSymbolTableRecord
100
AcDbLinetypeTableRecord
  2
HIDDEN
 70
     0
  3
Hidden __ __ __ __ __ __ __ __ __ __ __ __ __ __
 72
    65
 73
     2
 40
1.905
 49
1.27
 74
     0
 49
-0.635
 74
     0
  0
LTYPE
  5
6F
330
5
100
AcDbSymbolTableRecord
100
AcDbLinetypeTableRecord
  2
PHANTOM
 70
     0
  3
Phantom ______  __  __  ______  __  __  ______
 72
    65
 73
     6
 40
12.7
 49
6.35
 74
     0
 49
-1.27
 74
     0
 49
1.27
 74
     0
 49
-1.27
 74
     0
 49
1.27
 74
     0
 49
-1.27
 74
     0
  0
LTYPE
  5
70
330
5
100
AcDbSymbolTableRecord
100
AcDbLinetypeTableRecord
  2
CENTER
 70
     0
  3
Center ____ _ ____ _ ____ _ ____ _ ____ _ ____
 72
    65
 73
     4
 40
10.16
 49
6.35
 74
     0
 49
-1.27
 74
     0
 49
1.27
 74
     0
 49
-1.27
 74
     0
  0
LTYPE
  5
71
330
5
100
AcDbSymbolTableRecord
100
AcDbLinetypeTableRecord
  2
CENTERX2
 70
     0
  3
Center (2x) ________  __  ________  __  _____
 72
    65
 73
     4
 40
20.32
 49
12.7
 74
     0
 49
-2.54
 74
     0
 49
2.54
 74
     0
 49
-2.54
 74
     0
  0
LTYPE
  5
72
330
5
100
AcDbSymbolTableRecord
100
AcDbLinetypeTableRecord
  2
DOT2
 70
     0
  3
Dot (.5x) ........................................
 72
    65
 73
     2
 40
0.635
 49
0.0
 74
     0
 49
-0.635
 74
     0
  0
ENDTAB
  0
TABLE
  2
LAYER
  5
2
330
0
100
AcDbSymbolTable
 70
     1
  0
LAYER
  5
10
330
2
100
AcDbSymbolTableRecord
100
AcDbLayerTableRecord
  2
0
 70
     0
 62
     7
  6
Continuous
370
    -3
390
F
  0
ENDTAB
  0
TABLE
  2
STYLE
  5
3
330
0
100
AcDbSymbolTable
 70
     2
  0
STYLE
  5
11
330
3
100
AcDbSymbolTableRecord
100
AcDbTextStyleTableRecord
  2
Standard
 70
     0
 40
0.0
 41
1.0
 50
0.0
 71
     0
 42
1.75
  3
txt
  4
bigfont
  0
STYLE
  5
73
330
3
100
AcDbSymbolTableRecord
100
AcDbTextStyleTableRecord
  2
SLDTEXTSTYLE0
 70
     0
 40
0.0
 41
0.7
 50
0.0
 71
     0
 42
1.75
  3
TXT
  4
bigfont
  0
ENDTAB
  0
TABLE
  2
VIEW
  5
6
330
0
100
AcDbSymbolTable
 70
     0
  0
ENDTAB
  0
TABLE
  2
UCS
  5
7
330
0
100
AcDbSymbolTable
 70
     0
  0
ENDTAB
  0
TABLE
  2
APPID
  5
9
330
0
100
AcDbSymbolTable
 70
     1
  0
APPID
  5
12
330
9
100
AcDbSymbolTableRecord
100
AcDbRegAppTableRecord
  2
ACAD
 70
     0
  0
ENDTAB
  0
TABLE
  2
DIMSTYLE
  5
A
330
0
100
AcDbSymbolTable
 70
     1
100
AcDbDimStyleTable
  0
DIMSTYLE
105
27
330
A
100
AcDbSymbolTableRecord
100
AcDbDimStyleTableRecord
  2
ISO-25
 70
     0
 41
2.5
 42
0.625
 43
3.75
 44
1.25
 73
     0
 74
     0
 77
     1
 78
     8
140
2.5
141
2.5
143
0.0393700787
147
0.625
171
     3
172
     1
178
     0
271
     2
272
     2
274
     3
278
    44
283
     0
284
     8
340
11
  0
ENDTAB
  0
TABLE
  2
BLOCK_RECORD
  5
1
330
0
100
AcDbSymbolTable
 70
     3
  0
BLOCK_RECORD
  5
1F
330
1
100
AcDbSymbolTableRecord
100
AcDbBlockTableRecord
  2
*Model_Space
340
22
  0
BLOCK_RECORD
  5
1B
330
1
100
AcDbSymbolTableRecord
100
AcDbBlockTableRecord
  2
*Paper_Space
340
1E
  0
BLOCK_RECORD
  5
23
330
1
100
AcDbSymbolTableRecord
100
AcDbBlockTableRecord
  2
*Paper_Space0
340
26
  0
BLOCK_RECORD
  5
E9
330
1
100
AcDbSymbolTableRecord
100
AcDbBlockTableRecord
  2
SW_CENTERMARKSYMBOL_0
340
0
102
{BLKREFS
331
F4
102
}
  0
BLOCK_RECORD
  5
F5
330
1
100
AcDbSymbolTableRecord
100
AcDbBlockTableRecord
  2
SW_CENTERMARKSYMBOL_1
340
0
102
{BLKREFS
331
100
102
}
  0
ENDTAB
  0
ENDSEC
  0
SECTION
  2
BLOCKS
  0
BLOCK
  5
20
330
1F
100
AcDbEntity
  8
0
100
AcDbBlockBegin
  2
*Model_Space
 70
     0
 10
0.0
 20
0.0
 30
0.0
  3
*Model_Space
  1

  0
ENDBLK
  5
21
330
1F
100
AcDbEntity
  8
0
100
AcDbBlockEnd
  0
BLOCK
  5
1C
330
1B
100
AcDbEntity
 67
     1
  8
0
100
AcDbBlockBegin
  2
*Paper_Space
 70
     0
 10
0.0
 20
0.0
 30
0.0
  3
*Paper_Space
  1

  0
ENDBLK
  5
1D
330
1B
100
AcDbEntity
 67
     1
  8
0
100
AcDbBlockEnd
  0
BLOCK
  5
24
330
23
100
AcDbEntity
  8
0
100
AcDbBlockBegin
  2
*Paper_Space0
 70
     0
 10
0.0
 20
0.0
 30
0.0
  3
*Paper_Space0
  1

  0
ENDBLK
  5
25
330
23
100
AcDbEntity
  8
0
100
AcDbBlockEnd
  0
BLOCK
  5
EA
330
E9
100
AcDbEntity
  8
0
100
AcDbBlockBegin
  2
SW_CENTERMARKSYMBOL_0
 70
     0
 10
0.0
 20
0.0
 30
0.0
  3
SW_CENTERMARKSYMBOL_0
  1

  0
LINE
  5
EC
330
E9
100
AcDbEntity
  8
0
  6
Continuous
 62
     0
370
    18
100
AcDbLine
 10
0.0
 20
0.0
 30
0.0
 11
0.0
 21
2.5
 31
0.0
  0
LINE
  5
ED
330
E9
100
AcDbEntity
  8
0
  6
Continuous
 62
     0
370
    18
100
AcDbLine
 10
0.0
 20
0.0
 30
0.0
 11
-2.5
 21
0.0
 31
0.0
  0
LINE
  5
EE
330
E9
100
AcDbEntity
  8
0
  6
Continuous
 62
     0
370
    18
100
AcDbLine
 10
0.0
 20
0.0
 30
0.0
 11
0.0
 21
-2.5
 31
0.0
  0
LINE
  5
EF
330
E9
100
AcDbEntity
  8
0
  6
Continuous
 62
     0
370
    18
100
AcDbLine
 10
0.0
 20
0.0
 30
0.0
 11
2.5
 21
0.0
 31
0.0
  0
LINE
  5
F0
330
E9
100
AcDbEntity
  8
0
  6
Continuous
 62
     0
370
    18
100
AcDbLine
 10
0.0
 20
5.0
 30
0.0
 11
0.0
 21
5.25
 31
0.0
  0
LINE
  5
F1
330
E9
100
AcDbEntity
  8
0
  6
Continuous
 62
     0
370
    18
100
AcDbLine
 10
-5.0
 20
0.0
 30
0.0
 11
-5.25
 21
0.0
 31
0.0
  0
LINE
  5
F2
330
E9
100
AcDbEntity
  8
0
  6
Continuous
 62
     0
370
    18
100
AcDbLine
 10
0.0
 20
-5.0
 30
0.0
 11
0.0
 21
-5.25
 31
0.0
  0
LINE
  5
F3
330
E9
100
AcDbEntity
  8
0
  6
Continuous
 62
     0
370
    18
100
AcDbLine
 10
5.0
 20
0.0
 30
0.0
 11
5.25
 21
0.0
 31
0.0
  0
ENDBLK
  5
EB
330
E9
100
AcDbEntity
  8
0
100
AcDbBlockEnd
  0
BLOCK
  5
F6
330
F5
100
AcDbEntity
  8
0
100
AcDbBlockBegin
  2
SW_CENTERMARKSYMBOL_1
 70
     0
 10
0.0
 20
0.0
 30
0.0
  3
SW_CENTERMARKSYMBOL_1
  1

  0
LINE
  5
F8
330
F5
100
AcDbEntity
  8
0
  6
Continuous
 62
     0
370
    18
100
AcDbLine
 10
0.0
 20
0.0
 30
0.0
 11
0.0
 21
2.5
 31
0.0
  0
LINE
  5
F9
330
F5
100
AcDbEntity
  8
0
  6
Continuous
 62
     0
370
    18
100
AcDbLine
 10
0.0
 20
0.0
 30
0.0
 11
-2.5
 21
0.0
 31
0.0
  0
LINE
  5
FA
330
F5
100
AcDbEntity
  8
0
  6
Continuous
 62
     0
370
    18
100
AcDbLine
 10
0.0
 20
0.0
 30
0.0
 11
0.0
 21
-2.5
 31
0.0
  0
LINE
  5
FB
330
F5
100
AcDbEntity
  8
0
  6
Continuous
 62
     0
370
    18
100
AcDbLine
 10
0.0
 20
0.0
 30
0.0
 11
2.5
 21
0.0
 31
0.0
  0
LINE
  5
FC
330
F5
100
AcDbEntity
  8
0
  6
Continuous
 62
     0
370
    18
100
AcDbLine
 10
0.0
 20
5.0
 30
0.0
 11
0.0
 21
8.25
 31
0.0
  0
LINE
  5
FD
330
F5
100
AcDbEntity
  8
0
  6
Continuous
 62
     0
370
    18
100
AcDbLine
 10
-5.0
 20
0.0
 30
0.0
 11
-8.25
 21
0.0
 31
0.0
  0
LINE
  5
FE
330
F5
100
AcDbEntity
  8
0
  6
Continuous
 62
     0
370
    18
100
AcDbLine
 10
0.0
 20
-5.0
 30
0.0
 11
0.0
 21
-8.25
 31
0.0
  0
LINE
  5
FF
330
F5
100
AcDbEntity
  8
0
  6
Continuous
 62
     0
370
    18
100
AcDbLine
 10
5.0
 20
0.0
 30
0.0
 11
8.25
 21
0.0
 31
0.0
  0
ENDBLK
  5
F7
330
F5
100
AcDbEntity
  8
0
100
AcDbBlockEnd
  0
ENDSEC
  0
SECTION
  2
ENTITIES
  0
MTEXT
  5
74
330
1F
100
AcDbEntity
  8
0
  6
Continuous
 62
     7
370
     0
100
AcDbMText
 10
85.0110494302
 20
49.5827628438
 30
0.0
 40
1.8520833333
 41
0.0
 71
     1
 72
     1
  1
エースニップル　HN-8109
  7
SLDTEXTSTYLE0
 73
     1
 44
1.0
  0
LINE
  5
75
330
1F
100
AcDbEntity
  8
0
  6
Continuous
 62
     7
370
    25
100
AcDbLine
 10
63.6551509386
 20
29.7611652211
 30
0.0
 11
64.3353868907
 21
30.9393684514
 31
0.0
  0
LINE
  5
76
330
1F
100
AcDbEntity
  8
0
  6
Continuous
 62
     7
370
    25
100
AcDbLine
 10
64.3353868907
 20
42.4393684514
 30
0.0
 11
63.6551509386
 21
43.6175716817
 31
0.0
  0
LINE
  5
77
330
1F
100
AcDbEntity
  8
0
  6
Continuous
 62
     7
370
    25
100
AcDbLine
 10
60.0156228429
 20
43.6175716817
 30
0.0
 11
59.3353868907
 21
42.4393684514
 31
0.0
  0
LINE
  5
78
330
1F
100
AcDbEntity
  8
0
  6
Continuous
 62
     7
370
    25
100
AcDbLine
 10
59.3353868907
 20
30.9393684514
 30
0.0
 11
60.0156228429
 21
29.7611652211
 31
0.0
  0
LINE
  5
79
330
1F
100
AcDbEntity
  8
0
  6
Continuous
 62
     7
370
    25
100
AcDbLine
 10
59.3353868907
 20
41.7105559514
 30
0.0
 11
51.6903349502
 21
41.4716480782
 31
0.0
  0
LINE
  5
7A
330
1F
100
AcDbEntity
  8
0
  6
Continuous
 62
     7
370
    25
100
AcDbLine
 10
51.6903349502
 20
31.9070888245
 30
0.0
 11
59.3353868907
 21
31.6681809514
 31
0.0
  0
LINE
  5
7B
330
1F
100
AcDbEntity
  8
0
  6
Continuous
 62
     7
370
    25
100
AcDbLine
 10
51.6903349502
 20
41.4716480782
 30
0.0
 11
50.3353868907
 21
40.6893684514
 31
0.0
  0
LINE
  5
7C
330
1F
100
AcDbEntity
  8
0
  6
Continuous
 62
     7
370
    25
100
AcDbLine
 10
50.3353868907
 20
32.6893684514
 30
0.0
 11
51.6903349502
 21
31.9070888245
 31
0.0
  0
LINE
  5
7D
330
1F
100
AcDbEntity
  8
0
  6
Continuous
 62
     7
370
    25
100
AcDbLine
 10
81.8353868907
 20
32.1893684514
 30
0.0
 11
86.9029434931
 21
32.8803988972
 31
0.0
  0
LINE
  5
7E
330
1F
100
AcDbEntity
  8
0
  6
Continuous
 62
     7
370
    25
100
AcDbLine
 10
86.9029434931
 20
40.4983380056
 30
0.0
 11
81.8353868907
 21
41.1893684514
 31
0.0
  0
LINE
  5
7F
330
1F
100
AcDbEntity
  8
0
  6
Continuous
 62
     7
370
    25
100
AcDbLine
 10
68.3353868907
 20
32.1893684514
 30
0.0
 11
72.8353868907
 21
32.9393684514
 31
0.0
  0
LINE
  5
80
330
1F
100
AcDbEntity
  8
0
  6
Continuous
 62
     7
370
    25
100
AcDbLine
 10
72.8353868907
 20
40.4393684514
 30
0.0
 11
68.3353868907
 21
41.1893684514
 31
0.0
  0
LINE
  5
81
330
1F
100
AcDbEntity
  8
0
  6
Continuous
 62
     7
370
    25
100
AcDbLine
 10
72.8353868907
 20
32.1893684514
 30
0.0
 11
77.3353868907
 21
32.9393684514
 31
0.0
  0
LINE
  5
82
330
1F
100
AcDbEntity
  8
0
  6
Continuous
 62
     7
370
    25
100
AcDbLine
 10
77.3353868907
 20
40.4393684514
 30
0.0
 11
72.8353868907
 21
41.1893684514
 31
0.0
  0
LINE
  5
83
330
1F
100
AcDbEntity
  8
0
  6
Continuous
 62
     7
370
    25
100
AcDbLine
 10
77.3353868907
 20
32.1893684514
 30
0.0
 11
81.8353868907
 21
32.9393684514
 31
0.0
  0
LINE
  5
84
330
1F
100
AcDbEntity
  8
0
  6
Continuous
 62
     7
370
    25
100
AcDbLine
 10
81.8353868907
 20
40.4393684514
 30
0.0
 11
77.3353868907
 21
41.1893684514
 31
0.0
  0
LINE
  5
85
330
1F
100
AcDbEntity
  8
0
  6
Continuous
 62
     7
370
    25
100
AcDbLine
 10
68.3353868907
 20
41.1893684514
 30
0.0
 11
64.3353868907
 21
41.1893684514
 31
0.0
  0
LINE
  5
86
330
1F
100
AcDbEntity
  8
0
  6
Continuous
 62
     7
370
    25
100
AcDbLine
 10
64.3353868907
 20
32.1893684514
 30
0.0
 11
68.3353868907
 21
32.1893684514
 31
0.0
  0
ARC
  5
87
330
1F
100
AcDbEntity
  8
0
  6
Continuous
 62
     7
370
    25
100
AcDbCircle
 10
86.8353868907
 20
40.0029229216
 30
0.0
 40
0.5
100
AcDbArc
 50
0.0
 51
82.2348339816
  0
ARC
  5
88
330
1F
100
AcDbEntity
  8
0
  6
Continuous
 62
     7
370
    25
100
AcDbCircle
 10
86.8353868907
 20
33.3758139812
 30
0.0
 40
0.5
100
AcDbArc
 50
277.7651660184
 51
0.0
  0
LINE
  5
89
330
1F
100
AcDbEntity
  8
0
  6
Continuous
 62
     7
370
    25
100
AcDbLine
 10
61.9157716485
 20
43.6175716817
 30
0.0
 11
61.8353868907
 21
43.3175716817
 31
0.0
  0
LINE
  5
8A
330
1F
100
AcDbEntity
  8
0
  6
Continuous
 62
     7
370
    25
100
AcDbLine
 10
61.8353868907
 20
43.3175716817
 30
0.0
 11
61.755002133
 21
43.6175716817
 31
0.0
  0
LINE
  5
8B
330
1F
100
AcDbEntity
  8
0
  6
Continuous
 62
     7
370
    25
100
AcDbLine
 10
61.8353868907
 20
30.0611652211
 30
0.0
 11
61.9157716485
 21
29.7611652211
 31
0.0
  0
LINE
  5
8C
330
1F
100
AcDbEntity
  8
0
  6
Continuous
 62
     7
370
    25
100
AcDbLine
 10
61.755002133
 20
29.7611652211
 30
0.0
 11
61.8353868907
 21
30.0611652211
 31
0.0
  0
SPLINE
  5
8D
330
1F
100
AcDbEntity
  8
0
  6
Continuous
 62
     7
370
    25
100
AcDbSpline
210
0.0
220
0.0
230
1.0
 70
     8
 71
     3
 72
     8
 73
     4
 74
     0
 42
0.000000001
 43
0.00000001
 40
0.0
 40
0.0
 40
0.0
 40
0.0
 40
1.0
 40
1.0
 40
1.0
 40
1.0
 10
61.83538689072455
 20
39.50594049232711
 30
0.0
 10
61.81076981839506
 20
39.72214209120951
 30
0.0
 10
61.78387384790369
 20
39.93796865263935
 30
0.0
 10
61.75500213299522
 20
40.15347006651957
 30
0.0
  0
SPLINE
  5
8E
330
1F
100
AcDbEntity
  8
0
  6
Continuous
 62
     7
370
    25
100
AcDbSpline
210
0.0
220
0.0
230
1.0
 70
     8
 71
     3
 72
     8
 73
     4
 74
     0
 42
0.000000001
 43
0.00000001
 40
0.0
 40
0.0
 40
0.0
 40
0.0
 40
1.0
 40
1.0
 40
1.0
 40
1.0
 10
61.75500213299522
 20
40.15347006651957
 30
0.0
 10
61.78389188164853
 20
40.26128807631162
 30
0.0
 10
61.81078592217928
 20
40.36920477062393
 30
0.0
 10
61.83538689072455
 20
40.4772348536158
 30
0.0
  0
LINE
  5
8F
330
1F
100
AcDbEntity
  8
0
  6
Continuous
 62
     7
370
    25
100
AcDbLine
 10
61.8353868907
 20
39.5059404923
 30
0.0
 11
61.8353868907
 21
40.4772348536
 31
0.0
  0
LINE
  5
90
330
1F
100
AcDbEntity
  8
0
  6
Continuous
 62
     7
370
    25
100
AcDbLine
 10
61.755002133
 20
33.2252668362
 30
0.0
 11
60.0156228429
 21
33.2252668362
 31
0.0
  0
SPLINE
  5
91
330
1F
100
AcDbEntity
  8
0
  6
Continuous
 62
     7
370
    25
100
AcDbSpline
210
0.0
220
0.0
230
1.0
 70
     8
 71
     3
 72
    14
 73
    10
 74
     0
 42
0.000000001
 43
0.00000001
 40
0.0
 40
0.0
 40
0.0
 40
0.0
 40
0.25
 40
0.25
 40
0.5
 40
0.5
 40
0.75
 40
0.75
 40
1.0
 40
1.0
 40
1.0
 40
1.0
 10
60.01562284288418
 20
33.22526683624404
 30
0.0
 10
59.85284115305214
 20
33.78915915090608
 30
0.0
 10
59.71644792410321
 20
34.36629572436131
 30
0.0
 10
59.52999065076514
 20
35.52288171039555
 30
0.0
 10
59.47965907357781
 20
36.10465888592172
 30
0.0
 10
59.47978997215969
 20
37.27639992577205
 30
0.0
 10
59.53159833034672
 20
37.87004645523569
 30
0.0
 10
59.71936845697855
 20
39.02623481154058
 30
0.0
 10
59.85396305133418
 20
39.59346412150834
 30
0.0
 10
60.0156228428842
 20
40.15347006651957
 30
0.0
  0
LINE
  5
92
330
1F
100
AcDbEntity
  8
0
  6
Continuous
 62
     7
370
    25
100
AcDbLine
 10
61.755002133
 20
40.1534700665
 30
0.0
 11
60.0156228429
 21
40.1534700665
 31
0.0
  0
SPLINE
  5
93
330
1F
100
AcDbEntity
  8
0
  6
Continuous
 62
     7
370
    25
100
AcDbSpline
210
0.0
220
0.0
230
1.0
 70
     8
 71
     3
 72
     8
 73
     4
 74
     0
 42
0.000000001
 43
0.00000001
 40
0.0
 40
0.0
 40
0.0
 40
0.0
 40
1.0
 40
1.0
 40
1.0
 40
1.0
 10
61.91577164845388
 20
40.15347006651957
 30
0.0
 10
61.88687911034502
 20
39.93781322615576
 30
0.0
 10
61.8599853720152
 20
39.72197881377874
 30
0.0
 10
61.83538689072455
 20
39.50594049232711
 30
0.0
  0
LINE
  5
94
330
1F
100
AcDbEntity
  8
0
  6
Continuous
 62
     7
370
    25
100
AcDbLine
 10
63.6551509386
 20
40.1534700665
 30
0.0
 11
61.9157716485
 21
40.1534700665
 31
0.0
  0
SPLINE
  5
95
330
1F
100
AcDbEntity
  8
0
  6
Continuous
 62
     7
370
    25
100
AcDbSpline
210
0.0
220
0.0
230
1.0
 70
     8
 71
     3
 72
    14
 73
    10
 74
     0
 42
0.000000001
 43
0.00000001
 40
0.0
 40
0.0
 40
0.0
 40
0.0
 40
0.25
 40
0.25
 40
0.5
 40
0.5
 40
0.75
 40
0.75
 40
1.0
 40
1.0
 40
1.0
 40
1.0
 10
63.65515093856492
 20
33.22526683624404
 30
0.0
 10
63.81793262839695
 20
33.78915915090608
 30
0.0
 10
63.95432585734588
 20
34.36629572436131
 30
0.0
 10
64.14078313068396
 20
35.52288171039555
 30
0.0
 10
64.19111470787128
 20
36.10465888592172
 30
0.0
 10
64.19098380928942
 20
37.27639992577205
 30
0.0
 10
64.13917545110237
 20
37.87004645523569
 30
0.0
 10
63.95140532447055
 20
39.02623481154057
 30
0.0
 10
63.81681073011492
 20
39.59346412150834
 30
0.0
 10
63.6551509385649
 20
40.15347006651957
 30
0.0
  0
LINE
  5
96
330
1F
100
AcDbEntity
  8
0
  6
Continuous
 62
     7
370
    25
100
AcDbLine
 10
63.6551509386
 20
33.2252668362
 30
0.0
 11
61.9157716485
 21
33.2252668362
 31
0.0
  0
SPLINE
  5
97
330
1F
100
AcDbEntity
  8
0
  6
Continuous
 62
     7
370
    25
100
AcDbSpline
210
0.0
220
0.0
230
1.0
 70
     8
 71
     3
 72
     8
 73
     4
 74
     0
 42
0.000000001
 43
0.00000001
 40
0.0
 40
0.0
 40
0.0
 40
0.0
 40
1.0
 40
1.0
 40
1.0
 40
1.0
 10
61.83538689072455
 20
33.87279641043651
 30
0.0
 10
61.86000396305403
 20
33.6565948115541
 30
0.0
 10
61.8868999335454
 20
33.44076825012426
 30
0.0
 10
61.91577164845388
 20
33.22526683624405
 30
0.0
  0
SPLINE
  5
98
330
1F
100
AcDbEntity
  8
0
  6
Continuous
 62
     7
370
    25
100
AcDbSpline
210
0.0
220
0.0
230
1.0
 70
     8
 71
     3
 72
     8
 73
     4
 74
     0
 42
0.000000001
 43
0.00000001
 40
0.0
 40
0.0
 40
0.0
 40
0.0
 40
1.0
 40
1.0
 40
1.0
 40
1.0
 10
61.75500213299522
 20
33.22526683624405
 30
0.0
 10
61.78389467110408
 20
33.44092367660785
 30
0.0
 10
61.81078840943391
 20
33.65675808898487
 30
0.0
 10
61.83538689072455
 20
33.87279641043651
 30
0.0
  0
LINE
  5
99
330
1F
100
AcDbEntity
  8
0
  6
Continuous
 62
     7
370
    25
100
AcDbLine
 10
61.7893532369
 20
36.092022051
 30
0.0
 11
62.4738484292
 21
35.6443057048
 31
0.0
  0
SPLINE
  5
9A
330
1F
100
AcDbEntity
  8
0
  6
Continuous
 62
     7
370
    25
100
AcDbSpline
210
0.0
220
0.0
230
1.0
 70
     8
 71
     3
 72
    19
 73
    15
 74
     0
 42
0.000000001
 43
0.00000001
 40
0.0
 40
0.0
 40
0.0
 40
0.0
 40
0.0978059775289525
 40
0.1996122522918966
 40
0.3052960258330041
 40
0.4158173591641854
 40
0.474240566618493
 40
0.5372869128296534
 40
0.6033858352934854
 40
0.6743111580696056
 40
0.749530467357482
 40
0.8286083142695116
 40
0.9120427387714447
 40
0.9999999999999999
 40
0.9999999999999999
 40
0.9999999999999999
 40
0.9999999999999999
 10
61.35365612149378
 20
36.25969032019409
 30
0.0
 10
61.3690981754571
 20
36.25914669949359
 30
0.0
 10
61.40061386856206
 20
36.2580372238239
 30
0.0
 10
61.44848334262446
 20
36.2514160008509
 30
0.0
 10
61.49727215580676
 20
36.23927186895187
 30
0.0
 10
61.53863172145278
 20
36.22612926398232
 30
0.0
 10
61.57288493525798
 20
36.21308783253729
 30
0.0
 10
61.59993379336504
 20
36.20099551722056
 30
0.0
 10
61.62849825604231
 20
36.18747483528109
 30
0.0
 10
61.65803785554791
 20
36.17162671316187
 30
0.0
 10
61.68939660222083
 20
36.15482642476217
 30
0.0
 10
61.72141318593752
 20
36.13520178141383
 30
0.0
 10
61.75525695119714
 20
36.11472316453349
 30
0.0
 10
61.77778960439885
 20
36.09972105186494
 30
0.0
 10
61.7893532368784
 20
36.09202205096332
 30
0.0
  0
SPLINE
  5
9B
330
1F
100
AcDbEntity
  8
0
  6
Continuous
 62
     7
370
    25
100
AcDbSpline
210
0.0
220
0.0
230
1.0
 70
     8
 71
     3
 72
    19
 73
    15
 74
     0
 42
0.000000001
 43
0.00000001
 40
0.0
 40
0.0
 40
0.0
 40
0.0
 40
0.0843261511037433
 40
0.1670353409858406
 40
0.2495407139852792
 40
0.3327066655796642
 40
0.4158726171740492
 40
0.4977774155681174
 40
0.5803136056784763
 40
0.6645325781316563
 40
0.7495711764063215
 40
0.8324741628544073
 40
0.9156738488962566
 40
1.0
 40
1.0
 40
1.0
 40
1.0
 10
60.89692535226301
 20
35.80536339711717
 30
0.0
 10
60.89758029592817
 20
35.82554770128891
 30
0.0
 10
60.89887762465719
 20
35.86552927385873
 30
0.0
 10
60.91043447936003
 20
35.92434327160707
 30
0.0
 10
60.92916600327418
 20
35.98085620882541
 30
0.0
 10
60.95497246732172
 20
36.03467084653084
 30
0.0
 10
60.98756742075322
 20
36.08452555551269
 30
0.0
 10
61.02681312414137
 20
36.12911398893623
 30
0.0
 10
61.07184220239076
 20
36.16828101427779
 30
0.0
 10
61.12279278823195
 20
36.20070438161771
 30
0.0
 10
61.17718992946975
 20
36.22712951400161
 30
0.0
 10
61.2344275382144
 20
36.24576754199853
 30
0.0
 10
61.29335368487686
 20
36.25782080335392
 30
0.0
 10
61.33346540385272
 20
36.25906436063487
 30
0.0
 10
61.35365612149378
 20
36.25969032019409
 30
0.0
  0
SPLINE
  5
9C
330
1F
100
AcDbEntity
  8
0
  6
Continuous
 62
     7
370
    25
100
AcDbSpline
210
0.0
220
0.0
230
1.0
 70
     8
 71
     3
 72
    19
 73
    15
 74
     0
 42
0.000000001
 43
0.00000001
 40
0.0
 40
0.0
 40
0.0
 40
0.0
 40
0.0859901205637198
 40
0.1691084375726415
 40
0.2505285789581879
 40
0.332255696176845
 40
0.4135763652356403
 40
0.4941261456201216
 40
0.576305934120417
 40
0.6607126719045473
 40
0.7461272722239103
 40
0.8300149859609743
 40
0.9144197259288509
 40
1.0
 40
1.0
 40
1.0
 40
1.0
 10
61.35636044841686
 20
35.33661339711717
 30
0.0
 10
61.33538162513074
 20
35.33739619512031
 30
0.0
 10
61.29412460624565
 20
35.33893564809906
 30
0.0
 10
61.2337828571039
 20
35.35014221193234
 30
0.0
 10
61.17675796188306
 20
35.3694822372285
 30
0.0
 10
61.12282582216008
 20
35.39535687190885
 30
0.0
 10
61.07355559669436
 20
35.42892717586152
 30
0.0
 10
61.02902852466408
 20
35.46870983171701
 30
0.0
 10
60.99021664026267
 20
35.51508089679149
 30
0.0
 10
60.95692154140492
 20
35.56694229402765
 30
0.0
 10
60.93046862728721
 20
35.62307243182467
 30
0.0
 10
60.91091144794615
 20
35.68192671735052
 30
0.0
 10
60.89922553626627
 20
35.74300209593223
 30
0.0
 10
60.89769560701423
 20
35.78448068144672
 30
0.0
 10
60.89692535226301
 20
35.80536339711717
 30
0.0
  0
SPLINE
  5
9D
330
1F
100
AcDbEntity
  8
0
  6
Continuous
 62
     7
370
    25
100
AcDbSpline
210
0.0
220
0.0
230
1.0
 70
     8
 71
     3
 72
    23
 73
    19
 74
     0
 42
0.000000001
 43
0.00000001
 40
0.0
 40
0.0
 40
0.0
 40
0.0
 40
0.0652308037420294
 40
0.1284048960032227
 40
0.1900670715964781
 40
0.25094336576828
 40
0.3115458328521431
 40
0.3728628021568291
 40
0.4350236738562383
 40
0.4990717247070431
 40
0.563091075049662
 40
0.625510106330375
 40
0.6866800359296492
 40
0.7472825030135124
 40
0.8085634952159588
 40
0.8707421035159856
 40
0.9343409515059125
 40
1.0
 40
1.0
 40
1.0
 40
1.0
 10
61.80077150610916
 20
35.78162541634794
 30
0.0
 10
61.80036174395384
 20
35.76638006077572
 30
0.0
 10
61.79955513934492
 20
35.73637003200889
 30
0.0
 10
61.7933477747627
 20
35.69230997393432
 30
0.0
 10
61.78356558393829
 20
35.64997185851725
 30
0.0
 10
61.76930604567478
 20
35.60953116755064
 30
0.0
 10
61.75109075094808
 20
35.57084274675368
 30
0.0
 10
61.72925980654216
 20
35.53368457699289
 30
0.0
 10
61.70268594353212
 20
35.49875514409022
 30
0.0
 10
61.67300096248189
 20
35.46560463871369
 30
0.0
 10
61.64012225484111
 20
35.43550731125957
 30
0.0
 10
61.60523596768138
 20
35.40886043030635
 30
0.0
 10
61.56837844725358
 20
35.38647751956316
 30
0.0
 10
61.52956836185358
 20
35.36831726744262
 30
0.0
 10
61.48886553632764
 20
35.35421517661495
 30
0.0
 10
61.44632204797547
 20
35.34393475731056
 30
0.0
 10
61.40190856020684
 20
35.33785778895919
 30
0.0
 10
61.37170362794991
 20
35.33703257865272
 30
0.0
 10
61.35636044841686
 20
35.33661339711717
 30
0.0
  0
SPLINE
  5
9E
330
1F
100
AcDbEntity
  8
0
  6
Continuous
 62
     7
370
    25
100
AcDbSpline
210
0.0
220
0.0
230
1.0
 70
     8
 71
     3
 72
     9
 73
     5
 74
     0
 42
0.000000001
 43
0.00000001
 40
0.0
 40
0.0
 40
0.0
 40
0.0
 40
0.5126593363417812
 40
1.0
 40
1.0
 40
1.0
 40
1.0
 10
61.78634842918608
 20
35.93697397404025
 30
0.0
 10
61.7905543694662
 20
35.91058671247596
 30
0.0
 10
61.79875853153242
 20
35.85911537528629
 30
0.0
 10
61.8001119367246
 20
35.80701570449012
 30
0.0
 10
61.80077150610916
 20
35.78162541634794
 30
0.0
  0
LINE
  5
9F
330
1F
100
AcDbEntity
  8
0
  6
Continuous
 62
     7
370
    25
100
AcDbLine
 10
62.3924181407
 20
35.5406398394
 30
0.0
 11
61.7863484292
 21
35.936973974
 31
0.0
  0
LINE
  5
A0
330
1F
100
AcDbEntity
  8
0
  6
Continuous
 62
     7
370
    25
100
AcDbLine
 10
62.4738484292
 20
35.6443057048
 30
0.0
 11
62.3924181407
 21
35.5406398394
 31
0.0
  0
LINE
  5
A1
330
1F
100
AcDbEntity
  8
0
  6
Continuous
 62
     7
370
    25
100
AcDbLine
 10
62.2815407369
 20
36.9880727251
 30
0.0
 11
62.4353868907
 21
36.9000318597
 31
0.0
  0
LINE
  5
A2
330
1F
100
AcDbEntity
  8
0
  6
Continuous
 62
     7
370
    25
100
AcDbLine
 10
62.2815407369
 20
36.7573034944
 30
0.0
 11
62.2815407369
 21
36.9880727251
 31
0.0
  0
LINE
  5
A3
330
1F
100
AcDbEntity
  8
0
  6
Continuous
 62
     7
370
    25
100
AcDbLine
 10
60.9353868907
 20
36.7573034944
 30
0.0
 11
62.2815407369
 21
36.7573034944
 31
0.0
  0
LINE
  5
A4
330
1F
100
AcDbEntity
  8
0
  6
Continuous
 62
     7
370
    25
100
AcDbLine
 10
60.9353868907
 20
36.6226881097
 30
0.0
 11
60.9353868907
 21
36.7573034944
 31
0.0
  0
LINE
  5
A5
330
1F
100
AcDbEntity
  8
0
  6
Continuous
 62
     7
370
    25
100
AcDbLine
 10
62.4353868907
 20
36.6226881097
 30
0.0
 11
60.9353868907
 21
36.6226881097
 31
0.0
  0
LINE
  5
A6
330
1F
100
AcDbEntity
  8
0
  6
Continuous
 62
     7
370
    25
100
AcDbLine
 10
62.4353868907
 20
36.9000318597
 30
0.0
 11
62.4353868907
 21
36.6226881097
 31
0.0
  0
SPLINE
  5
A7
330
1F
100
AcDbEntity
  8
0
  6
Continuous
 62
     7
370
    25
100
AcDbSpline
210
0.0
220
0.0
230
1.0
 70
     8
 71
     3
 72
    19
 73
    15
 74
     0
 42
0.000000001
 43
0.00000001
 40
0.0
 40
0.0
 40
0.0
 40
0.0
 40
0.1227280999764553
 40
0.239716523588393
 40
0.3518621792202463
 40
0.4632019818032239
 40
0.5202611541541643
 40
0.5794324380306665
 40
0.6405963441586369
 40
0.70529822908802
 40
0.7732361059084537
 40
0.844648929340316
 40
0.9200459817773698
 40
1.0
 40
1.0
 40
1.0
 40
1.0
 10
62.32000227533993
 20
37.81541054600234
 30
0.0
 10
62.31940713399215
 20
37.8324903966876
 30
0.0
 10
62.31824468452083
 20
37.86585131754001
 30
0.0
 10
62.30802727764068
 20
37.91393556114723
 30
0.0
 10
62.29183884970909
 20
37.95859023017628
 30
0.0
 10
62.27229137099588
 20
37.99260808025456
 30
0.0
 10
62.2530618886331
 20
38.01777068504621
 30
0.0
 10
62.23651876498604
 20
38.03609638703107
 30
0.0
 10
62.21776225111085
 20
38.05376424095349
 30
0.0
 10
62.1962778769411
 20
38.07008094420264
 30
0.0
 10
62.1728044031484
 20
38.0860242281895
 30
0.0
 10
62.14721254657939
 20
38.10144185838377
 30
0.0
 10
62.11913744394953
 20
38.11583862014666
 30
0.0
 10
62.09939422257254
 20
38.12460216475698
 30
0.0
 10
62.0892330445707
 20
38.12911246907926
 30
0.0
  0
SPLINE
  5
A8
330
1F
100
AcDbEntity
  8
0
  6
Continuous
 62
     7
370
    25
100
AcDbSpline
210
0.0
220
0.0
230
1.0
 70
     8
 71
     3
 72
    23
 73
    19
 74
     0
 42
0.000000001
 43
0.00000001
 40
0.0
 40
0.0
 40
0.0
 40
0.0
 40
0.0552698294993248
 40
0.1099567044850938
 40
0.1632335040550556
 40
0.2180575651623568
 40
0.2732775387226747
 40
0.330881045495497
 40
0.3904799376860887
 40
0.4536559730386417
 40
0.5189026226022311
 40
0.5833461108214766
 40
0.6485466930814431
 40
0.7150552190344909
 40
0.7825206438000536
 40
0.852335294426451
 40
0.9249348997257087
 40
0.9999999999999999
 40
0.9999999999999999
 40
0.9999999999999999
 40
0.9999999999999999
 10
62.08472583303224
 20
37.51372785369465
 30
0.0
 10
62.09255917121063
 20
37.51390543771615
 30
0.0
 10
62.10814322600173
 20
37.5142587327046
 30
0.0
 10
62.13091083625712
 20
37.51871501229245
 30
0.0
 10
62.15298370172712
 20
37.52540989730614
 30
0.0
 10
62.17426166886376
 20
37.53461983422812
 30
0.0
 10
62.1946212304482
 20
37.54692470450816
 30
0.0
 10
62.21408736367518
 20
37.56169464796906
 30
0.0
 10
62.2329863007785
 20
37.57893679335437
 30
0.0
 10
62.2504138934821
 20
37.59910176371373
 30
0.0
 10
62.26685257617449
 20
37.62093249476671
 30
0.0
 10
62.28106320585149
 20
37.64463439995065
 30
0.0
 10
62.29310812606895
 20
37.66968470481433
 30
0.0
 10
62.30305979783901
 20
37.69610644489563
 30
0.0
 10
62.31054104420782
 20
37.72400546482938
 30
0.0
 10
62.31591391346151
 20
37.75324515603014
 30
0.0
 10
62.3192728065552
 20
37.78388280760868
 30
0.0
 10
62.31975642747388
 20
37.8047849683661
 30
0.0
 10
62.32000227533993
 20
37.81541054600234
 30
0.0
  0
SPLINE
  5
A9
330
1F
100
AcDbEntity
  8
0
  6
Continuous
 62
     7
370
    25
100
AcDbSpline
210
0.0
220
0.0
230
1.0
 70
     8
 71
     3
 72
    19
 73
    15
 74
     0
 42
0.000000001
 43
0.00000001
 40
0.0
 40
0.0
 40
0.0
 40
0.0
 40
0.1101423815503176
 40
0.2157418685830274
 40
0.3179605426392306
 40
0.4180517606815226
 40
0.5115631470355316
 40
0.5965727584443461
 40
0.6733290469034968
 40
0.7440491927238595
 40
0.8107168223002833
 40
0.8740854521098849
 40
0.9367096168966699
 40
1.0
 40
1.0
 40
1.0
 40
1.0
 10
61.8392330445707
 20
37.89834323831003
 30
0.0
 10
61.8395493335393
 20
37.87978610877786
 30
0.0
 10
61.84016886593126
 20
37.84343725065028
 30
0.0
 10
61.84761011304187
 20
37.79033247117165
 30
0.0
 10
61.85801943886174
 20
37.73949092154002
 30
0.0
 10
61.87359561050322
 20
37.69207311746523
 30
0.0
 10
61.89229146220322
 20
37.64899439936696
 30
0.0
 10
61.91337240032581
 20
37.61141496401395
 30
0.0
 10
61.93725615736663
 20
37.58022542932328
 30
0.0
 10
61.96362928191486
 20
37.55534787102184
 30
0.0
 10
61.99224507130636
 20
37.53708862656993
 30
0.0
 10
62.02175799866718
 20
37.5233832551145
 30
0.0
 10
62.05285473186917
 20
37.51534861106169
 30
0.0
 10
62.07406472503709
 20
37.51427000845847
 30
0.0
 10
62.08472583303224
 20
37.51372785369465
 30
0.0
  0
LINE
  5
AA
330
1F
100
AcDbEntity
  8
0
  6
Continuous
 62
     7
370
    25
100
AcDbLine
 10
61.6853868907
 20
37.8983432383
 30
0.0
 11
61.8392330446
 21
37.8983432383
 31
0.0
  0
SPLINE
  5
AB
330
1F
100
AcDbEntity
  8
0
  6
Continuous
 62
     7
370
    25
100
AcDbSpline
210
0.0
220
0.0
230
1.0
 70
     8
 71
     3
 72
    23
 73
    19
 74
     0
 42
0.000000001
 43
0.00000001
 40
0.0
 40
0.0
 40
0.0
 40
0.0
 40
0.0669051223273616
 40
0.1334773340846825
 40
0.2010229080576287
 40
0.2712178684297488
 40
0.3428591616573978
 40
0.4138109980627169
 40
0.4855518488903453
 40
0.5598002749200529
 40
0.5998999649035781
 40
0.6436094423977958
 40
0.6919106424505659
 40
0.7447030291556902
 40
0.8015038302285953
 40
0.8628660266331954
 40
0.9293326711591618
 40
1.0
 40
1.0
 40
1.0
 40
1.0
 10
61.36807919841686
 20
37.43680477677157
 30
0.0
 10
61.3820555022994
 20
37.43746060863659
 30
0.0
 10
61.40993856592301
 20
37.43876900903862
 30
0.0
 10
61.45096014688305
 20
37.44875857466369
 30
0.0
 10
61.49048538925505
 20
37.46518883611344
 30
0.0
 10
61.5278342554591
 20
37.48819400650671
 30
0.0
 10
61.56246632347442
 20
37.51618484017452
 30
0.0
 10
61.59324574243097
 20
37.54889038744097
 30
0.0
 10
61.61889861322303
 20
37.5863908749298
 30
0.0
 10
61.63655708745878
 20
37.62112773611452
 30
0.0
 10
61.64832571792445
 20
37.6519707378695
 30
0.0
 10
61.65657766128942
 20
37.67831311185161
 30
0.0
 10
61.66317411859339
 20
37.70783029015875
 30
0.0
 10
61.66955487931704
 20
37.74016792549562
 30
0.0
 10
61.67490410418514
 20
37.7754624016906
 30
0.0
 10
61.67938428967442
 20
37.81374551684063
 30
0.0
 10
61.68296351051846
 20
37.85503267253473
 30
0.0
 10
61.6845627678528
 20
37.88361454334321
 30
0.0
 10
61.68538689072455
 20
37.89834323831003
 30
0.0
  0
SPLINE
  5
AC
330
1F
100
AcDbEntity
  8
0
  6
Continuous
 62
     7
370
    25
100
AcDbSpline
210
0.0
220
0.0
230
1.0
 70
     8
 71
     3
 72
    23
 73
    19
 74
     0
 42
0.000000001
 43
0.00000001
 40
0.0
 40
0.0
 40
0.0
 40
0.0
 40
0.0760618905628339
 40
0.1487324608035359
 40
0.2183745247439722
 40
0.2857225935927383
 40
0.3510576941824569
 40
0.414934915729319
 40
0.4784859417740854
 40
0.542169035281216
 40
0.6047501165431387
 40
0.6641185017301124
 40
0.7214996756099116
 40
0.7776159163852547
 40
0.832666108697549
 40
0.8878580281135741
 40
0.9434676608977686
 40
1.0
 40
1.0
 40
1.0
 40
1.0
 10
61.05077150610916
 20
37.81871583446387
 30
0.0
 10
61.05103503621842
 20
37.80467842902809
 30
0.0
 10
61.05155034659732
 20
37.77722949450499
 30
0.0
 10
61.05630307562034
 20
37.73718006664129
 30
0.0
 10
61.06319468074622
 20
37.69906738952638
 30
0.0
 10
61.07397449110826
 20
37.66328040291473
 30
0.0
 10
61.08690665443263
 20
37.6293321337382
 30
0.0
 10
61.10383722970533
 20
37.59798040544413
 30
0.0
 10
61.1229575773411
 20
37.56830351595502
 30
0.0
 10
61.14519821905706
 20
37.54117086098073
 30
0.0
 10
61.16923794538179
 20
37.51670944580986
 30
0.0
 10
61.19474195264389
 20
37.49557208045707
 30
0.0
 10
61.22091945064684
 20
37.47726470459352
 30
0.0
 10
61.24838110750548
 20
37.46254862961251
 30
0.0
 10
61.27685754644238
 20
37.45090752359572
 30
0.0
 10
61.30645535502071
 20
37.4429875282128
 30
0.0
 10
61.33692530117257
 20
37.43747936962006
 30
0.0
 10
61.35763775850199
 20
37.43703087113914
 30
0.0
 10
61.36807919841686
 20
37.43680477677157
 30
0.0
  0
SPLINE
  5
AD
330
1F
100
AcDbEntity
  8
0
  6
Continuous
 62
     7
370
    25
100
AcDbSpline
210
0.0
220
0.0
230
1.0
 70
     8
 71
     3
 72
    15
 73
    11
 74
     0
 42
0.000000001
 43
0.00000001
 40
0.0
 40
0.0
 40
0.0
 40
0.0
 40
0.1182713048357256
 40
0.2361775330837632
 40
0.355662932948509
 40
0.4759041646706825
 40
0.6001273417110832
 40
0.7286081161551193
 40
0.8613134756739422
 40
1.0
 40
1.0
 40
1.0
 40
1.0
 10
61.13190131380147
 20
38.06931679600234
 30
0.0
 10
61.12542631356482
 20
38.06091826320584
 30
0.0
 10
61.1124962999429
 20
38.04414712197126
 30
0.0
 10
61.09599560199815
 20
38.01681788007193
 30
0.0
 10
61.08169801971182
 20
37.98807578603518
 30
0.0
 10
61.0707764358334
 20
37.95729806851194
 30
0.0
 10
61.06152886692377
 20
37.92514888117449
 30
0.0
 10
61.05547721586699
 20
37.89110858178943
 30
0.0
 10
61.05132514243418
 20
37.85547748874154
 30
0.0
 10
61.05095874322316
 20
37.83114844724879
 30
0.0
 10
61.05077150610916
 20
37.81871583446387
 30
0.0
  0
SPLINE
  5
AE
330
1F
100
AcDbEntity
  8
0
  6
Continuous
 62
     7
370
    25
100
AcDbSpline
210
0.0
220
0.0
230
1.0
 70
     8
 71
     3
 72
    15
 73
    11
 74
     0
 42
0.000000001
 43
0.00000001
 40
0.0
 40
0.0
 40
0.0
 40
0.0
 40
0.1497703860319681
 40
0.2913164099952446
 40
0.4259663731047426
 40
0.5521595739695285
 40
0.6715274135235928
 40
0.7861216286916589
 40
0.8953250730704446
 40
1.0
 40
1.0
 40
1.0
 40
1.0
 10
61.3392330445707
 20
38.18680477677157
 30
0.0
 10
61.32768346745557
 20
38.18329765186859
 30
0.0
 10
61.3052185367621
 20
38.17647598930092
 30
0.0
 10
61.27288697718715
 20
38.16486414728587
 30
0.0
 10
61.24324781151938
 20
38.15163488782711
 30
0.0
 10
61.21608361638596
 20
38.13744293412594
 30
0.0
 10
61.19112687247274
 20
38.12253788583048
 30
0.0
 10
61.16903750002956
 20
38.10586006077202
 30
0.0
 10
61.14884527051108
 20
38.08864471285175
 30
0.0
 10
61.137469008251
 20
38.07566784712974
 30
0.0
 10
61.13190131380147
 20
38.06931679600234
 30
0.0
  0
LINE
  5
AF
330
1F
100
AcDbEntity
  8
0
  6
Continuous
 62
     7
370
    25
100
AcDbLine
 10
61.3392330446
 20
38.3214201614
 30
0.0
 11
61.3392330446
 21
38.1868047768
 31
0.0
  0
SPLINE
  5
B0
330
1F
100
AcDbEntity
  8
0
  6
Continuous
 62
     7
370
    25
100
AcDbSpline
210
0.0
220
0.0
230
1.0
 70
     8
 71
     3
 72
    23
 73
    19
 74
     0
 42
0.000000001
 43
0.00000001
 40
0.0
 40
0.0
 40
0.0
 40
0.0
 40
0.0655411703374033
 40
0.1289631677825933
 40
0.1903771361885609
 40
0.2500923616690527
 40
0.308548432459201
 40
0.3663979630552958
 40
0.42454218926668
 40
0.4831699964229055
 40
0.5422433998311199
 40
0.6017393520173299
 40
0.6625060022496068
 40
0.7248555134488469
 40
0.7891278292811811
 40
0.8563463998785099
 40
0.9262952349869055
 40
1.0
 40
1.0
 40
1.0
 40
1.0
 10
60.89692535226301
 20
37.82111968061772
 30
0.0
 10
60.89729744365951
 20
37.83715652359621
 30
0.0
 10
60.89802959544974
 20
37.86871168291196
 30
0.0
 10
60.90303471024828
 20
37.91510175364895
 30
0.0
 10
60.91217614106449
 20
37.95938248194803
 30
0.0
 10
60.92447755764995
 20
38.00161373817232
 30
0.0
 10
60.94007401854159
 20
38.04183303948384
 30
0.0
 10
60.95949631769359
 20
38.07991765598857
 30
0.0
 10
60.98234410428723
 20
38.11610189606862
 30
0.0
 10
61.00888707049004
 20
38.15004430370201
 30
0.0
 10
61.03857907324294
 20
38.18174083271897
 30
0.0
 10
61.07194722037195
 20
38.21034914310331
 30
0.0
 10
61.10837467919525
 20
38.23634619722134
 30
0.0
 10
61.14828456042328
 20
38.25903589952627
 30
0.0
 10
61.19116109925661
 20
38.27945173636164
 30
0.0
 10
61.23755331284875
 20
38.29624357492477
 30
0.0
 10
61.28704646512975
 20
38.31102310434033
 30
0.0
 10
61.3215369252051
 20
38.31789458901721
 30
0.0
 10
61.3392330445707
 20
38.32142016138695
 30
0.0
  0
SPLINE
  5
B1
330
1F
100
AcDbEntity
  8
0
  6
Continuous
 62
     7
370
    25
100
AcDbSpline
210
0.0
220
0.0
230
1.0
 70
     8
 71
     3
 72
    19
 73
    15
 74
     0
 42
0.000000001
 43
0.00000001
 40
0.0
 40
0.0
 40
0.0
 40
0.0
 40
0.079641704194991
 40
0.1589086132578561
 40
0.2395997983184508
 40
0.3224093988203484
 40
0.405827748173513
 40
0.4876442139503137
 40
0.5697199979738974
 40
0.6530646649976934
 40
0.7374573001733065
 40
0.8224924079539125
 40
0.9097550737466981
 40
1.0
 40
1.0
 40
1.0
 40
1.0
 10
61.38099987149378
 20
37.30218939215618
 30
0.0
 10
61.35999654049046
 20
37.30296016286769
 30
0.0
 10
61.31808872049503
 20
37.30449807703144
 30
0.0
 10
61.25615845445236
 20
37.3181887067345
 30
0.0
 10
61.1957252803901
 20
37.33953531103471
 30
0.0
 10
61.13768462146511
 20
37.36931925473513
 30
0.0
 10
61.08349323110548
 20
37.40616981712478
 30
0.0
 10
61.03522664706893
 20
37.45025396266418
 30
0.0
 10
60.99345854082159
 20
37.50050001280676
 30
0.0
 10
60.95867283456504
 20
37.55657911717761
 30
0.0
 10
60.93084577048772
 20
37.61730969632591
 30
0.0
 10
60.91153682484375
 20
37.68227211544561
 30
0.0
 10
60.89895959001601
 20
37.75052174328211
 30
0.0
 10
60.89761098404406
 20
37.79732492533791
 30
0.0
 10
60.89692535226301
 20
37.82111968061772
 30
0.0
  0
SPLINE
  5
B2
330
1F
100
AcDbEntity
  8
0
  6
Continuous
 62
     7
370
    25
100
AcDbSpline
210
0.0
220
0.0
230
1.0
 70
     8
 71
     3
 72
    15
 73
    11
 74
     0
 42
0.000000001
 43
0.00000001
 40
0.0
 40
0.0
 40
0.0
 40
0.0
 40
0.1281455049994643
 40
0.2541925386280419
 40
0.3781411397135888
 40
0.5013808330744057
 40
0.6239569784447038
 40
0.7470758858273289
 40
0.8728647202442611
 40
1.0
 40
1.0
 40
1.0
 40
1.0
 10
61.64752631380147
 20
37.39173266138695
 30
0.0
 10
61.63764547337647
 20
37.3845120051994
 30
0.0
 10
61.6180455981298
 20
37.37018893606886
 30
0.0
 10
61.58651460156423
 20
37.35255948740494
 30
0.0
 10
61.55473850232872
 20
37.33638327998384
 30
0.0
 10
61.52146790518488
 20
37.32447805957374
 30
0.0
 10
61.48777152056437
 20
37.31420432613568
 30
0.0
 10
61.45292777419845
 20
37.30744455162335
 30
0.0
 10
61.41726771117089
 20
37.30310504677765
 30
0.0
 10
61.39313198036188
 20
37.30249569166705
 30
0.0
 10
61.38099987149378
 20
37.30218939215618
 30
0.0
  0
SPLINE
  5
B3
330
1F
100
AcDbEntity
  8
0
  6
Continuous
 62
     7
370
    25
100
AcDbSpline
210
0.0
220
0.0
230
1.0
 70
     8
 71
     3
 72
    11
 73
     7
 74
     0
 42
0.000000001
 43
0.00000001
 40
0.0
 40
0.0
 40
0.0
 40
0.0
 40
0.253879600326656
 40
0.5030089172783633
 40
0.7502910806899731
 40
1.0
 40
1.0
 40
1.0
 40
1.0
 10
61.77553112149378
 20
37.5542927575408
 30
0.0
 10
61.76782619083314
 20
37.53833629129508
 30
0.0
 10
61.75256049471449
 20
37.50672191660914
 30
0.0
 10
61.72262231292138
 20
37.46362883252361
 30
0.0
 10
61.68805530691257
 20
37.42450974308491
 30
0.0
 10
61.66107988423533
 20
37.40269386351185
 30
0.0
 10
61.64752631380147
 20
37.39173266138695
 30
0.0
  0
SPLINE
  5
B4
330
1F
100
AcDbEntity
  8
0
  6
Continuous
 62
     7
370
    25
100
AcDbSpline
210
0.0
220
0.0
230
1.0
 70
     8
 71
     3
 72
    15
 73
    11
 74
     0
 42
0.000000001
 43
0.00000001
 40
0.0
 40
0.0
 40
0.0
 40
0.0
 40
0.1280675485958904
 40
0.2506083188676684
 40
0.3706301659145029
 40
0.4900722467299488
 40
0.6103747641546199
 40
0.7343130699115256
 40
0.8632165042449895
 40
1.0
 40
1.0
 40
1.0
 40
1.0
 10
62.08412487149378
 20
37.37911246907926
 30
0.0
 10
62.06826481661996
 20
37.37961115095657
 30
0.0
 10
62.03722915042149
 20
37.3805869940042
 30
0.0
 10
61.99191993736226
 20
37.38887286781663
 30
0.0
 10
61.94921639438418
 20
37.40281698047787
 30
0.0
 10
61.90893875347411
 20
37.42213259301123
 30
0.0
 10
61.87134239354992
 20
37.44713611454279
 30
0.0
 10
61.83634272603828
 20
37.47742441321007
 30
0.0
 10
61.80378451541188
 20
37.5132112682567
 30
0.0
 10
61.78513331270811
 20
37.54033081312383
 30
0.0
 10
61.77553112149378
 20
37.5542927575408
 30
0.0
  0
SPLINE
  5
B5
330
1F
100
AcDbEntity
  8
0
  6
Continuous
 62
     7
370
    25
100
AcDbSpline
210
0.0
220
0.0
230
1.0
 70
     8
 71
     3
 72
    19
 73
    15
 74
     0
 42
0.000000001
 43
0.00000001
 40
0.0
 40
0.0
 40
0.0
 40
0.0
 40
0.0902542493426766
 40
0.1785397915286843
 40
0.2660930338538198
 40
0.3546309779571733
 40
0.4418861533505626
 40
0.5257469151636484
 40
0.6081136336036366
 40
0.6901972728278825
 40
0.770821484330335
 40
0.8483261812554109
 40
0.9240117400247433
 40
1.0
 40
1.0
 40
1.0
 40
1.0
 10
62.47384842918609
 20
37.81721343061773
 30
0.0
 10
62.47325733050968
 20
37.79763511258555
 30
0.0
 10
62.47208802673475
 20
37.75890553646691
 30
0.0
 10
62.46141041110086
 20
37.70200708777385
 30
0.0
 10
62.44451392580621
 20
37.6471384510158
 30
0.0
 10
62.42116804274749
 20
37.59490020195166
 30
0.0
 10
62.39237347996374
 20
37.54637801655326
 30
0.0
 10
62.35810287843741
 20
37.5032053650902
 30
0.0
 10
62.31901746351426
 20
37.46596743188852
 30
0.0
 10
62.27584636452059
 20
37.43472698431989
 30
0.0
 10
62.22970828906904
 20
37.41026627043973
 30
0.0
 10
62.1822225074345
 20
37.39222925323415
 30
0.0
 10
62.13350166255353
 20
37.38124853280615
 30
0.0
 10
62.10060568576417
 20
37.37982543703033
 30
0.0
 10
62.08412487149378
 20
37.37911246907926
 30
0.0
  0
SPLINE
  5
B6
330
1F
100
AcDbEntity
  8
0
  6
Continuous
 62
     7
370
    25
100
AcDbSpline
210
0.0
220
0.0
230
1.0
 70
     8
 71
     3
 72
    23
 73
    19
 74
     0
 42
0.000000001
 43
0.00000001
 40
0.0
 40
0.0
 40
0.0
 40
0.0
 40
0.0726253460834355
 40
0.1419766113262345
 40
0.2089849284189386
 40
0.2739568703644447
 40
0.336889347396841
 40
0.3987449534945902
 40
0.4601158852788617
 40
0.5208249225900291
 40
0.5809944586324857
 40
0.6401519276014648
 40
0.6986224507562546
 40
0.7572710809271643
 40
0.8164266940046602
 40
0.8762540482034705
 40
0.9371652930625374
 40
1.0
 40
1.0
 40
1.0
 40
1.0
 10
62.0892330445707
 20
38.26372785369465
 30
0.0
 10
62.10433268056015
 20
38.26008090340279
 30
0.0
 10
62.13385123387043
 20
38.25295141387831
 30
0.0
 10
62.17602577423357
 20
38.23808102524879
 30
0.0
 10
62.21593585482959
 20
38.2218813444511
 30
0.0
 10
62.25283417212762
 20
38.2024288710662
 30
0.0
 10
62.28746227329876
 20
38.18121083354072
 30
0.0
 10
62.31903475521368
 20
38.15690109573964
 30
0.0
 10
62.34835459755674
 20
38.13062121463995
 30
0.0
 10
62.37437455650982
 20
38.1015533792249
 30
0.0
 10
62.39793644045555
 20
38.07106966709313
 30
0.0
 10
62.41802575074514
 20
38.03874054434282
 30
0.0
 10
62.4353075305442
 20
38.00521644705542
 30
0.0
 10
62.44954477277651
 20
37.97026510436316
 30
0.0
 10
62.46026999720484
 20
37.93378245935231
 30
0.0
 10
62.46805148531517
 20
37.89609833507196
 30
0.0
 10
62.4731048199785
 20
37.85711397787997
 30
0.0
 10
62.47359800415838
 20
37.83065072476643
 30
0.0
 10
62.47384842918609
 20
37.81721343061773
 30
0.0
  0
LINE
  5
B7
330
1F
100
AcDbEntity
  8
0
  6
Continuous
 62
     7
370
    25
100
AcDbLine
 10
62.0892330446
 20
38.1291124691
 30
0.0
 11
62.0892330446
 21
38.2637278537
 31
0.0
  0
SPLINE
  5
B8
330
1F
100
AcDbEntity
  8
0
  6
Continuous
 62
     7
370
    25
100
AcDbSpline
210
0.0
220
0.0
230
1.0
 70
     8
 71
     3
 72
    14
 73
    10
 74
     0
 42
0.000000001
 43
0.00000001
 40
0.0
 40
0.0
 40
0.0
 40
0.0
 40
0.4999999999999999
 40
0.4999999999999999
 40
0.6249999999999999
 40
0.6249999999999999
 40
0.7499999999999998
 40
0.7499999999999998
 40
1.0
 40
1.0
 40
1.0
 40
1.0
 10
60.01562284288362
 20
43.61757168165738
 30
0.0
 10
59.68906094450752
 20
43.05194988185384
 30
0.0
 10
59.48047679298999
 20
42.47785403371694
 30
0.0
 10
59.47953900850162
 20
41.74157398079281
 30
0.0
 10
59.49206511489165
 20
41.59362536894573
 30
0.0
 10
59.54091015566691
 20
41.3009673596671
 30
0.0
 10
59.57717953372418
 20
41.15561952977593
 30
0.0
 10
59.71723223438332
 20
40.72216376256094
 30
0.0
 10
59.85213837876923
 20
40.43663346461435
 30
0.0
 10
60.01562284288391
 20
40.15347006651955
 30
0.0
  0
LINE
  5
B9
330
1F
100
AcDbEntity
  8
0
  6
Continuous
 62
     7
370
    25
100
AcDbLine
 10
61.755002133
 20
43.6175716817
 30
0.0
 11
60.0156228429
 21
43.6175716817
 31
0.0
  0
SPLINE
  5
BA
330
1F
100
AcDbEntity
  8
0
  6
Continuous
 62
     7
370
    25
100
AcDbSpline
210
0.0
220
0.0
230
1.0
 70
     8
 71
     3
 72
     8
 73
     4
 74
     0
 42
0.000000001
 43
0.00000001
 40
0.0
 40
0.0
 40
0.0
 40
0.0
 40
1.0
 40
1.0
 40
1.0
 40
1.0
 10
61.83538689072455
 20
43.29380689456111
 30
0.0
 10
61.81076894411179
 20
43.4019115332371
 30
0.0
 10
61.78387287016088
 20
43.5098246237031
 30
0.0
 10
61.75500213299522
 20
43.61757168165735
 30
0.0
  0
SPLINE
  5
BB
330
1F
100
AcDbEntity
  8
0
  6
Continuous
 62
     7
370
    25
100
AcDbSpline
210
0.0
220
0.0
230
1.0
 70
     8
 71
     3
 72
     8
 73
     4
 74
     0
 42
0.000000001
 43
0.00000001
 40
0.0
 40
0.0
 40
0.0
 40
0.0
 40
1.0
 40
1.0
 40
1.0
 40
1.0
 10
61.91577164845388
 20
43.61757168165735
 30
0.0
 10
61.88688189980057
 20
43.50975367186529
 30
0.0
 10
61.85998785926982
 20
43.40183697755298
 30
0.0
 10
61.83538689072455
 20
43.29380689456111
 30
0.0
  0
LINE
  5
BC
330
1F
100
AcDbEntity
  8
0
  6
Continuous
 62
     7
370
    25
100
AcDbLine
 10
63.6551509386
 20
43.6175716817
 30
0.0
 11
61.9157716485
 21
43.6175716817
 31
0.0
  0
SPLINE
  5
BD
330
1F
100
AcDbEntity
  8
0
  6
Continuous
 62
     7
370
    25
100
AcDbSpline
210
0.0
220
0.0
230
1.0
 70
     8
 71
     3
 72
    14
 73
    10
 74
     0
 42
0.000000001
 43
0.00000001
 40
0.0
 40
0.0
 40
0.0
 40
0.0
 40
0.4999999999999999
 40
0.4999999999999999
 40
0.6249999999999999
 40
0.6249999999999999
 40
0.7499999999999998
 40
0.7499999999999998
 40
1.0
 40
1.0
 40
1.0
 40
1.0
 10
63.65515093856547
 20
43.61757168165738
 30
0.0
 10
63.98171283694158
 20
43.05194988185384
 30
0.0
 10
64.1902969884591
 20
42.47785403371694
 30
0.0
 10
64.19123477294747
 20
41.74157398079281
 30
0.0
 10
64.17870866655745
 20
41.59362536894573
 30
0.0
 10
64.12986362578218
 20
41.3009673596671
 30
0.0
 10
64.09359424772491
 20
41.15561952977593
 30
0.0
 10
63.95354154706578
 20
40.72216376256094
 30
0.0
 10
63.81863540267987
 20
40.43663346461435
 30
0.0
 10
63.65515093856519
 20
40.15347006651955
 30
0.0
  0
SPLINE
  5
BE
330
1F
100
AcDbEntity
  8
0
  6
Continuous
 62
     7
370
    25
100
AcDbSpline
210
0.0
220
0.0
230
1.0
 70
     8
 71
     3
 72
     8
 73
     4
 74
     0
 42
0.000000001
 43
0.00000001
 40
0.0
 40
0.0
 40
0.0
 40
0.0
 40
1.0
 40
1.0
 40
1.0
 40
1.0
 10
61.83538689072455
 20
40.4772348536158
 30
0.0
 10
61.86000483733731
 20
40.36913021493982
 30
0.0
 10
61.88690091128822
 20
40.26121712447381
 30
0.0
 10
61.91577164845388
 20
40.15347006651957
 30
0.0
  0
SPLINE
  5
BF
330
1F
100
AcDbEntity
  8
0
  6
Continuous
 62
     7
370
    25
100
AcDbSpline
210
0.0
220
0.0
230
1.0
 70
     8
 71
     3
 72
    14
 73
    10
 74
     0
 42
0.000000001
 43
0.00000001
 40
0.0
 40
0.0
 40
0.0
 40
0.0
 40
0.4999999999999997
 40
0.4999999999999997
 40
0.6249999999999997
 40
0.6249999999999997
 40
0.7499999999999997
 40
0.7499999999999997
 40
1.0
 40
1.0
 40
1.0
 40
1.0
 10
63.65515093856547
 20
33.22526683624408
 30
0.0
 10
63.98171283694158
 20
32.65964503644054
 30
0.0
 10
64.1902969884591
 20
32.08554918830365
 30
0.0
 10
64.19123477294747
 20
31.34926913537953
 30
0.0
 10
64.17870866655745
 20
31.20132052353245
 30
0.0
 10
64.12986362578218
 20
30.90866251425382
 30
0.0
 10
64.09359424772491
 20
30.76331468436266
 30
0.0
 10
63.95354154706578
 20
30.32985891714767
 30
0.0
 10
63.81863540267987
 20
30.04432861920108
 30
0.0
 10
63.65515093856519
 20
29.76116522110629
 30
0.0
  0
LINE
  5
C0
330
1F
100
AcDbEntity
  8
0
  6
Continuous
 62
     7
370
    25
100
AcDbLine
 10
64.3353868907
 20
42.4393684514
 30
0.0
 11
64.3353868907
 21
30.9393684514
 31
0.0
  0
SPLINE
  5
C1
330
1F
100
AcDbEntity
  8
0
  6
Continuous
 62
     7
370
    25
100
AcDbSpline
210
0.0
220
0.0
230
1.0
 70
     8
 71
     3
 72
     8
 73
     4
 74
     0
 42
0.000000001
 43
0.00000001
 40
0.0
 40
0.0
 40
0.0
 40
0.0
 40
1.0
 40
1.0
 40
1.0
 40
1.0
 10
61.91577164845388
 20
33.22526683624405
 30
0.0
 10
61.88688189980057
 20
33.11744882645199
 30
0.0
 10
61.85998785926982
 20
33.00953213213968
 30
0.0
 10
61.83538689072455
 20
32.90150204914781
 30
0.0
  0
LINE
  5
C2
330
1F
100
AcDbEntity
  8
0
  6
Continuous
 62
     7
370
    25
100
AcDbLine
 10
61.8353868907
 20
32.9015020491
 30
0.0
 11
61.8353868907
 21
33.8727964104
 31
0.0
  0
SPLINE
  5
C3
330
1F
100
AcDbEntity
  8
0
  6
Continuous
 62
     7
370
    25
100
AcDbSpline
210
0.0
220
0.0
230
1.0
 70
     8
 71
     3
 72
    14
 73
    10
 74
     0
 42
0.000000001
 43
0.00000001
 40
0.0
 40
0.0
 40
0.0
 40
0.0
 40
0.4999999999999997
 40
0.4999999999999997
 40
0.6249999999999997
 40
0.6249999999999997
 40
0.7499999999999997
 40
0.7499999999999997
 40
1.0
 40
1.0
 40
1.0
 40
1.0
 10
60.01562284288362
 20
33.22526683624408
 30
0.0
 10
59.68906094450752
 20
32.65964503644054
 30
0.0
 10
59.48047679298999
 20
32.08554918830365
 30
0.0
 10
59.47953900850162
 20
31.34926913537953
 30
0.0
 10
59.49206511489165
 20
31.20132052353245
 30
0.0
 10
59.54091015566691
 20
30.90866251425382
 30
0.0
 10
59.57717953372418
 20
30.76331468436266
 30
0.0
 10
59.71723223438332
 20
30.32985891714767
 30
0.0
 10
59.85213837876923
 20
30.04432861920108
 30
0.0
 10
60.01562284288391
 20
29.76116522110629
 30
0.0
  0
LINE
  5
C4
330
1F
100
AcDbEntity
  8
0
  6
Continuous
 62
     7
370
    25
100
AcDbLine
 10
59.3353868907
 20
42.4393684514
 30
0.0
 11
59.3353868907
 21
30.9393684514
 31
0.0
  0
SPLINE
  5
C5
330
1F
100
AcDbEntity
  8
0
  6
Continuous
 62
     7
370
    25
100
AcDbSpline
210
0.0
220
0.0
230
1.0
 70
     8
 71
     3
 72
     8
 73
     4
 74
     0
 42
0.000000001
 43
0.00000001
 40
0.0
 40
0.0
 40
0.0
 40
0.0
 40
1.0
 40
1.0
 40
1.0
 40
1.0
 10
61.83538689072455
 20
32.90150204914781
 30
0.0
 10
61.81076894411179
 20
33.0096066878238
 30
0.0
 10
61.78387287016088
 20
33.1175197782898
 30
0.0
 10
61.75500213299522
 20
33.22526683624405
 30
0.0
  0
SPLINE
  5
C6
330
1F
100
AcDbEntity
  8
0
  6
Continuous
 62
     7
370
    25
100
AcDbSpline
210
0.0
220
0.0
230
1.0
 70
     8
 71
     3
 72
    23
 73
    19
 74
     0
 42
0.000000001
 43
0.00000001
 40
0.0
 40
0.0
 40
0.0
 40
0.0
 40
0.0611415679303346
 40
0.1200010135310723
 40
0.1782359705414083
 40
0.2364955434070171
 40
0.2948872487049731
 40
0.3546771928192958
 40
0.4166948132897783
 40
0.4806333779628393
 40
0.5458046334786407
 40
0.6097347883178743
 40
0.6729516883751544
 40
0.7360010960706834
 40
0.7998274385165249
 40
0.864767276939387
 40
0.9310835057306723
 40
1.0
 40
1.0
 40
1.0
 40
1.0
 10
61.34824746764762
 20
35.47122878173256
 30
0.0
 10
61.35848917809778
 20
35.4714618727756
 30
0.0
 10
61.37859032492656
 20
35.47191935468777
 30
0.0
 10
61.4080109385296
 20
35.47719392974396
 30
0.0
 10
61.43653574726313
 20
35.48431812118577
 30
0.0
 10
61.46352218378792
 20
35.49583146752311
 30
0.0
 10
61.48971653161828
 20
35.50954480278676
 30
0.0
 10
61.51437013672935
 20
35.52701469108214
 30
0.0
 10
61.53818144017335
 20
35.54704434562012
 30
0.0
 10
61.56027385390348
 20
35.57024062908498
 30
0.0
 10
61.58048137356801
 20
35.59547610893453
 30
0.0
 10
61.59831789610374
 20
35.62231220268776
 30
0.0
 10
61.61337157074934
 20
35.6503868267418
 30
0.0
 10
61.62593172721803
 20
35.67967286127716
 30
0.0
 10
61.63499579577344
 20
35.71050550917806
 30
0.0
 10
61.64213289769236
 20
35.74238708752948
 30
0.0
 10
61.64593090590265
 20
35.77572533317494
 30
0.0
 10
61.64658964802769
 20
35.7983438797621
 30
0.0
 10
61.64692535226301
 20
35.80987060865564
 30
0.0
  0
SPLINE
  5
C7
330
1F
100
AcDbEntity
  8
0
  6
Continuous
 62
     7
370
    25
100
AcDbSpline
210
0.0
220
0.0
230
1.0
 70
     8
 71
     3
 72
    23
 73
    19
 74
     0
 42
0.000000001
 43
0.00000001
 40
0.0
 40
0.0
 40
0.0
 40
0.0
 40
0.0679503475997537
 40
0.1332598223836998
 40
0.1978002967596474
 40
0.2608458295516822
 40
0.3233192927503671
 40
0.3862817224595722
 40
0.450061516233313
 40
0.5152075844858154
 40
0.5796407692199316
 40
0.6418172023841522
 40
0.7016924412115348
 40
0.7607690981778945
 40
0.8192540511346832
 40
0.8787376269055537
 40
0.9381582970160912
 40
1.0
 40
1.0
 40
1.0
 40
1.0
 10
61.05077150610916
 20
35.79815185865564
 30
0.0
 10
61.05110109515029
 20
35.78702376963225
 30
0.0
 10
61.05174746383908
 20
35.76520008190866
 30
0.0
 10
61.05563911783729
 20
35.73298314382396
 30
0.0
 10
61.06252260894793
 20
35.70209147780424
 30
0.0
 10
61.07230444616813
 20
35.67250359896094
 30
0.0
 10
61.08422348800418
 20
35.64397298950018
 30
0.0
 10
61.09943184803198
 20
35.61690443527574
 30
0.0
 10
61.11720909953959
 20
35.59093249134465
 30
0.0
 10
61.13754765275779
 20
35.5666224786395
 30
0.0
 10
61.15940542622639
 20
35.54397079287615
 30
0.0
 10
61.18341402769494
 20
35.52502074180533
 30
0.0
 10
61.20772915004
 20
35.50791846001003
 30
0.0
 10
61.23382757205388
 20
35.49496407936795
 30
0.0
 10
61.26076397153274
 20
35.4841039097133
 30
0.0
 10
61.2889489322767
 20
35.47680316014601
 30
0.0
 10
61.31823715209215
 20
35.47202359448804
 30
0.0
 10
61.33811176198348
 20
35.47149722236701
 30
0.0
 10
61.34824746764762
 20
35.47122878173256
 30
0.0
  0
SPLINE
  5
C8
330
1F
100
AcDbEntity
  8
0
  6
Continuous
 62
     7
370
    25
100
AcDbSpline
210
0.0
220
0.0
230
1.0
 70
     8
 71
     3
 72
    23
 73
    19
 74
     0
 42
0.000000001
 43
0.00000001
 40
0.0
 40
0.0
 40
0.0
 40
0.0
 40
0.0705921865358071
 40
0.1385012886049299
 40
0.2037899961427012
 40
0.266787572669601
 40
0.3290979656467183
 40
0.3911745246039658
 40
0.4531677986176573
 40
0.5157967602265844
 40
0.5779688050530403
 40
0.6389663383752914
 40
0.698381066162843
 40
0.7573204555574266
 40
0.8164122397216688
 40
0.876279358230831
 40
0.936823465650193
 40
1.0
 40
1.0
 40
1.0
 40
1.0
 10
61.64692535226301
 20
35.80987060865564
 30
0.0
 10
61.64658748780842
 20
35.82129692649345
 30
0.0
 10
61.64592460053105
 20
35.84371526798714
 30
0.0
 10
61.6421806084121
 20
35.87656472420237
 30
0.0
 10
61.6350867697917
 20
35.90757065788808
 30
0.0
 10
61.62591072623542
 20
35.93708720737222
 30
0.0
 10
61.61341690083862
 20
35.96480673271972
 30
0.0
 10
61.5984207682943
 20
35.99104543134806
 30
0.0
 10
61.5805913470215
 20
36.01554293929498
 30
0.0
 10
61.56012743068544
 20
36.03786903782716
 30
0.0
 10
61.53804967640556
 20
36.05836991026152
 30
0.0
 10
61.51426075266691
 20
36.07600400833648
 30
0.0
 10
61.48948745268611
 20
36.09123176944481
 30
0.0
 10
61.46349693750227
 20
36.10360867014778
 30
0.0
 10
61.43630587902759
 20
36.11324754844564
 30
0.0
 10
61.40803754817151
 20
36.12021958138833
 30
0.0
 10
61.37850286741645
 20
36.12409978058817
 30
0.0
 10
61.35847464893765
 20
36.12474530559695
 30
0.0
 10
61.34824746764762
 20
36.12507493557871
 30
0.0
  0
SPLINE
  5
C9
330
1F
100
AcDbEntity
  8
0
  6
Continuous
 62
     7
370
    25
100
AcDbSpline
210
0.0
220
0.0
230
1.0
 70
     8
 71
     3
 72
    23
 73
    19
 74
     0
 42
0.000000001
 43
0.00000001
 40
0.0
 40
0.0
 40
0.0
 40
0.0
 40
0.0618526459466917
 40
0.1212838306153701
 40
0.1807779320756125
 40
0.2392732340142805
 40
0.2986414352139417
 40
0.3581858222417117
 40
0.4207600867589709
 40
0.4852046730216432
 40
0.5503622689482871
 40
0.613649924530912
 40
0.6766234955168249
 40
0.7391080134690126
 40
0.8021647022429448
 40
0.8667165971324778
 40
0.9320376285055445
 40
1.0
 40
1.0
 40
1.0
 40
1.0
 10
61.34824746764762
 20
36.12507493557871
 30
0.0
 10
61.33811214779072
 20
36.12480580327125
 30
0.0
 10
61.31823829440994
 20
36.12427807488241
 30
0.0
 10
61.28894456899643
 20
36.1195083796292
 30
0.0
 10
61.26078025874546
 20
36.11217060797595
 30
0.0
 10
61.23372476404457
 20
36.10143005455416
 30
0.0
 10
61.20792566838116
 20
36.0879582600965
 30
0.0
 10
61.18319971324093
 20
36.07137973156458
 30
0.0
 10
61.15952983220085
 20
36.05197518347654
 30
0.0
 10
61.13751289564983
 20
36.02941778133121
 30
0.0
 10
61.11731842641043
 20
36.00509181009667
 30
0.0
 10
61.09933723308841
 20
35.97936548429153
 30
0.0
 10
61.08423783891445
 20
35.95232060364429
 30
0.0
 10
61.07230057766238
 20
35.92380284747319
 30
0.0
 10
61.06252367612009
 20
35.89421148664685
 30
0.0
 10
61.05563882700626
 20
35.86332077866049
 30
0.0
 10
61.05174754036052
 20
35.83110358141886
 30
0.0
 10
61.05110112099222
 20
35.80927992944826
 30
0.0
 10
61.05077150610916
 20
35.79815185865564
 30
0.0
  0
LINE
  5
CA
330
1F
100
AcDbEntity
  8
0
  6
Continuous
 62
     7
370
    25
100
AcDbLine
 10
61.755002133
 20
29.7611652211
 30
0.0
 11
60.0156228429
 21
29.7611652211
 31
0.0
  0
LINE
  5
CB
330
1F
100
AcDbEntity
  8
0
  6
Continuous
 62
     7
370
    25
100
AcDbLine
 10
63.6551509386
 20
29.7611652211
 30
0.0
 11
61.9157716485
 21
29.7611652211
 31
0.0
  0
SPLINE
  5
CC
330
1F
100
AcDbEntity
  8
0
  6
Continuous
 62
     7
370
    25
100
AcDbSpline
210
0.0
220
0.0
230
1.0
 70
     8
 71
     3
 72
     8
 73
     4
 74
     0
 42
0.000000001
 43
0.00000001
 40
0.0
 40
0.0
 40
0.0
 40
0.0
 40
1.0
 40
1.0
 40
1.0
 40
1.0
 10
61.83538689072455
 20
30.08493000820254
 30
0.0
 10
61.86000483733731
 20
29.97682536952656
 30
0.0
 10
61.88690091128822
 20
29.86891227906055
 30
0.0
 10
61.91577164845388
 20
29.76116522110631
 30
0.0
  0
SPLINE
  5
CD
330
1F
100
AcDbEntity
  8
0
  6
Continuous
 62
     7
370
    25
100
AcDbSpline
210
0.0
220
0.0
230
1.0
 70
     8
 71
     3
 72
     8
 73
     4
 74
     0
 42
0.000000001
 43
0.00000001
 40
0.0
 40
0.0
 40
0.0
 40
0.0
 40
1.0
 40
1.0
 40
1.0
 40
1.0
 10
61.75500213299522
 20
29.76116522110631
 30
0.0
 10
61.78389188164853
 20
29.86898323089837
 30
0.0
 10
61.81078592217928
 20
29.97689992521067
 30
0.0
 10
61.83538689072455
 20
30.08493000820254
 30
0.0
  0
LINE
  5
CE
330
1F
100
AcDbEntity
  8
0
  6
Continuous
 62
     7
370
    25
100
AcDbLine
 10
51.6903349502
 20
41.4716480782
 30
0.0
 11
51.6903349502
 21
31.9070888245
 31
0.0
  0
LINE
  5
CF
330
1F
100
AcDbEntity
  8
0
  6
Continuous
 62
     7
370
    25
100
AcDbLine
 10
50.3353868907
 20
36.6893684514
 30
0.0
 11
50.3353868907
 21
40.6893684514
 31
0.0
  0
LINE
  5
D0
330
1F
100
AcDbEntity
  8
0
  6
Continuous
 62
     7
370
    25
100
AcDbLine
 10
50.3353868907
 20
32.6893684514
 30
0.0
 11
50.3353868907
 21
36.6893684514
 31
0.0
  0
LINE
  5
D1
330
1F
100
AcDbEntity
  8
0
  6
Continuous
 62
     7
370
    25
100
AcDbLine
 10
81.8353868907
 20
41.1893684514
 30
0.0
 11
81.8353868907
 21
32.1893684514
 31
0.0
  0
LINE
  5
D2
330
1F
100
AcDbEntity
  8
0
  6
Continuous
 62
     7
370
    25
100
AcDbLine
 10
68.3353868907
 20
41.1893684514
 30
0.0
 11
68.3353868907
 21
32.1893684514
 31
0.0
  0
LINE
  5
D3
330
1F
100
AcDbEntity
  8
0
  6
Continuous
 62
     7
370
    25
100
AcDbLine
 10
72.8353868907
 20
41.1893684514
 30
0.0
 11
72.8353868907
 21
32.1893684514
 31
0.0
  0
LINE
  5
D4
330
1F
100
AcDbEntity
  8
0
  6
Continuous
 62
     7
370
    25
100
AcDbLine
 10
77.3353868907
 20
41.1893684514
 30
0.0
 11
77.3353868907
 21
32.1893684514
 31
0.0
  0
LINE
  5
D5
330
1F
100
AcDbEntity
  8
0
  6
Continuous
 62
     7
370
    25
100
AcDbLine
 10
87.3353868907
 20
40.0029229216
 30
0.0
 11
87.3353868907
 21
33.3758139815
 31
0.0
  0
LINE
  5
D6
330
1F
100
AcDbEntity
  8
0
  6
Continuous
 62
     7
370
    25
100
AcDbLine
 10
61.8353868907
 20
43.2938068946
 30
0.0
 11
61.8353868907
 21
43.3175716817
 31
0.0
  0
LINE
  5
D7
330
1F
100
AcDbEntity
  8
0
  6
Continuous
 62
     7
370
    25
100
AcDbLine
 10
61.8353868907
 20
30.0611652211
 30
0.0
 11
61.8353868907
 21
30.0849300082
 31
0.0
  0
LINE
  5
D8
330
1F
100
AcDbEntity
  8
0
  6
Continuous
 62
     8
370
    25
100
AcDbLine
 10
86.9029434931
 20
32.8803988972
 30
0.0
 11
86.9029434931
 21
40.4983380056
 31
0.0
  0
LINE
  5
D9
330
1F
100
AcDbEntity
  8
0
  6
Continuous
 62
     7
370
    18
100
AcDbLine
 10
50.8536067415
 20
40.9885628217
 30
0.0
 11
58.8353868907
 21
41.2379934514
 31
0.0
  0
LINE
  5
DA
330
1F
100
AcDbEntity
  8
0
  6
Continuous
 62
     7
370
    18
100
AcDbLine
 10
50.8536067415
 20
32.390174081
 30
0.0
 11
58.8353868907
 21
32.1407434514
 31
0.0
  0
LINE
  5
DB
330
1F
100
AcDbEntity
  8
0
  6
Continuous
 62
     7
370
    18
100
AcDbLine
 10
58.8353868907
 20
31.6838059514
 30
0.0
 11
58.8353868907
 21
41.6949309514
 31
0.0
  0
LINE
  5
DC
330
1F
100
AcDbEntity
  8
0
  6
CENTERX2
 62
     7
370
    18
100
AcDbLine
 10
88.3353868907
 20
36.6893684514
 30
0.0
 11
49.300279909
 21
36.6893684514
 31
0.0
  0
CIRCLE
  5
DD
330
1F
100
AcDbEntity
  8
0
  6
Continuous
 62
     7
370
    25
100
AcDbCircle
 10
104.075046702
 20
36.6893684514
 30
0.0
 40
3.313554470200579
  0
CIRCLE
  5
DE
330
1F
100
AcDbEntity
  8
0
  6
Continuous
 62
     7
370
    25
100
AcDbCircle
 10
104.075046702
 20
36.6893684514
 30
0.0
 40
3.808969554222728
  0
CIRCLE
  5
DF
330
1F
100
AcDbEntity
  8
0
  6
Continuous
 62
     7
370
    25
100
AcDbCircle
 10
104.075046702
 20
36.6893684514
 30
0.0
 40
2.949999999999996
  0
CIRCLE
  5
E0
330
1F
100
AcDbEntity
  8
0
  6
Continuous
 62
     7
370
    25
100
AcDbCircle
 10
104.075046702
 20
36.6893684514
 30
0.0
 40
2.749999999999986
  0
CIRCLE
  5
E1
330
1F
100
AcDbEntity
  8
0
  6
Continuous
 62
     7
370
    25
100
AcDbCircle
 10
104.075046702
 20
36.6893684514
 30
0.0
 40
4.5
  0
SPLINE
  5
E2
330
1F
100
AcDbEntity
  8
0
  6
Continuous
 62
     7
370
    25
100
AcDbSpline
210
0.0
220
0.0
230
1.0
 70
    24
 71
     3
 72
    14
 73
    10
 74
     0
 42
0.000000001
 43
0.00000001
 40
0.0
 40
0.0
 40
0.0
 40
0.0
 40
0.2499999999999999
 40
0.2499999999999999
 40
0.4999999999999999
 40
0.4999999999999999
 40
0.7499999999999999
 40
0.7499999999999999
 40
1.0
 40
1.0
 40
1.0
 40
1.0
 10
110.0750467020481
 20
33.22526683624412
 30
0.0
 10
110.0750467020481
 20
33.78915915090615
 30
0.0
 10
110.0750467020481
 20
34.36629572436139
 30
0.0
 10
110.0750467020481
 20
35.52288171039564
 30
0.0
 10
110.0750467020481
 20
36.1046588859218
 30
0.0
 10
110.075046702048
 20
37.27639992577213
 30
0.0
 10
110.075046702048
 20
37.87004645523577
 30
0.0
 10
110.075046702048
 20
39.02623481154066
 30
0.0
 10
110.075046702048
 20
39.59346412150843
 30
0.0
 10
110.075046702048
 20
40.15347006651965
 30
0.0
  0
SPLINE
  5
E3
330
1F
100
AcDbEntity
  8
0
  6
Continuous
 62
     7
370
    25
100
AcDbSpline
210
0.0
220
0.0
230
1.0
 70
    24
 71
     3
 72
    14
 73
    10
 74
     0
 42
0.000000001
 43
0.00000001
 40
0.0
 40
0.0
 40
0.0
 40
0.0
 40
0.4999999999999994
 40
0.4999999999999994
 40
0.6249999999999994
 40
0.6249999999999994
 40
0.7499999999999994
 40
0.7499999999999994
 40
1.0
 40
1.0
 40
1.0
 40
1.0
 10
104.075046702048
 20
29.76116522110627
 30
0.0
 10
105.0547323971763
 20
30.32678702090982
 30
0.0
 10
106.0490955745638
 20
30.90088286904673
 30
0.0
 10
107.3243700348279
 20
31.63716292197087
 30
0.0
 10
107.5806245474563
 20
31.78511153381795
 30
0.0
 10
108.0875230887688
 20
32.07776954309659
 30
0.0
 10
108.3392729149102
 20
32.22311737298775
 30
0.0
 10
109.0900403265603
 20
32.65657314020275
 30
0.0
 10
109.5845933097041
 20
32.94210343814935
 30
0.0
 10
110.0750467020481
 20
33.22526683624415
 30
0.0
  0
SPLINE
  5
E4
330
1F
100
AcDbEntity
  8
0
  6
Continuous
 62
     7
370
    25
100
AcDbSpline
210
0.0
220
0.0
230
1.0
 70
    24
 71
     3
 72
    14
 73
    10
 74
     0
 42
0.000000001
 43
0.00000001
 40
0.0
 40
0.0
 40
0.0
 40
0.0
 40
0.4999999999999997
 40
0.4999999999999997
 40
0.6249999999999997
 40
0.6249999999999997
 40
0.7499999999999997
 40
0.7499999999999997
 40
1.0
 40
1.0
 40
1.0
 40
1.0
 10
98.07504670204798
 20
33.22526683624408
 30
0.0
 10
99.05473239717628
 20
32.65964503644054
 30
0.0
 10
100.0490955745637
 20
32.08554918830365
 30
0.0
 10
101.3243700348279
 20
31.34926913537953
 30
0.0
 10
101.5806245474563
 20
31.20132052353245
 30
0.0
 10
102.0875230887688
 20
30.90866251425382
 30
0.0
 10
102.3392729149102
 20
30.76331468436266
 30
0.0
 10
103.0900403265603
 20
30.32985891714767
 30
0.0
 10
103.5845933097041
 20
30.04432861920108
 30
0.0
 10
104.0750467020481
 20
29.76116522110629
 30
0.0
  0
SPLINE
  5
E5
330
1F
100
AcDbEntity
  8
0
  6
Continuous
 62
     7
370
    25
100
AcDbSpline
210
0.0
220
0.0
230
1.0
 70
    24
 71
     3
 72
    14
 73
    10
 74
     0
 42
0.000000001
 43
0.00000001
 40
0.0
 40
0.0
 40
0.0
 40
0.0
 40
0.25
 40
0.25
 40
0.5
 40
0.5
 40
0.75
 40
0.75
 40
1.0
 40
1.0
 40
1.0
 40
1.0
 10
98.07504670204806
 20
33.22526683624404
 30
0.0
 10
98.07504670204806
 20
33.78915915090608
 30
0.0
 10
98.07504670204806
 20
34.36629572436131
 30
0.0
 10
98.07504670204806
 20
35.52288171039555
 30
0.0
 10
98.07504670204804
 20
36.10465888592172
 30
0.0
 10
98.07504670204804
 20
37.27639992577205
 30
0.0
 10
98.07504670204804
 20
37.87004645523569
 30
0.0
 10
98.07504670204804
 20
39.02623481154057
 30
0.0
 10
98.07504670204803
 20
39.59346412150834
 30
0.0
 10
98.07504670204803
 20
40.15347006651957
 30
0.0
  0
SPLINE
  5
E6
330
1F
100
AcDbEntity
  8
0
  6
Continuous
 62
     7
370
    25
100
AcDbSpline
210
0.0
220
0.0
230
1.0
 70
    24
 71
     3
 72
    14
 73
    10
 74
     0
 42
0.000000001
 43
0.00000001
 40
0.0
 40
0.0
 40
0.0
 40
0.0
 40
0.4999999999999999
 40
0.4999999999999999
 40
0.6249999999999999
 40
0.6249999999999999
 40
0.7499999999999998
 40
0.7499999999999998
 40
1.0
 40
1.0
 40
1.0
 40
1.0
 10
104.0750467020481
 20
43.61757168165738
 30
0.0
 10
103.0953610069198
 20
43.05194988185384
 30
0.0
 10
102.1009978295324
 20
42.47785403371694
 30
0.0
 10
100.8257233692683
 20
41.74157398079281
 30
0.0
 10
100.5694688566399
 20
41.59362536894573
 30
0.0
 10
100.0625703153273
 20
41.3009673596671
 30
0.0
 10
99.81082048918593
 20
41.15561952977593
 30
0.0
 10
99.06005307753583
 20
40.72216376256094
 30
0.0
 10
98.56550009439204
 20
40.43663346461435
 30
0.0
 10
98.07504670204798
 20
40.15347006651955
 30
0.0
  0
SPLINE
  5
E7
330
1F
100
AcDbEntity
  8
0
  6
Continuous
 62
     7
370
    25
100
AcDbSpline
210
0.0
220
0.0
230
1.0
 70
    24
 71
     3
 72
    14
 73
    10
 74
     0
 42
0.000000001
 43
0.00000001
 40
0.0
 40
0.0
 40
0.0
 40
0.0
 40
0.5000000000000003
 40
0.5000000000000003
 40
0.6250000000000003
 40
0.6250000000000003
 40
0.7500000000000002
 40
0.7500000000000002
 40
1.0
 40
1.0
 40
1.0
 40
1.0
 10
110.0750467020481
 20
40.15347006651961
 30
0.0
 10
109.0953610069198
 20
40.71909186632315
 30
0.0
 10
108.1009978295323
 20
41.29318771446003
 30
0.0
 10
106.8257233692683
 20
42.02946776738415
 30
0.0
 10
106.5694688566398
 20
42.17741637923123
 30
0.0
 10
106.0625703153273
 20
42.47007438850984
 30
0.0
 10
105.8108204891859
 20
42.61542221840101
 30
0.0
 10
105.0600530775358
 20
43.04887798561599
 30
0.0
 10
104.565500094392
 20
43.33440828356257
 30
0.0
 10
104.075046702048
 20
43.61757168165737
 30
0.0
  0
CIRCLE
  5
E8
330
1F
100
AcDbEntity
  8
0
  6
Continuous
 62
     7
370
    25
100
AcDbCircle
 10
104.075046702
 20
36.6893684514
 30
0.0
 40
5.749999999999986
  0
INSERT
  5
F4
330
1F
100
AcDbEntity
  8
0
  6
Continuous
 62
     7
370
    18
100
AcDbBlockReference
  2
SW_CENTERMARKSYMBOL_0
 10
104.075046702
 20
36.6893684514
 30
0.0
  0
INSERT
  5
100
330
1F
100
AcDbEntity
  8
0
  6
Continuous
 62
     7
370
    18
100
AcDbBlockReference
  2
SW_CENTERMARKSYMBOL_1
 10
104.075046702
 20
36.6893684514
 30
0.0
  0
LINE
  5
101
330
1F
100
AcDbEntity
  8
0
  6
Continuous
 62
     7
370
    25
100
AcDbLine
 10
64.1910493234
 20
51.5042922317
 30
0.0
 11
64.3353868907
 21
51.7542922317
 31
0.0
  0
LINE
  5
102
330
1F
100
AcDbEntity
  8
0
  6
Continuous
 62
     7
370
    25
100
AcDbLine
 10
64.3353868907
 20
63.2542922317
 30
0.0
 11
64.1910493234
 21
63.5042922317
 31
0.0
  0
LINE
  5
103
330
1F
100
AcDbEntity
  8
0
  6
Continuous
 62
     7
370
    25
100
AcDbLine
 10
59.479724458
 20
63.5042922317
 30
0.0
 11
59.3353868907
 21
63.2542922317
 31
0.0
  0
LINE
  5
104
330
1F
100
AcDbEntity
  8
0
  6
Continuous
 62
     7
370
    25
100
AcDbLine
 10
59.3353868907
 20
51.7542922317
 30
0.0
 11
59.479724458
 21
51.5042922317
 31
0.0
  0
LINE
  5
105
330
1F
100
AcDbEntity
  8
0
  6
Continuous
 62
     7
370
    25
100
AcDbLine
 10
59.3353868907
 20
62.5254797317
 30
0.0
 11
51.6903349502
 21
62.2865718585
 31
0.0
  0
LINE
  5
106
330
1F
100
AcDbEntity
  8
0
  6
Continuous
 62
     7
370
    25
100
AcDbLine
 10
51.6903349502
 20
52.7220126048
 30
0.0
 11
59.3353868907
 21
52.4831047317
 31
0.0
  0
LINE
  5
107
330
1F
100
AcDbEntity
  8
0
  6
Continuous
 62
     7
370
    25
100
AcDbLine
 10
51.6903349502
 20
62.2865718585
 30
0.0
 11
50.3353868907
 21
61.5042922317
 31
0.0
  0
LINE
  5
108
330
1F
100
AcDbEntity
  8
0
  6
Continuous
 62
     7
370
    25
100
AcDbLine
 10
50.3353868907
 20
53.5042922317
 30
0.0
 11
51.6903349502
 21
52.7220126048
 31
0.0
  0
LINE
  5
109
330
1F
100
AcDbEntity
  8
0
  6
Continuous
 62
     7
370
    25
100
AcDbLine
 10
68.3353868907
 20
53.0042922317
 30
0.0
 11
72.8353868907
 21
53.7542922317
 31
0.0
  0
LINE
  5
10A
330
1F
100
AcDbEntity
  8
0
  6
Continuous
 62
     7
370
    25
100
AcDbLine
 10
72.8353868907
 20
61.2542922317
 30
0.0
 11
68.3353868907
 21
62.0042922317
 31
0.0
  0
LINE
  5
10B
330
1F
100
AcDbEntity
  8
0
  6
Continuous
 62
     7
370
    25
100
AcDbLine
 10
68.3353868907
 20
62.0042922317
 30
0.0
 11
64.3353868907
 21
62.0042922317
 31
0.0
  0
LINE
  5
10C
330
1F
100
AcDbEntity
  8
0
  6
Continuous
 62
     7
370
    25
100
AcDbLine
 10
64.3353868907
 20
53.0042922317
 30
0.0
 11
68.3353868907
 21
53.0042922317
 31
0.0
  0
LINE
  5
10D
330
1F
100
AcDbEntity
  8
0
  6
Continuous
 62
     7
370
    25
100
AcDbLine
 10
72.8353868907
 20
53.0042922317
 30
0.0
 11
77.3353868907
 21
53.7542922317
 31
0.0
  0
LINE
  5
10E
330
1F
100
AcDbEntity
  8
0
  6
Continuous
 62
     7
370
    25
100
AcDbLine
 10
77.3353868907
 20
61.2542922317
 30
0.0
 11
72.8353868907
 21
62.0042922317
 31
0.0
  0
LINE
  5
10F
330
1F
100
AcDbEntity
  8
0
  6
Continuous
 62
     7
370
    25
100
AcDbLine
 10
77.3353868907
 20
53.0042922317
 30
0.0
 11
81.8353868907
 21
53.7542922317
 31
0.0
  0
LINE
  5
110
330
1F
100
AcDbEntity
  8
0
  6
Continuous
 62
     7
370
    25
100
AcDbLine
 10
81.8353868907
 20
61.2542922317
 30
0.0
 11
77.3353868907
 21
62.0042922317
 31
0.0
  0
LINE
  5
111
330
1F
100
AcDbEntity
  8
0
  6
Continuous
 62
     7
370
    25
100
AcDbLine
 10
81.8353868907
 20
53.0042922317
 30
0.0
 11
86.9029434931
 21
53.6953226774
 31
0.0
  0
LINE
  5
112
330
1F
100
AcDbEntity
  8
0
  6
Continuous
 62
     7
370
    25
100
AcDbLine
 10
86.9029434931
 20
61.3132617859
 30
0.0
 11
81.8353868907
 21
62.0042922317
 31
0.0
  0
ARC
  5
113
330
1F
100
AcDbEntity
  8
0
  6
Continuous
 62
     7
370
    25
100
AcDbCircle
 10
86.8353868907
 20
60.8178467019
 30
0.0
 40
0.5000000000000054
100
AcDbArc
 50
0.0
 51
82.2348339816
  0
ARC
  5
114
330
1F
100
AcDbEntity
  8
0
  6
Continuous
 62
     7
370
    25
100
AcDbCircle
 10
86.8353868907
 20
54.1907377615
 30
0.0
 40
0.5
100
AcDbArc
 50
277.7651660184
 51
0.0
  0
SPLINE
  5
115
330
1F
100
AcDbEntity
  8
0
  6
Continuous
 62
     7
370
    25
100
AcDbSpline
210
0.0
220
0.0
230
1.0
 70
    24
 71
     3
 72
    12
 73
     8
 74
     0
 42
0.000000001
 43
0.00000001
 40
0.0
 40
0.0
 40
0.0
 40
0.0
 40
0.2517007862109044
 40
0.4375036207768147
 40
0.6238967866162498
 40
0.8117639249750281
 40
1.0
 40
1.0
 40
1.0
 40
1.0
 10
64.19012945785533
 20
63.50429223166861
 30
0.0
 10
64.18335865679036
 20
63.50429223166861
 30
0.0
 10
64.17158972262814
 20
63.50429223166861
 30
0.0
 10
64.08507699063182
 20
63.50429223166859
 30
0.0
 10
63.97445477524022
 20
63.50429223166859
 30
0.0
 10
63.83188228607853
 20
63.50429223166858
 30
0.0
 10
63.71409990042726
 20
63.50429223166858
 30
0.0
 10
63.6551509385649
 20
63.50429223166858
 30
0.0
  0
SPLINE
  5
116
330
1F
100
AcDbEntity
  8
0
  6
Continuous
 62
     7
370
    25
100
AcDbSpline
210
0.0
220
0.0
230
1.0
 70
    24
 71
     3
 72
    13
 73
     9
 74
     0
 42
0.000000001
 43
0.00000001
 40
0.0
 40
0.0
 40
0.0
 40
0.0
 40
0.186079100448902
 40
0.3724805859739162
 40
0.5601366117319997
 40
0.7483596971385094
 40
0.997998119724864
 40
0.9999999999999999
 40
0.9999999999999999
 40
0.9999999999999999
 40
0.9999999999999999
 10
63.6551509385649
 20
51.50429223166859
 30
0.0
 10
63.71347954628709
 20
51.50429223166859
 30
0.0
 10
63.83023781699559
 20
51.50429223166859
 30
0.0
 10
63.97213699641287
 20
51.5042922316686
 30
0.0
 10
64.08577673195336
 20
51.5042922316686
 30
0.0
 10
64.16437485147941
 20
51.50429223166861
 30
0.0
 10
64.20319971305086
 20
51.5042922316686
 30
0.0
 10
64.19085257170045
 20
51.50429223166861
 30
0.0
 10
64.19075434618394
 20
51.50429223166861
 30
0.0
  0
SPLINE
  5
117
330
1F
100
AcDbEntity
  8
0
  6
Continuous
 62
     7
370
    25
100
AcDbSpline
210
0.0
220
0.0
230
1.0
 70
     8
 71
     3
 72
    14
 73
    10
 74
     0
 42
0.000000001
 43
0.00000001
 40
0.0
 40
0.0
 40
0.0
 40
0.0
 40
0.4999999999999999
 40
0.4999999999999999
 40
0.6249999999999999
 40
0.6249999999999999
 40
0.7499999999999998
 40
0.7499999999999998
 40
1.0
 40
1.0
 40
1.0
 40
1.0
 10
63.65515093856547
 20
57.50429223166869
 30
0.0
 10
63.98171283694158
 20
56.5246065365404
 30
0.0
 10
64.1902969884591
 20
55.53024335915293
 30
0.0
 10
64.19123477294747
 20
54.25496889888884
 30
0.0
 10
64.17870866655745
 20
53.99871438626042
 30
0.0
 10
64.12986362578218
 20
53.49181584494786
 30
0.0
 10
64.09359424772491
 20
53.24006601880649
 30
0.0
 10
63.95354154706578
 20
52.48929860715638
 30
0.0
 10
63.81863540267987
 20
51.9947456240126
 30
0.0
 10
63.65515093856519
 20
51.50429223166855
 30
0.0
  0
SPLINE
  5
118
330
1F
100
AcDbEntity
  8
0
  6
Continuous
 62
     7
370
    25
100
AcDbSpline
210
0.0
220
0.0
230
1.0
 70
     8
 71
     3
 72
    14
 73
    10
 74
     0
 42
0.000000001
 43
0.00000001
 40
0.0
 40
0.0
 40
0.0
 40
0.0
 40
0.5000000000000003
 40
0.5000000000000003
 40
0.6250000000000003
 40
0.6250000000000003
 40
0.7500000000000002
 40
0.7500000000000002
 40
1.0
 40
1.0
 40
1.0
 40
1.0
 10
63.65515093856547
 20
63.50429223166864
 30
0.0
 10
63.98171283694157
 20
62.52460653654036
 30
0.0
 10
64.19029698845908
 20
61.53024335915291
 30
0.0
 10
64.19123477294745
 20
60.25496889888883
 30
0.0
 10
64.17870866655744
 20
59.99871438626041
 30
0.0
 10
64.12986362578218
 20
59.49181584494786
 30
0.0
 10
64.0935942477249
 20
59.24006601880649
 30
0.0
 10
63.95354154706577
 20
58.48929860715639
 30
0.0
 10
63.81863540267987
 20
57.99474562401261
 30
0.0
 10
63.65515093856519
 20
57.50429223166856
 30
0.0
  0
LINE
  5
119
330
1F
100
AcDbEntity
  8
0
  6
Continuous
 62
     7
370
    25
100
AcDbLine
 10
64.3353868907
 20
63.2542922317
 30
0.0
 11
64.3353868907
 21
51.7542922317
 31
0.0
  0
SPLINE
  5
11A
330
1F
100
AcDbEntity
  8
0
  6
Continuous
 62
     7
370
    25
100
AcDbSpline
210
0.0
220
0.0
230
1.0
 70
     8
 71
     3
 72
    14
 73
    10
 74
     0
 42
0.000000001
 43
0.00000001
 40
0.0
 40
0.0
 40
0.0
 40
0.0
 40
0.5000000000000003
 40
0.5000000000000003
 40
0.6250000000000003
 40
0.6250000000000003
 40
0.7500000000000002
 40
0.7500000000000002
 40
1.0
 40
1.0
 40
1.0
 40
1.0
 10
60.01562284288362
 20
63.50429223166864
 30
0.0
 10
59.68906094450753
 20
62.52460653654036
 30
0.0
 10
59.48047679299
 20
61.53024335915291
 30
0.0
 10
59.47953900850164
 20
60.25496889888883
 30
0.0
 10
59.49206511489166
 20
59.99871438626041
 30
0.0
 10
59.54091015566693
 20
59.49181584494786
 30
0.0
 10
59.57717953372419
 20
59.24006601880649
 30
0.0
 10
59.71723223438332
 20
58.48929860715639
 30
0.0
 10
59.85213837876923
 20
57.99474562401261
 30
0.0
 10
60.01562284288391
 20
57.50429223166856
 30
0.0
  0
SPLINE
  5
11B
330
1F
100
AcDbEntity
  8
0
  6
Continuous
 62
     7
370
    25
100
AcDbSpline
210
0.0
220
0.0
230
1.0
 70
     8
 71
     3
 72
    14
 73
    10
 74
     0
 42
0.000000001
 43
0.00000001
 40
0.0
 40
0.0
 40
0.0
 40
0.0
 40
0.4999999999999999
 40
0.4999999999999999
 40
0.6249999999999999
 40
0.6249999999999999
 40
0.7499999999999998
 40
0.7499999999999998
 40
1.0
 40
1.0
 40
1.0
 40
1.0
 10
60.01562284288362
 20
57.50429223166869
 30
0.0
 10
59.68906094450752
 20
56.5246065365404
 30
0.0
 10
59.48047679298999
 20
55.53024335915293
 30
0.0
 10
59.47953900850162
 20
54.25496889888884
 30
0.0
 10
59.49206511489165
 20
53.99871438626042
 30
0.0
 10
59.54091015566691
 20
53.49181584494786
 30
0.0
 10
59.57717953372418
 20
53.24006601880649
 30
0.0
 10
59.71723223438332
 20
52.48929860715638
 30
0.0
 10
59.85213837876923
 20
51.9947456240126
 30
0.0
 10
60.01562284288391
 20
51.50429223166855
 30
0.0
  0
SPLINE
  5
11C
330
1F
100
AcDbEntity
  8
0
  6
Continuous
 62
     7
370
    25
100
AcDbSpline
210
0.0
220
0.0
230
1.0
 70
    24
 71
     3
 72
    13
 73
     9
 74
     0
 42
0.000000001
 43
0.00000001
 40
0.0
 40
0.0
 40
0.0
 40
0.0
 40
0.1860791004489019
 40
0.3724805859739163
 40
0.5601366117319998
 40
0.7483596971385095
 40
0.9979981197248641
 40
1.0
 40
1.0
 40
1.0
 40
1.0
 10
60.0156228428842
 20
51.50429223166859
 30
0.0
 10
59.957294235162
 20
51.50429223166859
 30
0.0
 10
59.8405359644535
 20
51.5042922316686
 30
0.0
 10
59.69863678503624
 20
51.5042922316686
 30
0.0
 10
59.58499704949574
 20
51.5042922316686
 30
0.0
 10
59.50639892996968
 20
51.50429223166861
 30
0.0
 10
59.46757406839823
 20
51.5042922316686
 30
0.0
 10
59.47992120974865
 20
51.50429223166861
 30
0.0
 10
59.48001943526516
 20
51.50429223166861
 30
0.0
  0
SPLINE
  5
11D
330
1F
100
AcDbEntity
  8
0
  6
Continuous
 62
     7
370
    25
100
AcDbSpline
210
0.0
220
0.0
230
1.0
 70
    24
 71
     3
 72
    12
 73
     8
 74
     0
 42
0.000000001
 43
0.00000001
 40
0.0
 40
0.0
 40
0.0
 40
0.0
 40
0.2517007862109044
 40
0.4375036207768147
 40
0.6238967866162498
 40
0.8117639249750281
 40
1.0
 40
1.0
 40
1.0
 40
1.0
 10
59.48064432359376
 20
63.50429223166861
 30
0.0
 10
59.48741512465875
 20
63.50429223166861
 30
0.0
 10
59.49918405882096
 20
63.50429223166861
 30
0.0
 10
59.58569679081727
 20
63.50429223166859
 30
0.0
 10
59.69631900620888
 20
63.50429223166859
 30
0.0
 10
59.83889149537057
 20
63.50429223166858
 30
0.0
 10
59.95667388102184
 20
63.50429223166858
 30
0.0
 10
60.0156228428842
 20
63.50429223166858
 30
0.0
  0
LINE
  5
11E
330
1F
100
AcDbEntity
  8
0
  6
Continuous
 62
     7
370
    25
100
AcDbLine
 10
59.3353868907
 20
63.2542922317
 30
0.0
 11
59.3353868907
 21
51.7542922317
 31
0.0
  0
LINE
  5
11F
330
1F
100
AcDbEntity
  8
0
  6
Continuous
 62
     7
370
    25
100
AcDbLine
 10
61.755002133
 20
57.5042922317
 30
0.0
 11
60.0156228429
 21
57.5042922317
 31
0.0
  0
LINE
  5
120
330
1F
100
AcDbEntity
  8
0
  6
Continuous
 62
     7
370
    25
100
AcDbLine
 10
61.755002133
 20
63.5042922317
 30
0.0
 11
60.0156228429
 21
63.5042922317
 31
0.0
  0
SPLINE
  5
121
330
1F
100
AcDbEntity
  8
0
  6
Continuous
 62
     7
370
    25
100
AcDbSpline
210
0.0
220
0.0
230
1.0
 70
     8
 71
     3
 72
     8
 73
     4
 74
     0
 42
0.000000001
 43
0.00000001
 40
0.0
 40
0.0
 40
0.0
 40
0.0
 40
1.0
 40
1.0
 40
1.0
 40
1.0
 10
61.83538689072455
 20
62.94351517071617
 30
0.0
 10
61.81076894411179
 20
63.13075789743686
 30
0.0
 10
61.78387287016088
 20
63.31766885292576
 30
0.0
 10
61.75500213299522
 20
63.50429223166858
 30
0.0
  0
SPLINE
  5
122
330
1F
100
AcDbEntity
  8
0
  6
Continuous
 62
     7
370
    25
100
AcDbSpline
210
0.0
220
0.0
230
1.0
 70
     8
 71
     3
 72
     8
 73
     4
 74
     0
 42
0.000000001
 43
0.00000001
 40
0.0
 40
0.0
 40
0.0
 40
0.0
 40
1.0
 40
1.0
 40
1.0
 40
1.0
 10
61.91577164845388
 20
63.50429223166858
 30
0.0
 10
61.88688189980057
 20
63.31754596073777
 30
0.0
 10
61.85998785926982
 20
63.13062876320397
 30
0.0
 10
61.83538689072455
 20
62.94351517071617
 30
0.0
  0
LINE
  5
123
330
1F
100
AcDbEntity
  8
0
  6
Continuous
 62
     7
370
    25
100
AcDbLine
 10
63.6551509386
 20
63.5042922317
 30
0.0
 11
61.9157716485
 21
63.5042922317
 31
0.0
  0
LINE
  5
124
330
1F
100
AcDbEntity
  8
0
  6
Continuous
 62
     7
370
    25
100
AcDbLine
 10
63.6551509386
 20
57.5042922317
 30
0.0
 11
61.9157716485
 21
57.5042922317
 31
0.0
  0
SPLINE
  5
125
330
1F
100
AcDbEntity
  8
0
  6
Continuous
 62
     7
370
    25
100
AcDbSpline
210
0.0
220
0.0
230
1.0
 70
     8
 71
     3
 72
     8
 73
     4
 74
     0
 42
0.000000001
 43
0.00000001
 40
0.0
 40
0.0
 40
0.0
 40
0.0
 40
1.0
 40
1.0
 40
1.0
 40
1.0
 10
61.83538689072455
 20
58.06506929262101
 30
0.0
 10
61.86000483733731
 20
57.87782656590034
 30
0.0
 10
61.88690091128822
 20
57.69091561041142
 30
0.0
 10
61.91577164845388
 20
57.50429223166861
 30
0.0
  0
SPLINE
  5
126
330
1F
100
AcDbEntity
  8
0
  6
Continuous
 62
     7
370
    25
100
AcDbSpline
210
0.0
220
0.0
230
1.0
 70
     8
 71
     3
 72
     8
 73
     4
 74
     0
 42
0.000000001
 43
0.00000001
 40
0.0
 40
0.0
 40
0.0
 40
0.0
 40
1.0
 40
1.0
 40
1.0
 40
1.0
 10
61.75500213299522
 20
57.50429223166861
 30
0.0
 10
61.78389188164853
 20
57.6910385025994
 30
0.0
 10
61.81078592217928
 20
57.87795570013321
 30
0.0
 10
61.83538689072455
 20
58.06506929262101
 30
0.0
  0
LINE
  5
127
330
1F
100
AcDbEntity
  8
0
  6
Continuous
 62
     7
370
    25
100
AcDbLine
 10
61.8353868907
 20
56.9435151707
 30
0.0
 11
61.8353868907
 21
58.0650692926
 31
0.0
  0
SPLINE
  5
128
330
1F
100
AcDbEntity
  8
0
  6
Continuous
 62
     7
370
    25
100
AcDbSpline
210
0.0
220
0.0
230
1.0
 70
     8
 71
     3
 72
     8
 73
     4
 74
     0
 42
0.000000001
 43
0.00000001
 40
0.0
 40
0.0
 40
0.0
 40
0.0
 40
1.0
 40
1.0
 40
1.0
 40
1.0
 10
61.83538689072455
 20
56.94351517071621
 30
0.0
 10
61.81076894411179
 20
57.13075789743689
 30
0.0
 10
61.78387287016088
 20
57.3176688529258
 30
0.0
 10
61.75500213299522
 20
57.50429223166861
 30
0.0
  0
SPLINE
  5
129
330
1F
100
AcDbEntity
  8
0
  6
Continuous
 62
     7
370
    25
100
AcDbSpline
210
0.0
220
0.0
230
1.0
 70
     8
 71
     3
 72
     8
 73
     4
 74
     0
 42
0.000000001
 43
0.00000001
 40
0.0
 40
0.0
 40
0.0
 40
0.0
 40
1.0
 40
1.0
 40
1.0
 40
1.0
 10
61.91577164845388
 20
57.50429223166861
 30
0.0
 10
61.88688189980057
 20
57.31754596073781
 30
0.0
 10
61.85998785926982
 20
57.13062876320402
 30
0.0
 10
61.83538689072455
 20
56.94351517071621
 30
0.0
  0
LINE
  5
12A
330
1F
100
AcDbEntity
  8
0
  6
Continuous
 62
     7
370
    25
100
AcDbLine
 10
61.755002133
 20
51.5042922317
 30
0.0
 11
60.0156228429
 21
51.5042922317
 31
0.0
  0
LINE
  5
12B
330
1F
100
AcDbEntity
  8
0
  6
Continuous
 62
     7
370
    25
100
AcDbLine
 10
63.6551509386
 20
51.5042922317
 30
0.0
 11
61.9157716485
 21
51.5042922317
 31
0.0
  0
SPLINE
  5
12C
330
1F
100
AcDbEntity
  8
0
  6
Continuous
 62
     7
370
    25
100
AcDbSpline
210
0.0
220
0.0
230
1.0
 70
     8
 71
     3
 72
     8
 73
     4
 74
     0
 42
0.000000001
 43
0.00000001
 40
0.0
 40
0.0
 40
0.0
 40
0.0
 40
1.0
 40
1.0
 40
1.0
 40
1.0
 10
61.83538689072455
 20
52.065069292621
 30
0.0
 10
61.86000483733731
 20
51.87782656590031
 30
0.0
 10
61.88690091128822
 20
51.69091561041141
 30
0.0
 10
61.91577164845388
 20
51.50429223166859
 30
0.0
  0
SPLINE
  5
12D
330
1F
100
AcDbEntity
  8
0
  6
Continuous
 62
     7
370
    25
100
AcDbSpline
210
0.0
220
0.0
230
1.0
 70
     8
 71
     3
 72
     8
 73
     4
 74
     0
 42
0.000000001
 43
0.00000001
 40
0.0
 40
0.0
 40
0.0
 40
0.0
 40
1.0
 40
1.0
 40
1.0
 40
1.0
 10
61.75500213299522
 20
51.50429223166859
 30
0.0
 10
61.78389188164853
 20
51.69103850259939
 30
0.0
 10
61.81078592217928
 20
51.87795570013319
 30
0.0
 10
61.83538689072455
 20
52.065069292621
 30
0.0
  0
LINE
  5
12E
330
1F
100
AcDbEntity
  8
0
  6
Continuous
 62
     7
370
    25
100
AcDbLine
 10
51.6903349502
 20
62.2865718585
 30
0.0
 11
51.6903349502
 21
52.7220126048
 31
0.0
  0
LINE
  5
12F
330
1F
100
AcDbEntity
  8
0
  6
Continuous
 62
     7
370
    25
100
AcDbLine
 10
50.3353868907
 20
53.5042922317
 30
0.0
 11
50.3353868907
 21
61.5042922317
 31
0.0
  0
LINE
  5
130
330
1F
100
AcDbEntity
  8
0
  6
Continuous
 62
     7
370
    25
100
AcDbLine
 10
68.3353868907
 20
57.5042922317
 30
0.0
 11
68.3353868907
 21
53.0042922317
 31
0.0
  0
LINE
  5
131
330
1F
100
AcDbEntity
  8
0
  6
Continuous
 62
     7
370
    25
100
AcDbLine
 10
68.3353868907
 20
62.0042922317
 30
0.0
 11
68.3353868907
 21
57.5042922317
 31
0.0
  0
LINE
  5
132
330
1F
100
AcDbEntity
  8
0
  6
Continuous
 62
     7
370
    25
100
AcDbLine
 10
72.8353868907
 20
57.5042922317
 30
0.0
 11
72.8353868907
 21
53.0042922317
 31
0.0
  0
LINE
  5
133
330
1F
100
AcDbEntity
  8
0
  6
Continuous
 62
     7
370
    25
100
AcDbLine
 10
72.8353868907
 20
62.0042922317
 30
0.0
 11
72.8353868907
 21
57.5042922317
 31
0.0
  0
LINE
  5
134
330
1F
100
AcDbEntity
  8
0
  6
Continuous
 62
     7
370
    25
100
AcDbLine
 10
77.3353868907
 20
57.5042922317
 30
0.0
 11
77.3353868907
 21
53.0042922317
 31
0.0
  0
LINE
  5
135
330
1F
100
AcDbEntity
  8
0
  6
Continuous
 62
     7
370
    25
100
AcDbLine
 10
77.3353868907
 20
62.0042922317
 30
0.0
 11
77.3353868907
 21
57.5042922317
 31
0.0
  0
LINE
  5
136
330
1F
100
AcDbEntity
  8
0
  6
Continuous
 62
     7
370
    25
100
AcDbLine
 10
81.8353868907
 20
57.5042922317
 30
0.0
 11
81.8353868907
 21
53.0042922317
 31
0.0
  0
LINE
  5
137
330
1F
100
AcDbEntity
  8
0
  6
Continuous
 62
     7
370
    25
100
AcDbLine
 10
81.8353868907
 20
62.0042922317
 30
0.0
 11
81.8353868907
 21
57.5042922317
 31
0.0
  0
LINE
  5
138
330
1F
100
AcDbEntity
  8
0
  6
Continuous
 62
     7
370
    25
100
AcDbLine
 10
87.3353868907
 20
57.5042922317
 30
0.0
 11
87.3353868907
 21
54.1907377615
 31
0.0
  0
LINE
  5
139
330
1F
100
AcDbEntity
  8
0
  6
Continuous
 62
     7
370
    25
100
AcDbLine
 10
87.3353868907
 20
60.8178467019
 30
0.0
 11
87.3353868907
 21
57.5042922317
 31
0.0
  0
LINE
  5
13A
330
1F
100
AcDbEntity
  8
0
  6
Continuous
 62
     7
370
    25
100
AcDbLine
 10
61.8353868907
 20
62.9435151707
 30
0.0
 11
61.8353868907
 21
63.5042922317
 31
0.0
  0
SPLINE
  5
13B
330
1F
100
AcDbEntity
  8
0
  6
Continuous
 62
     7
370
    25
100
AcDbSpline
210
0.0
220
0.0
230
1.0
 70
    24
 71
     3
 72
     8
 73
     4
 74
     0
 42
0.000000001
 43
0.00000001
 40
0.0
 40
0.0
 40
0.0
 40
0.0
 40
1.0
 40
1.0
 40
1.0
 40
1.0
 10
61.83538689072455
 20
63.50429223166858
 30
0.0
 10
61.86000396305403
 20
63.50429223166858
 30
0.0
 10
61.8868999335454
 20
63.50429223166858
 30
0.0
 10
61.91577164845388
 20
63.50429223166858
 30
0.0
  0
SPLINE
  5
13C
330
1F
100
AcDbEntity
  8
0
  6
Continuous
 62
     7
370
    25
100
AcDbSpline
210
0.0
220
0.0
230
1.0
 70
    24
 71
     3
 72
     8
 73
     4
 74
     0
 42
0.000000001
 43
0.00000001
 40
0.0
 40
0.0
 40
0.0
 40
0.0
 40
1.0
 40
1.0
 40
1.0
 40
1.0
 10
61.75500213299522
 20
63.50429223166858
 30
0.0
 10
61.78389467110408
 20
63.50429223166858
 30
0.0
 10
61.81078840943391
 20
63.50429223166858
 30
0.0
 10
61.83538689072455
 20
63.50429223166858
 30
0.0
  0
SPLINE
  5
13D
330
1F
100
AcDbEntity
  8
0
  6
Continuous
 62
     7
370
    25
100
AcDbSpline
210
0.0
220
0.0
230
1.0
 70
    24
 71
     3
 72
     8
 73
     4
 74
     0
 42
0.000000001
 43
0.00000001
 40
0.0
 40
0.0
 40
0.0
 40
0.0
 40
1.0
 40
1.0
 40
1.0
 40
1.0
 10
61.91577164845388
 20
51.50429223166859
 30
0.0
 10
61.88687911034502
 20
51.50429223166859
 30
0.0
 10
61.8599853720152
 20
51.50429223166859
 30
0.0
 10
61.83538689072455
 20
51.50429223166859
 30
0.0
  0
LINE
  5
13E
330
1F
100
AcDbEntity
  8
0
  6
Continuous
 62
     7
370
    25
100
AcDbLine
 10
61.8353868907
 20
51.5042922317
 30
0.0
 11
61.8353868907
 21
52.0650692926
 31
0.0
  0
SPLINE
  5
13F
330
1F
100
AcDbEntity
  8
0
  6
Continuous
 62
     7
370
    25
100
AcDbSpline
210
0.0
220
0.0
230
1.0
 70
    24
 71
     3
 72
     8
 73
     4
 74
     0
 42
0.000000001
 43
0.00000001
 40
0.0
 40
0.0
 40
0.0
 40
0.0
 40
1.0
 40
1.0
 40
1.0
 40
1.0
 10
61.83538689072455
 20
51.50429223166859
 30
0.0
 10
61.81076981839506
 20
51.50429223166859
 30
0.0
 10
61.78387384790369
 20
51.50429223166859
 30
0.0
 10
61.75500213299522
 20
51.50429223166859
 30
0.0
  0
LINE
  5
140
330
1F
100
AcDbEntity
  8
0
  6
Continuous
 62
     8
370
    25
100
AcDbLine
 10
86.9029434931
 20
57.5042922317
 30
0.0
 11
86.9029434931
 21
61.3132617859
 31
0.0
  0
LINE
  5
141
330
1F
100
AcDbEntity
  8
0
  6
Continuous
 62
     8
370
    25
100
AcDbLine
 10
86.9029434931
 20
53.6953226774
 30
0.0
 11
86.9029434931
 21
57.5042922317
 31
0.0
  0
LINE
  5
142
330
1F
100
AcDbEntity
  8
0
  6
Continuous
 62
     7
370
    18
100
AcDbLine
 10
50.8536067415
 20
61.803486602
 30
0.0
 11
58.8353868907
 21
62.0529172317
 31
0.0
  0
LINE
  5
143
330
1F
100
AcDbEntity
  8
0
  6
Continuous
 62
     7
370
    18
100
AcDbLine
 10
50.8536067415
 20
53.2050978613
 30
0.0
 11
58.8353868907
 21
52.9556672317
 31
0.0
  0
LINE
  5
144
330
1F
100
AcDbEntity
  8
0
  6
Continuous
 62
     7
370
    18
100
AcDbLine
 10
58.8353868907
 20
52.4987297317
 30
0.0
 11
58.8353868907
 21
62.5098547317
 31
0.0
  0
LINE
  5
145
330
1F
100
AcDbEntity
  8
0
  6
CENTERX2
 62
     7
370
    18
100
AcDbLine
 10
88.3353868907
 20
57.5042922317
 30
0.0
 11
49.3668127838
 21
57.5042922317
 31
0.0
  0
ENDSEC
  0
SECTION
  2
OBJECTS
  0
DICTIONARY
  5
C
330
0
100
AcDbDictionary
281
     1
  3
ACAD_GROUP
350
D
  3
ACAD_LAYOUT
350
1A
  3
ACAD_MLINESTYLE
350
17
  3
ACAD_PLOTSETTINGS
350
19
  3
ACAD_PLOTSTYLENAME
350
E
  3
ACAD_SCALELIST
350
47
  0
DICTIONARY
  5
D
102
{ACAD_REACTORS
330
C
102
}
330
C
100
AcDbDictionary
281
     1
  0
DICTIONARY
  5
1A
102
{ACAD_REACTORS
330
C
102
}
330
C
100
AcDbDictionary
281
     1
  3
Layout1
350
1E
  3
Layout2
350
26
  3
Model
350
22
  0
DICTIONARY
  5
17
102
{ACAD_REACTORS
330
C
102
}
330
C
100
AcDbDictionary
281
     1
  3
Standard
350
18
  0
DICTIONARY
  5
19
102
{ACAD_REACTORS
330
C
102
}
330
C
100
AcDbDictionary
281
     1
  0
ACDBDICTIONARYWDFLT
  5
E
102
{ACAD_REACTORS
330
C
102
}
330
C
100
AcDbDictionary
281
     1
  3
Normal
350
F
100
AcDbDictionaryWithDefault
340
F
  0
DICTIONARY
  5
47
102
{ACAD_REACTORS
330
C
102
}
330
C
100
AcDbDictionary
281
     1
  3
A0
350
48
  3
A1
350
49
  3
A2
350
4A
  3
A3
350
4B
  3
A4
350
4C
  3
A5
350
4D
  3
A6
350
4E
  3
A7
350
4F
  3
A8
350
50
  3
A9
350
51
  3
B0
350
52
  3
B1
350
53
  3
B2
350
54
  3
B3
350
55
  3
B4
350
56
  3
B5
350
57
  3
B6
350
58
  3
B7
350
59
  3
B8
350
5A
  3
B9
350
5B
  3
C0
350
5C
  3
C1
350
5D
  3
C2
350
5E
  3
C3
350
5F
  3
C4
350
60
  3
C5
350
61
  3
C6
350
62
  3
C7
350
63
  3
C8
350
64
  3
C9
350
65
  3
D0
350
66
  3
D1
350
67
  3
D2
350
68
  0
LAYOUT
  5
1E
102
{ACAD_REACTORS
330
1A
102
}
330
1A
100
AcDbPlotSettings
  1

  2
none_device
  4

  6

 40
0.0
 41
0.0
 42
0.0
 43
0.0
 44
0.0
 45
0.0
 46
0.0
 47
0.0
 48
0.0
 49
0.0
140
0.0
141
0.0
142
1.0
143
1.0
 70
   688
 72
     1
 73
     0
 74
     5
  7

 75
    16
147
1.0
148
0.0
149
0.0
100
AcDbLayout
  1
Layout1
 70
     1
 71
     1
 10
0.0
 20
0.0
 11
420.0
 21
297.0
 12
0.0
 22
0.0
 32
0.0
 14
1.0000000000E+20
 24
1.0000000000E+20
 34
1.0000000000E+20
 15
-1.0000000000E+20
 25
-1.0000000000E+20
 35
-1.0000000000E+20
146
0.0
 13
0.0
 23
0.0
 33
0.0
 16
1.0
 26
0.0
 36
0.0
 17
0.0
 27
1.0
 37
0.0
 76
     0
330
1B
  0
LAYOUT
  5
26
102
{ACAD_REACTORS
330
1A
102
}
330
1A
100
AcDbPlotSettings
  1

  2
none_device
  4

  6

 40
0.0
 41
0.0
 42
0.0
 43
0.0
 44
0.0
 45
0.0
 46
0.0
 47
0.0
 48
0.0
 49
0.0
140
0.0
141
0.0
142
1.0
143
1.0
 70
   688
 72
     1
 73
     0
 74
     5
  7

 75
    16
147
1.0
148
0.0
149
0.0
100
AcDbLayout
  1
Layout2
 70
     1
 71
     2
 10
0.0
 20
0.0
 11
0.0
 21
0.0
 12
0.0
 22
0.0
 32
0.0
 14
0.0
 24
0.0
 34
0.0
 15
0.0
 25
0.0
 35
0.0
146
0.0
 13
0.0
 23
0.0
 33
0.0
 16
1.0
 26
0.0
 36
0.0
 17
0.0
 27
1.0
 37
0.0
 76
     0
330
23
  0
LAYOUT
  5
22
102
{ACAD_REACTORS
330
1A
102
}
330
1A
100
AcDbPlotSettings
  1

  2
none_device
  4
Letter_(8.50_x_11.00_Inches)
  6

 40
6.35
 41
6.35
 42
6.35000508
 43
6.35000508
 44
215.9
 45
279.4
 46
0.0
 47
0.0
 48
0.0
 49
0.0
140
0.0
141
0.0
142
1.0
143
1.0
 70
  1712
 72
     1
 73
     0
 74
     0
  7

 75
     0
147
1.0
148
0.0
149
0.0
100
AcDbLayout
  1
Model
 70
     1
 71
     0
 10
0.0
 20
0.0
 11
215.9
 21
139.7
 12
0.0
 22
0.0
 32
0.0
 14
0.0
 24
0.0
 34
0.0
 15
215.9
 25
139.7
 35
0.0
146
0.0
 13
0.0
 23
0.0
 33
0.0
 16
1.0
 26
0.0
 36
0.0
 17
0.0
 27
1.0
 37
0.0
 76
     0
330
1F
331
29
  0
MLINESTYLE
  5
18
102
{ACAD_REACTORS
330
17
102
}
330
17
100
AcDbMlineStyle
  2
Standard
 70
     0
  3

 62
   256
 51
90.0
 52
90.0
 71
     2
 49
0.5
 62
   256
  6
BYLAYER
 49
-0.5
 62
   256
  6
BYLAYER
  0
ACDBPLACEHOLDER
  5
F
102
{ACAD_REACTORS
330
E
102
}
330
E
  0
SCALE
  5
48
102
{ACAD_REACTORS
330
47
102
}
330
47
100
AcDbScale
 70
     0
300
1:1
140
1.0
141
1.0
290
     1
  0
SCALE
  5
49
102
{ACAD_REACTORS
330
47
102
}
330
47
100
AcDbScale
 70
     0
300
1:2
140
1.0
141
2.0
290
     0
  0
SCALE
  5
4A
102
{ACAD_REACTORS
330
47
102
}
330
47
100
AcDbScale
 70
     0
300
1:4
140
1.0
141
4.0
290
     0
  0
SCALE
  5
4B
102
{ACAD_REACTORS
330
47
102
}
330
47
100
AcDbScale
 70
     0
300
1:5
140
1.0
141
5.0
290
     0
  0
SCALE
  5
4C
102
{ACAD_REACTORS
330
47
102
}
330
47
100
AcDbScale
 70
     0
300
1:8
140
1.0
141
8.0
290
     0
  0
SCALE
  5
4D
102
{ACAD_REACTORS
330
47
102
}
330
47
100
AcDbScale
 70
     0
300
1:10
140
1.0
141
10.0
290
     0
  0
SCALE
  5
4E
102
{ACAD_REACTORS
330
47
102
}
330
47
100
AcDbScale
 70
     0
300
1:16
140
1.0
141
16.0
290
     0
  0
SCALE
  5
4F
102
{ACAD_REACTORS
330
47
102
}
330
47
100
AcDbScale
 70
     0
300
1:20
140
1.0
141
20.0
290
     0
  0
SCALE
  5
50
102
{ACAD_REACTORS
330
47
102
}
330
47
100
AcDbScale
 70
     0
300
1:30
140
1.0
141
30.0
290
     0
  0
SCALE
  5
51
102
{ACAD_REACTORS
330
47
102
}
330
47
100
AcDbScale
 70
     0
300
1:40
140
1.0
141
40.0
290
     0
  0
SCALE
  5
52
102
{ACAD_REACTORS
330
47
102
}
330
47
100
AcDbScale
 70
     0
300
1:50
140
1.0
141
50.0
290
     0
  0
SCALE
  5
53
102
{ACAD_REACTORS
330
47
102
}
330
47
100
AcDbScale
 70
     0
300
1:100
140
1.0
141
100.0
290
     0
  0
SCALE
  5
54
102
{ACAD_REACTORS
330
47
102
}
330
47
100
AcDbScale
 70
     0
300
2:1
140
2.0
141
1.0
290
     0
  0
SCALE
  5
55
102
{ACAD_REACTORS
330
47
102
}
330
47
100
AcDbScale
 70
     0
300
4:1
140
4.0
141
1.0
290
     0
  0
SCALE
  5
56
102
{ACAD_REACTORS
330
47
102
}
330
47
100
AcDbScale
 70
     0
300
8:1
140
8.0
141
1.0
290
     0
  0
SCALE
  5
57
102
{ACAD_REACTORS
330
47
102
}
330
47
100
AcDbScale
 70
     0
300
10:1
140
10.0
141
1.0
290
     0
  0
SCALE
  5
58
102
{ACAD_REACTORS
330
47
102
}
330
47
100
AcDbScale
 70
     0
300
100:1
140
100.0
141
1.0
290
     0
  0
SCALE
  5
59
102
{ACAD_REACTORS
330
47
102
}
330
47
100
AcDbScale
 70
     0
300
1/128" = 1'-0"
140
0.0078125
141
12.0
290
     0
  0
SCALE
  5
5A
102
{ACAD_REACTORS
330
47
102
}
330
47
100
AcDbScale
 70
     0
300
1/64" = 1'-0"
140
0.015625
141
12.0
290
     0
  0
SCALE
  5
5B
102
{ACAD_REACTORS
330
47
102
}
330
47
100
AcDbScale
 70
     0
300
1/32" = 1'-0"
140
0.03125
141
12.0
290
     0
  0
SCALE
  5
5C
102
{ACAD_REACTORS
330
47
102
}
330
47
100
AcDbScale
 70
     0
300
1/16" = 1'-0"
140
0.0625
141
12.0
290
     0
  0
SCALE
  5
5D
102
{ACAD_REACTORS
330
47
102
}
330
47
100
AcDbScale
 70
     0
300
3/32" = 1'-0"
140
0.09375
141
12.0
290
     0
  0
SCALE
  5
5E
102
{ACAD_REACTORS
330
47
102
}
330
47
100
AcDbScale
 70
     0
300
1/8" = 1'-0"
140
0.125
141
12.0
290
     0
  0
SCALE
  5
5F
102
{ACAD_REACTORS
330
47
102
}
330
47
100
AcDbScale
 70
     0
300
3/16" = 1'-0"
140
0.1875
141
12.0
290
     0
  0
SCALE
  5
60
102
{ACAD_REACTORS
330
47
102
}
330
47
100
AcDbScale
 70
     0
300
1/4" = 1'-0"
140
0.25
141
12.0
290
     0
  0
SCALE
  5
61
102
{ACAD_REACTORS
330
47
102
}
330
47
100
AcDbScale
 70
     0
300
3/8" = 1'-0"
140
0.375
141
12.0
290
     0
  0
SCALE
  5
62
102
{ACAD_REACTORS
330
47
102
}
330
47
100
AcDbScale
 70
     0
300
1/2" = 1'-0"
140
0.5
141
12.0
290
     0
  0
SCALE
  5
63
102
{ACAD_REACTORS
330
47
102
}
330
47
100
AcDbScale
 70
     0
300
3/4" = 1'-0"
140
0.75
141
12.0
290
     0
  0
SCALE
  5
64
102
{ACAD_REACTORS
330
47
102
}
330
47
100
AcDbScale
 70
     0
300
1" = 1'-0"
140
1.0
141
12.0
290
     0
  0
SCALE
  5
65
102
{ACAD_REACTORS
330
47
102
}
330
47
100
AcDbScale
 70
     0
300
1-1/2" = 1'-0"
140
1.5
141
12.0
290
     0
  0
SCALE
  5
66
102
{ACAD_REACTORS
330
47
102
}
330
47
100
AcDbScale
 70
     0
300
3" = 1'-0"
140
3.0
141
12.0
290
     0
  0
SCALE
  5
67
102
{ACAD_REACTORS
330
47
102
}
330
47
100
AcDbScale
 70
     0
300
6" = 1'-0"
140
6.0
141
12.0
290
     0
  0
SCALE
  5
68
102
{ACAD_REACTORS
330
47
102
}
330
47
100
AcDbScale
 70
     0
300
1'-0" = 1'-0"
140
12.0
141
12.0
290
     0
  0
ENDSEC
  0
EOF
