  0
SECTION
  2
HEADER
  9
$ACADVER
  1
AC1015
  9
$ACADMAINTVER
 70
     6
  9
$DWGCODEPAGE
  3
DOS932
  9
$INSBASE
 10
0.0
 20
0.0
 30
0.0
  9
$EXTMIN
 10
0.0
 20
0.0
 30
0.0
  9
$EXTMAX
 10
215.9
 20
139.7
 30
0.0
  9
$LIMMIN
 10
0.0
 20
0.0
  9
$LIMMAX
 10
215.9
 20
139.7
  9
$ORTHOMODE
 70
     0
  9
$REGENMODE
 70
     1
  9
$FILLMODE
 70
     1
  9
$QTEXTMODE
 70
     0
  9
$MIRRTEXT
 70
     1
  9
$LTSCALE
 40
0.5
  9
$ATTMODE
 70
     1
  9
$TEXTSIZE
 40
1.75
  9
$TRACEWID
 40
1.0
  9
$TEXTSTYLE
  7
Standard
  9
$CLAYER
  8
0
  9
$CELTYPE
  6
ByLayer
  9
$CECOLOR
 62
   256
  9
$CELTSCALE
 40
1.0
  9
$DISPSILH
 70
     0
  9
$DIMSCALE
 40
1.0
  9
$DIMASZ
 40
1.651
  9
$DIMEXO
 40
0.5
  9
$DIMDLI
 40
3.75
  9
$DIMRND
 40
0.0
  9
$DIMDLE
 40
0.0
  9
$DIMEXE
 40
0.5
  9
$DIMTP
 40
0.0
  9
$DIMTM
 40
0.0
  9
$DIMTXT
 40
1.75
  9
$DIMCEN
 40
2.5
  9
$DIMTSZ
 40
0.0
  9
$DIMTOL
 70
     0
  9
$DIMLIM
 70
     0
  9
$DIMTIH
 70
     1
  9
$DIMTOH
 70
     1
  9
$DIMSE1
 70
     0
  9
$DIMSE2
 70
     0
  9
$DIMTAD
 70
     1
  9
$DIMZIN
 70
     1
  9
$DIMBLK
  1

  9
$DIMASO
 70
     1
  9
$DIMSHO
 70
     1
  9
$DIMPOST
  1

  9
$DIMAPOST
  1

  9
$DIMALT
 70
     0
  9
$DIMALTD
 70
     3
  9
$DIMALTF
 40
0.0393700787
  9
$DIMLFAC
 40
1.0
  9
$DIMTOFL
 70
     1
  9
$DIMTVP
 40
0.0
  9
$DIMTIX
 70
     0
  9
$DIMSOXD
 70
     0
  9
$DIMSAH
 70
     0
  9
$DIMBLK1
  1

  9
$DIMBLK2
  1

  9
$DIMSTYLE
  2
ISO-25
  9
$DIMCLRD
 70
     0
  9
$DIMCLRE
 70
     0
  9
$DIMCLRT
 70
     0
  9
$DIMTFAC
 40
1.0
  9
$DIMGAP
 40
0.762
  9
$DIMJUST
 70
     0
  9
$DIMSD1
 70
     0
  9
$DIMSD2
 70
     0
  9
$DIMTOLJ
 70
     0
  9
$DIMTZIN
 70
     1
  9
$DIMALTZ
 70
     0
  9
$DIMALTTZ
 70
     0
  9
$DIMUPT
 70
     0
  9
$DIMDEC
 70
     2
  9
$DIMTDEC
 70
     2
  9
$DIMALTU
 70
     2
  9
$DIMALTTD
 70
     3
  9
$DIMTXSTY
  7
Standard
  9
$DIMAUNIT
 70
     0
  9
$DIMADEC
 70
     2
  9
$DIMALTRND
 40
0.0
  9
$DIMAZIN
 70
     0
  9
$DIMDSEP
 70
    44
  9
$DIMATFIT
 70
     3
  9
$DIMFRAC
 70
     0
  9
$DIMLDRBLK
  1

  9
$DIMLUNIT
 70
     2
  9
$DIMLWD
 70
    -2
  9
$DIMLWE
 70
    -2
  9
$DIMTMOVE
 70
     0
  9
$LUNITS
 70
     2
  9
$LUPREC
 70
     2
  9
$SKETCHINC
 40
1.0
  9
$FILLETRAD
 40
10.0
  9
$AUNITS
 70
     0
  9
$AUPREC
 70
     2
  9
$MENU
  1
.
  9
$ELEVATION
 40
0.0
  9
$PELEVATION
 40
0.0
  9
$THICKNESS
 40
0.0
  9
$LIMCHECK
 70
     0
  9
$CHAMFERA
 40
0.0
  9
$CHAMFERB
 40
0.0
  9
$CHAMFERC
 40
0.0
  9
$CHAMFERD
 40
0.0
  9
$SKPOLY
 70
     0
  9
$TDCREATE
 40
2460066.383545949
  9
$TDUCREATE
 40
2460066.008545949
  9
$TDUPDATE
 40
2460066.383546481
  9
$TDUUPDATE
 40
2460066.008546481
  9
$TDINDWG
 40
0.0000000116
  9
$TDUSRTIMER
 40
0.0000000116
  9
$USRTIMER
 70
     1
  9
$ANGBASE
 50
0.0
  9
$ANGDIR
 70
     0
  9
$PDMODE
 70
     0
  9
$PDSIZE
 40
-1.0
  9
$PLINEWID
 40
0.0
  9
$SPLFRAME
 70
     0
  9
$SPLINETYPE
 70
     6
  9
$SPLINESEGS
 70
     8
  9
$HANDSEED
  5
146
  9
$SURFTAB1
 70
     6
  9
$SURFTAB2
 70
     6
  9
$SURFTYPE
 70
     6
  9
$SURFU
 70
     6
  9
$SURFV
 70
     6
  9
$UCSBASE
  2

  9
$UCSNAME
  2

  9
$UCSORG
 10
0.0
 20
0.0
 30
0.0
  9
$UCSXDIR
 10
1.0
 20
0.0
 30
0.0
  9
$UCSYDIR
 10
0.0
 20
1.0
 30
0.0
  9
$UCSORTHOREF
  2

  9
$UCSORTHOVIEW
 70
     0
  9
$UCSORGTOP
 10
0.0
 20
0.0
 30
0.0
  9
$UCSORGBOTTOM
 10
0.0
 20
0.0
 30
0.0
  9
$UCSORGLEFT
 10
0.0
 20
0.0
 30
0.0
  9
$UCSORGRIGHT
 10
0.0
 20
0.0
 30
0.0
  9
$UCSORGFRONT
 10
0.0
 20
0.0
 30
0.0
  9
$UCSORGBACK
 10
0.0
 20
0.0
 30
0.0
  9
$PUCSBASE
  2

  9
$PUCSNAME
  2

  9
$PUCSORG
 10
0.0
 20
0.0
 30
0.0
  9
$PUCSXDIR
 10
1.0
 20
0.0
 30
0.0
  9
$PUCSYDIR
 10
0.0
 20
1.0
 30
0.0
  9
$PUCSORTHOREF
  2

  9
$PUCSORTHOVIEW
 70
     0
  9
$PUCSORGTOP
 10
0.0
 20
0.0
 30
0.0
  9
$PUCSORGBOTTOM
 10
0.0
 20
0.0
 30
0.0
  9
$PUCSORGLEFT
 10
0.0
 20
0.0
 30
0.0
  9
$PUCSORGRIGHT
 10
0.0
 20
0.0
 30
0.0
  9
$PUCSORGFRONT
 10
0.0
 20
0.0
 30
0.0
  9
$PUCSORGBACK
 10
0.0
 20
0.0
 30
0.0
  9
$USERI1
 70
     0
  9
$USERI2
 70
     0
  9
$USERI3
 70
     0
  9
$USERI4
 70
     0
  9
$USERI5
 70
     0
  9
$USERR1
 40
0.0
  9
$USERR2
 40
0.0
  9
$USERR3
 40
0.0
  9
$USERR4
 40
0.0
  9
$USERR5
 40
0.0
  9
$WORLDVIEW
 70
     1
  9
$SHADEDGE
 70
     3
  9
$SHADEDIF
 70
    70
  9
$TILEMODE
 70
     1
  9
$MAXACTVP
 70
    64
  9
$PINSBASE
 10
0.0
 20
0.0
 30
0.0
  9
$PLIMCHECK
 70
     0
  9
$PEXTMIN
 10
1.0000000000E+20
 20
1.0000000000E+20
 30
1.0000000000E+20
  9
$PEXTMAX
 10
-1.0000000000E+20
 20
-1.0000000000E+20
 30
-1.0000000000E+20
  9
$PLIMMIN
 10
0.0
 20
0.0
  9
$PLIMMAX
 10
420.0
 20
297.0
  9
$UNITMODE
 70
     0
  9
$VISRETAIN
 70
     1
  9
$PLINEGEN
 70
     0
  9
$PSLTSCALE
 70
     1
  9
$TREEDEPTH
 70
  3020
  9
$CMLSTYLE
  2
Standard
  9
$CMLJUST
 70
     0
  9
$CMLSCALE
 40
20.0
  9
$PROXYGRAPHICS
 70
     1
  9
$MEASUREMENT
 70
     1
  9
$CELWEIGHT
370
    -1
  9
$ENDCAPS
280
     0
  9
$JOINSTYLE
280
     0
  9
$LWDISPLAY
290
     1
  9
$INSUNITS
 70
     4
  9
$HYPERLINKBASE
  1

  9
$STYLESHEET
  1

  9
$XEDIT
290
     1
  9
$CEPSNTYPE
380
     0
  9
$PSTYLEMODE
290
     1
  9
$FINGERPRINTGUID
  2
{A56F7475-020E-4166-A05B-0836CEEFEB91}
  9
$VERSIONGUID
  2
{FAEB1C32-E019-11D5-929B-00C0DF256EC4}
  9
$EXTNAMES
290
     1
  9
$PSVPSCALE
 40
0.0
  9
$OLESTARTUP
290
     0
  0
ENDSEC
  0
SECTION
  2
CLASSES
  0
CLASS
  1
ACDBDICTIONARYWDFLT
  2
AcDbDictionaryWithDefault
  3
ObjectDBX Classes
 90
        0
280
     0
281
     0
  0
CLASS
  1
VISUALSTYLE
  2
AcDbVisualStyle
  3
ObjectDBX Classes
 90
     4095
280
     0
281
     0
  0
CLASS
  1
MATERIAL
  2
AcDbMaterial
  3
ObjectDBX Classes
 90
     1153
280
     0
281
     0
  0
CLASS
  1
SCALE
  2
AcDbScale
  3
ObjectDBX Classes
 90
     1153
280
     0
281
     0
  0
CLASS
  1
TABLESTYLE
  2
AcDbTableStyle
  3
ObjectDBX Classes
 90
     4095
280
     0
281
     0
  0
CLASS
  1
MLEADERSTYLE
  2
AcDbMLeaderStyle
  3
ACDB_MLEADERSTYLE_CLASS
 90
     4095
280
     0
281
     0
  0
CLASS
  1
SUN
  2
AcDbSun
  3
SCENEOE
 90
     1153
280
     0
281
     0
  0
CLASS
  1
ACDBPLACEHOLDER
  2
AcDbPlaceHolder
  3
ObjectDBX Classes
 90
        0
280
     0
281
     0
  0
CLASS
  1
LAYOUT
  2
AcDbLayout
  3
ObjectDBX Classes
 90
        0
280
     0
281
     0
  0
ENDSEC
  0
SECTION
  2
TABLES
  0
TABLE
  2
VPORT
  5
8
330
0
100
AcDbSymbolTable
 70
     1
  0
VPORT
  5
29
330
8
100
AcDbSymbolTableRecord
100
AcDbViewportTableRecord
  2
*Active
 70
     0
 10
0.0
 20
0.0
 11
1.0
 21
1.0
 12
107.95
 22
69.85
 13
0.0
 23
0.0
 14
10.0
 24
10.0
 15
10.0
 25
10.0
 16
0.0
 26
0.0
 36
1.0
 17
0.0
 27
0.0
 37
0.0
 40
139.7
 41
1.5454545455
 42
50.0
 43
0.0
 44
0.0
 50
0.0
 51
0.0
 71
     0
 72
  2000
 73
     1
 74
     3
 75
     0
 76
     0
 77
     0
 78
     0
281
     0
 65
     1
110
0.0
120
0.0
130
0.0
111
1.0
121
0.0
131
0.0
112
0.0
122
1.0
132
0.0
 79
     0
146
0.0
  0
ENDTAB
  0
TABLE
  2
LTYPE
  5
5
330
0
100
AcDbSymbolTable
 70
     6
  0
LTYPE
  5
14
330
5
100
AcDbSymbolTableRecord
100
AcDbLinetypeTableRecord
  2
ByBlock
 70
     0
  3

 72
    65
 73
     0
 40
0.0
  0
LTYPE
  5
15
330
5
100
AcDbSymbolTableRecord
100
AcDbLinetypeTableRecord
  2
ByLayer
 70
     0
  3

 72
    65
 73
     0
 40
0.0
  0
LTYPE
  5
16
330
5
100
AcDbSymbolTableRecord
100
AcDbLinetypeTableRecord
  2
Continuous
 70
     0
  3
Solid line
 72
    65
 73
     0
 40
0.0
  0
LTYPE
  5
6E
330
5
100
AcDbSymbolTableRecord
100
AcDbLinetypeTableRecord
  2
HIDDEN
 70
     0
  3
Hidden __ __ __ __ __ __ __ __ __ __ __ __ __ __
 72
    65
 73
     2
 40
1.905
 49
1.27
 74
     0
 49
-0.635
 74
     0
  0
LTYPE
  5
6F
330
5
100
AcDbSymbolTableRecord
100
AcDbLinetypeTableRecord
  2
PHANTOM
 70
     0
  3
Phantom ______  __  __  ______  __  __  ______
 72
    65
 73
     6
 40
12.7
 49
6.35
 74
     0
 49
-1.27
 74
     0
 49
1.27
 74
     0
 49
-1.27
 74
     0
 49
1.27
 74
     0
 49
-1.27
 74
     0
  0
LTYPE
  5
70
330
5
100
AcDbSymbolTableRecord
100
AcDbLinetypeTableRecord
  2
CENTER
 70
     0
  3
Center ____ _ ____ _ ____ _ ____ _ ____ _ ____
 72
    65
 73
     4
 40
10.16
 49
6.35
 74
     0
 49
-1.27
 74
     0
 49
1.27
 74
     0
 49
-1.27
 74
     0
  0
LTYPE
  5
71
330
5
100
AcDbSymbolTableRecord
100
AcDbLinetypeTableRecord
  2
CENTERX2
 70
     0
  3
Center (2x) ________  __  ________  __  _____
 72
    65
 73
     4
 40
20.32
 49
12.7
 74
     0
 49
-2.54
 74
     0
 49
2.54
 74
     0
 49
-2.54
 74
     0
  0
LTYPE
  5
72
330
5
100
AcDbSymbolTableRecord
100
AcDbLinetypeTableRecord
  2
DOT2
 70
     0
  3
Dot (.5x) ........................................
 72
    65
 73
     2
 40
0.635
 49
0.0
 74
     0
 49
-0.635
 74
     0
  0
ENDTAB
  0
TABLE
  2
LAYER
  5
2
330
0
100
AcDbSymbolTable
 70
     1
  0
LAYER
  5
10
330
2
100
AcDbSymbolTableRecord
100
AcDbLayerTableRecord
  2
0
 70
     0
 62
     7
  6
Continuous
370
    -3
390
F
  0
ENDTAB
  0
TABLE
  2
STYLE
  5
3
330
0
100
AcDbSymbolTable
 70
     2
  0
STYLE
  5
11
330
3
100
AcDbSymbolTableRecord
100
AcDbTextStyleTableRecord
  2
Standard
 70
     0
 40
0.0
 41
1.0
 50
0.0
 71
     0
 42
1.75
  3
txt
  4
bigfont
  0
STYLE
  5
73
330
3
100
AcDbSymbolTableRecord
100
AcDbTextStyleTableRecord
  2
SLDTEXTSTYLE0
 70
     0
 40
0.0
 41
0.7
 50
0.0
 71
     0
 42
1.75
  3
TXT
  4
bigfont
  0
ENDTAB
  0
TABLE
  2
VIEW
  5
6
330
0
100
AcDbSymbolTable
 70
     0
  0
ENDTAB
  0
TABLE
  2
UCS
  5
7
330
0
100
AcDbSymbolTable
 70
     0
  0
ENDTAB
  0
TABLE
  2
APPID
  5
9
330
0
100
AcDbSymbolTable
 70
     1
  0
APPID
  5
12
330
9
100
AcDbSymbolTableRecord
100
AcDbRegAppTableRecord
  2
ACAD
 70
     0
  0
ENDTAB
  0
TABLE
  2
DIMSTYLE
  5
A
330
0
100
AcDbSymbolTable
 70
     1
100
AcDbDimStyleTable
  0
DIMSTYLE
105
27
330
A
100
AcDbSymbolTableRecord
100
AcDbDimStyleTableRecord
  2
ISO-25
 70
     0
 41
2.5
 42
0.625
 43
3.75
 44
1.25
 73
     0
 74
     0
 77
     1
 78
     8
140
2.5
141
2.5
143
0.0393700787
147
0.625
171
     3
172
     1
178
     0
271
     2
272
     2
274
     3
278
    44
283
     0
284
     8
340
11
  0
ENDTAB
  0
TABLE
  2
BLOCK_RECORD
  5
1
330
0
100
AcDbSymbolTable
 70
     3
  0
BLOCK_RECORD
  5
1F
330
1
100
AcDbSymbolTableRecord
100
AcDbBlockTableRecord
  2
*Model_Space
340
22
  0
BLOCK_RECORD
  5
1B
330
1
100
AcDbSymbolTableRecord
100
AcDbBlockTableRecord
  2
*Paper_Space
340
1E
  0
BLOCK_RECORD
  5
23
330
1
100
AcDbSymbolTableRecord
100
AcDbBlockTableRecord
  2
*Paper_Space0
340
26
  0
BLOCK_RECORD
  5
E9
330
1
100
AcDbSymbolTableRecord
100
AcDbBlockTableRecord
  2
SW_CENTERMARKSYMBOL_0
340
0
102
{BLKREFS
331
F4
102
}
  0
BLOCK_RECORD
  5
F5
330
1
100
AcDbSymbolTableRecord
100
AcDbBlockTableRecord
  2
SW_CENTERMARKSYMBOL_1
340
0
102
{BLKREFS
331
100
102
}
  0
ENDTAB
  0
ENDSEC
  0
SECTION
  2
BLOCKS
  0
BLOCK
  5
20
330
1F
100
AcDbEntity
  8
0
100
AcDbBlockBegin
  2
*Model_Space
 70
     0
 10
0.0
 20
0.0
 30
0.0
  3
*Model_Space
  1

  0
ENDBLK
  5
21
330
1F
100
AcDbEntity
  8
0
100
AcDbBlockEnd
  0
BLOCK
  5
1C
330
1B
100
AcDbEntity
 67
     1
  8
0
100
AcDbBlockBegin
  2
*Paper_Space
 70
     0
 10
0.0
 20
0.0
 30
0.0
  3
*Paper_Space
  1

  0
ENDBLK
  5
1D
330
1B
100
AcDbEntity
 67
     1
  8
0
100
AcDbBlockEnd
  0
BLOCK
  5
24
330
23
100
AcDbEntity
  8
0
100
AcDbBlockBegin
  2
*Paper_Space0
 70
     0
 10
0.0
 20
0.0
 30
0.0
  3
*Paper_Space0
  1

  0
ENDBLK
  5
25
330
23
100
AcDbEntity
  8
0
100
AcDbBlockEnd
  0
BLOCK
  5
EA
330
E9
100
AcDbEntity
  8
0
100
AcDbBlockBegin
  2
SW_CENTERMARKSYMBOL_0
 70
     0
 10
0.0
 20
0.0
 30
0.0
  3
SW_CENTERMARKSYMBOL_0
  1

  0
LINE
  5
EC
330
E9
100
AcDbEntity
  8
0
  6
Continuous
 62
     0
370
    18
100
AcDbLine
 10
0.0
 20
0.0
 30
0.0
 11
0.0
 21
2.5
 31
0.0
  0
LINE
  5
ED
330
E9
100
AcDbEntity
  8
0
  6
Continuous
 62
     0
370
    18
100
AcDbLine
 10
0.0
 20
0.0
 30
0.0
 11
-2.5
 21
0.0
 31
0.0
  0
LINE
  5
EE
330
E9
100
AcDbEntity
  8
0
  6
Continuous
 62
     0
370
    18
100
AcDbLine
 10
0.0
 20
0.0
 30
0.0
 11
0.0
 21
-2.5
 31
0.0
  0
LINE
  5
EF
330
E9
100
AcDbEntity
  8
0
  6
Continuous
 62
     0
370
    18
100
AcDbLine
 10
0.0
 20
0.0
 30
0.0
 11
2.5
 21
0.0
 31
0.0
  0
LINE
  5
F0
330
E9
100
AcDbEntity
  8
0
  6
Continuous
 62
     0
370
    18
100
AcDbLine
 10
0.0
 20
2.5
 30
0.0
 11
0.0
 21
5.0
 31
0.0
  0
LINE
  5
F1
330
E9
100
AcDbEntity
  8
0
  6
Continuous
 62
     0
370
    18
100
AcDbLine
 10
-2.5
 20
0.0
 30
0.0
 11
-5.0
 21
0.0
 31
0.0
  0
LINE
  5
F2
330
E9
100
AcDbEntity
  8
0
  6
Continuous
 62
     0
370
    18
100
AcDbLine
 10
0.0
 20
-2.5
 30
0.0
 11
0.0
 21
-5.0
 31
0.0
  0
LINE
  5
F3
330
E9
100
AcDbEntity
  8
0
  6
Continuous
 62
     0
370
    18
100
AcDbLine
 10
2.5
 20
0.0
 30
0.0
 11
5.0
 21
0.0
 31
0.0
  0
ENDBLK
  5
EB
330
E9
100
AcDbEntity
  8
0
100
AcDbBlockEnd
  0
BLOCK
  5
F6
330
F5
100
AcDbEntity
  8
0
100
AcDbBlockBegin
  2
SW_CENTERMARKSYMBOL_1
 70
     0
 10
0.0
 20
0.0
 30
0.0
  3
SW_CENTERMARKSYMBOL_1
  1

  0
LINE
  5
F8
330
F5
100
AcDbEntity
  8
0
  6
Continuous
 62
     0
370
    18
100
AcDbLine
 10
0.0
 20
0.0
 30
0.0
 11
0.0
 21
2.5
 31
0.0
  0
LINE
  5
F9
330
F5
100
AcDbEntity
  8
0
  6
Continuous
 62
     0
370
    18
100
AcDbLine
 10
0.0
 20
0.0
 30
0.0
 11
-2.5
 21
0.0
 31
0.0
  0
LINE
  5
FA
330
F5
100
AcDbEntity
  8
0
  6
Continuous
 62
     0
370
    18
100
AcDbLine
 10
0.0
 20
0.0
 30
0.0
 11
0.0
 21
-2.5
 31
0.0
  0
LINE
  5
FB
330
F5
100
AcDbEntity
  8
0
  6
Continuous
 62
     0
370
    18
100
AcDbLine
 10
0.0
 20
0.0
 30
0.0
 11
2.5
 21
0.0
 31
0.0
  0
LINE
  5
FC
330
F5
100
AcDbEntity
  8
0
  6
Continuous
 62
     0
370
    18
100
AcDbLine
 10
0.0
 20
5.0
 30
0.0
 11
0.0
 21
8.25
 31
0.0
  0
LINE
  5
FD
330
F5
100
AcDbEntity
  8
0
  6
Continuous
 62
     0
370
    18
100
AcDbLine
 10
-5.0
 20
0.0
 30
0.0
 11
-8.25
 21
0.0
 31
0.0
  0
LINE
  5
FE
330
F5
100
AcDbEntity
  8
0
  6
Continuous
 62
     0
370
    18
100
AcDbLine
 10
0.0
 20
-5.0
 30
0.0
 11
0.0
 21
-8.25
 31
0.0
  0
LINE
  5
FF
330
F5
100
AcDbEntity
  8
0
  6
Continuous
 62
     0
370
    18
100
AcDbLine
 10
5.0
 20
0.0
 30
0.0
 11
8.25
 21
0.0
 31
0.0
  0
ENDBLK
  5
F7
330
F5
100
AcDbEntity
  8
0
100
AcDbBlockEnd
  0
ENDSEC
  0
SECTION
  2
ENTITIES
  0
MTEXT
  5
74
330
1F
100
AcDbEntity
  8
0
  6
Continuous
 62
     7
370
     0
100
AcDbMText
 10
84.8114508058
 20
50.1815587169
 30
0.0
 40
1.8520833333
 41
0.0
 71
     1
 72
     1
  1
エースニップル　HN-8108
  7
SLDTEXTSTYLE0
 73
     1
 44
1.0
  0
LINE
  5
75
330
1F
100
AcDbEntity
  8
0
  6
Continuous
 62
     7
370
    25
100
AcDbLine
 10
67.4437005729
 20
30.9784694916
 30
0.0
 11
68.1239365251
 21
32.1566727219
 31
0.0
  0
LINE
  5
76
330
1F
100
AcDbEntity
  8
0
  6
Continuous
 62
     7
370
    25
100
AcDbLine
 10
68.1239365251
 20
43.6566727219
 30
0.0
 11
67.4437005729
 21
44.8348759522
 31
0.0
  0
LINE
  5
77
330
1F
100
AcDbEntity
  8
0
  6
Continuous
 62
     7
370
    25
100
AcDbLine
 10
63.8041724772
 20
44.8348759522
 30
0.0
 11
63.1239365251
 21
43.6566727219
 31
0.0
  0
LINE
  5
78
330
1F
100
AcDbEntity
  8
0
  6
Continuous
 62
     7
370
    25
100
AcDbLine
 10
63.1239365251
 20
32.1566727219
 30
0.0
 11
63.8041724772
 21
30.9784694916
 31
0.0
  0
LINE
  5
79
330
1F
100
AcDbEntity
  8
0
  6
Continuous
 62
     7
370
    25
100
AcDbLine
 10
63.1239365251
 20
42.9278602219
 30
0.0
 11
55.4788845845
 21
42.6889523487
 31
0.0
  0
LINE
  5
7A
330
1F
100
AcDbEntity
  8
0
  6
Continuous
 62
     7
370
    25
100
AcDbLine
 10
55.4788845845
 20
33.124393095
 30
0.0
 11
63.1239365251
 21
32.8854852219
 31
0.0
  0
LINE
  5
7B
330
1F
100
AcDbEntity
  8
0
  6
Continuous
 62
     7
370
    25
100
AcDbLine
 10
55.4788845845
 20
42.6889523487
 30
0.0
 11
54.1239365251
 21
41.9066727219
 31
0.0
  0
LINE
  5
7C
330
1F
100
AcDbEntity
  8
0
  6
Continuous
 62
     7
370
    25
100
AcDbLine
 10
54.1239365251
 20
33.9066727219
 30
0.0
 11
55.4788845845
 21
33.124393095
 31
0.0
  0
LINE
  5
7D
330
1F
100
AcDbEntity
  8
0
  6
Continuous
 62
     7
370
    25
100
AcDbLine
 10
83.6239365251
 20
33.9066727219
 30
0.0
 11
87.6954169064
 21
34.4947754436
 31
0.0
  0
LINE
  5
7E
330
1F
100
AcDbEntity
  8
0
  6
Continuous
 62
     7
370
    25
100
AcDbLine
 10
87.6954169064
 20
41.3185700001
 30
0.0
 11
83.6239365251
 21
41.9066727219
 31
0.0
  0
LINE
  5
7F
330
1F
100
AcDbEntity
  8
0
  6
Continuous
 62
     7
370
    25
100
AcDbLine
 10
75.6239365251
 20
33.9066727219
 30
0.0
 11
79.6239365251
 21
34.5566727219
 31
0.0
  0
LINE
  5
80
330
1F
100
AcDbEntity
  8
0
  6
Continuous
 62
     7
370
    25
100
AcDbLine
 10
79.6239365251
 20
41.2566727219
 30
0.0
 11
75.6239365251
 21
41.9066727219
 31
0.0
  0
LINE
  5
81
330
1F
100
AcDbEntity
  8
0
  6
Continuous
 62
     7
370
    25
100
AcDbLine
 10
71.6239365251
 20
41.9066727219
 30
0.0
 11
68.1239365251
 21
41.9066727219
 31
0.0
  0
LINE
  5
82
330
1F
100
AcDbEntity
  8
0
  6
Continuous
 62
     7
370
    25
100
AcDbLine
 10
68.1239365251
 20
33.9066727219
 30
0.0
 11
71.6239365251
 21
33.9066727219
 31
0.0
  0
LINE
  5
83
330
1F
100
AcDbEntity
  8
0
  6
Continuous
 62
     7
370
    25
100
AcDbLine
 10
71.6239365251
 20
33.9066727219
 30
0.0
 11
75.6239365251
 21
34.5566727219
 31
0.0
  0
LINE
  5
84
330
1F
100
AcDbEntity
  8
0
  6
Continuous
 62
     7
370
    25
100
AcDbLine
 10
75.6239365251
 20
41.2566727219
 30
0.0
 11
71.6239365251
 21
41.9066727219
 31
0.0
  0
LINE
  5
85
330
1F
100
AcDbEntity
  8
0
  6
Continuous
 62
     7
370
    25
100
AcDbLine
 10
79.6239365251
 20
33.9066727219
 30
0.0
 11
83.6239365251
 21
34.5566727219
 31
0.0
  0
LINE
  5
86
330
1F
100
AcDbEntity
  8
0
  6
Continuous
 62
     7
370
    25
100
AcDbLine
 10
83.6239365251
 20
41.2566727219
 30
0.0
 11
79.6239365251
 21
41.9066727219
 31
0.0
  0
ARC
  5
87
330
1F
100
AcDbEntity
  8
0
  6
Continuous
 62
     7
370
    25
100
AcDbCircle
 10
87.6239365251
 20
40.8237058217
 30
0.0
 40
0.5000000000000003
100
AcDbArc
 50
0.0
 51
81.7807907511
  0
ARC
  5
88
330
1F
100
AcDbEntity
  8
0
  6
Continuous
 62
     7
370
    25
100
AcDbCircle
 10
87.6239365251
 20
34.989639622
 30
0.0
 40
0.5
100
AcDbArc
 50
278.2192092489
 51
0.0
  0
LINE
  5
89
330
1F
100
AcDbEntity
  8
0
  6
Continuous
 62
     7
370
    25
100
AcDbLine
 10
65.7043212828
 20
44.8348759522
 30
0.0
 11
65.6239365251
 21
44.5348759522
 31
0.0
  0
LINE
  5
8A
330
1F
100
AcDbEntity
  8
0
  6
Continuous
 62
     7
370
    25
100
AcDbLine
 10
65.6239365251
 20
44.5348759522
 30
0.0
 11
65.5435517673
 21
44.8348759522
 31
0.0
  0
LINE
  5
8B
330
1F
100
AcDbEntity
  8
0
  6
Continuous
 62
     7
370
    25
100
AcDbLine
 10
65.5435517673
 20
30.9784694916
 30
0.0
 11
65.6239365251
 21
31.2784694916
 31
0.0
  0
LINE
  5
8C
330
1F
100
AcDbEntity
  8
0
  6
Continuous
 62
     7
370
    25
100
AcDbLine
 10
65.6239365251
 20
31.2784694916
 30
0.0
 11
65.7043212828
 21
30.9784694916
 31
0.0
  0
SPLINE
  5
8D
330
1F
100
AcDbEntity
  8
0
  6
Continuous
 62
     7
370
    25
100
AcDbSpline
210
0.0
220
0.0
230
1.0
 70
     8
 71
     3
 72
     8
 73
     4
 74
     0
 42
0.000000001
 43
0.00000001
 40
0.0
 40
0.0
 40
0.0
 40
0.0
 40
1.0
 40
1.0
 40
1.0
 40
1.0
 10
65.54355176734877
 20
34.4425711067427
 30
0.0
 10
65.57244430545764
 20
34.6582279471065
 30
0.0
 10
65.59933804378747
 20
34.87406235948352
 30
0.0
 10
65.62393652507811
 20
35.09010068093516
 30
0.0
  0
LINE
  5
8E
330
1F
100
AcDbEntity
  8
0
  6
Continuous
 62
     7
370
    25
100
AcDbLine
 10
65.6239365251
 20
34.1188063196
 30
0.0
 11
65.6239365251
 21
35.0901006809
 31
0.0
  0
SPLINE
  5
8F
330
1F
100
AcDbEntity
  8
0
  6
Continuous
 62
     7
370
    25
100
AcDbSpline
210
0.0
220
0.0
230
1.0
 70
     8
 71
     3
 72
     8
 73
     4
 74
     0
 42
0.000000001
 43
0.00000001
 40
0.0
 40
0.0
 40
0.0
 40
0.0
 40
1.0
 40
1.0
 40
1.0
 40
1.0
 10
65.62393652507811
 20
34.11880631964647
 30
0.0
 10
65.59931857846534
 20
34.22691095832245
 30
0.0
 10
65.57242250451444
 20
34.33482404878846
 30
0.0
 10
65.54355176734877
 20
34.4425711067427
 30
0.0
  0
LINE
  5
90
330
1F
100
AcDbEntity
  8
0
  6
Continuous
 62
     7
370
    25
100
AcDbLine
 10
65.5435517673
 20
34.4425711067
 30
0.0
 11
63.8041724772
 21
34.4425711067
 31
0.0
  0
SPLINE
  5
91
330
1F
100
AcDbEntity
  8
0
  6
Continuous
 62
     7
370
    25
100
AcDbSpline
210
0.0
220
0.0
230
1.0
 70
     8
 71
     3
 72
    14
 73
    10
 74
     0
 42
0.000000001
 43
0.00000001
 40
0.0
 40
0.0
 40
0.0
 40
0.0
 40
0.25
 40
0.25
 40
0.5
 40
0.5
 40
0.75
 40
0.75
 40
1.0
 40
1.0
 40
1.0
 40
1.0
 10
63.80417247723774
 20
34.44257110674269
 30
0.0
 10
63.6413907874057
 20
35.00646342140473
 30
0.0
 10
63.50499755845677
 20
35.58359999485997
 30
0.0
 10
63.31854028511869
 20
36.74018598089421
 30
0.0
 10
63.26820870793137
 20
37.32196315642037
 30
0.0
 10
63.26833960651324
 20
38.49370419627071
 30
0.0
 10
63.32014796470028
 20
39.08735072573434
 30
0.0
 10
63.50791809133211
 20
40.24353908203923
 30
0.0
 10
63.64251268568774
 20
40.81076839200699
 30
0.0
 10
63.80417247723776
 20
41.37077433701823
 30
0.0
  0
LINE
  5
92
330
1F
100
AcDbEntity
  8
0
  6
Continuous
 62
     7
370
    25
100
AcDbLine
 10
65.5435517673
 20
41.370774337
 30
0.0
 11
63.8041724772
 21
41.370774337
 31
0.0
  0
SPLINE
  5
93
330
1F
100
AcDbEntity
  8
0
  6
Continuous
 62
     7
370
    25
100
AcDbSpline
210
0.0
220
0.0
230
1.0
 70
     8
 71
     3
 72
     8
 73
     4
 74
     0
 42
0.000000001
 43
0.00000001
 40
0.0
 40
0.0
 40
0.0
 40
0.0
 40
1.0
 40
1.0
 40
1.0
 40
1.0
 10
65.62393652507811
 20
40.72324476282576
 30
0.0
 10
65.59931945274862
 20
40.93944636170817
 30
0.0
 10
65.57242348225725
 20
41.155272923138
 30
0.0
 10
65.54355176734877
 20
41.37077433701823
 30
0.0
  0
SPLINE
  5
94
330
1F
100
AcDbEntity
  8
0
  6
Continuous
 62
     7
370
    25
100
AcDbSpline
210
0.0
220
0.0
230
1.0
 70
     8
 71
     3
 72
     8
 73
     4
 74
     0
 42
0.000000001
 43
0.00000001
 40
0.0
 40
0.0
 40
0.0
 40
0.0
 40
1.0
 40
1.0
 40
1.0
 40
1.0
 10
65.70432128280744
 20
41.37077433701823
 30
0.0
 10
65.67542874469858
 20
41.15511749665442
 30
0.0
 10
65.64853500636875
 20
40.9392830842774
 30
0.0
 10
65.62393652507811
 20
40.72324476282576
 30
0.0
  0
LINE
  5
95
330
1F
100
AcDbEntity
  8
0
  6
Continuous
 62
     7
370
    25
100
AcDbLine
 10
67.4437005729
 20
41.370774337
 30
0.0
 11
65.7043212828
 21
41.370774337
 31
0.0
  0
SPLINE
  5
96
330
1F
100
AcDbEntity
  8
0
  6
Continuous
 62
     7
370
    25
100
AcDbSpline
210
0.0
220
0.0
230
1.0
 70
     8
 71
     3
 72
    14
 73
    10
 74
     0
 42
0.000000001
 43
0.00000001
 40
0.0
 40
0.0
 40
0.0
 40
0.0
 40
0.25
 40
0.25
 40
0.5
 40
0.5
 40
0.75
 40
0.75
 40
1.0
 40
1.0
 40
1.0
 40
1.0
 10
67.44370057291847
 20
34.44257110674269
 30
0.0
 10
67.60648226275052
 20
35.00646342140473
 30
0.0
 10
67.74287549169944
 20
35.58359999485997
 30
0.0
 10
67.92933276503751
 20
36.74018598089421
 30
0.0
 10
67.97966434222484
 20
37.32196315642037
 30
0.0
 10
67.97953344364296
 20
38.49370419627071
 30
0.0
 10
67.92772508545593
 20
39.08735072573434
 30
0.0
 10
67.73995495882411
 20
40.24353908203923
 30
0.0
 10
67.60536036446847
 20
40.81076839200699
 30
0.0
 10
67.44370057291846
 20
41.37077433701823
 30
0.0
  0
LINE
  5
97
330
1F
100
AcDbEntity
  8
0
  6
Continuous
 62
     7
370
    25
100
AcDbLine
 10
67.4437005729
 20
34.4425711067
 30
0.0
 11
65.7043212828
 21
34.4425711067
 31
0.0
  0
SPLINE
  5
98
330
1F
100
AcDbEntity
  8
0
  6
Continuous
 62
     7
370
    25
100
AcDbSpline
210
0.0
220
0.0
230
1.0
 70
     8
 71
     3
 72
     8
 73
     4
 74
     0
 42
0.000000001
 43
0.00000001
 40
0.0
 40
0.0
 40
0.0
 40
0.0
 40
1.0
 40
1.0
 40
1.0
 40
1.0
 10
65.62393652507811
 20
35.09010068093516
 30
0.0
 10
65.6485535974076
 20
34.87389908205275
 30
0.0
 10
65.67544956789897
 20
34.65807252062292
 30
0.0
 10
65.70432128280744
 20
34.4425711067427
 30
0.0
  0
LINE
  5
99
330
1F
100
AcDbEntity
  8
0
  6
Continuous
 62
     7
370
    25
100
AcDbLine
 10
65.5779028712
 20
37.3093263215
 30
0.0
 11
66.2623980635
 21
36.8616099753
 31
0.0
  0
SPLINE
  5
9A
330
1F
100
AcDbEntity
  8
0
  6
Continuous
 62
     7
370
    25
100
AcDbSpline
210
0.0
220
0.0
230
1.0
 70
     8
 71
     3
 72
    19
 73
    15
 74
     0
 42
0.000000001
 43
0.00000001
 40
0.0
 40
0.0
 40
0.0
 40
0.0
 40
0.0978059775289525
 40
0.1996122522918966
 40
0.3052960258330041
 40
0.4158173591641854
 40
0.474240566618493
 40
0.5372869128296534
 40
0.6033858352934854
 40
0.6743111580696056
 40
0.749530467357482
 40
0.8286083142695116
 40
0.9120427387714447
 40
0.9999999999999999
 40
0.9999999999999999
 40
0.9999999999999999
 40
0.9999999999999999
 10
65.14220575584734
 20
37.47699459069275
 30
0.0
 10
65.15764780981067
 20
37.47645096999225
 30
0.0
 10
65.18916350291562
 20
37.47534149432255
 30
0.0
 10
65.23703297697803
 20
37.46872027134956
 30
0.0
 10
65.28582179016033
 20
37.45657613945052
 30
0.0
 10
65.32718135580635
 20
37.44343353448097
 30
0.0
 10
65.36143456961155
 20
37.43039210303594
 30
0.0
 10
65.38848342771861
 20
37.41829978771922
 30
0.0
 10
65.41704789039588
 20
37.40477910577975
 30
0.0
 10
65.44658748990146
 20
37.38893098366052
 30
0.0
 10
65.4779462365744
 20
37.37213069526082
 30
0.0
 10
65.50996282029108
 20
37.35250605191248
 30
0.0
 10
65.5438065855507
 20
37.33202743503214
 30
0.0
 10
65.56633923875242
 20
37.31702532236359
 30
0.0
 10
65.57790287123196
 20
37.30932632146198
 30
0.0
  0
SPLINE
  5
9B
330
1F
100
AcDbEntity
  8
0
  6
Continuous
 62
     7
370
    25
100
AcDbSpline
210
0.0
220
0.0
230
1.0
 70
     8
 71
     3
 72
    19
 73
    15
 74
     0
 42
0.000000001
 43
0.00000001
 40
0.0
 40
0.0
 40
0.0
 40
0.0
 40
0.0843261511037433
 40
0.1670353409858406
 40
0.2495407139852792
 40
0.3327066655796642
 40
0.4158726171740492
 40
0.4977774155681174
 40
0.5803136056784763
 40
0.6645325781316563
 40
0.7495711764063215
 40
0.8324741628544073
 40
0.9156738488962566
 40
1.0
 40
1.0
 40
1.0
 40
1.0
 10
64.68547498661657
 20
37.02266766761583
 30
0.0
 10
64.68612993028172
 20
37.04285197178756
 30
0.0
 10
64.68742725901075
 20
37.08283354435738
 30
0.0
 10
64.69898411371358
 20
37.14164754210573
 30
0.0
 10
64.71771563762773
 20
37.19816047932407
 30
0.0
 10
64.74352210167528
 20
37.2519751170295
 30
0.0
 10
64.7761170551068
 20
37.30182982601134
 30
0.0
 10
64.81536275849494
 20
37.34641825943489
 30
0.0
 10
64.86039183674431
 20
37.38558528477645
 30
0.0
 10
64.9113424225855
 20
37.41800865211636
 30
0.0
 10
64.96573956382332
 20
37.44443378450026
 30
0.0
 10
65.02297717256796
 20
37.46307181249719
 30
0.0
 10
65.08190331923043
 20
37.47512507385257
 30
0.0
 10
65.12201503820627
 20
37.47636863113352
 30
0.0
 10
65.14220575584734
 20
37.47699459069275
 30
0.0
  0
SPLINE
  5
9C
330
1F
100
AcDbEntity
  8
0
  6
Continuous
 62
     7
370
    25
100
AcDbSpline
210
0.0
220
0.0
230
1.0
 70
     8
 71
     3
 72
    19
 73
    15
 74
     0
 42
0.000000001
 43
0.00000001
 40
0.0
 40
0.0
 40
0.0
 40
0.0
 40
0.0859901205637198
 40
0.1691084375726415
 40
0.2505285789581879
 40
0.332255696176845
 40
0.4135763652356403
 40
0.4941261456201216
 40
0.576305934120417
 40
0.6607126719045473
 40
0.7461272722239103
 40
0.8300149859609743
 40
0.9144197259288509
 40
1.0
 40
1.0
 40
1.0
 40
1.0
 10
65.14491008277042
 20
36.55391766761582
 30
0.0
 10
65.1239312594843
 20
36.55470046561896
 30
0.0
 10
65.08267424059922
 20
36.55623991859772
 30
0.0
 10
65.02233249145746
 20
36.56744648243099
 30
0.0
 10
64.96530759623661
 20
36.58678650772715
 30
0.0
 10
64.91137545651364
 20
36.6126611424075
 30
0.0
 10
64.86210523104792
 20
36.64623144636018
 30
0.0
 10
64.81757815901763
 20
36.68601410221567
 30
0.0
 10
64.77876627461623
 20
36.73238516729014
 30
0.0
 10
64.74547117575848
 20
36.7842465645263
 30
0.0
 10
64.71901826164077
 20
36.84037670232333
 30
0.0
 10
64.6994610822997
 20
36.89923098784917
 30
0.0
 10
64.68777517061983
 20
36.96030636643088
 30
0.0
 10
64.68624524136779
 20
37.00178495194538
 30
0.0
 10
64.68547498661657
 20
37.02266766761583
 30
0.0
  0
SPLINE
  5
9D
330
1F
100
AcDbEntity
  8
0
  6
Continuous
 62
     7
370
    25
100
AcDbSpline
210
0.0
220
0.0
230
1.0
 70
     8
 71
     3
 72
    23
 73
    19
 74
     0
 42
0.000000001
 43
0.00000001
 40
0.0
 40
0.0
 40
0.0
 40
0.0
 40
0.0652308037420294
 40
0.1284048960032227
 40
0.1900670715964781
 40
0.25094336576828
 40
0.3115458328521431
 40
0.3728628021568291
 40
0.4350236738562383
 40
0.4990717247070431
 40
0.563091075049662
 40
0.625510106330375
 40
0.6866800359296492
 40
0.7472825030135124
 40
0.8085634952159588
 40
0.8707421035159856
 40
0.9343409515059125
 40
1.0
 40
1.0
 40
1.0
 40
1.0
 10
65.58932114046272
 20
36.99892968684659
 30
0.0
 10
65.58891137830739
 20
36.98368433127438
 30
0.0
 10
65.58810477369848
 20
36.95367430250754
 30
0.0
 10
65.58189740911625
 20
36.90961424443297
 30
0.0
 10
65.57211521829186
 20
36.8672761290159
 30
0.0
 10
65.55785568002834
 20
36.82683543804929
 30
0.0
 10
65.53964038530164
 20
36.78814701725234
 30
0.0
 10
65.51780944089572
 20
36.75098884749154
 30
0.0
 10
65.49123557788567
 20
36.71605941458887
 30
0.0
 10
65.46155059683545
 20
36.68290890921234
 30
0.0
 10
65.42867188919467
 20
36.65281158175822
 30
0.0
 10
65.39378560203494
 20
36.626164700805
 30
0.0
 10
65.35692808160715
 20
36.60378179006181
 30
0.0
 10
65.31811799620714
 20
36.58562153794127
 30
0.0
 10
65.2774151706812
 20
36.57151944711361
 30
0.0
 10
65.23487168232903
 20
36.56123902780921
 30
0.0
 10
65.1904581945604
 20
36.55516205945784
 30
0.0
 10
65.16025326230347
 20
36.55433684915138
 30
0.0
 10
65.14491008277042
 20
36.55391766761582
 30
0.0
  0
SPLINE
  5
9E
330
1F
100
AcDbEntity
  8
0
  6
Continuous
 62
     7
370
    25
100
AcDbSpline
210
0.0
220
0.0
230
1.0
 70
     8
 71
     3
 72
     9
 73
     5
 74
     0
 42
0.000000001
 43
0.00000001
 40
0.0
 40
0.0
 40
0.0
 40
0.0
 40
0.5126593363417812
 40
1.0
 40
1.0
 40
1.0
 40
1.0
 10
65.57489806353964
 20
37.1542782445389
 30
0.0
 10
65.57910400381977
 20
37.12789098297461
 30
0.0
 10
65.58730816588599
 20
37.07641964578494
 30
0.0
 10
65.58866157107816
 20
37.02431997498877
 30
0.0
 10
65.58932114046272
 20
36.99892968684659
 30
0.0
  0
LINE
  5
9F
330
1F
100
AcDbEntity
  8
0
  6
Continuous
 62
     7
370
    25
100
AcDbLine
 10
66.1809677751
 20
36.7579441099
 30
0.0
 11
65.5748980635
 21
37.1542782445
 31
0.0
  0
LINE
  5
A0
330
1F
100
AcDbEntity
  8
0
  6
Continuous
 62
     7
370
    25
100
AcDbLine
 10
66.2623980635
 20
36.8616099753
 30
0.0
 11
66.1809677751
 21
36.7579441099
 31
0.0
  0
LINE
  5
A1
330
1F
100
AcDbEntity
  8
0
  6
Continuous
 62
     7
370
    25
100
AcDbLine
 10
66.0700903712
 20
38.2053769956
 30
0.0
 11
66.2239365251
 21
38.1173361302
 31
0.0
  0
LINE
  5
A2
330
1F
100
AcDbEntity
  8
0
  6
Continuous
 62
     7
370
    25
100
AcDbLine
 10
66.0700903712
 20
37.9746077649
 30
0.0
 11
66.0700903712
 21
38.2053769956
 31
0.0
  0
LINE
  5
A3
330
1F
100
AcDbEntity
  8
0
  6
Continuous
 62
     7
370
    25
100
AcDbLine
 10
64.7239365251
 20
37.9746077649
 30
0.0
 11
66.0700903712
 21
37.9746077649
 31
0.0
  0
LINE
  5
A4
330
1F
100
AcDbEntity
  8
0
  6
Continuous
 62
     7
370
    25
100
AcDbLine
 10
64.7239365251
 20
37.8399923802
 30
0.0
 11
64.7239365251
 21
37.9746077649
 31
0.0
  0
LINE
  5
A5
330
1F
100
AcDbEntity
  8
0
  6
Continuous
 62
     7
370
    25
100
AcDbLine
 10
66.2239365251
 20
37.8399923802
 30
0.0
 11
64.7239365251
 21
37.8399923802
 31
0.0
  0
LINE
  5
A6
330
1F
100
AcDbEntity
  8
0
  6
Continuous
 62
     7
370
    25
100
AcDbLine
 10
66.2239365251
 20
38.1173361302
 30
0.0
 11
66.2239365251
 21
37.8399923802
 31
0.0
  0
SPLINE
  5
A7
330
1F
100
AcDbEntity
  8
0
  6
Continuous
 62
     7
370
    25
100
AcDbSpline
210
0.0
220
0.0
230
1.0
 70
     8
 71
     3
 72
    19
 73
    15
 74
     0
 42
0.000000001
 43
0.00000001
 40
0.0
 40
0.0
 40
0.0
 40
0.0
 40
0.1227280999764553
 40
0.239716523588393
 40
0.3518621792202463
 40
0.4632019818032239
 40
0.5202611541541643
 40
0.5794324380306665
 40
0.6405963441586369
 40
0.70529822908802
 40
0.7732361059084537
 40
0.844648929340316
 40
0.9200459817773698
 40
1.0
 40
1.0
 40
1.0
 40
1.0
 10
66.10855190969349
 20
39.03271481650099
 30
0.0
 10
66.10795676834572
 20
39.04979466718626
 30
0.0
 10
66.10679431887439
 20
39.08315558803866
 30
0.0
 10
66.09657691199423
 20
39.13123983164589
 30
0.0
 10
66.08038848406265
 20
39.17589450067494
 30
0.0
 10
66.06084100534945
 20
39.20991235075321
 30
0.0
 10
66.04161152298666
 20
39.23507495554486
 30
0.0
 10
66.0250683993396
 20
39.25340065752972
 30
0.0
 10
66.00631188546441
 20
39.27106851145214
 30
0.0
 10
65.98482751129465
 20
39.2873852147013
 30
0.0
 10
65.96135403750196
 20
39.30332849868815
 30
0.0
 10
65.93576218093294
 20
39.31874612888242
 30
0.0
 10
65.90768707830308
 20
39.33314289064531
 30
0.0
 10
65.88794385692609
 20
39.34190643525563
 30
0.0
 10
65.87778267892426
 20
39.34641673957791
 30
0.0
  0
SPLINE
  5
A8
330
1F
100
AcDbEntity
  8
0
  6
Continuous
 62
     7
370
    25
100
AcDbSpline
210
0.0
220
0.0
230
1.0
 70
     8
 71
     3
 72
    23
 73
    19
 74
     0
 42
0.000000001
 43
0.00000001
 40
0.0
 40
0.0
 40
0.0
 40
0.0
 40
0.0552698294993248
 40
0.1099567044850938
 40
0.1632335040550556
 40
0.2180575651623568
 40
0.2732775387226747
 40
0.330881045495497
 40
0.3904799376860887
 40
0.4536559730386417
 40
0.5189026226022311
 40
0.5833461108214766
 40
0.6485466930814431
 40
0.7150552190344909
 40
0.7825206438000536
 40
0.852335294426451
 40
0.9249348997257087
 40
0.9999999999999999
 40
0.9999999999999999
 40
0.9999999999999999
 40
0.9999999999999999
 10
65.87327546738581
 20
38.7310321241933
 30
0.0
 10
65.88110880556418
 20
38.73120970821481
 30
0.0
 10
65.89669286035527
 20
38.73156300320326
 30
0.0
 10
65.91946047061067
 20
38.7360192827911
 30
0.0
 10
65.94153333608067
 20
38.7427141678048
 30
0.0
 10
65.96281130321732
 20
38.75192410472678
 30
0.0
 10
65.98317086480176
 20
38.76422897500681
 30
0.0
 10
66.00263699802873
 20
38.77899891846771
 30
0.0
 10
66.02153593513205
 20
38.79624106385303
 30
0.0
 10
66.03896352783568
 20
38.81640603421238
 30
0.0
 10
66.05540221052806
 20
38.83823676526536
 30
0.0
 10
66.06961284020504
 20
38.8619386704493
 30
0.0
 10
66.0816577604225
 20
38.88698897531298
 30
0.0
 10
66.09160943219257
 20
38.91341071539428
 30
0.0
 10
66.09909067856137
 20
38.94130973532803
 30
0.0
 10
66.10446354781507
 20
38.97054942652879
 30
0.0
 10
66.10782244090876
 20
39.00118707810734
 30
0.0
 10
66.10830606182745
 20
39.02208923886475
 30
0.0
 10
66.10855190969349
 20
39.03271481650099
 30
0.0
  0
SPLINE
  5
A9
330
1F
100
AcDbEntity
  8
0
  6
Continuous
 62
     7
370
    25
100
AcDbSpline
210
0.0
220
0.0
230
1.0
 70
     8
 71
     3
 72
    19
 73
    15
 74
     0
 42
0.000000001
 43
0.00000001
 40
0.0
 40
0.0
 40
0.0
 40
0.0
 40
0.1101423815503176
 40
0.2157418685830274
 40
0.3179605426392306
 40
0.4180517606815226
 40
0.5115631470355316
 40
0.5965727584443461
 40
0.6733290469034968
 40
0.7440491927238595
 40
0.8107168223002833
 40
0.8740854521098849
 40
0.9367096168966699
 40
1.0
 40
1.0
 40
1.0
 40
1.0
 10
65.62778267892426
 20
39.11564750880869
 30
0.0
 10
65.62809896789285
 20
39.09709037927652
 30
0.0
 10
65.62871850028482
 20
39.06074152114893
 30
0.0
 10
65.63615974739542
 20
39.0076367416703
 30
0.0
 10
65.6465690732153
 20
38.95679519203868
 30
0.0
 10
65.66214524485677
 20
38.90937738796388
 30
0.0
 10
65.68084109655676
 20
38.86629866986561
 30
0.0
 10
65.70192203467938
 20
38.82871923451261
 30
0.0
 10
65.7258057917202
 20
38.79752969982194
 30
0.0
 10
65.75217891626842
 20
38.7726521415205
 30
0.0
 10
65.78079470565993
 20
38.75439289706858
 30
0.0
 10
65.81030763302073
 20
38.74068752561315
 30
0.0
 10
65.84140436622272
 20
38.73265288156035
 30
0.0
 10
65.86261435939066
 20
38.73157427895713
 30
0.0
 10
65.87327546738581
 20
38.7310321241933
 30
0.0
  0
LINE
  5
AA
330
1F
100
AcDbEntity
  8
0
  6
Continuous
 62
     7
370
    25
100
AcDbLine
 10
65.4739365251
 20
39.1156475088
 30
0.0
 11
65.6277826789
 21
39.1156475088
 31
0.0
  0
SPLINE
  5
AB
330
1F
100
AcDbEntity
  8
0
  6
Continuous
 62
     7
370
    25
100
AcDbSpline
210
0.0
220
0.0
230
1.0
 70
     8
 71
     3
 72
    23
 73
    19
 74
     0
 42
0.000000001
 43
0.00000001
 40
0.0
 40
0.0
 40
0.0
 40
0.0
 40
0.0669051223273616
 40
0.1334773340846825
 40
0.2010229080576287
 40
0.2712178684297488
 40
0.3428591616573978
 40
0.4138109980627169
 40
0.4855518488903453
 40
0.5598002749200529
 40
0.5998999649035781
 40
0.6436094423977958
 40
0.6919106424505659
 40
0.7447030291556902
 40
0.8015038302285953
 40
0.8628660266331954
 40
0.9293326711591618
 40
1.0
 40
1.0
 40
1.0
 40
1.0
 10
65.15662883277042
 20
38.65410904727022
 30
0.0
 10
65.17060513665297
 20
38.65476487913524
 30
0.0
 10
65.19848820027657
 20
38.65607327953727
 30
0.0
 10
65.2395097812366
 20
38.66606284516234
 30
0.0
 10
65.27903502360861
 20
38.68249310661209
 30
0.0
 10
65.31638388981266
 20
38.70549827700536
 30
0.0
 10
65.35101595782798
 20
38.73348911067318
 30
0.0
 10
65.38179537678452
 20
38.76619465793962
 30
0.0
 10
65.4074482475766
 20
38.80369514542846
 30
0.0
 10
65.42510672181234
 20
38.83843200661317
 30
0.0
 10
65.43687535227802
 20
38.86927500836815
 30
0.0
 10
65.44512729564298
 20
38.89561738235026
 30
0.0
 10
65.45172375294695
 20
38.92513456065741
 30
0.0
 10
65.45810451367059
 20
38.95747219599428
 30
0.0
 10
65.46345373853869
 20
38.99276667218925
 30
0.0
 10
65.46793392402797
 20
39.03104978733929
 30
0.0
 10
65.471513144872
 20
39.07233694303338
 30
0.0
 10
65.47311240220635
 20
39.10091881384186
 30
0.0
 10
65.4739365250781
 20
39.11564750880869
 30
0.0
  0
SPLINE
  5
AC
330
1F
100
AcDbEntity
  8
0
  6
Continuous
 62
     7
370
    25
100
AcDbSpline
210
0.0
220
0.0
230
1.0
 70
     8
 71
     3
 72
    23
 73
    19
 74
     0
 42
0.000000001
 43
0.00000001
 40
0.0
 40
0.0
 40
0.0
 40
0.0
 40
0.0760618905628339
 40
0.1487324608035359
 40
0.2183745247439722
 40
0.2857225935927383
 40
0.3510576941824569
 40
0.414934915729319
 40
0.4784859417740854
 40
0.542169035281216
 40
0.6047501165431387
 40
0.6641185017301124
 40
0.7214996756099116
 40
0.7776159163852547
 40
0.832666108697549
 40
0.8878580281135741
 40
0.9434676608977686
 40
1.0
 40
1.0
 40
1.0
 40
1.0
 10
64.83932114046272
 20
39.03602010496253
 30
0.0
 10
64.83958467057198
 20
39.02198269952674
 30
0.0
 10
64.84009998095087
 20
38.99453376500364
 30
0.0
 10
64.84485270997389
 20
38.95448433713995
 30
0.0
 10
64.85174431509978
 20
38.91637166002504
 30
0.0
 10
64.86252412546182
 20
38.88058467341338
 30
0.0
 10
64.87545628878618
 20
38.84663640423685
 30
0.0
 10
64.89238686405889
 20
38.81528467594278
 30
0.0
 10
64.91150721169467
 20
38.78560778645368
 30
0.0
 10
64.93374785341062
 20
38.75847513147939
 30
0.0
 10
64.95778757973535
 20
38.73401371630851
 30
0.0
 10
64.98329158699745
 20
38.71287635095572
 30
0.0
 10
65.00946908500039
 20
38.69456897509218
 30
0.0
 10
65.03693074185904
 20
38.67985290011116
 30
0.0
 10
65.06540718079594
 20
38.66821179409437
 30
0.0
 10
65.09500498937426
 20
38.66029179871146
 30
0.0
 10
65.12547493552613
 20
38.65478364011872
 30
0.0
 10
65.14618739285555
 20
38.65433514163779
 30
0.0
 10
65.15662883277042
 20
38.65410904727022
 30
0.0
  0
SPLINE
  5
AD
330
1F
100
AcDbEntity
  8
0
  6
Continuous
 62
     7
370
    25
100
AcDbSpline
210
0.0
220
0.0
230
1.0
 70
     8
 71
     3
 72
    15
 73
    11
 74
     0
 42
0.000000001
 43
0.00000001
 40
0.0
 40
0.0
 40
0.0
 40
0.0
 40
0.1182713048357256
 40
0.2361775330837632
 40
0.355662932948509
 40
0.4759041646706825
 40
0.6001273417110832
 40
0.7286081161551193
 40
0.8613134756739422
 40
1.0
 40
1.0
 40
1.0
 40
1.0
 10
64.92045094815504
 20
39.28662106650099
 30
0.0
 10
64.91397594791839
 20
39.2782225337045
 30
0.0
 10
64.90104593429646
 20
39.26145139246992
 30
0.0
 10
64.8845452363517
 20
39.23412215057058
 30
0.0
 10
64.87024765406538
 20
39.20538005653384
 30
0.0
 10
64.85932607018697
 20
39.17460233901059
 30
0.0
 10
64.85007850127732
 20
39.14245315167314
 30
0.0
 10
64.84402685022054
 20
39.10841285228808
 30
0.0
 10
64.83987477678774
 20
39.07278175924019
 30
0.0
 10
64.8395083775767
 20
39.04845271774745
 30
0.0
 10
64.83932114046272
 20
39.03602010496253
 30
0.0
  0
SPLINE
  5
AE
330
1F
100
AcDbEntity
  8
0
  6
Continuous
 62
     7
370
    25
100
AcDbSpline
210
0.0
220
0.0
230
1.0
 70
     8
 71
     3
 72
    15
 73
    11
 74
     0
 42
0.000000001
 43
0.00000001
 40
0.0
 40
0.0
 40
0.0
 40
0.0
 40
0.1497703860319681
 40
0.2913164099952446
 40
0.4259663731047426
 40
0.5521595739695285
 40
0.6715274135235928
 40
0.7861216286916589
 40
0.8953250730704446
 40
1.0
 40
1.0
 40
1.0
 40
1.0
 10
65.12778267892426
 20
39.40410904727023
 30
0.0
 10
65.11623310180913
 20
39.40060192236724
 30
0.0
 10
65.09376817111566
 20
39.39378025979958
 30
0.0
 10
65.06143661154071
 20
39.38216841778453
 30
0.0
 10
65.03179744587294
 20
39.36893915832576
 30
0.0
 10
65.00463325073952
 20
39.35474720462459
 30
0.0
 10
64.9796765068263
 20
39.33984215632913
 30
0.0
 10
64.95758713438313
 20
39.32316433127067
 30
0.0
 10
64.93739490486463
 20
39.3059489833504
 30
0.0
 10
64.92601864260456
 20
39.29297211762839
 30
0.0
 10
64.92045094815504
 20
39.28662106650099
 30
0.0
  0
LINE
  5
AF
330
1F
100
AcDbEntity
  8
0
  6
Continuous
 62
     7
370
    25
100
AcDbLine
 10
65.1277826789
 20
39.5387244319
 30
0.0
 11
65.1277826789
 21
39.4041090473
 31
0.0
  0
SPLINE
  5
B0
330
1F
100
AcDbEntity
  8
0
  6
Continuous
 62
     7
370
    25
100
AcDbSpline
210
0.0
220
0.0
230
1.0
 70
     8
 71
     3
 72
    23
 73
    19
 74
     0
 42
0.000000001
 43
0.00000001
 40
0.0
 40
0.0
 40
0.0
 40
0.0
 40
0.0655411703374033
 40
0.1289631677825933
 40
0.1903771361885609
 40
0.2500923616690527
 40
0.308548432459201
 40
0.3663979630552958
 40
0.42454218926668
 40
0.4831699964229055
 40
0.5422433998311199
 40
0.6017393520173299
 40
0.6625060022496068
 40
0.7248555134488469
 40
0.7891278292811811
 40
0.8563463998785099
 40
0.9262952349869055
 40
1.0
 40
1.0
 40
1.0
 40
1.0
 10
64.68547498661657
 20
39.03842395111638
 30
0.0
 10
64.68584707801305
 20
39.05446079409486
 30
0.0
 10
64.68657922980331
 20
39.08601595341062
 30
0.0
 10
64.69158434460185
 20
39.13240602414761
 30
0.0
 10
64.70072577541804
 20
39.17668675244668
 30
0.0
 10
64.71302719200351
 20
39.21891800867098
 30
0.0
 10
64.72862365289515
 20
39.2591373099825
 30
0.0
 10
64.74804595204714
 20
39.29722192648723
 30
0.0
 10
64.77089373864078
 20
39.33340616656727
 30
0.0
 10
64.7974367048436
 20
39.36734857420066
 30
0.0
 10
64.82712870759649
 20
39.39904510321762
 30
0.0
 10
64.8604968547255
 20
39.42765341360197
 30
0.0
 10
64.89692431354881
 20
39.45365046772
 30
0.0
 10
64.93683419477684
 20
39.47634017002493
 30
0.0
 10
64.97971073361016
 20
39.49675600686029
 30
0.0
 10
65.0261029472023
 20
39.51354784542343
 30
0.0
 10
65.07559609948329
 20
39.52832737483898
 30
0.0
 10
65.11008655955867
 20
39.53519885951587
 30
0.0
 10
65.12778267892426
 20
39.5387244318856
 30
0.0
  0
SPLINE
  5
B1
330
1F
100
AcDbEntity
  8
0
  6
Continuous
 62
     7
370
    25
100
AcDbSpline
210
0.0
220
0.0
230
1.0
 70
     8
 71
     3
 72
    19
 73
    15
 74
     0
 42
0.000000001
 43
0.00000001
 40
0.0
 40
0.0
 40
0.0
 40
0.0
 40
0.079641704194991
 40
0.1589086132578561
 40
0.2395997983184508
 40
0.3224093988203484
 40
0.405827748173513
 40
0.4876442139503137
 40
0.5697199979738974
 40
0.6530646649976934
 40
0.7374573001733065
 40
0.8224924079539125
 40
0.9097550737466981
 40
1.0
 40
1.0
 40
1.0
 40
1.0
 10
65.16954950584734
 20
38.51949366265484
 30
0.0
 10
65.14854617484401
 20
38.52026443336635
 30
0.0
 10
65.10663835484858
 20
38.5218023475301
 30
0.0
 10
65.04470808880592
 20
38.53549297723315
 30
0.0
 10
64.98427491474365
 20
38.55683958153337
 30
0.0
 10
64.92623425581866
 20
38.58662352523379
 30
0.0
 10
64.87204286545902
 20
38.62347408762344
 30
0.0
 10
64.82377628142248
 20
38.66755823316284
 30
0.0
 10
64.78200817517514
 20
38.71780428330541
 30
0.0
 10
64.7472224689186
 20
38.77388338767626
 30
0.0
 10
64.71939540484128
 20
38.83461396682456
 30
0.0
 10
64.70008645919731
 20
38.89957638594426
 30
0.0
 10
64.68750922436956
 20
38.96782601378076
 30
0.0
 10
64.68616061839762
 20
39.01462919583656
 30
0.0
 10
64.68547498661657
 20
39.03842395111638
 30
0.0
  0
SPLINE
  5
B2
330
1F
100
AcDbEntity
  8
0
  6
Continuous
 62
     7
370
    25
100
AcDbSpline
210
0.0
220
0.0
230
1.0
 70
     8
 71
     3
 72
    15
 73
    11
 74
     0
 42
0.000000001
 43
0.00000001
 40
0.0
 40
0.0
 40
0.0
 40
0.0
 40
0.1281455049994643
 40
0.2541925386280419
 40
0.3781411397135888
 40
0.5013808330744057
 40
0.6239569784447038
 40
0.7470758858273289
 40
0.8728647202442611
 40
1.0
 40
1.0
 40
1.0
 40
1.0
 10
65.43607594815504
 20
38.60903693188561
 30
0.0
 10
65.42619510773002
 20
38.60181627569805
 30
0.0
 10
65.40659523248337
 20
38.58749320656752
 30
0.0
 10
65.37506423591778
 20
38.56986375790359
 30
0.0
 10
65.34328813668228
 20
38.55368755048249
 30
0.0
 10
65.31001753953844
 20
38.54178233007239
 30
0.0
 10
65.27632115491792
 20
38.53150859663433
 30
0.0
 10
65.241477408552
 20
38.524748822122
 30
0.0
 10
65.20581734552444
 20
38.5204093172763
 30
0.0
 10
65.18168161471543
 20
38.5197999621657
 30
0.0
 10
65.16954950584734
 20
38.51949366265484
 30
0.0
  0
SPLINE
  5
B3
330
1F
100
AcDbEntity
  8
0
  6
Continuous
 62
     7
370
    25
100
AcDbSpline
210
0.0
220
0.0
230
1.0
 70
     8
 71
     3
 72
    11
 73
     7
 74
     0
 42
0.000000001
 43
0.00000001
 40
0.0
 40
0.0
 40
0.0
 40
0.0
 40
0.253879600326656
 40
0.5030089172783633
 40
0.7502910806899731
 40
1.0
 40
1.0
 40
1.0
 40
1.0
 10
65.56408075584734
 20
38.77159702803945
 30
0.0
 10
65.55637582518669
 20
38.75564056179374
 30
0.0
 10
65.54111012906804
 20
38.72402618710779
 30
0.0
 10
65.51117194727495
 20
38.68093310302226
 30
0.0
 10
65.47660494126613
 20
38.64181401358357
 30
0.0
 10
65.44962951858889
 20
38.61999813401051
 30
0.0
 10
65.43607594815504
 20
38.60903693188561
 30
0.0
  0
SPLINE
  5
B4
330
1F
100
AcDbEntity
  8
0
  6
Continuous
 62
     7
370
    25
100
AcDbSpline
210
0.0
220
0.0
230
1.0
 70
     8
 71
     3
 72
    15
 73
    11
 74
     0
 42
0.000000001
 43
0.00000001
 40
0.0
 40
0.0
 40
0.0
 40
0.0
 40
0.1280675485958904
 40
0.2506083188676684
 40
0.3706301659145029
 40
0.4900722467299488
 40
0.6103747641546199
 40
0.7343130699115256
 40
0.8632165042449895
 40
1.0
 40
1.0
 40
1.0
 40
1.0
 10
65.87267450584734
 20
38.59641673957791
 30
0.0
 10
65.8568144509735
 20
38.59691542145523
 30
0.0
 10
65.82577878477504
 20
38.59789126450286
 30
0.0
 10
65.78046957171583
 20
38.60617713831528
 30
0.0
 10
65.73776602873774
 20
38.62012125097652
 30
0.0
 10
65.69748838782768
 20
38.63943686350989
 30
0.0
 10
65.65989202790348
 20
38.66444038504144
 30
0.0
 10
65.62489236039184
 20
38.69472868370872
 30
0.0
 10
65.59233414976545
 20
38.73051553875536
 30
0.0
 10
65.57368294706167
 20
38.75763508362248
 30
0.0
 10
65.56408075584734
 20
38.77159702803945
 30
0.0
  0
SPLINE
  5
B5
330
1F
100
AcDbEntity
  8
0
  6
Continuous
 62
     7
370
    25
100
AcDbSpline
210
0.0
220
0.0
230
1.0
 70
     8
 71
     3
 72
    19
 73
    15
 74
     0
 42
0.000000001
 43
0.00000001
 40
0.0
 40
0.0
 40
0.0
 40
0.0
 40
0.0902542493426766
 40
0.1785397915286843
 40
0.2660930338538198
 40
0.3546309779571733
 40
0.4418861533505626
 40
0.5257469151636484
 40
0.6081136336036366
 40
0.6901972728278825
 40
0.770821484330335
 40
0.8483261812554109
 40
0.9240117400247433
 40
1.0
 40
1.0
 40
1.0
 40
1.0
 10
66.26239806353965
 20
39.03451770111638
 30
0.0
 10
66.26180696486324
 20
39.0149393830842
 30
0.0
 10
66.26063766108832
 20
38.97620980696557
 30
0.0
 10
66.24996004545443
 20
38.91931135827251
 30
0.0
 10
66.23306356015978
 20
38.86444272151445
 30
0.0
 10
66.20971767710105
 20
38.81220447245031
 30
0.0
 10
66.1809231143173
 20
38.76368228705191
 30
0.0
 10
66.14665251279098
 20
38.72050963558886
 30
0.0
 10
66.10756709786781
 20
38.68327170238717
 30
0.0
 10
66.06439599887415
 20
38.65203125481855
 30
0.0
 10
66.0182579234226
 20
38.62757054093839
 30
0.0
 10
65.97077214178805
 20
38.6095335237328
 30
0.0
 10
65.92205129690707
 20
38.59855280330481
 30
0.0
 10
65.88915532011772
 20
38.59712970752899
 30
0.0
 10
65.87267450584734
 20
38.59641673957791
 30
0.0
  0
SPLINE
  5
B6
330
1F
100
AcDbEntity
  8
0
  6
Continuous
 62
     7
370
    25
100
AcDbSpline
210
0.0
220
0.0
230
1.0
 70
     8
 71
     3
 72
    23
 73
    19
 74
     0
 42
0.000000001
 43
0.00000001
 40
0.0
 40
0.0
 40
0.0
 40
0.0
 40
0.0726253460834355
 40
0.1419766113262345
 40
0.2089849284189386
 40
0.2739568703644447
 40
0.336889347396841
 40
0.3987449534945902
 40
0.4601158852788617
 40
0.5208249225900291
 40
0.5809944586324857
 40
0.6401519276014648
 40
0.6986224507562546
 40
0.7572710809271643
 40
0.8164266940046602
 40
0.8762540482034705
 40
0.9371652930625374
 40
1.0
 40
1.0
 40
1.0
 40
1.0
 10
65.87778267892426
 20
39.4810321241933
 30
0.0
 10
65.8928823149137
 20
39.47738517390145
 30
0.0
 10
65.92240086822399
 20
39.47025568437697
 30
0.0
 10
65.96457540858714
 20
39.45538529574744
 30
0.0
 10
66.00448548918315
 20
39.43918561494975
 30
0.0
 10
66.04138380648116
 20
39.41973314156485
 30
0.0
 10
66.07601190765233
 20
39.39851510403938
 30
0.0
 10
66.10758438956724
 20
39.37420536623829
 30
0.0
 10
66.1369042319103
 20
39.34792548513861
 30
0.0
 10
66.16292419086338
 20
39.31885764972356
 30
0.0
 10
66.18648607480911
 20
39.28837393759179
 30
0.0
 10
66.20657538509869
 20
39.25604481484147
 30
0.0
 10
66.22385716489777
 20
39.22252071755408
 30
0.0
 10
66.23809440713006
 20
39.18756937486182
 30
0.0
 10
66.2488196315584
 20
39.15108672985096
 30
0.0
 10
66.25660111966873
 20
39.11340260557061
 30
0.0
 10
66.26165445433206
 20
39.07441824837862
 30
0.0
 10
66.26214763851193
 20
39.04795499526508
 30
0.0
 10
66.26239806353965
 20
39.03451770111638
 30
0.0
  0
LINE
  5
B7
330
1F
100
AcDbEntity
  8
0
  6
Continuous
 62
     7
370
    25
100
AcDbLine
 10
65.8777826789
 20
39.3464167396
 30
0.0
 11
65.8777826789
 21
39.4810321242
 31
0.0
  0
SPLINE
  5
B8
330
1F
100
AcDbEntity
  8
0
  6
Continuous
 62
     7
370
    25
100
AcDbSpline
210
0.0
220
0.0
230
1.0
 70
     8
 71
     3
 72
    14
 73
    10
 74
     0
 42
0.000000001
 43
0.00000001
 40
0.0
 40
0.0
 40
0.0
 40
0.0
 40
0.4999999999999999
 40
0.4999999999999999
 40
0.6249999999999999
 40
0.6249999999999999
 40
0.7499999999999998
 40
0.7499999999999998
 40
1.0
 40
1.0
 40
1.0
 40
1.0
 10
63.80417247723719
 20
44.83487595215604
 30
0.0
 10
63.47761057886107
 20
44.2692541523525
 30
0.0
 10
63.26902642734355
 20
43.6951583042156
 30
0.0
 10
63.26808864285518
 20
42.95887825129146
 30
0.0
 10
63.28061474924521
 20
42.81092963944438
 30
0.0
 10
63.32945979002047
 20
42.51827163016575
 30
0.0
 10
63.36572916807774
 20
42.37292380027458
 30
0.0
 10
63.50578186873687
 20
41.93946803305959
 30
0.0
 10
63.64068801312278
 20
41.653937735113
 30
0.0
 10
63.80417247723746
 20
41.3707743370182
 30
0.0
  0
LINE
  5
B9
330
1F
100
AcDbEntity
  8
0
  6
Continuous
 62
     7
370
    25
100
AcDbLine
 10
65.5435517673
 20
44.8348759522
 30
0.0
 11
63.8041724772
 21
44.8348759522
 31
0.0
  0
SPLINE
  5
BA
330
1F
100
AcDbEntity
  8
0
  6
Continuous
 62
     7
370
    25
100
AcDbSpline
210
0.0
220
0.0
230
1.0
 70
     8
 71
     3
 72
     8
 73
     4
 74
     0
 42
0.000000001
 43
0.00000001
 40
0.0
 40
0.0
 40
0.0
 40
0.0
 40
1.0
 40
1.0
 40
1.0
 40
1.0
 10
65.62393652507811
 20
44.51111116505977
 30
0.0
 10
65.59931857846534
 20
44.61921580373575
 30
0.0
 10
65.57242250451444
 20
44.72712889420176
 30
0.0
 10
65.54355176734877
 20
44.834875952156
 30
0.0
  0
SPLINE
  5
BB
330
1F
100
AcDbEntity
  8
0
  6
Continuous
 62
     7
370
    25
100
AcDbSpline
210
0.0
220
0.0
230
1.0
 70
     8
 71
     3
 72
     8
 73
     4
 74
     0
 42
0.000000001
 43
0.00000001
 40
0.0
 40
0.0
 40
0.0
 40
0.0
 40
1.0
 40
1.0
 40
1.0
 40
1.0
 10
65.70432128280744
 20
44.834875952156
 30
0.0
 10
65.67543153415413
 20
44.72705794236394
 30
0.0
 10
65.64853749362337
 20
44.61914124805163
 30
0.0
 10
65.62393652507811
 20
44.51111116505977
 30
0.0
  0
LINE
  5
BC
330
1F
100
AcDbEntity
  8
0
  6
Continuous
 62
     7
370
    25
100
AcDbLine
 10
67.4437005729
 20
44.8348759522
 30
0.0
 11
65.7043212828
 21
44.8348759522
 31
0.0
  0
SPLINE
  5
BD
330
1F
100
AcDbEntity
  8
0
  6
Continuous
 62
     7
370
    25
100
AcDbSpline
210
0.0
220
0.0
230
1.0
 70
     8
 71
     3
 72
    14
 73
    10
 74
     0
 42
0.000000001
 43
0.00000001
 40
0.0
 40
0.0
 40
0.0
 40
0.0
 40
0.4999999999999999
 40
0.4999999999999999
 40
0.6249999999999999
 40
0.6249999999999999
 40
0.7499999999999998
 40
0.7499999999999998
 40
1.0
 40
1.0
 40
1.0
 40
1.0
 10
67.44370057291904
 20
44.83487595215604
 30
0.0
 10
67.77026247129514
 20
44.2692541523525
 30
0.0
 10
67.97884662281265
 20
43.6951583042156
 30
0.0
 10
67.97978440730103
 20
42.95887825129146
 30
0.0
 10
67.96725830091101
 20
42.81092963944438
 30
0.0
 10
67.91841326013574
 20
42.51827163016575
 30
0.0
 10
67.88214388207847
 20
42.37292380027458
 30
0.0
 10
67.74209118141934
 20
41.93946803305959
 30
0.0
 10
67.60718503703343
 20
41.653937735113
 30
0.0
 10
67.44370057291874
 20
41.3707743370182
 30
0.0
  0
SPLINE
  5
BE
330
1F
100
AcDbEntity
  8
0
  6
Continuous
 62
     7
370
    25
100
AcDbSpline
210
0.0
220
0.0
230
1.0
 70
     8
 71
     3
 72
     8
 73
     4
 74
     0
 42
0.000000001
 43
0.00000001
 40
0.0
 40
0.0
 40
0.0
 40
0.0
 40
1.0
 40
1.0
 40
1.0
 40
1.0
 10
65.62393652507811
 20
41.69453912411446
 30
0.0
 10
65.64855447169086
 20
41.58643448543847
 30
0.0
 10
65.67545054564178
 20
41.47852139497246
 30
0.0
 10
65.70432128280744
 20
41.37077433701823
 30
0.0
  0
SPLINE
  5
BF
330
1F
100
AcDbEntity
  8
0
  6
Continuous
 62
     7
370
    25
100
AcDbSpline
210
0.0
220
0.0
230
1.0
 70
     8
 71
     3
 72
     8
 73
     4
 74
     0
 42
0.000000001
 43
0.00000001
 40
0.0
 40
0.0
 40
0.0
 40
0.0
 40
1.0
 40
1.0
 40
1.0
 40
1.0
 10
65.54355176734877
 20
41.37077433701823
 30
0.0
 10
65.57244151600209
 20
41.47859234681027
 30
0.0
 10
65.59933555653284
 20
41.58650904112258
 30
0.0
 10
65.62393652507811
 20
41.69453912411446
 30
0.0
  0
SPLINE
  5
C0
330
1F
100
AcDbEntity
  8
0
  6
Continuous
 62
     7
370
    25
100
AcDbSpline
210
0.0
220
0.0
230
1.0
 70
     8
 71
     3
 72
    14
 73
    10
 74
     0
 42
0.000000001
 43
0.00000001
 40
0.0
 40
0.0
 40
0.0
 40
0.0
 40
0.4999999999999997
 40
0.4999999999999997
 40
0.6249999999999997
 40
0.6249999999999997
 40
0.7499999999999997
 40
0.7499999999999997
 40
1.0
 40
1.0
 40
1.0
 40
1.0
 10
67.44370057291904
 20
34.44257110674274
 30
0.0
 10
67.77026247129514
 20
33.8769493069392
 30
0.0
 10
67.97884662281265
 20
33.30285345880231
 30
0.0
 10
67.97978440730103
 20
32.56657340587818
 30
0.0
 10
67.96725830091101
 20
32.4186247940311
 30
0.0
 10
67.91841326013574
 20
32.12596678475248
 30
0.0
 10
67.88214388207847
 20
31.98061895486132
 30
0.0
 10
67.74209118141934
 20
31.54716318764633
 30
0.0
 10
67.60718503703343
 20
31.26163288969974
 30
0.0
 10
67.44370057291874
 20
30.97846949160494
 30
0.0
  0
LINE
  5
C1
330
1F
100
AcDbEntity
  8
0
  6
Continuous
 62
     7
370
    25
100
AcDbLine
 10
68.1239365251
 20
43.6566727219
 30
0.0
 11
68.1239365251
 21
32.1566727219
 31
0.0
  0
SPLINE
  5
C2
330
1F
100
AcDbEntity
  8
0
  6
Continuous
 62
     7
370
    25
100
AcDbSpline
210
0.0
220
0.0
230
1.0
 70
     8
 71
     3
 72
     8
 73
     4
 74
     0
 42
0.000000001
 43
0.00000001
 40
0.0
 40
0.0
 40
0.0
 40
0.0
 40
1.0
 40
1.0
 40
1.0
 40
1.0
 10
65.70432128280744
 20
34.4425711067427
 30
0.0
 10
65.67543153415413
 20
34.33475309695064
 30
0.0
 10
65.64853749362337
 20
34.22683640263833
 30
0.0
 10
65.62393652507811
 20
34.11880631964647
 30
0.0
  0
LINE
  5
C3
330
1F
100
AcDbEntity
  8
0
  6
Continuous
 62
     7
370
    25
100
AcDbLine
 10
65.6239365251
 20
40.7232447628
 30
0.0
 11
65.6239365251
 21
41.6945391241
 31
0.0
  0
SPLINE
  5
C4
330
1F
100
AcDbEntity
  8
0
  6
Continuous
 62
     7
370
    25
100
AcDbSpline
210
0.0
220
0.0
230
1.0
 70
     8
 71
     3
 72
    14
 73
    10
 74
     0
 42
0.000000001
 43
0.00000001
 40
0.0
 40
0.0
 40
0.0
 40
0.0
 40
0.4999999999999997
 40
0.4999999999999997
 40
0.6249999999999997
 40
0.6249999999999997
 40
0.7499999999999997
 40
0.7499999999999997
 40
1.0
 40
1.0
 40
1.0
 40
1.0
 10
63.80417247723719
 20
34.44257110674274
 30
0.0
 10
63.47761057886107
 20
33.8769493069392
 30
0.0
 10
63.26902642734355
 20
33.30285345880231
 30
0.0
 10
63.26808864285518
 20
32.56657340587818
 30
0.0
 10
63.28061474924521
 20
32.4186247940311
 30
0.0
 10
63.32945979002047
 20
32.12596678475248
 30
0.0
 10
63.36572916807774
 20
31.98061895486132
 30
0.0
 10
63.50578186873687
 20
31.54716318764633
 30
0.0
 10
63.64068801312278
 20
31.26163288969974
 30
0.0
 10
63.80417247723746
 20
30.97846949160494
 30
0.0
  0
LINE
  5
C5
330
1F
100
AcDbEntity
  8
0
  6
Continuous
 62
     7
370
    25
100
AcDbLine
 10
63.1239365251
 20
43.6566727219
 30
0.0
 11
63.1239365251
 21
32.1566727219
 31
0.0
  0
SPLINE
  5
C6
330
1F
100
AcDbEntity
  8
0
  6
Continuous
 62
     7
370
    25
100
AcDbSpline
210
0.0
220
0.0
230
1.0
 70
     8
 71
     3
 72
    23
 73
    19
 74
     0
 42
0.000000001
 43
0.00000001
 40
0.0
 40
0.0
 40
0.0
 40
0.0
 40
0.0611415679303346
 40
0.1200010135310723
 40
0.1782359705414083
 40
0.2364955434070171
 40
0.2948872487049731
 40
0.3546771928192958
 40
0.4166948132897783
 40
0.4806333779628393
 40
0.5458046334786407
 40
0.6097347883178743
 40
0.6729516883751544
 40
0.7360010960706834
 40
0.7998274385165249
 40
0.864767276939387
 40
0.9310835057306723
 40
1.0
 40
1.0
 40
1.0
 40
1.0
 10
65.13679710200118
 20
36.68853305223121
 30
0.0
 10
65.14703881245133
 20
36.68876614327425
 30
0.0
 10
65.1671399592801
 20
36.68922362518642
 30
0.0
 10
65.19656057288316
 20
36.69449820024261
 30
0.0
 10
65.22508538161668
 20
36.70162239168442
 30
0.0
 10
65.25207181814146
 20
36.71313573802176
 30
0.0
 10
65.27826616597183
 20
36.72684907328542
 30
0.0
 10
65.30291977108291
 20
36.7443189615808
 30
0.0
 10
65.32673107452692
 20
36.76434861611877
 30
0.0
 10
65.34882348825704
 20
36.78754489958363
 30
0.0
 10
65.36903100792158
 20
36.81278037943319
 30
0.0
 10
65.38686753045731
 20
36.83961647318641
 30
0.0
 10
65.40192120510291
 20
36.86769109724045
 30
0.0
 10
65.41448136157159
 20
36.89697713177582
 30
0.0
 10
65.423545430127
 20
36.92780977967671
 30
0.0
 10
65.4306825320459
 20
36.95969135802813
 30
0.0
 10
65.4344805402562
 20
36.99302960367359
 30
0.0
 10
65.43513928238124
 20
37.01564815026075
 30
0.0
 10
65.43547498661657
 20
37.02717487915429
 30
0.0
  0
SPLINE
  5
C7
330
1F
100
AcDbEntity
  8
0
  6
Continuous
 62
     7
370
    25
100
AcDbSpline
210
0.0
220
0.0
230
1.0
 70
     8
 71
     3
 72
    23
 73
    19
 74
     0
 42
0.000000001
 43
0.00000001
 40
0.0
 40
0.0
 40
0.0
 40
0.0
 40
0.0679503475997537
 40
0.1332598223836998
 40
0.1978002967596474
 40
0.2608458295516822
 40
0.3233192927503671
 40
0.3862817224595722
 40
0.450061516233313
 40
0.5152075844858154
 40
0.5796407692199316
 40
0.6418172023841522
 40
0.7016924412115348
 40
0.7607690981778945
 40
0.8192540511346832
 40
0.8787376269055537
 40
0.9381582970160912
 40
1.0
 40
1.0
 40
1.0
 40
1.0
 10
64.83932114046272
 20
37.01545612915429
 30
0.0
 10
64.83965072950384
 20
37.0043280401309
 30
0.0
 10
64.84029709819262
 20
36.98250435240731
 30
0.0
 10
64.84418875219085
 20
36.95028741432261
 30
0.0
 10
64.85107224330149
 20
36.91939574830289
 30
0.0
 10
64.86085408052169
 20
36.8898078694596
 30
0.0
 10
64.87277312235774
 20
36.86127725999884
 30
0.0
 10
64.88798148238554
 20
36.83420870577439
 30
0.0
 10
64.90575873389315
 20
36.8082367618433
 30
0.0
 10
64.92609728711135
 20
36.78392674913815
 30
0.0
 10
64.94795506057996
 20
36.76127506337481
 30
0.0
 10
64.9719636620485
 20
36.74232501230399
 30
0.0
 10
64.99627878439355
 20
36.72522273050868
 30
0.0
 10
65.02237720640744
 20
36.7122683498666
 30
0.0
 10
65.0493136058863
 20
36.70140818021196
 30
0.0
 10
65.07749856663025
 20
36.69410743064466
 30
0.0
 10
65.1067867864457
 20
36.68932786498669
 30
0.0
 10
65.12666139633704
 20
36.68880149286566
 30
0.0
 10
65.13679710200118
 20
36.68853305223121
 30
0.0
  0
SPLINE
  5
C8
330
1F
100
AcDbEntity
  8
0
  6
Continuous
 62
     7
370
    25
100
AcDbSpline
210
0.0
220
0.0
230
1.0
 70
     8
 71
     3
 72
    23
 73
    19
 74
     0
 42
0.000000001
 43
0.00000001
 40
0.0
 40
0.0
 40
0.0
 40
0.0
 40
0.0618526459466917
 40
0.1212838306153701
 40
0.1807779320756125
 40
0.2392732340142805
 40
0.2986414352139417
 40
0.3581858222417117
 40
0.4207600867589709
 40
0.4852046730216432
 40
0.5503622689482871
 40
0.613649924530912
 40
0.6766234955168249
 40
0.7391080134690126
 40
0.8021647022429448
 40
0.8667165971324778
 40
0.9320376285055445
 40
1.0
 40
1.0
 40
1.0
 40
1.0
 10
65.13679710200118
 20
37.34237920607737
 30
0.0
 10
65.12666178214428
 20
37.3421100737699
 30
0.0
 10
65.1067879287635
 20
37.34158234538106
 30
0.0
 10
65.07749420334999
 20
37.33681265012786
 30
0.0
 10
65.04932989309903
 20
37.3294748784746
 30
0.0
 10
65.02227439839812
 20
37.31873432505281
 30
0.0
 10
64.99647530273472
 20
37.30526253059515
 30
0.0
 10
64.9717493475945
 20
37.28868400206323
 30
0.0
 10
64.94807946655442
 20
37.2692794539752
 30
0.0
 10
64.92606253000339
 20
37.24672205182986
 30
0.0
 10
64.90586806076398
 20
37.22239608059532
 30
0.0
 10
64.88788686744198
 20
37.19666975479019
 30
0.0
 10
64.872787473268
 20
37.16962487414295
 30
0.0
 10
64.86085021201595
 20
37.14110711797185
 30
0.0
 10
64.85107331047364
 20
37.1115157571455
 30
0.0
 10
64.84418846135982
 20
37.08062504915914
 30
0.0
 10
64.84029717471407
 20
37.04840785191752
 30
0.0
 10
64.83965075534577
 20
37.02658419994692
 30
0.0
 10
64.83932114046272
 20
37.01545612915429
 30
0.0
  0
SPLINE
  5
C9
330
1F
100
AcDbEntity
  8
0
  6
Continuous
 62
     7
370
    25
100
AcDbSpline
210
0.0
220
0.0
230
1.0
 70
     8
 71
     3
 72
    23
 73
    19
 74
     0
 42
0.000000001
 43
0.00000001
 40
0.0
 40
0.0
 40
0.0
 40
0.0
 40
0.0705921865358071
 40
0.1385012886049299
 40
0.2037899961427012
 40
0.266787572669601
 40
0.3290979656467183
 40
0.3911745246039658
 40
0.4531677986176573
 40
0.5157967602265844
 40
0.5779688050530403
 40
0.6389663383752914
 40
0.698381066162843
 40
0.7573204555574266
 40
0.8164122397216688
 40
0.876279358230831
 40
0.936823465650193
 40
1.0
 40
1.0
 40
1.0
 40
1.0
 10
65.43547498661657
 20
37.02717487915429
 30
0.0
 10
65.43513712216196
 20
37.0386011969921
 30
0.0
 10
65.43447423488462
 20
37.0610195384858
 30
0.0
 10
65.43073024276566
 20
37.09386899470103
 30
0.0
 10
65.42363640414526
 20
37.12487492838673
 30
0.0
 10
65.41446036058899
 20
37.15439147787087
 30
0.0
 10
65.40196653519217
 20
37.18211100321837
 30
0.0
 10
65.38697040264785
 20
37.20834970184671
 30
0.0
 10
65.36914098137505
 20
37.23284720979363
 30
0.0
 10
65.348677065039
 20
37.25517330832582
 30
0.0
 10
65.32659931075911
 20
37.27567418076017
 30
0.0
 10
65.30281038702046
 20
37.29330827883513
 30
0.0
 10
65.27803708703968
 20
37.30853603994346
 30
0.0
 10
65.25204657185581
 20
37.32091294064644
 30
0.0
 10
65.22485551338114
 20
37.3305518189443
 30
0.0
 10
65.19658718252506
 20
37.33752385188698
 30
0.0
 10
65.16705250177002
 20
37.34140405108683
 30
0.0
 10
65.1470242832912
 20
37.3420495760956
 30
0.0
 10
65.13679710200118
 20
37.34237920607737
 30
0.0
  0
LINE
  5
CA
330
1F
100
AcDbEntity
  8
0
  6
Continuous
 62
     7
370
    25
100
AcDbLine
 10
65.5435517673
 20
30.9784694916
 30
0.0
 11
63.8041724772
 21
30.9784694916
 31
0.0
  0
LINE
  5
CB
330
1F
100
AcDbEntity
  8
0
  6
Continuous
 62
     7
370
    25
100
AcDbLine
 10
67.4437005729
 20
30.9784694916
 30
0.0
 11
65.7043212828
 21
30.9784694916
 31
0.0
  0
SPLINE
  5
CC
330
1F
100
AcDbEntity
  8
0
  6
Continuous
 62
     7
370
    25
100
AcDbSpline
210
0.0
220
0.0
230
1.0
 70
     8
 71
     3
 72
     8
 73
     4
 74
     0
 42
0.000000001
 43
0.00000001
 40
0.0
 40
0.0
 40
0.0
 40
0.0
 40
1.0
 40
1.0
 40
1.0
 40
1.0
 10
65.62393652507811
 20
31.3022342787012
 30
0.0
 10
65.64855447169086
 20
31.19412964002521
 30
0.0
 10
65.67545054564178
 20
31.0862165495592
 30
0.0
 10
65.70432128280744
 20
30.97846949160497
 30
0.0
  0
SPLINE
  5
CD
330
1F
100
AcDbEntity
  8
0
  6
Continuous
 62
     7
370
    25
100
AcDbSpline
210
0.0
220
0.0
230
1.0
 70
     8
 71
     3
 72
     8
 73
     4
 74
     0
 42
0.000000001
 43
0.00000001
 40
0.0
 40
0.0
 40
0.0
 40
0.0
 40
1.0
 40
1.0
 40
1.0
 40
1.0
 10
65.54355176734877
 20
30.97846949160497
 30
0.0
 10
65.57244151600209
 20
31.08628750139702
 30
0.0
 10
65.59933555653284
 20
31.19420419570933
 30
0.0
 10
65.62393652507811
 20
31.3022342787012
 30
0.0
  0
LINE
  5
CE
330
1F
100
AcDbEntity
  8
0
  6
Continuous
 62
     7
370
    25
100
AcDbLine
 10
55.4788845845
 20
42.6889523487
 30
0.0
 11
55.4788845845
 21
33.124393095
 31
0.0
  0
LINE
  5
CF
330
1F
100
AcDbEntity
  8
0
  6
Continuous
 62
     7
370
    25
100
AcDbLine
 10
54.1239365251
 20
37.9066727219
 30
0.0
 11
54.1239365251
 21
41.9066727219
 31
0.0
  0
LINE
  5
D0
330
1F
100
AcDbEntity
  8
0
  6
Continuous
 62
     7
370
    25
100
AcDbLine
 10
54.1239365251
 20
33.9066727219
 30
0.0
 11
54.1239365251
 21
37.9066727219
 31
0.0
  0
LINE
  5
D1
330
1F
100
AcDbEntity
  8
0
  6
Continuous
 62
     7
370
    25
100
AcDbLine
 10
83.6239365251
 20
41.9066727219
 30
0.0
 11
83.6239365251
 21
33.9066727219
 31
0.0
  0
LINE
  5
D2
330
1F
100
AcDbEntity
  8
0
  6
Continuous
 62
     7
370
    25
100
AcDbLine
 10
75.6239365251
 20
41.9066727219
 30
0.0
 11
75.6239365251
 21
33.9066727219
 31
0.0
  0
LINE
  5
D3
330
1F
100
AcDbEntity
  8
0
  6
Continuous
 62
     7
370
    25
100
AcDbLine
 10
71.6239365251
 20
41.9066727219
 30
0.0
 11
71.6239365251
 21
33.9066727219
 31
0.0
  0
LINE
  5
D4
330
1F
100
AcDbEntity
  8
0
  6
Continuous
 62
     7
370
    25
100
AcDbLine
 10
79.6239365251
 20
41.9066727219
 30
0.0
 11
79.6239365251
 21
33.9066727219
 31
0.0
  0
LINE
  5
D5
330
1F
100
AcDbEntity
  8
0
  6
Continuous
 62
     7
370
    25
100
AcDbLine
 10
88.1239365251
 20
40.8237058217
 30
0.0
 11
88.1239365251
 21
34.989639622
 31
0.0
  0
LINE
  5
D6
330
1F
100
AcDbEntity
  8
0
  6
Continuous
 62
     7
370
    25
100
AcDbLine
 10
65.6239365251
 20
44.5111111651
 30
0.0
 11
65.6239365251
 21
44.5348759522
 31
0.0
  0
LINE
  5
D7
330
1F
100
AcDbEntity
  8
0
  6
Continuous
 62
     7
370
    25
100
AcDbLine
 10
65.6239365251
 20
31.2784694916
 30
0.0
 11
65.6239365251
 21
31.3022342787
 31
0.0
  0
LINE
  5
D8
330
1F
100
AcDbEntity
  8
0
  6
Continuous
 62
     8
370
    25
100
AcDbLine
 10
87.6954169064
 20
34.4947754436
 30
0.0
 11
87.6954169064
 21
41.3185700001
 31
0.0
  0
LINE
  5
D9
330
1F
100
AcDbEntity
  8
0
  6
Continuous
 62
     7
370
    18
100
AcDbLine
 10
54.6421563758
 20
42.2058670922
 30
0.0
 11
62.6239365251
 21
42.4552977219
 31
0.0
  0
LINE
  5
DA
330
1F
100
AcDbEntity
  8
0
  6
Continuous
 62
     7
370
    18
100
AcDbLine
 10
54.6421563758
 20
33.6074783515
 30
0.0
 11
62.6239365251
 21
33.3580477219
 31
0.0
  0
LINE
  5
DB
330
1F
100
AcDbEntity
  8
0
  6
Continuous
 62
     7
370
    18
100
AcDbLine
 10
62.6239365251
 20
32.9011102219
 30
0.0
 11
62.6239365251
 21
42.9122352219
 31
0.0
  0
LINE
  5
DC
330
1F
100
AcDbEntity
  8
0
  6
CENTERX2
 62
     7
370
    18
100
AcDbLine
 10
89.1239365251
 20
37.9066727219
 30
0.0
 11
53.1952829926
 21
37.9066727219
 31
0.0
  0
CIRCLE
  5
DD
330
1F
100
AcDbEntity
  8
0
  6
Continuous
 62
     7
370
    25
100
AcDbCircle
 10
104.2308346782
 20
37.9066727219
 30
0.0
 40
2.917033099830697
  0
CIRCLE
  5
DE
330
1F
100
AcDbEntity
  8
0
  6
Continuous
 62
     7
370
    25
100
AcDbCircle
 10
104.2308346782
 20
37.9066727219
 30
0.0
 40
2.699999999999989
  0
CIRCLE
  5
DF
330
1F
100
AcDbEntity
  8
0
  6
Continuous
 62
     7
370
    25
100
AcDbCircle
 10
104.2308346782
 20
37.9066727219
 30
0.0
 40
2.499999999999986
  0
CIRCLE
  5
E0
330
1F
100
AcDbEntity
  8
0
  6
Continuous
 62
     7
370
    25
100
AcDbCircle
 10
104.2308346782
 20
37.9066727219
 30
0.0
 40
3.411897278252674
  0
CIRCLE
  5
E1
330
1F
100
AcDbEntity
  8
0
  6
Continuous
 62
     7
370
    25
100
AcDbCircle
 10
104.2308346782
 20
37.9066727219
 30
0.0
 40
3.999999999999993
  0
SPLINE
  5
E2
330
1F
100
AcDbEntity
  8
0
  6
Continuous
 62
     7
370
    25
100
AcDbSpline
210
0.0
220
0.0
230
1.0
 70
    24
 71
     3
 72
    14
 73
    10
 74
     0
 42
0.000000001
 43
0.00000001
 40
0.0
 40
0.0
 40
0.0
 40
0.0
 40
0.2499999999999999
 40
0.2499999999999999
 40
0.4999999999999999
 40
0.4999999999999999
 40
0.7499999999999999
 40
0.7499999999999999
 40
1.0
 40
1.0
 40
1.0
 40
1.0
 10
110.2308346781724
 20
34.44257110674278
 30
0.0
 10
110.2308346781724
 20
35.00646342140481
 30
0.0
 10
110.2308346781724
 20
35.58359999486005
 30
0.0
 10
110.2308346781724
 20
36.74018598089429
 30
0.0
 10
110.2308346781724
 20
37.32196315642045
 30
0.0
 10
110.2308346781724
 20
38.49370419627079
 30
0.0
 10
110.2308346781724
 20
39.08735072573442
 30
0.0
 10
110.2308346781724
 20
40.24353908203931
 30
0.0
 10
110.2308346781724
 20
40.81076839200708
 30
0.0
 10
110.2308346781724
 20
41.37077433701831
 30
0.0
  0
SPLINE
  5
E3
330
1F
100
AcDbEntity
  8
0
  6
Continuous
 62
     7
370
    25
100
AcDbSpline
210
0.0
220
0.0
230
1.0
 70
    24
 71
     3
 72
    14
 73
    10
 74
     0
 42
0.000000001
 43
0.00000001
 40
0.0
 40
0.0
 40
0.0
 40
0.0
 40
0.4999999999999994
 40
0.4999999999999994
 40
0.6249999999999994
 40
0.6249999999999994
 40
0.7499999999999994
 40
0.7499999999999994
 40
1.0
 40
1.0
 40
1.0
 40
1.0
 10
104.2308346781724
 20
30.97846949160493
 30
0.0
 10
105.2105203733006
 20
31.54409129140848
 30
0.0
 10
106.2048835506881
 20
32.11818713954538
 30
0.0
 10
107.4801580109522
 20
32.85446719246953
 30
0.0
 10
107.7364125235806
 20
33.00241580431661
 30
0.0
 10
108.2433110648932
 20
33.29507381359524
 30
0.0
 10
108.4950608910345
 20
33.44042164348641
 30
0.0
 10
109.2458283026846
 20
33.8738774107014
 30
0.0
 10
109.7403812858284
 20
34.159407708648
 30
0.0
 10
110.2308346781725
 20
34.4425711067428
 30
0.0
  0
SPLINE
  5
E4
330
1F
100
AcDbEntity
  8
0
  6
Continuous
 62
     7
370
    25
100
AcDbSpline
210
0.0
220
0.0
230
1.0
 70
    24
 71
     3
 72
    14
 73
    10
 74
     0
 42
0.000000001
 43
0.00000001
 40
0.0
 40
0.0
 40
0.0
 40
0.0
 40
0.4999999999999997
 40
0.4999999999999997
 40
0.6249999999999997
 40
0.6249999999999997
 40
0.7499999999999997
 40
0.7499999999999997
 40
1.0
 40
1.0
 40
1.0
 40
1.0
 10
98.23083467817231
 20
34.44257110674274
 30
0.0
 10
99.21052037330061
 20
33.8769493069392
 30
0.0
 10
100.2048835506881
 20
33.30285345880231
 30
0.0
 10
101.4801580109522
 20
32.56657340587818
 30
0.0
 10
101.7364125235806
 20
32.4186247940311
 30
0.0
 10
102.2433110648931
 20
32.12596678475248
 30
0.0
 10
102.4950608910345
 20
31.98061895486132
 30
0.0
 10
103.2458283026846
 20
31.54716318764633
 30
0.0
 10
103.7403812858284
 20
31.26163288969974
 30
0.0
 10
104.2308346781725
 20
30.97846949160494
 30
0.0
  0
SPLINE
  5
E5
330
1F
100
AcDbEntity
  8
0
  6
Continuous
 62
     7
370
    25
100
AcDbSpline
210
0.0
220
0.0
230
1.0
 70
    24
 71
     3
 72
    14
 73
    10
 74
     0
 42
0.000000001
 43
0.00000001
 40
0.0
 40
0.0
 40
0.0
 40
0.0
 40
0.25
 40
0.25
 40
0.5
 40
0.5
 40
0.75
 40
0.75
 40
1.0
 40
1.0
 40
1.0
 40
1.0
 10
98.2308346781724
 20
34.44257110674269
 30
0.0
 10
98.23083467817239
 20
35.00646342140473
 30
0.0
 10
98.23083467817239
 20
35.58359999485997
 30
0.0
 10
98.23083467817239
 20
36.74018598089421
 30
0.0
 10
98.23083467817239
 20
37.32196315642037
 30
0.0
 10
98.23083467817239
 20
38.49370419627071
 30
0.0
 10
98.23083467817237
 20
39.08735072573434
 30
0.0
 10
98.23083467817237
 20
40.24353908203923
 30
0.0
 10
98.23083467817237
 20
40.81076839200699
 30
0.0
 10
98.23083467817237
 20
41.37077433701823
 30
0.0
  0
SPLINE
  5
E6
330
1F
100
AcDbEntity
  8
0
  6
Continuous
 62
     7
370
    25
100
AcDbSpline
210
0.0
220
0.0
230
1.0
 70
    24
 71
     3
 72
    14
 73
    10
 74
     0
 42
0.000000001
 43
0.00000001
 40
0.0
 40
0.0
 40
0.0
 40
0.0
 40
0.4999999999999999
 40
0.4999999999999999
 40
0.6249999999999999
 40
0.6249999999999999
 40
0.7499999999999998
 40
0.7499999999999998
 40
1.0
 40
1.0
 40
1.0
 40
1.0
 10
104.2308346781725
 20
44.83487595215604
 30
0.0
 10
103.2511489830442
 20
44.2692541523525
 30
0.0
 10
102.2567858056567
 20
43.6951583042156
 30
0.0
 10
100.9815113453926
 20
42.95887825129146
 30
0.0
 10
100.7252568327642
 20
42.81092963944438
 30
0.0
 10
100.2183582914516
 20
42.51827163016575
 30
0.0
 10
99.96660846531026
 20
42.37292380027458
 30
0.0
 10
99.21584105366014
 20
41.93946803305959
 30
0.0
 10
98.72128807051638
 20
41.653937735113
 30
0.0
 10
98.23083467817233
 20
41.3707743370182
 30
0.0
  0
SPLINE
  5
E7
330
1F
100
AcDbEntity
  8
0
  6
Continuous
 62
     7
370
    25
100
AcDbSpline
210
0.0
220
0.0
230
1.0
 70
    24
 71
     3
 72
    14
 73
    10
 74
     0
 42
0.000000001
 43
0.00000001
 40
0.0
 40
0.0
 40
0.0
 40
0.0
 40
0.5000000000000003
 40
0.5000000000000003
 40
0.6250000000000003
 40
0.6250000000000003
 40
0.7500000000000002
 40
0.7500000000000002
 40
1.0
 40
1.0
 40
1.0
 40
1.0
 10
110.2308346781724
 20
41.37077433701827
 30
0.0
 10
109.2511489830441
 20
41.9363961368218
 30
0.0
 10
108.2567858056567
 20
42.51049198495869
 30
0.0
 10
106.9815113453926
 20
43.24677203788281
 30
0.0
 10
106.7252568327642
 20
43.39472064972988
 30
0.0
 10
106.2183582914516
 20
43.6873786590085
 30
0.0
 10
105.9666084653103
 20
43.83272648889966
 30
0.0
 10
105.2158410536602
 20
44.26618225611465
 30
0.0
 10
104.7212880705164
 20
44.55171255406123
 30
0.0
 10
104.2308346781723
 20
44.83487595215603
 30
0.0
  0
CIRCLE
  5
E8
330
1F
100
AcDbEntity
  8
0
  6
Continuous
 62
     7
370
    25
100
AcDbCircle
 10
104.2308346782
 20
37.9066727219
 30
0.0
 40
5.75
  0
INSERT
  5
F4
330
1F
100
AcDbEntity
  8
0
  6
Continuous
 62
     7
370
    18
100
AcDbBlockReference
  2
SW_CENTERMARKSYMBOL_0
 10
104.2308346782
 20
37.9066727219
 30
0.0
  0
INSERT
  5
100
330
1F
100
AcDbEntity
  8
0
  6
Continuous
 62
     7
370
    18
100
AcDbBlockReference
  2
SW_CENTERMARKSYMBOL_1
 10
104.2308346782
 20
37.9066727219
 30
0.0
  0
LINE
  5
101
330
1F
100
AcDbEntity
  8
0
  6
Continuous
 62
     7
370
    25
100
AcDbLine
 10
63.2682740924
 20
64.5432355951
 30
0.0
 11
63.1239365251
 21
64.2932355951
 31
0.0
  0
LINE
  5
102
330
1F
100
AcDbEntity
  8
0
  6
Continuous
 62
     7
370
    25
100
AcDbLine
 10
63.1239365251
 20
52.7932355951
 30
0.0
 11
63.2682740924
 21
52.5432355951
 31
0.0
  0
LINE
  5
103
330
1F
100
AcDbEntity
  8
0
  6
Continuous
 62
     7
370
    25
100
AcDbLine
 10
67.9795989578
 20
52.5432355951
 30
0.0
 11
68.1239365251
 21
52.7932355951
 31
0.0
  0
LINE
  5
104
330
1F
100
AcDbEntity
  8
0
  6
Continuous
 62
     7
370
    25
100
AcDbLine
 10
68.1239365251
 20
64.2932355951
 30
0.0
 11
67.9795989578
 21
64.5432355951
 31
0.0
  0
LINE
  5
105
330
1F
100
AcDbEntity
  8
0
  6
Continuous
 62
     7
370
    25
100
AcDbLine
 10
63.1239365251
 20
63.5644230951
 30
0.0
 11
55.4788845845
 21
63.3255152219
 31
0.0
  0
LINE
  5
106
330
1F
100
AcDbEntity
  8
0
  6
Continuous
 62
     7
370
    25
100
AcDbLine
 10
55.4788845845
 20
53.7609559682
 30
0.0
 11
63.1239365251
 21
53.5220480951
 31
0.0
  0
LINE
  5
107
330
1F
100
AcDbEntity
  8
0
  6
Continuous
 62
     7
370
    25
100
AcDbLine
 10
55.4788845845
 20
63.3255152219
 30
0.0
 11
54.1239365251
 21
62.5432355951
 31
0.0
  0
LINE
  5
108
330
1F
100
AcDbEntity
  8
0
  6
Continuous
 62
     7
370
    25
100
AcDbLine
 10
54.1239365251
 20
54.5432355951
 30
0.0
 11
55.4788845845
 21
53.7609559682
 31
0.0
  0
LINE
  5
109
330
1F
100
AcDbEntity
  8
0
  6
Continuous
 62
     7
370
    25
100
AcDbLine
 10
75.6239365251
 20
54.5432355951
 30
0.0
 11
79.6239365251
 21
55.1932355951
 31
0.0
  0
LINE
  5
10A
330
1F
100
AcDbEntity
  8
0
  6
Continuous
 62
     7
370
    25
100
AcDbLine
 10
79.6239365251
 20
61.8932355951
 30
0.0
 11
75.6239365251
 21
62.5432355951
 31
0.0
  0
LINE
  5
10B
330
1F
100
AcDbEntity
  8
0
  6
Continuous
 62
     7
370
    25
100
AcDbLine
 10
83.6239365251
 20
54.5432355951
 30
0.0
 11
87.6954169064
 21
55.1313383168
 31
0.0
  0
LINE
  5
10C
330
1F
100
AcDbEntity
  8
0
  6
Continuous
 62
     7
370
    25
100
AcDbLine
 10
87.6954169064
 20
61.9551328733
 30
0.0
 11
83.6239365251
 21
62.5432355951
 31
0.0
  0
LINE
  5
10D
330
1F
100
AcDbEntity
  8
0
  6
Continuous
 62
     7
370
    25
100
AcDbLine
 10
71.6239365251
 20
62.5432355951
 30
0.0
 11
68.1239365251
 21
62.5432355951
 31
0.0
  0
LINE
  5
10E
330
1F
100
AcDbEntity
  8
0
  6
Continuous
 62
     7
370
    25
100
AcDbLine
 10
68.1239365251
 20
54.5432355951
 30
0.0
 11
71.6239365251
 21
54.5432355951
 31
0.0
  0
LINE
  5
10F
330
1F
100
AcDbEntity
  8
0
  6
Continuous
 62
     7
370
    25
100
AcDbLine
 10
71.6239365251
 20
54.5432355951
 30
0.0
 11
75.6239365251
 21
55.1932355951
 31
0.0
  0
LINE
  5
110
330
1F
100
AcDbEntity
  8
0
  6
Continuous
 62
     7
370
    25
100
AcDbLine
 10
75.6239365251
 20
61.8932355951
 30
0.0
 11
71.6239365251
 21
62.5432355951
 31
0.0
  0
LINE
  5
111
330
1F
100
AcDbEntity
  8
0
  6
Continuous
 62
     7
370
    25
100
AcDbLine
 10
79.6239365251
 20
54.5432355951
 30
0.0
 11
83.6239365251
 21
55.1932355951
 31
0.0
  0
LINE
  5
112
330
1F
100
AcDbEntity
  8
0
  6
Continuous
 62
     7
370
    25
100
AcDbLine
 10
83.6239365251
 20
61.8932355951
 30
0.0
 11
79.6239365251
 21
62.5432355951
 31
0.0
  0
ARC
  5
113
330
1F
100
AcDbEntity
  8
0
  6
Continuous
 62
     7
370
    25
100
AcDbCircle
 10
87.6239365251
 20
61.4602686949
 30
0.0
 40
0.5000000000000003
100
AcDbArc
 50
0.0
 51
81.7807907511
  0
ARC
  5
114
330
1F
100
AcDbEntity
  8
0
  6
Continuous
 62
     7
370
    25
100
AcDbCircle
 10
87.6239365251
 20
55.6262024953
 30
0.0
 40
0.5
100
AcDbArc
 50
278.2192092489
 51
0.0
  0
SPLINE
  5
115
330
1F
100
AcDbEntity
  8
0
  6
Continuous
 62
     7
370
    25
100
AcDbSpline
210
0.0
220
0.0
230
1.0
 70
     8
 71
     3
 72
    14
 73
    10
 74
     0
 42
0.000000001
 43
0.00000001
 40
0.0
 40
0.0
 40
0.0
 40
0.0
 40
0.5000000000000003
 40
0.5000000000000003
 40
0.6250000000000003
 40
0.6250000000000003
 40
0.7500000000000002
 40
0.7500000000000002
 40
1.0
 40
1.0
 40
1.0
 40
1.0
 10
63.80417247723719
 20
64.54323559508575
 30
0.0
 10
63.4776105788611
 20
63.56354989995747
 30
0.0
 10
63.26902642734358
 20
62.56918672257002
 30
0.0
 10
63.26808864285521
 20
61.29391226230593
 30
0.0
 10
63.28061474924523
 20
61.03765774967751
 30
0.0
 10
63.3294597900205
 20
60.53075920836496
 30
0.0
 10
63.36572916807777
 20
60.27900938222358
 30
0.0
 10
63.5057818687369
 20
59.52824197057348
 30
0.0
 10
63.6406880131228
 20
59.03368898742971
 30
0.0
 10
63.80417247723748
 20
58.54323559508567
 30
0.0
  0
SPLINE
  5
116
330
1F
100
AcDbEntity
  8
0
  6
Continuous
 62
     7
370
    25
100
AcDbSpline
210
0.0
220
0.0
230
1.0
 70
     8
 71
     3
 72
    14
 73
    10
 74
     0
 42
0.000000001
 43
0.00000001
 40
0.0
 40
0.0
 40
0.0
 40
0.0
 40
0.4999999999999999
 40
0.4999999999999999
 40
0.6249999999999999
 40
0.6249999999999999
 40
0.7499999999999998
 40
0.7499999999999998
 40
1.0
 40
1.0
 40
1.0
 40
1.0
 10
63.80417247723719
 20
58.54323559508578
 30
0.0
 10
63.47761057886109
 20
57.56354989995749
 30
0.0
 10
63.26902642734357
 20
56.56918672257004
 30
0.0
 10
63.2680886428552
 20
55.29391226230594
 30
0.0
 10
63.28061474924522
 20
55.03765774967752
 30
0.0
 10
63.32945979002049
 20
54.53075920836496
 30
0.0
 10
63.36572916807776
 20
54.27900938222359
 30
0.0
 10
63.5057818687369
 20
53.52824197057348
 30
0.0
 10
63.6406880131228
 20
53.03368898742971
 30
0.0
 10
63.80417247723748
 20
52.54323559508565
 30
0.0
  0
SPLINE
  5
117
330
1F
100
AcDbEntity
  8
0
  6
Continuous
 62
     7
370
    25
100
AcDbSpline
210
0.0
220
0.0
230
1.0
 70
    24
 71
     3
 72
    13
 73
     9
 74
     0
 42
0.000000001
 43
0.00000001
 40
0.0
 40
0.0
 40
0.0
 40
0.0
 40
0.1860786003335929
 40
0.3724795848768403
 40
0.5601351062813932
 40
0.7483576858103148
 40
0.9979954374562114
 40
1.0
 40
1.0
 40
1.0
 40
1.0
 10
63.80417247723777
 20
52.5432355950857
 30
0.0
 10
63.74584386994558
 20
52.5432355950857
 30
0.0
 10
63.62908560009785
 20
52.5432355950857
 30
0.0
 10
63.48718641420177
 20
52.5432355950857
 30
0.0
 10
63.37354670347463
 20
52.54323559508571
 30
0.0
 10
63.29494848068705
 20
52.5432355950857
 30
0.0
 10
63.2561237088365
 20
52.54323559508575
 30
0.0
 10
63.26847110394345
 20
52.54323559508571
 30
0.0
 10
63.26856946230511
 20
52.54323559508571
 30
0.0
  0
SPLINE
  5
118
330
1F
100
AcDbEntity
  8
0
  6
Continuous
 62
     7
370
    25
100
AcDbSpline
210
0.0
220
0.0
230
1.0
 70
    24
 71
     3
 72
    12
 73
     8
 74
     0
 42
0.000000001
 43
0.00000001
 40
0.0
 40
0.0
 40
0.0
 40
0.0
 40
0.251698787508088
 40
0.4375021183522809
 40
0.6238957820467701
 40
0.8117634221975745
 40
1.0
 40
1.0
 40
1.0
 40
1.0
 10
63.26919434524106
 20
64.5432355950857
 30
0.0
 10
63.27596509678578
 20
64.5432355950857
 30
0.0
 10
63.28773399791152
 20
64.5432355950857
 30
0.0
 10
63.37424644051099
 20
64.54323559508569
 30
0.0
 10
63.48486863643036
 20
64.54323559508569
 30
0.0
 10
63.62744113076292
 20
64.54323559508568
 30
0.0
 10
63.7452235157219
 20
64.54323559508568
 30
0.0
 10
63.80417247723777
 20
64.54323559508568
 30
0.0
  0
LINE
  5
119
330
1F
100
AcDbEntity
  8
0
  6
Continuous
 62
     7
370
    25
100
AcDbLine
 10
63.1239365251
 20
64.2932355951
 30
0.0
 11
63.1239365251
 21
52.7932355951
 31
0.0
  0
LINE
  5
11A
330
1F
100
AcDbEntity
  8
0
  6
Continuous
 62
     7
370
    25
100
AcDbLine
 10
65.5435517673
 20
58.5432355951
 30
0.0
 11
63.8041724772
 21
58.5432355951
 31
0.0
  0
LINE
  5
11B
330
1F
100
AcDbEntity
  8
0
  6
Continuous
 62
     7
370
    25
100
AcDbLine
 10
65.5435517673
 20
64.5432355951
 30
0.0
 11
63.8041724772
 21
64.5432355951
 31
0.0
  0
SPLINE
  5
11C
330
1F
100
AcDbEntity
  8
0
  6
Continuous
 62
     7
370
    25
100
AcDbSpline
210
0.0
220
0.0
230
1.0
 70
     8
 71
     3
 72
     8
 73
     4
 74
     0
 42
0.000000001
 43
0.00000001
 40
0.0
 40
0.0
 40
0.0
 40
0.0
 40
1.0
 40
1.0
 40
1.0
 40
1.0
 10
65.62393652507811
 20
63.98245853413327
 30
0.0
 10
65.59931857846536
 20
64.16970126085396
 30
0.0
 10
65.57242250451445
 20
64.35661221634287
 30
0.0
 10
65.54355176734879
 20
64.54323559508568
 30
0.0
  0
SPLINE
  5
11D
330
1F
100
AcDbEntity
  8
0
  6
Continuous
 62
     7
370
    25
100
AcDbSpline
210
0.0
220
0.0
230
1.0
 70
     8
 71
     3
 72
     8
 73
     4
 74
     0
 42
0.000000001
 43
0.00000001
 40
0.0
 40
0.0
 40
0.0
 40
0.0
 40
1.0
 40
1.0
 40
1.0
 40
1.0
 10
65.70432128280746
 20
64.54323559508568
 30
0.0
 10
65.67543153415414
 20
64.3564893241549
 30
0.0
 10
65.64853749362338
 20
64.16957212662106
 30
0.0
 10
65.62393652507811
 20
63.98245853413327
 30
0.0
  0
LINE
  5
11E
330
1F
100
AcDbEntity
  8
0
  6
Continuous
 62
     7
370
    25
100
AcDbLine
 10
67.4437005729
 20
64.5432355951
 30
0.0
 11
65.7043212828
 21
64.5432355951
 31
0.0
  0
SPLINE
  5
11F
330
1F
100
AcDbEntity
  8
0
  6
Continuous
 62
     7
370
    25
100
AcDbSpline
210
0.0
220
0.0
230
1.0
 70
     8
 71
     3
 72
    14
 73
    10
 74
     0
 42
0.000000001
 43
0.00000001
 40
0.0
 40
0.0
 40
0.0
 40
0.0
 40
0.5000000000000003
 40
0.5000000000000003
 40
0.6250000000000003
 40
0.6250000000000003
 40
0.7500000000000002
 40
0.7500000000000002
 40
1.0
 40
1.0
 40
1.0
 40
1.0
 10
67.44370057291906
 20
64.54323559508575
 30
0.0
 10
67.77026247129514
 20
63.56354989995747
 30
0.0
 10
67.97884662281265
 20
62.56918672257002
 30
0.0
 10
67.97978440730103
 20
61.29391226230593
 30
0.0
 10
67.96725830091101
 20
61.03765774967751
 30
0.0
 10
67.91841326013574
 20
60.53075920836496
 30
0.0
 10
67.88214388207847
 20
60.27900938222358
 30
0.0
 10
67.74209118141934
 20
59.52824197057348
 30
0.0
 10
67.60718503703345
 20
59.03368898742971
 30
0.0
 10
67.44370057291876
 20
58.54323559508567
 30
0.0
  0
LINE
  5
120
330
1F
100
AcDbEntity
  8
0
  6
Continuous
 62
     7
370
    25
100
AcDbLine
 10
67.4437005729
 20
58.5432355951
 30
0.0
 11
65.7043212828
 21
58.5432355951
 31
0.0
  0
SPLINE
  5
121
330
1F
100
AcDbEntity
  8
0
  6
Continuous
 62
     7
370
    25
100
AcDbSpline
210
0.0
220
0.0
230
1.0
 70
     8
 71
     3
 72
     8
 73
     4
 74
     0
 42
0.000000001
 43
0.00000001
 40
0.0
 40
0.0
 40
0.0
 40
0.0
 40
1.0
 40
1.0
 40
1.0
 40
1.0
 10
65.62393652507811
 20
59.10401265603812
 30
0.0
 10
65.64855447169087
 20
58.91676992931744
 30
0.0
 10
65.6754505456418
 20
58.72985897382853
 30
0.0
 10
65.70432128280746
 20
58.54323559508571
 30
0.0
  0
SPLINE
  5
122
330
1F
100
AcDbEntity
  8
0
  6
Continuous
 62
     7
370
    25
100
AcDbSpline
210
0.0
220
0.0
230
1.0
 70
     8
 71
     3
 72
     8
 73
     4
 74
     0
 42
0.000000001
 43
0.00000001
 40
0.0
 40
0.0
 40
0.0
 40
0.0
 40
1.0
 40
1.0
 40
1.0
 40
1.0
 10
65.54355176734879
 20
58.54323559508571
 30
0.0
 10
65.5724415160021
 20
58.72998186601651
 30
0.0
 10
65.59933555653285
 20
58.91689906355031
 30
0.0
 10
65.62393652507811
 20
59.10401265603812
 30
0.0
  0
SPLINE
  5
123
330
1F
100
AcDbEntity
  8
0
  6
Continuous
 62
     7
370
    25
100
AcDbSpline
210
0.0
220
0.0
230
1.0
 70
    24
 71
     3
 72
    12
 73
     8
 74
     0
 42
0.000000001
 43
0.00000001
 40
0.0
 40
0.0
 40
0.0
 40
0.0
 40
0.251698787508088
 40
0.4375021183522809
 40
0.6238957820467701
 40
0.8117634221975745
 40
1.0
 40
1.0
 40
1.0
 40
1.0
 10
67.97867870491518
 20
64.5432355950857
 30
0.0
 10
67.97190795337046
 20
64.5432355950857
 30
0.0
 10
67.96013905224473
 20
64.5432355950857
 30
0.0
 10
67.87362660964526
 20
64.54323559508569
 30
0.0
 10
67.7630044137259
 20
64.54323559508569
 30
0.0
 10
67.62043191939333
 20
64.54323559508568
 30
0.0
 10
67.50264953443434
 20
64.54323559508568
 30
0.0
 10
67.44370057291847
 20
64.54323559508568
 30
0.0
  0
SPLINE
  5
124
330
1F
100
AcDbEntity
  8
0
  6
Continuous
 62
     7
370
    25
100
AcDbSpline
210
0.0
220
0.0
230
1.0
 70
    24
 71
     3
 72
    13
 73
     9
 74
     0
 42
0.000000001
 43
0.00000001
 40
0.0
 40
0.0
 40
0.0
 40
0.0
 40
0.186078600333593
 40
0.3724795848768402
 40
0.5601351062813931
 40
0.7483576858103147
 40
0.9979954374562114
 40
0.9999999999999999
 40
0.9999999999999999
 40
0.9999999999999999
 40
0.9999999999999999
 10
67.44370057291847
 20
52.5432355950857
 30
0.0
 10
67.50202918021066
 20
52.5432355950857
 30
0.0
 10
67.61878745005839
 20
52.5432355950857
 30
0.0
 10
67.76068663595447
 20
52.5432355950857
 30
0.0
 10
67.87432634668161
 20
52.54323559508571
 30
0.0
 10
67.95292456946922
 20
52.5432355950857
 30
0.0
 10
67.99174934131968
 20
52.54323559508575
 30
0.0
 10
67.97940194621279
 20
52.54323559508571
 30
0.0
 10
67.97930358785113
 20
52.54323559508571
 30
0.0
  0
SPLINE
  5
125
330
1F
100
AcDbEntity
  8
0
  6
Continuous
 62
     7
370
    25
100
AcDbSpline
210
0.0
220
0.0
230
1.0
 70
     8
 71
     3
 72
    14
 73
    10
 74
     0
 42
0.000000001
 43
0.00000001
 40
0.0
 40
0.0
 40
0.0
 40
0.0
 40
0.4999999999999999
 40
0.4999999999999999
 40
0.6249999999999999
 40
0.6249999999999999
 40
0.7499999999999998
 40
0.7499999999999998
 40
1.0
 40
1.0
 40
1.0
 40
1.0
 10
67.44370057291906
 20
58.54323559508578
 30
0.0
 10
67.77026247129515
 20
57.56354989995749
 30
0.0
 10
67.97884662281267
 20
56.56918672257004
 30
0.0
 10
67.97978440730104
 20
55.29391226230594
 30
0.0
 10
67.96725830091103
 20
55.03765774967752
 30
0.0
 10
67.91841326013575
 20
54.53075920836496
 30
0.0
 10
67.88214388207848
 20
54.27900938222359
 30
0.0
 10
67.74209118141935
 20
53.52824197057348
 30
0.0
 10
67.60718503703345
 20
53.03368898742971
 30
0.0
 10
67.44370057291876
 20
52.54323559508565
 30
0.0
  0
LINE
  5
126
330
1F
100
AcDbEntity
  8
0
  6
Continuous
 62
     7
370
    25
100
AcDbLine
 10
68.1239365251
 20
64.2932355951
 30
0.0
 11
68.1239365251
 21
52.7932355951
 31
0.0
  0
SPLINE
  5
127
330
1F
100
AcDbEntity
  8
0
  6
Continuous
 62
     7
370
    25
100
AcDbSpline
210
0.0
220
0.0
230
1.0
 70
     8
 71
     3
 72
     8
 73
     4
 74
     0
 42
0.000000001
 43
0.00000001
 40
0.0
 40
0.0
 40
0.0
 40
0.0
 40
1.0
 40
1.0
 40
1.0
 40
1.0
 10
65.70432128280746
 20
58.54323559508571
 30
0.0
 10
65.67543153415414
 20
58.35648932415491
 30
0.0
 10
65.64853749362338
 20
58.16957212662112
 30
0.0
 10
65.62393652507811
 20
57.98245853413331
 30
0.0
  0
LINE
  5
128
330
1F
100
AcDbEntity
  8
0
  6
Continuous
 62
     7
370
    25
100
AcDbLine
 10
65.6239365251
 20
57.9824585341
 30
0.0
 11
65.6239365251
 21
59.104012656
 31
0.0
  0
SPLINE
  5
129
330
1F
100
AcDbEntity
  8
0
  6
Continuous
 62
     7
370
    25
100
AcDbSpline
210
0.0
220
0.0
230
1.0
 70
     8
 71
     3
 72
     8
 73
     4
 74
     0
 42
0.000000001
 43
0.00000001
 40
0.0
 40
0.0
 40
0.0
 40
0.0
 40
1.0
 40
1.0
 40
1.0
 40
1.0
 10
65.62393652507811
 20
57.98245853413331
 30
0.0
 10
65.59931857846536
 20
58.169701260854
 30
0.0
 10
65.57242250451445
 20
58.3566122163429
 30
0.0
 10
65.54355176734879
 20
58.54323559508571
 30
0.0
  0
LINE
  5
12A
330
1F
100
AcDbEntity
  8
0
  6
Continuous
 62
     7
370
    25
100
AcDbLine
 10
65.5435517673
 20
52.5432355951
 30
0.0
 11
63.8041724772
 21
52.5432355951
 31
0.0
  0
LINE
  5
12B
330
1F
100
AcDbEntity
  8
0
  6
Continuous
 62
     7
370
    25
100
AcDbLine
 10
67.4437005729
 20
52.5432355951
 30
0.0
 11
65.7043212828
 21
52.5432355951
 31
0.0
  0
SPLINE
  5
12C
330
1F
100
AcDbEntity
  8
0
  6
Continuous
 62
     7
370
    25
100
AcDbSpline
210
0.0
220
0.0
230
1.0
 70
     8
 71
     3
 72
     8
 73
     4
 74
     0
 42
0.000000001
 43
0.00000001
 40
0.0
 40
0.0
 40
0.0
 40
0.0
 40
1.0
 40
1.0
 40
1.0
 40
1.0
 10
65.62393652507811
 20
53.1040126560381
 30
0.0
 10
65.64855447169087
 20
52.91676992931742
 30
0.0
 10
65.6754505456418
 20
52.72985897382851
 30
0.0
 10
65.70432128280746
 20
52.5432355950857
 30
0.0
  0
SPLINE
  5
12D
330
1F
100
AcDbEntity
  8
0
  6
Continuous
 62
     7
370
    25
100
AcDbSpline
210
0.0
220
0.0
230
1.0
 70
     8
 71
     3
 72
     8
 73
     4
 74
     0
 42
0.000000001
 43
0.00000001
 40
0.0
 40
0.0
 40
0.0
 40
0.0
 40
1.0
 40
1.0
 40
1.0
 40
1.0
 10
65.54355176734879
 20
52.5432355950857
 30
0.0
 10
65.5724415160021
 20
52.72998186601649
 30
0.0
 10
65.59933555653285
 20
52.9168990635503
 30
0.0
 10
65.62393652507811
 20
53.10401265603809
 30
0.0
  0
LINE
  5
12E
330
1F
100
AcDbEntity
  8
0
  6
Continuous
 62
     7
370
    25
100
AcDbLine
 10
55.4788845845
 20
63.3255152219
 30
0.0
 11
55.4788845845
 21
53.7609559682
 31
0.0
  0
LINE
  5
12F
330
1F
100
AcDbEntity
  8
0
  6
Continuous
 62
     7
370
    25
100
AcDbLine
 10
54.1239365251
 20
54.5432355951
 30
0.0
 11
54.1239365251
 21
62.5432355951
 31
0.0
  0
LINE
  5
130
330
1F
100
AcDbEntity
  8
0
  6
Continuous
 62
     7
370
    25
100
AcDbLine
 10
75.6239365251
 20
58.5432355951
 30
0.0
 11
75.6239365251
 21
54.5432355951
 31
0.0
  0
LINE
  5
131
330
1F
100
AcDbEntity
  8
0
  6
Continuous
 62
     7
370
    25
100
AcDbLine
 10
75.6239365251
 20
62.5432355951
 30
0.0
 11
75.6239365251
 21
58.5432355951
 31
0.0
  0
LINE
  5
132
330
1F
100
AcDbEntity
  8
0
  6
Continuous
 62
     7
370
    25
100
AcDbLine
 10
83.6239365251
 20
58.5432355951
 30
0.0
 11
83.6239365251
 21
54.5432355951
 31
0.0
  0
LINE
  5
133
330
1F
100
AcDbEntity
  8
0
  6
Continuous
 62
     7
370
    25
100
AcDbLine
 10
83.6239365251
 20
62.5432355951
 30
0.0
 11
83.6239365251
 21
58.5432355951
 31
0.0
  0
LINE
  5
134
330
1F
100
AcDbEntity
  8
0
  6
Continuous
 62
     7
370
    25
100
AcDbLine
 10
71.6239365251
 20
58.5432355951
 30
0.0
 11
71.6239365251
 21
54.5432355951
 31
0.0
  0
LINE
  5
135
330
1F
100
AcDbEntity
  8
0
  6
Continuous
 62
     7
370
    25
100
AcDbLine
 10
71.6239365251
 20
62.5432355951
 30
0.0
 11
71.6239365251
 21
58.5432355951
 31
0.0
  0
LINE
  5
136
330
1F
100
AcDbEntity
  8
0
  6
Continuous
 62
     7
370
    25
100
AcDbLine
 10
79.6239365251
 20
58.5432355951
 30
0.0
 11
79.6239365251
 21
54.5432355951
 31
0.0
  0
LINE
  5
137
330
1F
100
AcDbEntity
  8
0
  6
Continuous
 62
     7
370
    25
100
AcDbLine
 10
79.6239365251
 20
62.5432355951
 30
0.0
 11
79.6239365251
 21
58.5432355951
 31
0.0
  0
SPLINE
  5
138
330
1F
100
AcDbEntity
  8
0
  6
Continuous
 62
     7
370
    25
100
AcDbSpline
210
0.0
220
0.0
230
1.0
 70
    24
 71
     3
 72
     8
 73
     4
 74
     0
 42
0.000000001
 43
0.00000001
 40
0.0
 40
0.0
 40
0.0
 40
0.0
 40
1.0
 40
1.0
 40
1.0
 40
1.0
 10
65.54355176734879
 20
64.54323559508568
 30
0.0
 10
65.57244430545765
 20
64.54323559508568
 30
0.0
 10
65.59933804378748
 20
64.54323559508568
 30
0.0
 10
65.62393652507811
 20
64.54323559508568
 30
0.0
  0
LINE
  5
139
330
1F
100
AcDbEntity
  8
0
  6
Continuous
 62
     7
370
    25
100
AcDbLine
 10
65.6239365251
 20
63.9824585341
 30
0.0
 11
65.6239365251
 21
64.5432355951
 31
0.0
  0
SPLINE
  5
13A
330
1F
100
AcDbEntity
  8
0
  6
Continuous
 62
     7
370
    25
100
AcDbSpline
210
0.0
220
0.0
230
1.0
 70
    24
 71
     3
 72
     8
 73
     4
 74
     0
 42
0.000000001
 43
0.00000001
 40
0.0
 40
0.0
 40
0.0
 40
0.0
 40
1.0
 40
1.0
 40
1.0
 40
1.0
 10
65.62393652507811
 20
64.54323559508568
 30
0.0
 10
65.64855359740761
 20
64.54323559508568
 30
0.0
 10
65.67544956789898
 20
64.54323559508568
 30
0.0
 10
65.70432128280746
 20
64.54323559508568
 30
0.0
  0
SPLINE
  5
13B
330
1F
100
AcDbEntity
  8
0
  6
Continuous
 62
     7
370
    25
100
AcDbSpline
210
0.0
220
0.0
230
1.0
 70
    24
 71
     3
 72
     8
 73
     4
 74
     0
 42
0.000000001
 43
0.00000001
 40
0.0
 40
0.0
 40
0.0
 40
0.0
 40
1.0
 40
1.0
 40
1.0
 40
1.0
 10
65.62393652507811
 20
52.5432355950857
 30
0.0
 10
65.59931945274863
 20
52.5432355950857
 30
0.0
 10
65.57242348225726
 20
52.5432355950857
 30
0.0
 10
65.54355176734879
 20
52.5432355950857
 30
0.0
  0
LINE
  5
13C
330
1F
100
AcDbEntity
  8
0
  6
Continuous
 62
     7
370
    25
100
AcDbLine
 10
65.6239365251
 20
52.5432355951
 30
0.0
 11
65.6239365251
 21
53.104012656
 31
0.0
  0
SPLINE
  5
13D
330
1F
100
AcDbEntity
  8
0
  6
Continuous
 62
     7
370
    25
100
AcDbSpline
210
0.0
220
0.0
230
1.0
 70
    24
 71
     3
 72
     8
 73
     4
 74
     0
 42
0.000000001
 43
0.00000001
 40
0.0
 40
0.0
 40
0.0
 40
0.0
 40
1.0
 40
1.0
 40
1.0
 40
1.0
 10
65.70432128280746
 20
52.5432355950857
 30
0.0
 10
65.67542874469859
 20
52.5432355950857
 30
0.0
 10
65.64853500636876
 20
52.5432355950857
 30
0.0
 10
65.62393652507811
 20
52.5432355950857
 30
0.0
  0
LINE
  5
13E
330
1F
100
AcDbEntity
  8
0
  6
Continuous
 62
     7
370
    25
100
AcDbLine
 10
88.1239365251
 20
58.5432355951
 30
0.0
 11
88.1239365251
 21
55.6262024953
 31
0.0
  0
LINE
  5
13F
330
1F
100
AcDbEntity
  8
0
  6
Continuous
 62
     7
370
    25
100
AcDbLine
 10
88.1239365251
 20
61.4602686949
 30
0.0
 11
88.1239365251
 21
58.5432355951
 31
0.0
  0
LINE
  5
140
330
1F
100
AcDbEntity
  8
0
  6
Continuous
 62
     8
370
    25
100
AcDbLine
 10
87.6954169064
 20
58.5432355951
 30
0.0
 11
87.6954169064
 21
61.9551328733
 31
0.0
  0
LINE
  5
141
330
1F
100
AcDbEntity
  8
0
  6
Continuous
 62
     8
370
    25
100
AcDbLine
 10
87.6954169064
 20
55.1313383168
 30
0.0
 11
87.6954169064
 21
58.5432355951
 31
0.0
  0
LINE
  5
142
330
1F
100
AcDbEntity
  8
0
  6
Continuous
 62
     7
370
    18
100
AcDbLine
 10
54.6421563758
 20
62.8424299654
 30
0.0
 11
62.6239365251
 21
63.0918605951
 31
0.0
  0
LINE
  5
143
330
1F
100
AcDbEntity
  8
0
  6
Continuous
 62
     7
370
    18
100
AcDbLine
 10
54.6421563758
 20
54.2440412247
 30
0.0
 11
62.6239365251
 21
53.9946105951
 31
0.0
  0
LINE
  5
144
330
1F
100
AcDbEntity
  8
0
  6
Continuous
 62
     7
370
    18
100
AcDbLine
 10
62.6239365251
 20
53.5376730951
 30
0.0
 11
62.6239365251
 21
63.5487980951
 31
0.0
  0
LINE
  5
145
330
1F
100
AcDbEntity
  8
0
  6
CENTERX2
 62
     7
370
    18
100
AcDbLine
 10
89.1239365251
 20
58.5432355951
 30
0.0
 11
53.1005694204
 21
58.5432355951
 31
0.0
  0
ENDSEC
  0
SECTION
  2
OBJECTS
  0
DICTIONARY
  5
C
330
0
100
AcDbDictionary
281
     1
  3
ACAD_GROUP
350
D
  3
ACAD_LAYOUT
350
1A
  3
ACAD_MLINESTYLE
350
17
  3
ACAD_PLOTSETTINGS
350
19
  3
ACAD_PLOTSTYLENAME
350
E
  3
ACAD_SCALELIST
350
47
  0
DICTIONARY
  5
D
102
{ACAD_REACTORS
330
C
102
}
330
C
100
AcDbDictionary
281
     1
  0
DICTIONARY
  5
1A
102
{ACAD_REACTORS
330
C
102
}
330
C
100
AcDbDictionary
281
     1
  3
Layout1
350
1E
  3
Layout2
350
26
  3
Model
350
22
  0
DICTIONARY
  5
17
102
{ACAD_REACTORS
330
C
102
}
330
C
100
AcDbDictionary
281
     1
  3
Standard
350
18
  0
DICTIONARY
  5
19
102
{ACAD_REACTORS
330
C
102
}
330
C
100
AcDbDictionary
281
     1
  0
ACDBDICTIONARYWDFLT
  5
E
102
{ACAD_REACTORS
330
C
102
}
330
C
100
AcDbDictionary
281
     1
  3
Normal
350
F
100
AcDbDictionaryWithDefault
340
F
  0
DICTIONARY
  5
47
102
{ACAD_REACTORS
330
C
102
}
330
C
100
AcDbDictionary
281
     1
  3
A0
350
48
  3
A1
350
49
  3
A2
350
4A
  3
A3
350
4B
  3
A4
350
4C
  3
A5
350
4D
  3
A6
350
4E
  3
A7
350
4F
  3
A8
350
50
  3
A9
350
51
  3
B0
350
52
  3
B1
350
53
  3
B2
350
54
  3
B3
350
55
  3
B4
350
56
  3
B5
350
57
  3
B6
350
58
  3
B7
350
59
  3
B8
350
5A
  3
B9
350
5B
  3
C0
350
5C
  3
C1
350
5D
  3
C2
350
5E
  3
C3
350
5F
  3
C4
350
60
  3
C5
350
61
  3
C6
350
62
  3
C7
350
63
  3
C8
350
64
  3
C9
350
65
  3
D0
350
66
  3
D1
350
67
  3
D2
350
68
  0
LAYOUT
  5
1E
102
{ACAD_REACTORS
330
1A
102
}
330
1A
100
AcDbPlotSettings
  1

  2
none_device
  4

  6

 40
0.0
 41
0.0
 42
0.0
 43
0.0
 44
0.0
 45
0.0
 46
0.0
 47
0.0
 48
0.0
 49
0.0
140
0.0
141
0.0
142
1.0
143
1.0
 70
   688
 72
     1
 73
     0
 74
     5
  7

 75
    16
147
1.0
148
0.0
149
0.0
100
AcDbLayout
  1
Layout1
 70
     1
 71
     1
 10
0.0
 20
0.0
 11
420.0
 21
297.0
 12
0.0
 22
0.0
 32
0.0
 14
1.0000000000E+20
 24
1.0000000000E+20
 34
1.0000000000E+20
 15
-1.0000000000E+20
 25
-1.0000000000E+20
 35
-1.0000000000E+20
146
0.0
 13
0.0
 23
0.0
 33
0.0
 16
1.0
 26
0.0
 36
0.0
 17
0.0
 27
1.0
 37
0.0
 76
     0
330
1B
  0
LAYOUT
  5
26
102
{ACAD_REACTORS
330
1A
102
}
330
1A
100
AcDbPlotSettings
  1

  2
none_device
  4

  6

 40
0.0
 41
0.0
 42
0.0
 43
0.0
 44
0.0
 45
0.0
 46
0.0
 47
0.0
 48
0.0
 49
0.0
140
0.0
141
0.0
142
1.0
143
1.0
 70
   688
 72
     1
 73
     0
 74
     5
  7

 75
    16
147
1.0
148
0.0
149
0.0
100
AcDbLayout
  1
Layout2
 70
     1
 71
     2
 10
0.0
 20
0.0
 11
0.0
 21
0.0
 12
0.0
 22
0.0
 32
0.0
 14
0.0
 24
0.0
 34
0.0
 15
0.0
 25
0.0
 35
0.0
146
0.0
 13
0.0
 23
0.0
 33
0.0
 16
1.0
 26
0.0
 36
0.0
 17
0.0
 27
1.0
 37
0.0
 76
     0
330
23
  0
LAYOUT
  5
22
102
{ACAD_REACTORS
330
1A
102
}
330
1A
100
AcDbPlotSettings
  1

  2
none_device
  4
Letter_(8.50_x_11.00_Inches)
  6

 40
6.35
 41
6.35
 42
6.35000508
 43
6.35000508
 44
215.9
 45
279.4
 46
0.0
 47
0.0
 48
0.0
 49
0.0
140
0.0
141
0.0
142
1.0
143
1.0
 70
  1712
 72
     1
 73
     0
 74
     0
  7

 75
     0
147
1.0
148
0.0
149
0.0
100
AcDbLayout
  1
Model
 70
     1
 71
     0
 10
0.0
 20
0.0
 11
215.9
 21
139.7
 12
0.0
 22
0.0
 32
0.0
 14
0.0
 24
0.0
 34
0.0
 15
215.9
 25
139.7
 35
0.0
146
0.0
 13
0.0
 23
0.0
 33
0.0
 16
1.0
 26
0.0
 36
0.0
 17
0.0
 27
1.0
 37
0.0
 76
     0
330
1F
331
29
  0
MLINESTYLE
  5
18
102
{ACAD_REACTORS
330
17
102
}
330
17
100
AcDbMlineStyle
  2
Standard
 70
     0
  3

 62
   256
 51
90.0
 52
90.0
 71
     2
 49
0.5
 62
   256
  6
BYLAYER
 49
-0.5
 62
   256
  6
BYLAYER
  0
ACDBPLACEHOLDER
  5
F
102
{ACAD_REACTORS
330
E
102
}
330
E
  0
SCALE
  5
48
102
{ACAD_REACTORS
330
47
102
}
330
47
100
AcDbScale
 70
     0
300
1:1
140
1.0
141
1.0
290
     1
  0
SCALE
  5
49
102
{ACAD_REACTORS
330
47
102
}
330
47
100
AcDbScale
 70
     0
300
1:2
140
1.0
141
2.0
290
     0
  0
SCALE
  5
4A
102
{ACAD_REACTORS
330
47
102
}
330
47
100
AcDbScale
 70
     0
300
1:4
140
1.0
141
4.0
290
     0
  0
SCALE
  5
4B
102
{ACAD_REACTORS
330
47
102
}
330
47
100
AcDbScale
 70
     0
300
1:5
140
1.0
141
5.0
290
     0
  0
SCALE
  5
4C
102
{ACAD_REACTORS
330
47
102
}
330
47
100
AcDbScale
 70
     0
300
1:8
140
1.0
141
8.0
290
     0
  0
SCALE
  5
4D
102
{ACAD_REACTORS
330
47
102
}
330
47
100
AcDbScale
 70
     0
300
1:10
140
1.0
141
10.0
290
     0
  0
SCALE
  5
4E
102
{ACAD_REACTORS
330
47
102
}
330
47
100
AcDbScale
 70
     0
300
1:16
140
1.0
141
16.0
290
     0
  0
SCALE
  5
4F
102
{ACAD_REACTORS
330
47
102
}
330
47
100
AcDbScale
 70
     0
300
1:20
140
1.0
141
20.0
290
     0
  0
SCALE
  5
50
102
{ACAD_REACTORS
330
47
102
}
330
47
100
AcDbScale
 70
     0
300
1:30
140
1.0
141
30.0
290
     0
  0
SCALE
  5
51
102
{ACAD_REACTORS
330
47
102
}
330
47
100
AcDbScale
 70
     0
300
1:40
140
1.0
141
40.0
290
     0
  0
SCALE
  5
52
102
{ACAD_REACTORS
330
47
102
}
330
47
100
AcDbScale
 70
     0
300
1:50
140
1.0
141
50.0
290
     0
  0
SCALE
  5
53
102
{ACAD_REACTORS
330
47
102
}
330
47
100
AcDbScale
 70
     0
300
1:100
140
1.0
141
100.0
290
     0
  0
SCALE
  5
54
102
{ACAD_REACTORS
330
47
102
}
330
47
100
AcDbScale
 70
     0
300
2:1
140
2.0
141
1.0
290
     0
  0
SCALE
  5
55
102
{ACAD_REACTORS
330
47
102
}
330
47
100
AcDbScale
 70
     0
300
4:1
140
4.0
141
1.0
290
     0
  0
SCALE
  5
56
102
{ACAD_REACTORS
330
47
102
}
330
47
100
AcDbScale
 70
     0
300
8:1
140
8.0
141
1.0
290
     0
  0
SCALE
  5
57
102
{ACAD_REACTORS
330
47
102
}
330
47
100
AcDbScale
 70
     0
300
10:1
140
10.0
141
1.0
290
     0
  0
SCALE
  5
58
102
{ACAD_REACTORS
330
47
102
}
330
47
100
AcDbScale
 70
     0
300
100:1
140
100.0
141
1.0
290
     0
  0
SCALE
  5
59
102
{ACAD_REACTORS
330
47
102
}
330
47
100
AcDbScale
 70
     0
300
1/128" = 1'-0"
140
0.0078125
141
12.0
290
     0
  0
SCALE
  5
5A
102
{ACAD_REACTORS
330
47
102
}
330
47
100
AcDbScale
 70
     0
300
1/64" = 1'-0"
140
0.015625
141
12.0
290
     0
  0
SCALE
  5
5B
102
{ACAD_REACTORS
330
47
102
}
330
47
100
AcDbScale
 70
     0
300
1/32" = 1'-0"
140
0.03125
141
12.0
290
     0
  0
SCALE
  5
5C
102
{ACAD_REACTORS
330
47
102
}
330
47
100
AcDbScale
 70
     0
300
1/16" = 1'-0"
140
0.0625
141
12.0
290
     0
  0
SCALE
  5
5D
102
{ACAD_REACTORS
330
47
102
}
330
47
100
AcDbScale
 70
     0
300
3/32" = 1'-0"
140
0.09375
141
12.0
290
     0
  0
SCALE
  5
5E
102
{ACAD_REACTORS
330
47
102
}
330
47
100
AcDbScale
 70
     0
300
1/8" = 1'-0"
140
0.125
141
12.0
290
     0
  0
SCALE
  5
5F
102
{ACAD_REACTORS
330
47
102
}
330
47
100
AcDbScale
 70
     0
300
3/16" = 1'-0"
140
0.1875
141
12.0
290
     0
  0
SCALE
  5
60
102
{ACAD_REACTORS
330
47
102
}
330
47
100
AcDbScale
 70
     0
300
1/4" = 1'-0"
140
0.25
141
12.0
290
     0
  0
SCALE
  5
61
102
{ACAD_REACTORS
330
47
102
}
330
47
100
AcDbScale
 70
     0
300
3/8" = 1'-0"
140
0.375
141
12.0
290
     0
  0
SCALE
  5
62
102
{ACAD_REACTORS
330
47
102
}
330
47
100
AcDbScale
 70
     0
300
1/2" = 1'-0"
140
0.5
141
12.0
290
     0
  0
SCALE
  5
63
102
{ACAD_REACTORS
330
47
102
}
330
47
100
AcDbScale
 70
     0
300
3/4" = 1'-0"
140
0.75
141
12.0
290
     0
  0
SCALE
  5
64
102
{ACAD_REACTORS
330
47
102
}
330
47
100
AcDbScale
 70
     0
300
1" = 1'-0"
140
1.0
141
12.0
290
     0
  0
SCALE
  5
65
102
{ACAD_REACTORS
330
47
102
}
330
47
100
AcDbScale
 70
     0
300
1-1/2" = 1'-0"
140
1.5
141
12.0
290
     0
  0
SCALE
  5
66
102
{ACAD_REACTORS
330
47
102
}
330
47
100
AcDbScale
 70
     0
300
3" = 1'-0"
140
3.0
141
12.0
290
     0
  0
SCALE
  5
67
102
{ACAD_REACTORS
330
47
102
}
330
47
100
AcDbScale
 70
     0
300
6" = 1'-0"
140
6.0
141
12.0
290
     0
  0
SCALE
  5
68
102
{ACAD_REACTORS
330
47
102
}
330
47
100
AcDbScale
 70
     0
300
1'-0" = 1'-0"
140
12.0
141
12.0
290
     0
  0
ENDSEC
  0
EOF
