  0
SECTION
  2
HEADER
  9
$ACADVER
  1
AC1015
  9
$ACADMAINTVER
 70
     6
  9
$DWGCODEPAGE
  3
DOS932
  9
$INSBASE
 10
0.0
 20
0.0
 30
0.0
  9
$EXTMIN
 10
0.0
 20
0.0
 30
0.0
  9
$EXTMAX
 10
215.9
 20
139.7
 30
0.0
  9
$LIMMIN
 10
0.0
 20
0.0
  9
$LIMMAX
 10
215.9
 20
139.7
  9
$ORTHOMODE
 70
     0
  9
$REGENMODE
 70
     1
  9
$FILLMODE
 70
     1
  9
$QTEXTMODE
 70
     0
  9
$MIRRTEXT
 70
     1
  9
$LTSCALE
 40
0.5
  9
$ATTMODE
 70
     1
  9
$TEXTSIZE
 40
1.75
  9
$TRACEWID
 40
1.0
  9
$TEXTSTYLE
  7
Standard
  9
$CLAYER
  8
0
  9
$CELTYPE
  6
ByLayer
  9
$CECOLOR
 62
   256
  9
$CELTSCALE
 40
1.0
  9
$DISPSILH
 70
     0
  9
$DIMSCALE
 40
1.0
  9
$DIMASZ
 40
1.651
  9
$DIMEXO
 40
0.5
  9
$DIMDLI
 40
3.75
  9
$DIMRND
 40
0.0
  9
$DIMDLE
 40
0.0
  9
$DIMEXE
 40
0.5
  9
$DIMTP
 40
0.0
  9
$DIMTM
 40
0.0
  9
$DIMTXT
 40
1.75
  9
$DIMCEN
 40
2.5
  9
$DIMTSZ
 40
0.0
  9
$DIMTOL
 70
     0
  9
$DIMLIM
 70
     0
  9
$DIMTIH
 70
     1
  9
$DIMTOH
 70
     1
  9
$DIMSE1
 70
     0
  9
$DIMSE2
 70
     0
  9
$DIMTAD
 70
     1
  9
$DIMZIN
 70
     1
  9
$DIMBLK
  1

  9
$DIMASO
 70
     1
  9
$DIMSHO
 70
     1
  9
$DIMPOST
  1

  9
$DIMAPOST
  1

  9
$DIMALT
 70
     0
  9
$DIMALTD
 70
     3
  9
$DIMALTF
 40
0.0393700787
  9
$DIMLFAC
 40
1.0
  9
$DIMTOFL
 70
     1
  9
$DIMTVP
 40
0.0
  9
$DIMTIX
 70
     0
  9
$DIMSOXD
 70
     0
  9
$DIMSAH
 70
     0
  9
$DIMBLK1
  1

  9
$DIMBLK2
  1

  9
$DIMSTYLE
  2
ISO-25
  9
$DIMCLRD
 70
     0
  9
$DIMCLRE
 70
     0
  9
$DIMCLRT
 70
     0
  9
$DIMTFAC
 40
1.0
  9
$DIMGAP
 40
0.762
  9
$DIMJUST
 70
     0
  9
$DIMSD1
 70
     0
  9
$DIMSD2
 70
     0
  9
$DIMTOLJ
 70
     0
  9
$DIMTZIN
 70
     1
  9
$DIMALTZ
 70
     0
  9
$DIMALTTZ
 70
     0
  9
$DIMUPT
 70
     0
  9
$DIMDEC
 70
     2
  9
$DIMTDEC
 70
     2
  9
$DIMALTU
 70
     2
  9
$DIMALTTD
 70
     3
  9
$DIMTXSTY
  7
Standard
  9
$DIMAUNIT
 70
     0
  9
$DIMADEC
 70
     2
  9
$DIMALTRND
 40
0.0
  9
$DIMAZIN
 70
     0
  9
$DIMDSEP
 70
    44
  9
$DIMATFIT
 70
     3
  9
$DIMFRAC
 70
     0
  9
$DIMLDRBLK
  1

  9
$DIMLUNIT
 70
     2
  9
$DIMLWD
 70
    -2
  9
$DIMLWE
 70
    -2
  9
$DIMTMOVE
 70
     0
  9
$LUNITS
 70
     2
  9
$LUPREC
 70
     2
  9
$SKETCHINC
 40
1.0
  9
$FILLETRAD
 40
10.0
  9
$AUNITS
 70
     0
  9
$AUPREC
 70
     2
  9
$MENU
  1
.
  9
$ELEVATION
 40
0.0
  9
$PELEVATION
 40
0.0
  9
$THICKNESS
 40
0.0
  9
$LIMCHECK
 70
     0
  9
$CHAMFERA
 40
0.0
  9
$CHAMFERB
 40
0.0
  9
$CHAMFERC
 40
0.0
  9
$CHAMFERD
 40
0.0
  9
$SKPOLY
 70
     0
  9
$TDCREATE
 40
2460066.382481481
  9
$TDUCREATE
 40
2460066.007481481
  9
$TDUPDATE
 40
2460066.38248184
  9
$TDUUPDATE
 40
2460066.00748184
  9
$TDINDWG
 40
0.0000000116
  9
$TDUSRTIMER
 40
0.0000000116
  9
$USRTIMER
 70
     1
  9
$ANGBASE
 50
0.0
  9
$ANGDIR
 70
     0
  9
$PDMODE
 70
     0
  9
$PDSIZE
 40
-1.0
  9
$PLINEWID
 40
0.0
  9
$SPLFRAME
 70
     0
  9
$SPLINETYPE
 70
     6
  9
$SPLINESEGS
 70
     8
  9
$HANDSEED
  5
146
  9
$SURFTAB1
 70
     6
  9
$SURFTAB2
 70
     6
  9
$SURFTYPE
 70
     6
  9
$SURFU
 70
     6
  9
$SURFV
 70
     6
  9
$UCSBASE
  2

  9
$UCSNAME
  2

  9
$UCSORG
 10
0.0
 20
0.0
 30
0.0
  9
$UCSXDIR
 10
1.0
 20
0.0
 30
0.0
  9
$UCSYDIR
 10
0.0
 20
1.0
 30
0.0
  9
$UCSORTHOREF
  2

  9
$UCSORTHOVIEW
 70
     0
  9
$UCSORGTOP
 10
0.0
 20
0.0
 30
0.0
  9
$UCSORGBOTTOM
 10
0.0
 20
0.0
 30
0.0
  9
$UCSORGLEFT
 10
0.0
 20
0.0
 30
0.0
  9
$UCSORGRIGHT
 10
0.0
 20
0.0
 30
0.0
  9
$UCSORGFRONT
 10
0.0
 20
0.0
 30
0.0
  9
$UCSORGBACK
 10
0.0
 20
0.0
 30
0.0
  9
$PUCSBASE
  2

  9
$PUCSNAME
  2

  9
$PUCSORG
 10
0.0
 20
0.0
 30
0.0
  9
$PUCSXDIR
 10
1.0
 20
0.0
 30
0.0
  9
$PUCSYDIR
 10
0.0
 20
1.0
 30
0.0
  9
$PUCSORTHOREF
  2

  9
$PUCSORTHOVIEW
 70
     0
  9
$PUCSORGTOP
 10
0.0
 20
0.0
 30
0.0
  9
$PUCSORGBOTTOM
 10
0.0
 20
0.0
 30
0.0
  9
$PUCSORGLEFT
 10
0.0
 20
0.0
 30
0.0
  9
$PUCSORGRIGHT
 10
0.0
 20
0.0
 30
0.0
  9
$PUCSORGFRONT
 10
0.0
 20
0.0
 30
0.0
  9
$PUCSORGBACK
 10
0.0
 20
0.0
 30
0.0
  9
$USERI1
 70
     0
  9
$USERI2
 70
     0
  9
$USERI3
 70
     0
  9
$USERI4
 70
     0
  9
$USERI5
 70
     0
  9
$USERR1
 40
0.0
  9
$USERR2
 40
0.0
  9
$USERR3
 40
0.0
  9
$USERR4
 40
0.0
  9
$USERR5
 40
0.0
  9
$WORLDVIEW
 70
     1
  9
$SHADEDGE
 70
     3
  9
$SHADEDIF
 70
    70
  9
$TILEMODE
 70
     1
  9
$MAXACTVP
 70
    64
  9
$PINSBASE
 10
0.0
 20
0.0
 30
0.0
  9
$PLIMCHECK
 70
     0
  9
$PEXTMIN
 10
1.0000000000E+20
 20
1.0000000000E+20
 30
1.0000000000E+20
  9
$PEXTMAX
 10
-1.0000000000E+20
 20
-1.0000000000E+20
 30
-1.0000000000E+20
  9
$PLIMMIN
 10
0.0
 20
0.0
  9
$PLIMMAX
 10
420.0
 20
297.0
  9
$UNITMODE
 70
     0
  9
$VISRETAIN
 70
     1
  9
$PLINEGEN
 70
     0
  9
$PSLTSCALE
 70
     1
  9
$TREEDEPTH
 70
  3020
  9
$CMLSTYLE
  2
Standard
  9
$CMLJUST
 70
     0
  9
$CMLSCALE
 40
20.0
  9
$PROXYGRAPHICS
 70
     1
  9
$MEASUREMENT
 70
     1
  9
$CELWEIGHT
370
    -1
  9
$ENDCAPS
280
     0
  9
$JOINSTYLE
280
     0
  9
$LWDISPLAY
290
     1
  9
$INSUNITS
 70
     4
  9
$HYPERLINKBASE
  1

  9
$STYLESHEET
  1

  9
$XEDIT
290
     1
  9
$CEPSNTYPE
380
     0
  9
$PSTYLEMODE
290
     1
  9
$FINGERPRINTGUID
  2
{5286D212-FA06-40EA-A5B2-B7F45D5DD7A6}
  9
$VERSIONGUID
  2
{FAEB1C32-E019-11D5-929B-00C0DF256EC4}
  9
$EXTNAMES
290
     1
  9
$PSVPSCALE
 40
0.0
  9
$OLESTARTUP
290
     0
  0
ENDSEC
  0
SECTION
  2
CLASSES
  0
CLASS
  1
ACDBDICTIONARYWDFLT
  2
AcDbDictionaryWithDefault
  3
ObjectDBX Classes
 90
        0
280
     0
281
     0
  0
CLASS
  1
VISUALSTYLE
  2
AcDbVisualStyle
  3
ObjectDBX Classes
 90
     4095
280
     0
281
     0
  0
CLASS
  1
MATERIAL
  2
AcDbMaterial
  3
ObjectDBX Classes
 90
     1153
280
     0
281
     0
  0
CLASS
  1
SCALE
  2
AcDbScale
  3
ObjectDBX Classes
 90
     1153
280
     0
281
     0
  0
CLASS
  1
TABLESTYLE
  2
AcDbTableStyle
  3
ObjectDBX Classes
 90
     4095
280
     0
281
     0
  0
CLASS
  1
MLEADERSTYLE
  2
AcDbMLeaderStyle
  3
ACDB_MLEADERSTYLE_CLASS
 90
     4095
280
     0
281
     0
  0
CLASS
  1
SUN
  2
AcDbSun
  3
SCENEOE
 90
     1153
280
     0
281
     0
  0
CLASS
  1
ACDBPLACEHOLDER
  2
AcDbPlaceHolder
  3
ObjectDBX Classes
 90
        0
280
     0
281
     0
  0
CLASS
  1
LAYOUT
  2
AcDbLayout
  3
ObjectDBX Classes
 90
        0
280
     0
281
     0
  0
ENDSEC
  0
SECTION
  2
TABLES
  0
TABLE
  2
VPORT
  5
8
330
0
100
AcDbSymbolTable
 70
     1
  0
VPORT
  5
29
330
8
100
AcDbSymbolTableRecord
100
AcDbViewportTableRecord
  2
*Active
 70
     0
 10
0.0
 20
0.0
 11
1.0
 21
1.0
 12
107.95
 22
69.85
 13
0.0
 23
0.0
 14
10.0
 24
10.0
 15
10.0
 25
10.0
 16
0.0
 26
0.0
 36
1.0
 17
0.0
 27
0.0
 37
0.0
 40
139.7
 41
1.5454545455
 42
50.0
 43
0.0
 44
0.0
 50
0.0
 51
0.0
 71
     0
 72
  2000
 73
     1
 74
     3
 75
     0
 76
     0
 77
     0
 78
     0
281
     0
 65
     1
110
0.0
120
0.0
130
0.0
111
1.0
121
0.0
131
0.0
112
0.0
122
1.0
132
0.0
 79
     0
146
0.0
  0
ENDTAB
  0
TABLE
  2
LTYPE
  5
5
330
0
100
AcDbSymbolTable
 70
     6
  0
LTYPE
  5
14
330
5
100
AcDbSymbolTableRecord
100
AcDbLinetypeTableRecord
  2
ByBlock
 70
     0
  3

 72
    65
 73
     0
 40
0.0
  0
LTYPE
  5
15
330
5
100
AcDbSymbolTableRecord
100
AcDbLinetypeTableRecord
  2
ByLayer
 70
     0
  3

 72
    65
 73
     0
 40
0.0
  0
LTYPE
  5
16
330
5
100
AcDbSymbolTableRecord
100
AcDbLinetypeTableRecord
  2
Continuous
 70
     0
  3
Solid line
 72
    65
 73
     0
 40
0.0
  0
LTYPE
  5
6E
330
5
100
AcDbSymbolTableRecord
100
AcDbLinetypeTableRecord
  2
HIDDEN
 70
     0
  3
Hidden __ __ __ __ __ __ __ __ __ __ __ __ __ __
 72
    65
 73
     2
 40
1.905
 49
1.27
 74
     0
 49
-0.635
 74
     0
  0
LTYPE
  5
6F
330
5
100
AcDbSymbolTableRecord
100
AcDbLinetypeTableRecord
  2
PHANTOM
 70
     0
  3
Phantom ______  __  __  ______  __  __  ______
 72
    65
 73
     6
 40
12.7
 49
6.35
 74
     0
 49
-1.27
 74
     0
 49
1.27
 74
     0
 49
-1.27
 74
     0
 49
1.27
 74
     0
 49
-1.27
 74
     0
  0
LTYPE
  5
70
330
5
100
AcDbSymbolTableRecord
100
AcDbLinetypeTableRecord
  2
CENTER
 70
     0
  3
Center ____ _ ____ _ ____ _ ____ _ ____ _ ____
 72
    65
 73
     4
 40
10.16
 49
6.35
 74
     0
 49
-1.27
 74
     0
 49
1.27
 74
     0
 49
-1.27
 74
     0
  0
LTYPE
  5
71
330
5
100
AcDbSymbolTableRecord
100
AcDbLinetypeTableRecord
  2
CENTERX2
 70
     0
  3
Center (2x) ________  __  ________  __  _____
 72
    65
 73
     4
 40
20.32
 49
12.7
 74
     0
 49
-2.54
 74
     0
 49
2.54
 74
     0
 49
-2.54
 74
     0
  0
LTYPE
  5
72
330
5
100
AcDbSymbolTableRecord
100
AcDbLinetypeTableRecord
  2
DOT2
 70
     0
  3
Dot (.5x) ........................................
 72
    65
 73
     2
 40
0.635
 49
0.0
 74
     0
 49
-0.635
 74
     0
  0
ENDTAB
  0
TABLE
  2
LAYER
  5
2
330
0
100
AcDbSymbolTable
 70
     1
  0
LAYER
  5
10
330
2
100
AcDbSymbolTableRecord
100
AcDbLayerTableRecord
  2
0
 70
     0
 62
     7
  6
Continuous
370
    -3
390
F
  0
ENDTAB
  0
TABLE
  2
STYLE
  5
3
330
0
100
AcDbSymbolTable
 70
     2
  0
STYLE
  5
11
330
3
100
AcDbSymbolTableRecord
100
AcDbTextStyleTableRecord
  2
Standard
 70
     0
 40
0.0
 41
1.0
 50
0.0
 71
     0
 42
1.75
  3
txt
  4
bigfont
  0
STYLE
  5
73
330
3
100
AcDbSymbolTableRecord
100
AcDbTextStyleTableRecord
  2
SLDTEXTSTYLE0
 70
     0
 40
0.0
 41
0.7
 50
0.0
 71
     0
 42
1.75
  3
TXT
  4
bigfont
  0
ENDTAB
  0
TABLE
  2
VIEW
  5
6
330
0
100
AcDbSymbolTable
 70
     0
  0
ENDTAB
  0
TABLE
  2
UCS
  5
7
330
0
100
AcDbSymbolTable
 70
     0
  0
ENDTAB
  0
TABLE
  2
APPID
  5
9
330
0
100
AcDbSymbolTable
 70
     1
  0
APPID
  5
12
330
9
100
AcDbSymbolTableRecord
100
AcDbRegAppTableRecord
  2
ACAD
 70
     0
  0
ENDTAB
  0
TABLE
  2
DIMSTYLE
  5
A
330
0
100
AcDbSymbolTable
 70
     1
100
AcDbDimStyleTable
  0
DIMSTYLE
105
27
330
A
100
AcDbSymbolTableRecord
100
AcDbDimStyleTableRecord
  2
ISO-25
 70
     0
 41
2.5
 42
0.625
 43
3.75
 44
1.25
 73
     0
 74
     0
 77
     1
 78
     8
140
2.5
141
2.5
143
0.0393700787
147
0.625
171
     3
172
     1
178
     0
271
     2
272
     2
274
     3
278
    44
283
     0
284
     8
340
11
  0
ENDTAB
  0
TABLE
  2
BLOCK_RECORD
  5
1
330
0
100
AcDbSymbolTable
 70
     3
  0
BLOCK_RECORD
  5
1F
330
1
100
AcDbSymbolTableRecord
100
AcDbBlockTableRecord
  2
*Model_Space
340
22
  0
BLOCK_RECORD
  5
1B
330
1
100
AcDbSymbolTableRecord
100
AcDbBlockTableRecord
  2
*Paper_Space
340
1E
  0
BLOCK_RECORD
  5
23
330
1
100
AcDbSymbolTableRecord
100
AcDbBlockTableRecord
  2
*Paper_Space0
340
26
  0
BLOCK_RECORD
  5
E9
330
1
100
AcDbSymbolTableRecord
100
AcDbBlockTableRecord
  2
SW_CENTERMARKSYMBOL_0
340
0
102
{BLKREFS
331
F4
102
}
  0
BLOCK_RECORD
  5
F5
330
1
100
AcDbSymbolTableRecord
100
AcDbBlockTableRecord
  2
SW_CENTERMARKSYMBOL_1
340
0
102
{BLKREFS
331
100
102
}
  0
ENDTAB
  0
ENDSEC
  0
SECTION
  2
BLOCKS
  0
BLOCK
  5
20
330
1F
100
AcDbEntity
  8
0
100
AcDbBlockBegin
  2
*Model_Space
 70
     0
 10
0.0
 20
0.0
 30
0.0
  3
*Model_Space
  1

  0
ENDBLK
  5
21
330
1F
100
AcDbEntity
  8
0
100
AcDbBlockEnd
  0
BLOCK
  5
1C
330
1B
100
AcDbEntity
 67
     1
  8
0
100
AcDbBlockBegin
  2
*Paper_Space
 70
     0
 10
0.0
 20
0.0
 30
0.0
  3
*Paper_Space
  1

  0
ENDBLK
  5
1D
330
1B
100
AcDbEntity
 67
     1
  8
0
100
AcDbBlockEnd
  0
BLOCK
  5
24
330
23
100
AcDbEntity
  8
0
100
AcDbBlockBegin
  2
*Paper_Space0
 70
     0
 10
0.0
 20
0.0
 30
0.0
  3
*Paper_Space0
  1

  0
ENDBLK
  5
25
330
23
100
AcDbEntity
  8
0
100
AcDbBlockEnd
  0
BLOCK
  5
EA
330
E9
100
AcDbEntity
  8
0
100
AcDbBlockBegin
  2
SW_CENTERMARKSYMBOL_0
 70
     0
 10
0.0
 20
0.0
 30
0.0
  3
SW_CENTERMARKSYMBOL_0
  1

  0
LINE
  5
EC
330
E9
100
AcDbEntity
  8
0
  6
Continuous
 62
     0
370
    18
100
AcDbLine
 10
0.0
 20
0.0
 30
0.0
 11
0.0
 21
2.5
 31
0.0
  0
LINE
  5
ED
330
E9
100
AcDbEntity
  8
0
  6
Continuous
 62
     0
370
    18
100
AcDbLine
 10
0.0
 20
0.0
 30
0.0
 11
-2.5
 21
0.0
 31
0.0
  0
LINE
  5
EE
330
E9
100
AcDbEntity
  8
0
  6
Continuous
 62
     0
370
    18
100
AcDbLine
 10
0.0
 20
0.0
 30
0.0
 11
0.0
 21
-2.5
 31
0.0
  0
LINE
  5
EF
330
E9
100
AcDbEntity
  8
0
  6
Continuous
 62
     0
370
    18
100
AcDbLine
 10
0.0
 20
0.0
 30
0.0
 11
2.5
 21
0.0
 31
0.0
  0
LINE
  5
F0
330
E9
100
AcDbEntity
  8
0
  6
Continuous
 62
     0
370
    18
100
AcDbLine
 10
0.0
 20
2.5
 30
0.0
 11
0.0
 21
4.5
 31
0.0
  0
LINE
  5
F1
330
E9
100
AcDbEntity
  8
0
  6
Continuous
 62
     0
370
    18
100
AcDbLine
 10
-2.5
 20
0.0
 30
0.0
 11
-4.5
 21
0.0
 31
0.0
  0
LINE
  5
F2
330
E9
100
AcDbEntity
  8
0
  6
Continuous
 62
     0
370
    18
100
AcDbLine
 10
0.0
 20
-2.5
 30
0.0
 11
0.0
 21
-4.5
 31
0.0
  0
LINE
  5
F3
330
E9
100
AcDbEntity
  8
0
  6
Continuous
 62
     0
370
    18
100
AcDbLine
 10
2.5
 20
0.0
 30
0.0
 11
4.5
 21
0.0
 31
0.0
  0
ENDBLK
  5
EB
330
E9
100
AcDbEntity
  8
0
100
AcDbBlockEnd
  0
BLOCK
  5
F6
330
F5
100
AcDbEntity
  8
0
100
AcDbBlockBegin
  2
SW_CENTERMARKSYMBOL_1
 70
     0
 10
0.0
 20
0.0
 30
0.0
  3
SW_CENTERMARKSYMBOL_1
  1

  0
LINE
  5
F8
330
F5
100
AcDbEntity
  8
0
  6
Continuous
 62
     0
370
    18
100
AcDbLine
 10
0.0
 20
0.0
 30
0.0
 11
0.0
 21
2.5
 31
0.0
  0
LINE
  5
F9
330
F5
100
AcDbEntity
  8
0
  6
Continuous
 62
     0
370
    18
100
AcDbLine
 10
0.0
 20
0.0
 30
0.0
 11
-2.5
 21
0.0
 31
0.0
  0
LINE
  5
FA
330
F5
100
AcDbEntity
  8
0
  6
Continuous
 62
     0
370
    18
100
AcDbLine
 10
0.0
 20
0.0
 30
0.0
 11
0.0
 21
-2.5
 31
0.0
  0
LINE
  5
FB
330
F5
100
AcDbEntity
  8
0
  6
Continuous
 62
     0
370
    18
100
AcDbLine
 10
0.0
 20
0.0
 30
0.0
 11
2.5
 21
0.0
 31
0.0
  0
LINE
  5
FC
330
F5
100
AcDbEntity
  8
0
  6
Continuous
 62
     0
370
    18
100
AcDbLine
 10
0.0
 20
5.0
 30
0.0
 11
0.0
 21
8.25
 31
0.0
  0
LINE
  5
FD
330
F5
100
AcDbEntity
  8
0
  6
Continuous
 62
     0
370
    18
100
AcDbLine
 10
-5.0
 20
0.0
 30
0.0
 11
-8.25
 21
0.0
 31
0.0
  0
LINE
  5
FE
330
F5
100
AcDbEntity
  8
0
  6
Continuous
 62
     0
370
    18
100
AcDbLine
 10
0.0
 20
-5.0
 30
0.0
 11
0.0
 21
-8.25
 31
0.0
  0
LINE
  5
FF
330
F5
100
AcDbEntity
  8
0
  6
Continuous
 62
     0
370
    18
100
AcDbLine
 10
5.0
 20
0.0
 30
0.0
 11
8.25
 21
0.0
 31
0.0
  0
ENDBLK
  5
F7
330
F5
100
AcDbEntity
  8
0
100
AcDbBlockEnd
  0
ENDSEC
  0
SECTION
  2
ENTITIES
  0
MTEXT
  5
74
330
1F
100
AcDbEntity
  8
0
  6
Continuous
 62
     7
370
     0
100
AcDbMText
 10
88.3302494403
 20
52.3092044028
 30
0.0
 40
1.8520833333
 41
0.0
 71
     1
 72
     1
  1
エースニップル　HN-8107
  7
SLDTEXTSTYLE0
 73
     1
 44
1.0
  0
LINE
  5
75
330
1F
100
AcDbEntity
  8
0
  6
Continuous
 62
     7
370
    25
100
AcDbLine
 10
70.0636527308
 20
32.5589751217
 30
0.0
 11
70.743888683
 21
33.7371783519
 31
0.0
  0
LINE
  5
76
330
1F
100
AcDbEntity
  8
0
  6
Continuous
 62
     7
370
    25
100
AcDbLine
 10
70.743888683
 20
45.2371783519
 30
0.0
 11
70.0636527308
 21
46.4153815822
 31
0.0
  0
LINE
  5
77
330
1F
100
AcDbEntity
  8
0
  6
Continuous
 62
     7
370
    25
100
AcDbLine
 10
66.4241246352
 20
46.4153815822
 30
0.0
 11
65.743888683
 21
45.2371783519
 31
0.0
  0
LINE
  5
78
330
1F
100
AcDbEntity
  8
0
  6
Continuous
 62
     7
370
    25
100
AcDbLine
 10
65.743888683
 20
33.7371783519
 30
0.0
 11
66.4241246352
 21
32.5589751217
 31
0.0
  0
LINE
  5
79
330
1F
100
AcDbEntity
  8
0
  6
Continuous
 62
     7
370
    25
100
AcDbLine
 10
65.743888683
 20
44.5083658519
 30
0.0
 11
58.0988367424
 21
44.2694579788
 31
0.0
  0
LINE
  5
7A
330
1F
100
AcDbEntity
  8
0
  6
Continuous
 62
     7
370
    25
100
AcDbLine
 10
58.0988367424
 20
34.7048987251
 30
0.0
 11
65.743888683
 21
34.4659908519
 31
0.0
  0
LINE
  5
7B
330
1F
100
AcDbEntity
  8
0
  6
Continuous
 62
     7
370
    25
100
AcDbLine
 10
58.0988367424
 20
44.2694579788
 30
0.0
 11
56.743888683
 21
43.4871783519
 31
0.0
  0
LINE
  5
7C
330
1F
100
AcDbEntity
  8
0
  6
Continuous
 62
     7
370
    25
100
AcDbLine
 10
56.743888683
 20
35.4871783519
 30
0.0
 11
58.0988367424
 21
34.7048987251
 31
0.0
  0
LINE
  5
7D
330
1F
100
AcDbEntity
  8
0
  6
Continuous
 62
     7
370
    25
100
AcDbLine
 10
74.243888683
 20
42.9871783519
 30
0.0
 11
70.743888683
 21
42.9871783519
 31
0.0
  0
LINE
  5
7E
330
1F
100
AcDbEntity
  8
0
  6
Continuous
 62
     7
370
    25
100
AcDbLine
 10
70.743888683
 20
35.9871783519
 30
0.0
 11
74.243888683
 21
35.9871783519
 31
0.0
  0
LINE
  5
7F
330
1F
100
AcDbEntity
  8
0
  6
Continuous
 62
     7
370
    25
100
AcDbLine
 10
74.243888683
 20
35.9871783519
 30
0.0
 11
78.243888683
 21
36.6371783519
 31
0.0
  0
LINE
  5
80
330
1F
100
AcDbEntity
  8
0
  6
Continuous
 62
     7
370
    25
100
AcDbLine
 10
78.243888683
 20
42.3371783519
 30
0.0
 11
74.243888683
 21
42.9871783519
 31
0.0
  0
LINE
  5
81
330
1F
100
AcDbEntity
  8
0
  6
Continuous
 62
     7
370
    25
100
AcDbLine
 10
86.243888683
 20
35.9871783519
 30
0.0
 11
90.3153690643
 21
36.5752810737
 31
0.0
  0
LINE
  5
82
330
1F
100
AcDbEntity
  8
0
  6
Continuous
 62
     7
370
    25
100
AcDbLine
 10
90.3153690643
 20
42.3990756302
 30
0.0
 11
86.243888683
 21
42.9871783519
 31
0.0
  0
LINE
  5
83
330
1F
100
AcDbEntity
  8
0
  6
Continuous
 62
     7
370
    25
100
AcDbLine
 10
78.243888683
 20
35.9871783519
 30
0.0
 11
82.243888683
 21
36.6371783519
 31
0.0
  0
LINE
  5
84
330
1F
100
AcDbEntity
  8
0
  6
Continuous
 62
     7
370
    25
100
AcDbLine
 10
82.243888683
 20
42.3371783519
 30
0.0
 11
78.243888683
 21
42.9871783519
 31
0.0
  0
LINE
  5
85
330
1F
100
AcDbEntity
  8
0
  6
Continuous
 62
     7
370
    25
100
AcDbLine
 10
82.243888683
 20
35.9871783519
 30
0.0
 11
86.243888683
 21
36.6371783519
 31
0.0
  0
LINE
  5
86
330
1F
100
AcDbEntity
  8
0
  6
Continuous
 62
     7
370
    25
100
AcDbLine
 10
86.243888683
 20
42.3371783519
 30
0.0
 11
82.243888683
 21
42.9871783519
 31
0.0
  0
ARC
  5
87
330
1F
100
AcDbEntity
  8
0
  6
Continuous
 62
     7
370
    25
100
AcDbCircle
 10
90.243888683
 20
41.9042114518
 30
0.0
 40
0.5000000000000003
100
AcDbArc
 50
0.0
 51
81.7807907511
  0
ARC
  5
88
330
1F
100
AcDbEntity
  8
0
  6
Continuous
 62
     7
370
    25
100
AcDbCircle
 10
90.243888683
 20
37.0701452521
 30
0.0
 40
0.5000000000000003
100
AcDbArc
 50
278.2192092489
 51
0.0
  0
LINE
  5
89
330
1F
100
AcDbEntity
  8
0
  6
Continuous
 62
     7
370
    25
100
AcDbLine
 10
68.243888683
 20
46.1153815822
 30
0.0
 11
68.1635039253
 21
46.4153815822
 31
0.0
  0
LINE
  5
8A
330
1F
100
AcDbEntity
  8
0
  6
Continuous
 62
     7
370
    25
100
AcDbLine
 10
68.3242734407
 20
46.4153815822
 30
0.0
 11
68.243888683
 21
46.1153815822
 31
0.0
  0
LINE
  5
8B
330
1F
100
AcDbEntity
  8
0
  6
Continuous
 62
     7
370
    25
100
AcDbLine
 10
68.243888683
 20
32.8589751217
 30
0.0
 11
68.3242734407
 21
32.5589751217
 31
0.0
  0
LINE
  5
8C
330
1F
100
AcDbEntity
  8
0
  6
Continuous
 62
     7
370
    25
100
AcDbLine
 10
68.1635039253
 20
32.5589751217
 30
0.0
 11
68.243888683
 21
32.8589751217
 31
0.0
  0
LINE
  5
8D
330
1F
100
AcDbEntity
  8
0
  6
Continuous
 62
     7
370
    25
100
AcDbLine
 10
68.1635039253
 20
42.9512799671
 30
0.0
 11
66.4241246352
 21
42.9512799671
 31
0.0
  0
SPLINE
  5
8E
330
1F
100
AcDbEntity
  8
0
  6
Continuous
 62
     7
370
    25
100
AcDbSpline
210
0.0
220
0.0
230
1.0
 70
     8
 71
     3
 72
    14
 73
    10
 74
     0
 42
0.000000001
 43
0.00000001
 40
0.0
 40
0.0
 40
0.0
 40
0.0
 40
0.4999999999999999
 40
0.4999999999999999
 40
0.6249999999999999
 40
0.6249999999999999
 40
0.7499999999999998
 40
0.7499999999999998
 40
1.0
 40
1.0
 40
1.0
 40
1.0
 10
66.42412463516523
 20
46.4153815822155
 30
0.0
 10
66.09756273678911
 20
45.84975978241196
 30
0.0
 10
65.8889785852716
 20
45.27566393427506
 30
0.0
 10
65.88804080078323
 20
44.53938388135092
 30
0.0
 10
65.90056690717324
 20
44.39143526950385
 30
0.0
 10
65.9494119479485
 20
44.09877726022521
 30
0.0
 10
65.98568132600579
 20
43.95342943033405
 30
0.0
 10
66.12573402666492
 20
43.51997366311906
 30
0.0
 10
66.26064017105082
 20
43.23444336517247
 30
0.0
 10
66.4241246351655
 20
42.95127996707766
 30
0.0
  0
LINE
  5
8F
330
1F
100
AcDbEntity
  8
0
  6
Continuous
 62
     7
370
    25
100
AcDbLine
 10
68.1635039253
 20
46.4153815822
 30
0.0
 11
66.4241246352
 21
46.4153815822
 31
0.0
  0
SPLINE
  5
90
330
1F
100
AcDbEntity
  8
0
  6
Continuous
 62
     7
370
    25
100
AcDbSpline
210
0.0
220
0.0
230
1.0
 70
     8
 71
     3
 72
     8
 73
     4
 74
     0
 42
0.000000001
 43
0.00000001
 40
0.0
 40
0.0
 40
0.0
 40
0.0
 40
1.0
 40
1.0
 40
1.0
 40
1.0
 10
68.24388868300615
 20
46.09161679511923
 30
0.0
 10
68.21927073639338
 20
46.19972143379521
 30
0.0
 10
68.19237466244248
 20
46.30763452426122
 30
0.0
 10
68.16350392527681
 20
46.41538158221546
 30
0.0
  0
SPLINE
  5
91
330
1F
100
AcDbEntity
  8
0
  6
Continuous
 62
     7
370
    25
100
AcDbSpline
210
0.0
220
0.0
230
1.0
 70
     8
 71
     3
 72
     8
 73
     4
 74
     0
 42
0.000000001
 43
0.00000001
 40
0.0
 40
0.0
 40
0.0
 40
0.0
 40
1.0
 40
1.0
 40
1.0
 40
1.0
 10
68.32427344073548
 20
46.41538158221546
 30
0.0
 10
68.29538369208217
 20
46.30756357242341
 30
0.0
 10
68.2684896515514
 20
46.1996468781111
 30
0.0
 10
68.24388868300615
 20
46.09161679511923
 30
0.0
  0
LINE
  5
92
330
1F
100
AcDbEntity
  8
0
  6
Continuous
 62
     7
370
    25
100
AcDbLine
 10
70.0636527308
 20
46.4153815822
 30
0.0
 11
68.3242734407
 21
46.4153815822
 31
0.0
  0
SPLINE
  5
93
330
1F
100
AcDbEntity
  8
0
  6
Continuous
 62
     7
370
    25
100
AcDbSpline
210
0.0
220
0.0
230
1.0
 70
     8
 71
     3
 72
    14
 73
    10
 74
     0
 42
0.000000001
 43
0.00000001
 40
0.0
 40
0.0
 40
0.0
 40
0.0
 40
0.4999999999999999
 40
0.4999999999999999
 40
0.6249999999999999
 40
0.6249999999999999
 40
0.7499999999999998
 40
0.7499999999999998
 40
1.0
 40
1.0
 40
1.0
 40
1.0
 10
70.06365273084708
 20
46.4153815822155
 30
0.0
 10
70.39021462922318
 20
45.84975978241196
 30
0.0
 10
70.5987987807407
 20
45.27566393427506
 30
0.0
 10
70.59973656522907
 20
44.53938388135092
 30
0.0
 10
70.58721045883905
 20
44.39143526950385
 30
0.0
 10
70.53836541806379
 20
44.09877726022521
 30
0.0
 10
70.5020960400065
 20
43.95342943033405
 30
0.0
 10
70.36204333934738
 20
43.51997366311906
 30
0.0
 10
70.22713719496147
 20
43.23444336517247
 30
0.0
 10
70.06365273084678
 20
42.95127996707766
 30
0.0
  0
LINE
  5
94
330
1F
100
AcDbEntity
  8
0
  6
Continuous
 62
     7
370
    25
100
AcDbLine
 10
70.0636527308
 20
42.9512799671
 30
0.0
 11
68.3242734407
 21
42.9512799671
 31
0.0
  0
SPLINE
  5
95
330
1F
100
AcDbEntity
  8
0
  6
Continuous
 62
     7
370
    25
100
AcDbSpline
210
0.0
220
0.0
230
1.0
 70
     8
 71
     3
 72
     8
 73
     4
 74
     0
 42
0.000000001
 43
0.00000001
 40
0.0
 40
0.0
 40
0.0
 40
0.0
 40
1.0
 40
1.0
 40
1.0
 40
1.0
 10
68.24388868300615
 20
43.27504475417393
 30
0.0
 10
68.26850662961891
 20
43.16694011549794
 30
0.0
 10
68.29540270356982
 20
43.05902702503193
 30
0.0
 10
68.32427344073548
 20
42.95127996707769
 30
0.0
  0
SPLINE
  5
96
330
1F
100
AcDbEntity
  8
0
  6
Continuous
 62
     7
370
    25
100
AcDbSpline
210
0.0
220
0.0
230
1.0
 70
     8
 71
     3
 72
     8
 73
     4
 74
     0
 42
0.000000001
 43
0.00000001
 40
0.0
 40
0.0
 40
0.0
 40
0.0
 40
1.0
 40
1.0
 40
1.0
 40
1.0
 10
68.16350392527681
 20
42.95127996707769
 30
0.0
 10
68.19239367393013
 20
43.05909797686974
 30
0.0
 10
68.21928771446088
 20
43.16701467118205
 30
0.0
 10
68.24388868300615
 20
43.27504475417393
 30
0.0
  0
LINE
  5
97
330
1F
100
AcDbEntity
  8
0
  6
Continuous
 62
     7
370
    25
100
AcDbLine
 10
68.1635039253
 20
36.0230767368
 30
0.0
 11
66.4241246352
 21
36.0230767368
 31
0.0
  0
SPLINE
  5
98
330
1F
100
AcDbEntity
  8
0
  6
Continuous
 62
     7
370
    25
100
AcDbSpline
210
0.0
220
0.0
230
1.0
 70
     8
 71
     3
 72
    14
 73
    10
 74
     0
 42
0.000000001
 43
0.00000001
 40
0.0
 40
0.0
 40
0.0
 40
0.0
 40
0.25
 40
0.25
 40
0.5
 40
0.5
 40
0.75
 40
0.75
 40
1.0
 40
1.0
 40
1.0
 40
1.0
 10
66.42412463516578
 20
36.02307673680215
 30
0.0
 10
66.26134294533374
 20
36.58696905146419
 30
0.0
 10
66.12494971638482
 20
37.16410562491943
 30
0.0
 10
65.93849244304673
 20
38.32069161095367
 30
0.0
 10
65.88816086585942
 20
38.90246878647984
 30
0.0
 10
65.88829176444128
 20
40.07420982633017
 30
0.0
 10
65.94010012262832
 20
40.66785635579381
 30
0.0
 10
66.12787024926014
 20
41.8240447120987
 30
0.0
 10
66.26246484361579
 20
42.39127402206646
 30
0.0
 10
66.4241246351658
 20
42.95127996707769
 30
0.0
  0
SPLINE
  5
99
330
1F
100
AcDbEntity
  8
0
  6
Continuous
 62
     7
370
    25
100
AcDbSpline
210
0.0
220
0.0
230
1.0
 70
     8
 71
     3
 72
     8
 73
     4
 74
     0
 42
0.000000001
 43
0.00000001
 40
0.0
 40
0.0
 40
0.0
 40
0.0
 40
1.0
 40
1.0
 40
1.0
 40
1.0
 10
68.24388868300615
 20
42.30375039288523
 30
0.0
 10
68.21927161067666
 20
42.51995199176763
 30
0.0
 10
68.19237564018529
 20
42.73577855319747
 30
0.0
 10
68.16350392527681
 20
42.95127996707769
 30
0.0
  0
SPLINE
  5
9A
330
1F
100
AcDbEntity
  8
0
  6
Continuous
 62
     7
370
    25
100
AcDbSpline
210
0.0
220
0.0
230
1.0
 70
     8
 71
     3
 72
     8
 73
     4
 74
     0
 42
0.000000001
 43
0.00000001
 40
0.0
 40
0.0
 40
0.0
 40
0.0
 40
1.0
 40
1.0
 40
1.0
 40
1.0
 10
68.32427344073548
 20
42.95127996707769
 30
0.0
 10
68.29538090262662
 20
42.73562312671388
 30
0.0
 10
68.26848716429679
 20
42.51978871433686
 30
0.0
 10
68.24388868300615
 20
42.30375039288523
 30
0.0
  0
SPLINE
  5
9B
330
1F
100
AcDbEntity
  8
0
  6
Continuous
 62
     7
370
    25
100
AcDbSpline
210
0.0
220
0.0
230
1.0
 70
     8
 71
     3
 72
    14
 73
    10
 74
     0
 42
0.000000001
 43
0.00000001
 40
0.0
 40
0.0
 40
0.0
 40
0.0
 40
0.25
 40
0.25
 40
0.5
 40
0.5
 40
0.75
 40
0.75
 40
1.0
 40
1.0
 40
1.0
 40
1.0
 10
70.06365273084651
 20
36.02307673680215
 30
0.0
 10
70.22643442067856
 20
36.58696905146419
 30
0.0
 10
70.36282764962748
 20
37.16410562491943
 30
0.0
 10
70.54928492296555
 20
38.32069161095367
 30
0.0
 10
70.59961650015288
 20
38.90246878647984
 30
0.0
 10
70.599485601571
 20
40.07420982633017
 30
0.0
 10
70.54767724338397
 20
40.66785635579381
 30
0.0
 10
70.35990711675215
 20
41.82404471209869
 30
0.0
 10
70.22531252239651
 20
42.39127402206646
 30
0.0
 10
70.0636527308465
 20
42.95127996707769
 30
0.0
  0
LINE
  5
9C
330
1F
100
AcDbEntity
  8
0
  6
Continuous
 62
     7
370
    25
100
AcDbLine
 10
70.0636527308
 20
36.0230767368
 30
0.0
 11
68.3242734407
 21
36.0230767368
 31
0.0
  0
SPLINE
  5
9D
330
1F
100
AcDbEntity
  8
0
  6
Continuous
 62
     7
370
    25
100
AcDbSpline
210
0.0
220
0.0
230
1.0
 70
     8
 71
     3
 72
     8
 73
     4
 74
     0
 42
0.000000001
 43
0.00000001
 40
0.0
 40
0.0
 40
0.0
 40
0.0
 40
1.0
 40
1.0
 40
1.0
 40
1.0
 10
68.24388868300615
 20
36.67060631099463
 30
0.0
 10
68.26850575533564
 20
36.45440471211222
 30
0.0
 10
68.295401725827
 20
36.23857815068239
 30
0.0
 10
68.32427344073548
 20
36.02307673680216
 30
0.0
  0
SPLINE
  5
9E
330
1F
100
AcDbEntity
  8
0
  6
Continuous
 62
     7
370
    25
100
AcDbSpline
210
0.0
220
0.0
230
1.0
 70
     8
 71
     3
 72
     8
 73
     4
 74
     0
 42
0.000000001
 43
0.00000001
 40
0.0
 40
0.0
 40
0.0
 40
0.0
 40
1.0
 40
1.0
 40
1.0
 40
1.0
 10
68.16350392527681
 20
36.02307673680216
 30
0.0
 10
68.19239646338568
 20
36.23873357716597
 30
0.0
 10
68.21929020171551
 20
36.45456798954299
 30
0.0
 10
68.24388868300615
 20
36.67060631099463
 30
0.0
  0
LINE
  5
9F
330
1F
100
AcDbEntity
  8
0
  6
Continuous
 62
     7
370
    25
100
AcDbLine
 10
68.1978550292
 20
38.8898319515
 30
0.0
 11
68.8823502215
 21
38.4421156054
 31
0.0
  0
SPLINE
  5
A0
330
1F
100
AcDbEntity
  8
0
  6
Continuous
 62
     7
370
    25
100
AcDbSpline
210
0.0
220
0.0
230
1.0
 70
     8
 71
     3
 72
    19
 73
    15
 74
     0
 42
0.000000001
 43
0.00000001
 40
0.0
 40
0.0
 40
0.0
 40
0.0
 40
0.0978059775289525
 40
0.1996122522918966
 40
0.3052960258330041
 40
0.4158173591641854
 40
0.474240566618493
 40
0.5372869128296534
 40
0.6033858352934854
 40
0.6743111580696056
 40
0.749530467357482
 40
0.8286083142695116
 40
0.9120427387714447
 40
0.9999999999999999
 40
0.9999999999999999
 40
0.9999999999999999
 40
0.9999999999999999
 10
67.76215791377538
 20
39.05750022075221
 30
0.0
 10
67.77759996773871
 20
39.05695660005171
 30
0.0
 10
67.80911566084366
 20
39.05584712438202
 30
0.0
 10
67.85698513490607
 20
39.04922590140902
 30
0.0
 10
67.90577394808837
 20
39.03708176950998
 30
0.0
 10
67.94713351373439
 20
39.02393916454044
 30
0.0
 10
67.98138672753959
 20
39.0108977330954
 30
0.0
 10
68.00843558564665
 20
38.99880541777868
 30
0.0
 10
68.03700004832392
 20
38.98528473583921
 30
0.0
 10
68.0665396478295
 20
38.96943661371999
 30
0.0
 10
68.09789839450244
 20
38.95263632532029
 30
0.0
 10
68.12991497821912
 20
38.93301168197195
 30
0.0
 10
68.16375874347874
 20
38.91253306509161
 30
0.0
 10
68.18629139668046
 20
38.89753095242305
 30
0.0
 10
68.19785502916
 20
38.88983195152144
 30
0.0
  0
SPLINE
  5
A1
330
1F
100
AcDbEntity
  8
0
  6
Continuous
 62
     7
370
    25
100
AcDbSpline
210
0.0
220
0.0
230
1.0
 70
     8
 71
     3
 72
    19
 73
    15
 74
     0
 42
0.000000001
 43
0.00000001
 40
0.0
 40
0.0
 40
0.0
 40
0.0
 40
0.0843261511037433
 40
0.1670353409858406
 40
0.2495407139852792
 40
0.3327066655796642
 40
0.4158726171740492
 40
0.4977774155681174
 40
0.5803136056784763
 40
0.6645325781316563
 40
0.7495711764063215
 40
0.8324741628544073
 40
0.9156738488962566
 40
1.0
 40
1.0
 40
1.0
 40
1.0
 10
67.30542714454461
 20
38.60317329767529
 30
0.0
 10
67.30608208820976
 20
38.62335760184703
 30
0.0
 10
67.30737941693879
 20
38.66333917441685
 30
0.0
 10
67.31893627164162
 20
38.72215317216519
 30
0.0
 10
67.33766779555577
 20
38.77866610938354
 30
0.0
 10
67.36347425960332
 20
38.83248074708897
 30
0.0
 10
67.39606921303483
 20
38.88233545607081
 30
0.0
 10
67.43531491642298
 20
38.92692388949435
 30
0.0
 10
67.48034399467235
 20
38.96609091483591
 30
0.0
 10
67.53129458051355
 20
38.99851428217583
 30
0.0
 10
67.58569172175136
 20
39.02493941455973
 30
0.0
 10
67.642929330496
 20
39.04357744255665
 30
0.0
 10
67.70185547715847
 20
39.05563070391204
 30
0.0
 10
67.74196719613431
 20
39.05687426119298
 30
0.0
 10
67.76215791377538
 20
39.05750022075221
 30
0.0
  0
SPLINE
  5
A2
330
1F
100
AcDbEntity
  8
0
  6
Continuous
 62
     7
370
    25
100
AcDbSpline
210
0.0
220
0.0
230
1.0
 70
     8
 71
     3
 72
    19
 73
    15
 74
     0
 42
0.000000001
 43
0.00000001
 40
0.0
 40
0.0
 40
0.0
 40
0.0
 40
0.0859901205637198
 40
0.1691084375726415
 40
0.2505285789581879
 40
0.332255696176845
 40
0.4135763652356403
 40
0.4941261456201216
 40
0.576305934120417
 40
0.6607126719045473
 40
0.7461272722239103
 40
0.8300149859609743
 40
0.9144197259288509
 40
1.0
 40
1.0
 40
1.0
 40
1.0
 10
67.76486224069846
 20
38.13442329767529
 30
0.0
 10
67.74388341741233
 20
38.13520609567843
 30
0.0
 10
67.70262639852726
 20
38.13674554865718
 30
0.0
 10
67.6422846493855
 20
38.14795211249045
 30
0.0
 10
67.58525975416465
 20
38.16729213778662
 30
0.0
 10
67.53132761444168
 20
38.19316677246697
 30
0.0
 10
67.48205738897596
 20
38.22673707641964
 30
0.0
 10
67.43753031694567
 20
38.26651973227514
 30
0.0
 10
67.39871843254427
 20
38.3128907973496
 30
0.0
 10
67.36542333368652
 20
38.36475219458577
 30
0.0
 10
67.33897041956881
 20
38.42088233238279
 30
0.0
 10
67.31941324022775
 20
38.47973661790864
 30
0.0
 10
67.30772732854787
 20
38.54081199649035
 30
0.0
 10
67.30619739929583
 20
38.58229058200484
 30
0.0
 10
67.30542714454461
 20
38.60317329767529
 30
0.0
  0
SPLINE
  5
A3
330
1F
100
AcDbEntity
  8
0
  6
Continuous
 62
     7
370
    25
100
AcDbSpline
210
0.0
220
0.0
230
1.0
 70
     8
 71
     3
 72
    23
 73
    19
 74
     0
 42
0.000000001
 43
0.00000001
 40
0.0
 40
0.0
 40
0.0
 40
0.0
 40
0.0652308037420294
 40
0.1284048960032227
 40
0.1900670715964781
 40
0.25094336576828
 40
0.3115458328521431
 40
0.3728628021568291
 40
0.4350236738562383
 40
0.4990717247070431
 40
0.563091075049662
 40
0.625510106330375
 40
0.6866800359296492
 40
0.7472825030135124
 40
0.8085634952159588
 40
0.8707421035159856
 40
0.9343409515059125
 40
1.0
 40
1.0
 40
1.0
 40
1.0
 10
68.20927329839076
 20
38.57943531690606
 30
0.0
 10
68.20886353623543
 20
38.56418996133385
 30
0.0
 10
68.20805693162652
 20
38.53417993256701
 30
0.0
 10
68.20184956704429
 20
38.49011987449244
 30
0.0
 10
68.1920673762199
 20
38.44778175907537
 30
0.0
 10
68.17780783795638
 20
38.40734106810876
 30
0.0
 10
68.15959254322968
 20
38.36865264731181
 30
0.0
 10
68.13776159882376
 20
38.331494477551
 30
0.0
 10
68.11118773581371
 20
38.29656504464834
 30
0.0
 10
68.08150275476349
 20
38.26341453927181
 30
0.0
 10
68.04862404712271
 20
38.23331721181769
 30
0.0
 10
68.01373775996298
 20
38.20667033086447
 30
0.0
 10
67.97688023953519
 20
38.18428742012127
 30
0.0
 10
67.93807015413518
 20
38.16612716800074
 30
0.0
 10
67.89736732860923
 20
38.15202507717307
 30
0.0
 10
67.85482384025707
 20
38.14174465786868
 30
0.0
 10
67.81041035248845
 20
38.13566768951731
 30
0.0
 10
67.78020542023151
 20
38.13484247921084
 30
0.0
 10
67.76486224069846
 20
38.13442329767529
 30
0.0
  0
SPLINE
  5
A4
330
1F
100
AcDbEntity
  8
0
  6
Continuous
 62
     7
370
    25
100
AcDbSpline
210
0.0
220
0.0
230
1.0
 70
     8
 71
     3
 72
     9
 73
     5
 74
     0
 42
0.000000001
 43
0.00000001
 40
0.0
 40
0.0
 40
0.0
 40
0.0
 40
0.5126593363417812
 40
1.0
 40
1.0
 40
1.0
 40
1.0
 10
68.19485022146768
 20
38.73478387459837
 30
0.0
 10
68.1990561617478
 20
38.70839661303408
 30
0.0
 10
68.20726032381403
 20
38.65692527584441
 30
0.0
 10
68.2086137290062
 20
38.60482560504823
 30
0.0
 10
68.20927329839076
 20
38.57943531690606
 30
0.0
  0
LINE
  5
A5
330
1F
100
AcDbEntity
  8
0
  6
Continuous
 62
     7
370
    25
100
AcDbLine
 10
68.800919933
 20
38.33844974
 30
0.0
 11
68.1948502215
 21
38.7347838746
 31
0.0
  0
LINE
  5
A6
330
1F
100
AcDbEntity
  8
0
  6
Continuous
 62
     7
370
    25
100
AcDbLine
 10
68.8823502215
 20
38.4421156054
 30
0.0
 11
68.800919933
 21
38.33844974
 31
0.0
  0
LINE
  5
A7
330
1F
100
AcDbEntity
  8
0
  6
Continuous
 62
     7
370
    25
100
AcDbLine
 10
68.6900425292
 20
39.7858826257
 30
0.0
 11
68.843888683
 21
39.6978417603
 31
0.0
  0
LINE
  5
A8
330
1F
100
AcDbEntity
  8
0
  6
Continuous
 62
     7
370
    25
100
AcDbLine
 10
68.6900425292
 20
39.5551133949
 30
0.0
 11
68.6900425292
 21
39.7858826257
 31
0.0
  0
LINE
  5
A9
330
1F
100
AcDbEntity
  8
0
  6
Continuous
 62
     7
370
    25
100
AcDbLine
 10
67.343888683
 20
39.5551133949
 30
0.0
 11
68.6900425292
 21
39.5551133949
 31
0.0
  0
LINE
  5
AA
330
1F
100
AcDbEntity
  8
0
  6
Continuous
 62
     7
370
    25
100
AcDbLine
 10
67.343888683
 20
39.4204980103
 30
0.0
 11
67.343888683
 21
39.5551133949
 31
0.0
  0
LINE
  5
AB
330
1F
100
AcDbEntity
  8
0
  6
Continuous
 62
     7
370
    25
100
AcDbLine
 10
68.843888683
 20
39.4204980103
 30
0.0
 11
67.343888683
 21
39.4204980103
 31
0.0
  0
LINE
  5
AC
330
1F
100
AcDbEntity
  8
0
  6
Continuous
 62
     7
370
    25
100
AcDbLine
 10
68.843888683
 20
39.6978417603
 30
0.0
 11
68.843888683
 21
39.4204980103
 31
0.0
  0
SPLINE
  5
AD
330
1F
100
AcDbEntity
  8
0
  6
Continuous
 62
     7
370
    25
100
AcDbSpline
210
0.0
220
0.0
230
1.0
 70
     8
 71
     3
 72
    19
 73
    15
 74
     0
 42
0.000000001
 43
0.00000001
 40
0.0
 40
0.0
 40
0.0
 40
0.0
 40
0.1227280999764553
 40
0.239716523588393
 40
0.3518621792202463
 40
0.4632019818032239
 40
0.5202611541541643
 40
0.5794324380306665
 40
0.6405963441586369
 40
0.70529822908802
 40
0.7732361059084537
 40
0.844648929340316
 40
0.9200459817773698
 40
1.0
 40
1.0
 40
1.0
 40
1.0
 10
68.72850406762153
 20
40.61322044656046
 30
0.0
 10
68.72790892627376
 20
40.63030029724573
 30
0.0
 10
68.72674647680243
 20
40.66366121809813
 30
0.0
 10
68.71652906992227
 20
40.71174546170536
 30
0.0
 10
68.70034064199069
 20
40.7564001307344
 30
0.0
 10
68.68079316327749
 20
40.79041798081268
 30
0.0
 10
68.6615636809147
 20
40.81558058560432
 30
0.0
 10
68.64502055726764
 20
40.83390628758919
 30
0.0
 10
68.62626404339245
 20
40.85157414151161
 30
0.0
 10
68.6047796692227
 20
40.86789084476076
 30
0.0
 10
68.58130619543
 20
40.88383412874762
 30
0.0
 10
68.55571433886098
 20
40.89925175894189
 30
0.0
 10
68.52763923623112
 20
40.91364852070478
 30
0.0
 10
68.50789601485413
 20
40.9224120653151
 30
0.0
 10
68.4977348368523
 20
40.92692236963738
 30
0.0
  0
SPLINE
  5
AE
330
1F
100
AcDbEntity
  8
0
  6
Continuous
 62
     7
370
    25
100
AcDbSpline
210
0.0
220
0.0
230
1.0
 70
     8
 71
     3
 72
    23
 73
    19
 74
     0
 42
0.000000001
 43
0.00000001
 40
0.0
 40
0.0
 40
0.0
 40
0.0
 40
0.0552698294993248
 40
0.1099567044850938
 40
0.1632335040550556
 40
0.2180575651623568
 40
0.2732775387226747
 40
0.330881045495497
 40
0.3904799376860887
 40
0.4536559730386417
 40
0.5189026226022311
 40
0.5833461108214766
 40
0.6485466930814431
 40
0.7150552190344909
 40
0.7825206438000536
 40
0.852335294426451
 40
0.9249348997257087
 40
0.9999999999999999
 40
0.9999999999999999
 40
0.9999999999999999
 40
0.9999999999999999
 10
68.49322762531385
 20
40.31153775425277
 30
0.0
 10
68.50106096349222
 20
40.31171533827428
 30
0.0
 10
68.51664501828333
 20
40.31206863326273
 30
0.0
 10
68.53941262853871
 20
40.31652491285057
 30
0.0
 10
68.56148549400872
 20
40.32321979786426
 30
0.0
 10
68.58276346114536
 20
40.33242973478624
 30
0.0
 10
68.6031230227298
 20
40.34473460506627
 30
0.0
 10
68.62258915595677
 20
40.35950454852718
 30
0.0
 10
68.64148809306009
 20
40.37674669391249
 30
0.0
 10
68.65891568576372
 20
40.39691166427185
 30
0.0
 10
68.6753543684561
 20
40.41874239532482
 30
0.0
 10
68.68956499813308
 20
40.44244430050877
 30
0.0
 10
68.70160991835054
 20
40.46749460537244
 30
0.0
 10
68.71156159012061
 20
40.49391634545375
 30
0.0
 10
68.71904283648941
 20
40.5218153653875
 30
0.0
 10
68.72441570574311
 20
40.55105505658825
 30
0.0
 10
68.7277745988368
 20
40.58169270816681
 30
0.0
 10
68.72825821975549
 20
40.60259486892421
 30
0.0
 10
68.72850406762153
 20
40.61322044656046
 30
0.0
  0
SPLINE
  5
AF
330
1F
100
AcDbEntity
  8
0
  6
Continuous
 62
     7
370
    25
100
AcDbSpline
210
0.0
220
0.0
230
1.0
 70
     8
 71
     3
 72
    19
 73
    15
 74
     0
 42
0.000000001
 43
0.00000001
 40
0.0
 40
0.0
 40
0.0
 40
0.0
 40
0.1101423815503176
 40
0.2157418685830274
 40
0.3179605426392306
 40
0.4180517606815226
 40
0.5115631470355316
 40
0.5965727584443461
 40
0.6733290469034968
 40
0.7440491927238595
 40
0.8107168223002833
 40
0.8740854521098849
 40
0.9367096168966699
 40
1.0
 40
1.0
 40
1.0
 40
1.0
 10
68.2477348368523
 20
40.69615313886815
 30
0.0
 10
68.2480511258209
 20
40.67759600933598
 30
0.0
 10
68.24867065821286
 20
40.64124715120839
 30
0.0
 10
68.25611190532346
 20
40.58814237172977
 30
0.0
 10
68.26652123114334
 20
40.53730082209815
 30
0.0
 10
68.28209740278481
 20
40.48988301802334
 30
0.0
 10
68.3007932544848
 20
40.44680429992508
 30
0.0
 10
68.32187419260742
 20
40.40922486457207
 30
0.0
 10
68.34575794964825
 20
40.37803532988141
 30
0.0
 10
68.37213107419646
 20
40.35315777157996
 30
0.0
 10
68.40074686358797
 20
40.33489852712805
 30
0.0
 10
68.43025979094877
 20
40.32119315567261
 30
0.0
 10
68.46135652415076
 20
40.3131585116198
 30
0.0
 10
68.4825665173187
 20
40.31207990901659
 30
0.0
 10
68.49322762531385
 20
40.31153775425277
 30
0.0
  0
LINE
  5
B0
330
1F
100
AcDbEntity
  8
0
  6
Continuous
 62
     7
370
    25
100
AcDbLine
 10
68.093888683
 20
40.6961531389
 30
0.0
 11
68.2477348369
 21
40.6961531389
 31
0.0
  0
SPLINE
  5
B1
330
1F
100
AcDbEntity
  8
0
  6
Continuous
 62
     7
370
    25
100
AcDbSpline
210
0.0
220
0.0
230
1.0
 70
     8
 71
     3
 72
    23
 73
    19
 74
     0
 42
0.000000001
 43
0.00000001
 40
0.0
 40
0.0
 40
0.0
 40
0.0
 40
0.0669051223273616
 40
0.1334773340846825
 40
0.2010229080576287
 40
0.2712178684297488
 40
0.3428591616573978
 40
0.4138109980627169
 40
0.4855518488903453
 40
0.5598002749200529
 40
0.5998999649035781
 40
0.6436094423977958
 40
0.6919106424505659
 40
0.7447030291556902
 40
0.8015038302285953
 40
0.8628660266331954
 40
0.9293326711591618
 40
1.0
 40
1.0
 40
1.0
 40
1.0
 10
67.77658099069846
 20
40.23461467732969
 30
0.0
 10
67.790557294581
 20
40.23527050919471
 30
0.0
 10
67.81844035820461
 20
40.23657890959673
 30
0.0
 10
67.85946193916465
 20
40.2465684752218
 30
0.0
 10
67.89898718153665
 20
40.26299873667156
 30
0.0
 10
67.9363360477407
 20
40.28600390706482
 30
0.0
 10
67.97096811575602
 20
40.31399474073264
 30
0.0
 10
68.00174753471256
 20
40.34670028799909
 30
0.0
 10
68.02740040550464
 20
40.38420077548792
 30
0.0
 10
68.04505887974038
 20
40.41893763667263
 30
0.0
 10
68.05682751020606
 20
40.44978063842761
 30
0.0
 10
68.06507945357102
 20
40.47612301240973
 30
0.0
 10
68.07167591087499
 20
40.50564019071687
 30
0.0
 10
68.07805667159863
 20
40.53797782605374
 30
0.0
 10
68.08340589646673
 20
40.57327230224871
 30
0.0
 10
68.08788608195601
 20
40.61155541739875
 30
0.0
 10
68.09146530280005
 20
40.65284257309285
 30
0.0
 10
68.0930645601344
 20
40.68142444390133
 30
0.0
 10
68.09388868300614
 20
40.69615313886815
 30
0.0
  0
SPLINE
  5
B2
330
1F
100
AcDbEntity
  8
0
  6
Continuous
 62
     7
370
    25
100
AcDbSpline
210
0.0
220
0.0
230
1.0
 70
     8
 71
     3
 72
    23
 73
    19
 74
     0
 42
0.000000001
 43
0.00000001
 40
0.0
 40
0.0
 40
0.0
 40
0.0
 40
0.0760618905628339
 40
0.1487324608035359
 40
0.2183745247439722
 40
0.2857225935927383
 40
0.3510576941824569
 40
0.414934915729319
 40
0.4784859417740854
 40
0.542169035281216
 40
0.6047501165431387
 40
0.6641185017301124
 40
0.7214996756099116
 40
0.7776159163852547
 40
0.832666108697549
 40
0.8878580281135741
 40
0.9434676608977686
 40
1.0
 40
1.0
 40
1.0
 40
1.0
 10
67.45927329839076
 20
40.61652573502199
 30
0.0
 10
67.45953682850002
 20
40.6024883295862
 30
0.0
 10
67.46005213887892
 20
40.57503939506311
 30
0.0
 10
67.46480486790193
 20
40.53498996719941
 30
0.0
 10
67.47169647302782
 20
40.49687729008451
 30
0.0
 10
67.48247628338986
 20
40.46109030347285
 30
0.0
 10
67.49540844671422
 20
40.42714203429632
 30
0.0
 10
67.51233902198693
 20
40.39579030600225
 30
0.0
 10
67.53145936962271
 20
40.36611341651314
 30
0.0
 10
67.55370001133866
 20
40.33898076153885
 30
0.0
 10
67.57773973766339
 20
40.31451934636797
 30
0.0
 10
67.60324374492549
 20
40.29338198101518
 30
0.0
 10
67.62942124292843
 20
40.27507460515164
 30
0.0
 10
67.65688289978708
 20
40.26035853017063
 30
0.0
 10
67.68535933872398
 20
40.24871742415383
 30
0.0
 10
67.7149571473023
 20
40.24079742877093
 30
0.0
 10
67.74542709345417
 20
40.23528927017819
 30
0.0
 10
67.76613955078359
 20
40.23484077169726
 30
0.0
 10
67.77658099069846
 20
40.23461467732969
 30
0.0
  0
SPLINE
  5
B3
330
1F
100
AcDbEntity
  8
0
  6
Continuous
 62
     7
370
    25
100
AcDbSpline
210
0.0
220
0.0
230
1.0
 70
     8
 71
     3
 72
    15
 73
    11
 74
     0
 42
0.000000001
 43
0.00000001
 40
0.0
 40
0.0
 40
0.0
 40
0.0
 40
0.1182713048357256
 40
0.2361775330837632
 40
0.355662932948509
 40
0.4759041646706825
 40
0.6001273417110832
 40
0.7286081161551193
 40
0.8613134756739422
 40
1.0
 40
1.0
 40
1.0
 40
1.0
 10
67.54040310608308
 20
40.86712669656046
 30
0.0
 10
67.53392810584643
 20
40.85872816376396
 30
0.0
 10
67.5209980922245
 20
40.84195702252938
 30
0.0
 10
67.50449739427974
 20
40.81462778063005
 30
0.0
 10
67.49019981199342
 20
40.7858856865933
 30
0.0
 10
67.479278228115
 20
40.75510796907006
 30
0.0
 10
67.47003065920536
 20
40.72295878173261
 30
0.0
 10
67.46397900814858
 20
40.68891848234755
 30
0.0
 10
67.45982693471578
 20
40.65328738929966
 30
0.0
 10
67.45946053550475
 20
40.62895834780691
 30
0.0
 10
67.45927329839076
 20
40.61652573502199
 30
0.0
  0
SPLINE
  5
B4
330
1F
100
AcDbEntity
  8
0
  6
Continuous
 62
     7
370
    25
100
AcDbSpline
210
0.0
220
0.0
230
1.0
 70
     8
 71
     3
 72
    15
 73
    11
 74
     0
 42
0.000000001
 43
0.00000001
 40
0.0
 40
0.0
 40
0.0
 40
0.0
 40
0.1497703860319681
 40
0.2913164099952446
 40
0.4259663731047426
 40
0.5521595739695285
 40
0.6715274135235928
 40
0.7861216286916589
 40
0.8953250730704446
 40
1.0
 40
1.0
 40
1.0
 40
1.0
 10
67.7477348368523
 20
40.98461467732969
 30
0.0
 10
67.73618525973717
 20
40.98110755242671
 30
0.0
 10
67.7137203290437
 20
40.97428588985904
 30
0.0
 10
67.68138876946875
 20
40.962674047844
 30
0.0
 10
67.65174960380098
 20
40.94944478838523
 30
0.0
 10
67.62458540866756
 20
40.93525283468406
 30
0.0
 10
67.59962866475433
 20
40.9203477863886
 30
0.0
 10
67.57753929231117
 20
40.90366996133014
 30
0.0
 10
67.55734706279267
 20
40.88645461340987
 30
0.0
 10
67.5459708005326
 20
40.87347774768786
 30
0.0
 10
67.54040310608308
 20
40.86712669656046
 30
0.0
  0
LINE
  5
B5
330
1F
100
AcDbEntity
  8
0
  6
Continuous
 62
     7
370
    25
100
AcDbLine
 10
67.7477348369
 20
41.1192300619
 30
0.0
 11
67.7477348369
 21
40.9846146773
 31
0.0
  0
SPLINE
  5
B6
330
1F
100
AcDbEntity
  8
0
  6
Continuous
 62
     7
370
    25
100
AcDbSpline
210
0.0
220
0.0
230
1.0
 70
     8
 71
     3
 72
    23
 73
    19
 74
     0
 42
0.000000001
 43
0.00000001
 40
0.0
 40
0.0
 40
0.0
 40
0.0
 40
0.0655411703374033
 40
0.1289631677825933
 40
0.1903771361885609
 40
0.2500923616690527
 40
0.308548432459201
 40
0.3663979630552958
 40
0.42454218926668
 40
0.4831699964229055
 40
0.5422433998311199
 40
0.6017393520173299
 40
0.6625060022496068
 40
0.7248555134488469
 40
0.7891278292811811
 40
0.8563463998785099
 40
0.9262952349869055
 40
1.0
 40
1.0
 40
1.0
 40
1.0
 10
67.30542714454461
 20
40.61892958117584
 30
0.0
 10
67.3057992359411
 20
40.63496642415433
 30
0.0
 10
67.30653138773135
 20
40.66652158347008
 30
0.0
 10
67.31153650252989
 20
40.71291165420708
 30
0.0
 10
67.32067793334608
 20
40.75719238250615
 30
0.0
 10
67.33297934993155
 20
40.79942363873045
 30
0.0
 10
67.34857581082319
 20
40.83964294004196
 30
0.0
 10
67.36799810997518
 20
40.8777275565467
 30
0.0
 10
67.39084589656882
 20
40.91391179662674
 30
0.0
 10
67.41738886277165
 20
40.94785420426013
 30
0.0
 10
67.44708086552453
 20
40.97955073327709
 30
0.0
 10
67.48044901265354
 20
41.00815904366143
 30
0.0
 10
67.51687647147685
 20
41.03415609777947
 30
0.0
 10
67.55678635270488
 20
41.0568458000844
 30
0.0
 10
67.59966289153822
 20
41.07726163691976
 30
0.0
 10
67.64605510513034
 20
41.09405347548289
 30
0.0
 10
67.69554825741133
 20
41.10883300489845
 30
0.0
 10
67.7300387174867
 20
41.11570448957534
 30
0.0
 10
67.7477348368523
 20
41.11923006194507
 30
0.0
  0
SPLINE
  5
B7
330
1F
100
AcDbEntity
  8
0
  6
Continuous
 62
     7
370
    25
100
AcDbSpline
210
0.0
220
0.0
230
1.0
 70
     8
 71
     3
 72
    19
 73
    15
 74
     0
 42
0.000000001
 43
0.00000001
 40
0.0
 40
0.0
 40
0.0
 40
0.0
 40
0.079641704194991
 40
0.1589086132578561
 40
0.2395997983184508
 40
0.3224093988203484
 40
0.405827748173513
 40
0.4876442139503137
 40
0.5697199979738974
 40
0.6530646649976934
 40
0.7374573001733065
 40
0.8224924079539125
 40
0.9097550737466981
 40
1.0
 40
1.0
 40
1.0
 40
1.0
 10
67.78950166377538
 20
40.0999992927143
 30
0.0
 10
67.76849833277205
 20
40.10077006342581
 30
0.0
 10
67.72659051277662
 20
40.10230797758956
 30
0.0
 10
67.66466024673396
 20
40.11599860729261
 30
0.0
 10
67.60422707267169
 20
40.13734521159283
 30
0.0
 10
67.5461864137467
 20
40.16712915529326
 30
0.0
 10
67.49199502338706
 20
40.20397971768291
 30
0.0
 10
67.44372843935052
 20
40.24806386322231
 30
0.0
 10
67.40196033310318
 20
40.29830991336488
 30
0.0
 10
67.36717462684663
 20
40.35438901773573
 30
0.0
 10
67.33934756276932
 20
40.41511959688403
 30
0.0
 10
67.32003861712535
 20
40.48008201600373
 30
0.0
 10
67.3074613822976
 20
40.54833164384022
 30
0.0
 10
67.30611277632566
 20
40.59513482589603
 30
0.0
 10
67.30542714454461
 20
40.61892958117584
 30
0.0
  0
SPLINE
  5
B8
330
1F
100
AcDbEntity
  8
0
  6
Continuous
 62
     7
370
    25
100
AcDbSpline
210
0.0
220
0.0
230
1.0
 70
     8
 71
     3
 72
    15
 73
    11
 74
     0
 42
0.000000001
 43
0.00000001
 40
0.0
 40
0.0
 40
0.0
 40
0.0
 40
0.1281455049994643
 40
0.2541925386280419
 40
0.3781411397135888
 40
0.5013808330744057
 40
0.6239569784447038
 40
0.7470758858273289
 40
0.8728647202442611
 40
1.0
 40
1.0
 40
1.0
 40
1.0
 10
68.05602810608308
 20
40.18954256194507
 30
0.0
 10
68.04614726565806
 20
40.18232190575752
 30
0.0
 10
68.02654739041141
 20
40.16799883662698
 30
0.0
 10
67.99501639384582
 20
40.15036938796305
 30
0.0
 10
67.96324029461032
 20
40.13419318054196
 30
0.0
 10
67.92996969746648
 20
40.12228796013186
 30
0.0
 10
67.89627331284596
 20
40.11201422669379
 30
0.0
 10
67.86142956648004
 20
40.10525445218146
 30
0.0
 10
67.82576950345248
 20
40.10091494733577
 30
0.0
 10
67.80163377264347
 20
40.10030559222517
 30
0.0
 10
67.78950166377538
 20
40.0999992927143
 30
0.0
  0
SPLINE
  5
B9
330
1F
100
AcDbEntity
  8
0
  6
Continuous
 62
     7
370
    25
100
AcDbSpline
210
0.0
220
0.0
230
1.0
 70
     8
 71
     3
 72
    11
 73
     7
 74
     0
 42
0.000000001
 43
0.00000001
 40
0.0
 40
0.0
 40
0.0
 40
0.0
 40
0.253879600326656
 40
0.5030089172783633
 40
0.7502910806899731
 40
1.0
 40
1.0
 40
1.0
 40
1.0
 10
68.18403291377538
 20
40.35210265809891
 30
0.0
 10
68.17632798311473
 20
40.3361461918532
 30
0.0
 10
68.16106228699608
 20
40.30453181716725
 30
0.0
 10
68.13112410520299
 20
40.26143873308173
 30
0.0
 10
68.09655709919417
 20
40.22231964364303
 30
0.0
 10
68.06958167651693
 20
40.20050376406997
 30
0.0
 10
68.05602810608308
 20
40.18954256194507
 30
0.0
  0
SPLINE
  5
BA
330
1F
100
AcDbEntity
  8
0
  6
Continuous
 62
     7
370
    25
100
AcDbSpline
210
0.0
220
0.0
230
1.0
 70
     8
 71
     3
 72
    15
 73
    11
 74
     0
 42
0.000000001
 43
0.00000001
 40
0.0
 40
0.0
 40
0.0
 40
0.0
 40
0.1280675485958904
 40
0.2506083188676684
 40
0.3706301659145029
 40
0.4900722467299488
 40
0.6103747641546199
 40
0.7343130699115256
 40
0.8632165042449895
 40
1.0
 40
1.0
 40
1.0
 40
1.0
 10
68.49262666377538
 20
40.17692236963738
 30
0.0
 10
68.47676660890154
 20
40.17742105151469
 30
0.0
 10
68.44573094270308
 20
40.17839689456232
 30
0.0
 10
68.40042172964387
 20
40.18668276837474
 30
0.0
 10
68.35771818666578
 20
40.20062688103599
 30
0.0
 10
68.31744054575572
 20
40.21994249356936
 30
0.0
 10
68.27984418583152
 20
40.2449460151009
 30
0.0
 10
68.24484451831988
 20
40.27523431376819
 30
0.0
 10
68.21228630769349
 20
40.31102116881483
 30
0.0
 10
68.19363510498971
 20
40.33814071368195
 30
0.0
 10
68.18403291377538
 20
40.35210265809891
 30
0.0
  0
SPLINE
  5
BB
330
1F
100
AcDbEntity
  8
0
  6
Continuous
 62
     7
370
    25
100
AcDbSpline
210
0.0
220
0.0
230
1.0
 70
     8
 71
     3
 72
    19
 73
    15
 74
     0
 42
0.000000001
 43
0.00000001
 40
0.0
 40
0.0
 40
0.0
 40
0.0
 40
0.0902542493426766
 40
0.1785397915286843
 40
0.2660930338538198
 40
0.3546309779571733
 40
0.4418861533505626
 40
0.5257469151636484
 40
0.6081136336036366
 40
0.6901972728278825
 40
0.770821484330335
 40
0.8483261812554109
 40
0.9240117400247433
 40
1.0
 40
1.0
 40
1.0
 40
1.0
 10
68.88235022146769
 20
40.61502333117584
 30
0.0
 10
68.88175912279128
 20
40.59544501314367
 30
0.0
 10
68.88058981901636
 20
40.55671543702503
 30
0.0
 10
68.86991220338247
 20
40.49981698833197
 30
0.0
 10
68.85301571808782
 20
40.44494835157392
 30
0.0
 10
68.8296698350291
 20
40.39271010250977
 30
0.0
 10
68.80087527224534
 20
40.34418791711138
 30
0.0
 10
68.76660467071902
 20
40.30101526564832
 30
0.0
 10
68.72751925579585
 20
40.26377733244664
 30
0.0
 10
68.68434815680219
 20
40.23253688487801
 30
0.0
 10
68.63821008135064
 20
40.20807617099786
 30
0.0
 10
68.59072429971609
 20
40.19003915379227
 30
0.0
 10
68.54200345483511
 20
40.17905843336427
 30
0.0
 10
68.50910747804576
 20
40.17763533758846
 30
0.0
 10
68.49262666377538
 20
40.17692236963738
 30
0.0
  0
SPLINE
  5
BC
330
1F
100
AcDbEntity
  8
0
  6
Continuous
 62
     7
370
    25
100
AcDbSpline
210
0.0
220
0.0
230
1.0
 70
     8
 71
     3
 72
    23
 73
    19
 74
     0
 42
0.000000001
 43
0.00000001
 40
0.0
 40
0.0
 40
0.0
 40
0.0
 40
0.0726253460834355
 40
0.1419766113262345
 40
0.2089849284189386
 40
0.2739568703644447
 40
0.336889347396841
 40
0.3987449534945902
 40
0.4601158852788617
 40
0.5208249225900291
 40
0.5809944586324857
 40
0.6401519276014648
 40
0.6986224507562546
 40
0.7572710809271643
 40
0.8164266940046602
 40
0.8762540482034705
 40
0.9371652930625374
 40
1.0
 40
1.0
 40
1.0
 40
1.0
 10
68.4977348368523
 20
41.06153775425277
 30
0.0
 10
68.51283447284175
 20
41.05789080396091
 30
0.0
 10
68.54235302615203
 20
41.05076131443644
 30
0.0
 10
68.58452756651518
 20
41.03589092580691
 30
0.0
 10
68.6244376471112
 20
41.01969124500922
 30
0.0
 10
68.6613359644092
 20
41.00023877162432
 30
0.0
 10
68.69596406558037
 20
40.97902073409884
 30
0.0
 10
68.72753654749528
 20
40.95471099629776
 30
0.0
 10
68.75685638983833
 20
40.92843111519807
 30
0.0
 10
68.78287634879142
 20
40.89936327978302
 30
0.0
 10
68.80643823273715
 20
40.86887956765126
 30
0.0
 10
68.82652754302673
 20
40.83655044490094
 30
0.0
 10
68.8438093228258
 20
40.80302634761354
 30
0.0
 10
68.8580465650581
 20
40.76807500492129
 30
0.0
 10
68.86877178948644
 20
40.73159235991042
 30
0.0
 10
68.87655327759677
 20
40.69390823563008
 30
0.0
 10
68.8816066122601
 20
40.65492387843809
 30
0.0
 10
68.88209979643997
 20
40.62846062532455
 30
0.0
 10
68.88235022146769
 20
40.61502333117584
 30
0.0
  0
LINE
  5
BD
330
1F
100
AcDbEntity
  8
0
  6
Continuous
 62
     7
370
    25
100
AcDbLine
 10
68.4977348369
 20
40.9269223696
 30
0.0
 11
68.4977348369
 21
41.0615377543
 31
0.0
  0
LINE
  5
BE
330
1F
100
AcDbEntity
  8
0
  6
Continuous
 62
     7
370
    25
100
AcDbLine
 10
68.243888683
 20
42.3037503929
 30
0.0
 11
68.243888683
 21
43.2750447542
 31
0.0
  0
SPLINE
  5
BF
330
1F
100
AcDbEntity
  8
0
  6
Continuous
 62
     7
370
    25
100
AcDbSpline
210
0.0
220
0.0
230
1.0
 70
     8
 71
     3
 72
    14
 73
    10
 74
     0
 42
0.000000001
 43
0.00000001
 40
0.0
 40
0.0
 40
0.0
 40
0.0
 40
0.4999999999999997
 40
0.4999999999999997
 40
0.6249999999999997
 40
0.6249999999999997
 40
0.7499999999999997
 40
0.7499999999999997
 40
1.0
 40
1.0
 40
1.0
 40
1.0
 10
70.06365273084708
 20
36.0230767368022
 30
0.0
 10
70.39021462922318
 20
35.45745493699867
 30
0.0
 10
70.5987987807407
 20
34.88335908886177
 30
0.0
 10
70.59973656522907
 20
34.14707903593764
 30
0.0
 10
70.58721045883905
 20
33.99913042409057
 30
0.0
 10
70.53836541806379
 20
33.70647241481194
 30
0.0
 10
70.5020960400065
 20
33.56112458492078
 30
0.0
 10
70.36204333934738
 20
33.1276688177058
 30
0.0
 10
70.22713719496147
 20
32.8421385197592
 30
0.0
 10
70.06365273084678
 20
32.5589751216644
 30
0.0
  0
LINE
  5
C0
330
1F
100
AcDbEntity
  8
0
  6
Continuous
 62
     7
370
    25
100
AcDbLine
 10
70.743888683
 20
45.2371783519
 30
0.0
 11
70.743888683
 21
33.7371783519
 31
0.0
  0
SPLINE
  5
C1
330
1F
100
AcDbEntity
  8
0
  6
Continuous
 62
     7
370
    25
100
AcDbSpline
210
0.0
220
0.0
230
1.0
 70
     8
 71
     3
 72
    14
 73
    10
 74
     0
 42
0.000000001
 43
0.00000001
 40
0.0
 40
0.0
 40
0.0
 40
0.0
 40
0.4999999999999997
 40
0.4999999999999997
 40
0.6249999999999997
 40
0.6249999999999997
 40
0.7499999999999997
 40
0.7499999999999997
 40
1.0
 40
1.0
 40
1.0
 40
1.0
 10
66.42412463516523
 20
36.0230767368022
 30
0.0
 10
66.09756273678911
 20
35.45745493699867
 30
0.0
 10
65.8889785852716
 20
34.88335908886177
 30
0.0
 10
65.88804080078323
 20
34.14707903593764
 30
0.0
 10
65.90056690717324
 20
33.99913042409057
 30
0.0
 10
65.9494119479485
 20
33.70647241481194
 30
0.0
 10
65.98568132600579
 20
33.56112458492078
 30
0.0
 10
66.12573402666492
 20
33.1276688177058
 30
0.0
 10
66.26064017105082
 20
32.8421385197592
 30
0.0
 10
66.4241246351655
 20
32.5589751216644
 30
0.0
  0
LINE
  5
C2
330
1F
100
AcDbEntity
  8
0
  6
Continuous
 62
     7
370
    25
100
AcDbLine
 10
65.743888683
 20
45.2371783519
 30
0.0
 11
65.743888683
 21
33.7371783519
 31
0.0
  0
SPLINE
  5
C3
330
1F
100
AcDbEntity
  8
0
  6
Continuous
 62
     7
370
    25
100
AcDbSpline
210
0.0
220
0.0
230
1.0
 70
     8
 71
     3
 72
     8
 73
     4
 74
     0
 42
0.000000001
 43
0.00000001
 40
0.0
 40
0.0
 40
0.0
 40
0.0
 40
1.0
 40
1.0
 40
1.0
 40
1.0
 10
68.32427344073548
 20
36.02307673680216
 30
0.0
 10
68.29538369208217
 20
35.91525872701011
 30
0.0
 10
68.2684896515514
 20
35.8073420326978
 30
0.0
 10
68.24388868300615
 20
35.69931194970593
 30
0.0
  0
LINE
  5
C4
330
1F
100
AcDbEntity
  8
0
  6
Continuous
 62
     7
370
    25
100
AcDbLine
 10
68.243888683
 20
35.6993119497
 30
0.0
 11
68.243888683
 21
36.670606311
 31
0.0
  0
SPLINE
  5
C5
330
1F
100
AcDbEntity
  8
0
  6
Continuous
 62
     7
370
    25
100
AcDbSpline
210
0.0
220
0.0
230
1.0
 70
     8
 71
     3
 72
     8
 73
     4
 74
     0
 42
0.000000001
 43
0.00000001
 40
0.0
 40
0.0
 40
0.0
 40
0.0
 40
1.0
 40
1.0
 40
1.0
 40
1.0
 10
68.24388868300615
 20
35.69931194970593
 30
0.0
 10
68.21927073639338
 20
35.80741658838191
 30
0.0
 10
68.19237466244248
 20
35.91532967884793
 30
0.0
 10
68.16350392527681
 20
36.02307673680216
 30
0.0
  0
SPLINE
  5
C6
330
1F
100
AcDbEntity
  8
0
  6
Continuous
 62
     7
370
    25
100
AcDbSpline
210
0.0
220
0.0
230
1.0
 70
     8
 71
     3
 72
    23
 73
    19
 74
     0
 42
0.000000001
 43
0.00000001
 40
0.0
 40
0.0
 40
0.0
 40
0.0
 40
0.0611415679303346
 40
0.1200010135310723
 40
0.1782359705414083
 40
0.2364955434070171
 40
0.2948872487049731
 40
0.3546771928192958
 40
0.4166948132897783
 40
0.4806333779628393
 40
0.5458046334786407
 40
0.6097347883178743
 40
0.6729516883751544
 40
0.7360010960706834
 40
0.7998274385165249
 40
0.864767276939387
 40
0.9310835057306723
 40
1.0
 40
1.0
 40
1.0
 40
1.0
 10
67.75674925992922
 20
38.26903868229067
 30
0.0
 10
67.76699097037937
 20
38.26927177333372
 30
0.0
 10
67.78709211720815
 20
38.26972925524589
 30
0.0
 10
67.8165127308112
 20
38.27500383030208
 30
0.0
 10
67.84503753954472
 20
38.28212802174389
 30
0.0
 10
67.8720239760695
 20
38.29364136808123
 30
0.0
 10
67.89821832389987
 20
38.30735470334488
 30
0.0
 10
67.92287192901095
 20
38.32482459164026
 30
0.0
 10
67.94668323245496
 20
38.34485424617824
 30
0.0
 10
67.9687756461851
 20
38.36805052964309
 30
0.0
 10
67.98898316584962
 20
38.39328600949265
 30
0.0
 10
68.00681968838535
 20
38.42012210324588
 30
0.0
 10
68.02187336303095
 20
38.44819672729992
 30
0.0
 10
68.03443351949963
 20
38.47748276183528
 30
0.0
 10
68.04349758805505
 20
38.50831540973618
 30
0.0
 10
68.05063468997395
 20
38.54019698808759
 30
0.0
 10
68.05443269818424
 20
38.57353523373306
 30
0.0
 10
68.05509144030928
 20
38.59615378032022
 30
0.0
 10
68.05542714454461
 20
38.60768050921375
 30
0.0
  0
SPLINE
  5
C7
330
1F
100
AcDbEntity
  8
0
  6
Continuous
 62
     7
370
    25
100
AcDbSpline
210
0.0
220
0.0
230
1.0
 70
     8
 71
     3
 72
    23
 73
    19
 74
     0
 42
0.000000001
 43
0.00000001
 40
0.0
 40
0.0
 40
0.0
 40
0.0
 40
0.0679503475997537
 40
0.1332598223836998
 40
0.1978002967596474
 40
0.2608458295516822
 40
0.3233192927503671
 40
0.3862817224595722
 40
0.450061516233313
 40
0.5152075844858154
 40
0.5796407692199316
 40
0.6418172023841522
 40
0.7016924412115348
 40
0.7607690981778945
 40
0.8192540511346832
 40
0.8787376269055537
 40
0.9381582970160912
 40
1.0
 40
1.0
 40
1.0
 40
1.0
 10
67.45927329839076
 20
38.59596175921375
 30
0.0
 10
67.45960288743188
 20
38.58483367019037
 30
0.0
 10
67.46024925612066
 20
38.56300998246677
 30
0.0
 10
67.46414091011889
 20
38.53079304438207
 30
0.0
 10
67.47102440122953
 20
38.49990137836236
 30
0.0
 10
67.48080623844973
 20
38.47031349951907
 30
0.0
 10
67.49272528028578
 20
38.4417828900583
 30
0.0
 10
67.50793364031358
 20
38.41471433583386
 30
0.0
 10
67.52571089182119
 20
38.38874239190277
 30
0.0
 10
67.54604944503939
 20
38.36443237919762
 30
0.0
 10
67.567907218508
 20
38.34178069343427
 30
0.0
 10
67.59191581997653
 20
38.32283064236346
 30
0.0
 10
67.6162309423216
 20
38.30572836056815
 30
0.0
 10
67.64232936433548
 20
38.29277397992607
 30
0.0
 10
67.66926576381434
 20
38.28191381027142
 30
0.0
 10
67.6974507245583
 20
38.27461306070413
 30
0.0
 10
67.72673894437374
 20
38.26983349504616
 30
0.0
 10
67.74661355426508
 20
38.26930712292513
 30
0.0
 10
67.75674925992922
 20
38.26903868229067
 30
0.0
  0
SPLINE
  5
C8
330
1F
100
AcDbEntity
  8
0
  6
Continuous
 62
     7
370
    25
100
AcDbSpline
210
0.0
220
0.0
230
1.0
 70
     8
 71
     3
 72
    23
 73
    19
 74
     0
 42
0.000000001
 43
0.00000001
 40
0.0
 40
0.0
 40
0.0
 40
0.0
 40
0.0705921865358071
 40
0.1385012886049299
 40
0.2037899961427012
 40
0.266787572669601
 40
0.3290979656467183
 40
0.3911745246039658
 40
0.4531677986176573
 40
0.5157967602265844
 40
0.5779688050530403
 40
0.6389663383752914
 40
0.698381066162843
 40
0.7573204555574266
 40
0.8164122397216688
 40
0.876279358230831
 40
0.936823465650193
 40
1.0
 40
1.0
 40
1.0
 40
1.0
 10
68.05542714454461
 20
38.60768050921375
 30
0.0
 10
68.05508928009
 20
38.61910682705157
 30
0.0
 10
68.05442639281266
 20
38.64152516854526
 30
0.0
 10
68.0506824006937
 20
38.67437462476049
 30
0.0
 10
68.0435885620733
 20
38.70538055844619
 30
0.0
 10
68.03441251851703
 20
38.73489710793034
 30
0.0
 10
68.02191869312021
 20
38.76261663327784
 30
0.0
 10
68.00692256057589
 20
38.78885533190618
 30
0.0
 10
67.9890931393031
 20
38.8133528398531
 30
0.0
 10
67.96862922296704
 20
38.83567893838529
 30
0.0
 10
67.94655146868715
 20
38.85617981081964
 30
0.0
 10
67.9227625449485
 20
38.8738139088946
 30
0.0
 10
67.89798924496772
 20
38.88904167000292
 30
0.0
 10
67.87199872978385
 20
38.9014185707059
 30
0.0
 10
67.84480767130918
 20
38.91105744900376
 30
0.0
 10
67.8165393404531
 20
38.91802948194645
 30
0.0
 10
67.78700465969806
 20
38.9219096811463
 30
0.0
 10
67.76697644121924
 20
38.92255520615506
 30
0.0
 10
67.75674925992922
 20
38.92288483613683
 30
0.0
  0
SPLINE
  5
C9
330
1F
100
AcDbEntity
  8
0
  6
Continuous
 62
     7
370
    25
100
AcDbSpline
210
0.0
220
0.0
230
1.0
 70
     8
 71
     3
 72
    23
 73
    19
 74
     0
 42
0.000000001
 43
0.00000001
 40
0.0
 40
0.0
 40
0.0
 40
0.0
 40
0.0618526459466917
 40
0.1212838306153701
 40
0.1807779320756125
 40
0.2392732340142805
 40
0.2986414352139417
 40
0.3581858222417117
 40
0.4207600867589709
 40
0.4852046730216432
 40
0.5503622689482871
 40
0.613649924530912
 40
0.6766234955168249
 40
0.7391080134690126
 40
0.8021647022429448
 40
0.8667165971324778
 40
0.9320376285055445
 40
1.0
 40
1.0
 40
1.0
 40
1.0
 10
67.75674925992922
 20
38.92288483613683
 30
0.0
 10
67.74661394007232
 20
38.92261570382937
 30
0.0
 10
67.72674008669154
 20
38.92208797544053
 30
0.0
 10
67.69744636127803
 20
38.91731828018732
 30
0.0
 10
67.66928205102707
 20
38.90998050853407
 30
0.0
 10
67.64222655632616
 20
38.89923995511228
 30
0.0
 10
67.61642746066276
 20
38.88576816065461
 30
0.0
 10
67.59170150552254
 20
38.8691896321227
 30
0.0
 10
67.56803162448246
 20
38.84978508403466
 30
0.0
 10
67.54601468793143
 20
38.82722768188933
 30
0.0
 10
67.52582021869202
 20
38.80290171065479
 30
0.0
 10
67.50783902537002
 20
38.77717538484965
 30
0.0
 10
67.49273963119605
 20
38.75013050420241
 30
0.0
 10
67.48080236994399
 20
38.72161274803132
 30
0.0
 10
67.47102546840168
 20
38.69202138720496
 30
0.0
 10
67.46414061928786
 20
38.66113067921861
 30
0.0
 10
67.4602493326421
 20
38.62891348197698
 30
0.0
 10
67.45960291327381
 20
38.60708983000638
 30
0.0
 10
67.45927329839076
 20
38.59596175921375
 30
0.0
  0
LINE
  5
CA
330
1F
100
AcDbEntity
  8
0
  6
Continuous
 62
     7
370
    25
100
AcDbLine
 10
68.1635039253
 20
32.5589751217
 30
0.0
 11
66.4241246352
 21
32.5589751217
 31
0.0
  0
LINE
  5
CB
330
1F
100
AcDbEntity
  8
0
  6
Continuous
 62
     7
370
    25
100
AcDbLine
 10
70.0636527308
 20
32.5589751217
 30
0.0
 11
68.3242734407
 21
32.5589751217
 31
0.0
  0
SPLINE
  5
CC
330
1F
100
AcDbEntity
  8
0
  6
Continuous
 62
     7
370
    25
100
AcDbSpline
210
0.0
220
0.0
230
1.0
 70
     8
 71
     3
 72
     8
 73
     4
 74
     0
 42
0.000000001
 43
0.00000001
 40
0.0
 40
0.0
 40
0.0
 40
0.0
 40
1.0
 40
1.0
 40
1.0
 40
1.0
 10
68.24388868300615
 20
32.88273990876066
 30
0.0
 10
68.26850662961891
 20
32.77463527008468
 30
0.0
 10
68.29540270356982
 20
32.66672217961867
 30
0.0
 10
68.32427344073548
 20
32.55897512166443
 30
0.0
  0
SPLINE
  5
CD
330
1F
100
AcDbEntity
  8
0
  6
Continuous
 62
     7
370
    25
100
AcDbSpline
210
0.0
220
0.0
230
1.0
 70
     8
 71
     3
 72
     8
 73
     4
 74
     0
 42
0.000000001
 43
0.00000001
 40
0.0
 40
0.0
 40
0.0
 40
0.0
 40
1.0
 40
1.0
 40
1.0
 40
1.0
 10
68.16350392527681
 20
32.55897512166443
 30
0.0
 10
68.19239367393013
 20
32.66679313145649
 30
0.0
 10
68.21928771446088
 20
32.7747098257688
 30
0.0
 10
68.24388868300615
 20
32.88273990876066
 30
0.0
  0
LINE
  5
CE
330
1F
100
AcDbEntity
  8
0
  6
Continuous
 62
     7
370
    25
100
AcDbLine
 10
58.0988367424
 20
44.2694579788
 30
0.0
 11
58.0988367424
 21
34.7048987251
 31
0.0
  0
LINE
  5
CF
330
1F
100
AcDbEntity
  8
0
  6
Continuous
 62
     7
370
    25
100
AcDbLine
 10
56.743888683
 20
39.4871783519
 30
0.0
 11
56.743888683
 21
43.4871783519
 31
0.0
  0
LINE
  5
D0
330
1F
100
AcDbEntity
  8
0
  6
Continuous
 62
     7
370
    25
100
AcDbLine
 10
56.743888683
 20
35.4871783519
 30
0.0
 11
56.743888683
 21
39.4871783519
 31
0.0
  0
LINE
  5
D1
330
1F
100
AcDbEntity
  8
0
  6
Continuous
 62
     7
370
    25
100
AcDbLine
 10
74.243888683
 20
42.9871783519
 30
0.0
 11
74.243888683
 21
35.9871783519
 31
0.0
  0
LINE
  5
D2
330
1F
100
AcDbEntity
  8
0
  6
Continuous
 62
     7
370
    25
100
AcDbLine
 10
86.243888683
 20
42.9871783519
 30
0.0
 11
86.243888683
 21
35.9871783519
 31
0.0
  0
LINE
  5
D3
330
1F
100
AcDbEntity
  8
0
  6
Continuous
 62
     7
370
    25
100
AcDbLine
 10
78.243888683
 20
42.9871783519
 30
0.0
 11
78.243888683
 21
35.9871783519
 31
0.0
  0
LINE
  5
D4
330
1F
100
AcDbEntity
  8
0
  6
Continuous
 62
     7
370
    25
100
AcDbLine
 10
82.243888683
 20
42.9871783519
 30
0.0
 11
82.243888683
 21
35.9871783519
 31
0.0
  0
LINE
  5
D5
330
1F
100
AcDbEntity
  8
0
  6
Continuous
 62
     7
370
    25
100
AcDbLine
 10
90.743888683
 20
41.9042114518
 30
0.0
 11
90.743888683
 21
37.0701452528
 31
0.0
  0
LINE
  5
D6
330
1F
100
AcDbEntity
  8
0
  6
Continuous
 62
     7
370
    25
100
AcDbLine
 10
68.243888683
 20
46.0916167951
 30
0.0
 11
68.243888683
 21
46.1153815822
 31
0.0
  0
LINE
  5
D7
330
1F
100
AcDbEntity
  8
0
  6
Continuous
 62
     7
370
    25
100
AcDbLine
 10
68.243888683
 20
32.8589751217
 30
0.0
 11
68.243888683
 21
32.8827399088
 31
0.0
  0
LINE
  5
D8
330
1F
100
AcDbEntity
  8
0
  6
Continuous
 62
     8
370
    25
100
AcDbLine
 10
90.3153690643
 20
36.5752810737
 30
0.0
 11
90.3153690643
 21
42.3990756302
 31
0.0
  0
LINE
  5
D9
330
1F
100
AcDbEntity
  8
0
  6
Continuous
 62
     7
370
    18
100
AcDbLine
 10
57.2621085338
 20
43.7863727223
 30
0.0
 11
65.243888683
 21
44.0358033519
 31
0.0
  0
LINE
  5
DA
330
1F
100
AcDbEntity
  8
0
  6
Continuous
 62
     7
370
    18
100
AcDbLine
 10
57.2621085338
 20
35.1879839816
 30
0.0
 11
65.243888683
 21
34.9385533519
 31
0.0
  0
LINE
  5
DB
330
1F
100
AcDbEntity
  8
0
  6
Continuous
 62
     7
370
    18
100
AcDbLine
 10
65.243888683
 20
34.4816158519
 30
0.0
 11
65.243888683
 21
44.4927408519
 31
0.0
  0
LINE
  5
DC
330
1F
100
AcDbEntity
  8
0
  6
CENTERX2
 62
     7
370
    18
100
AcDbLine
 10
91.743888683
 20
39.4871783519
 30
0.0
 11
55.5252416138
 21
39.4871783519
 31
0.0
  0
CIRCLE
  5
DD
330
1F
100
AcDbEntity
  8
0
  6
Continuous
 62
     7
370
    25
100
AcDbCircle
 10
107.9553356086
 20
39.4871783519
 30
0.0
 40
2.417033099830697
  0
CIRCLE
  5
DE
330
1F
100
AcDbEntity
  8
0
  6
Continuous
 62
     7
370
    25
100
AcDbCircle
 10
107.9553356086
 20
39.4871783519
 30
0.0
 40
2.911897278252674
  0
CIRCLE
  5
DF
330
1F
100
AcDbEntity
  8
0
  6
Continuous
 62
     7
370
    25
100
AcDbCircle
 10
107.9553356086
 20
39.4871783519
 30
0.0
 40
1.999999999999986
  0
CIRCLE
  5
E0
330
1F
100
AcDbEntity
  8
0
  6
Continuous
 62
     7
370
    25
100
AcDbCircle
 10
107.9553356086
 20
39.4871783519
 30
0.0
 40
2.20000000000001
  0
CIRCLE
  5
E1
330
1F
100
AcDbEntity
  8
0
  6
Continuous
 62
     7
370
    25
100
AcDbCircle
 10
107.9553356086
 20
39.4871783519
 30
0.0
 40
3.500000000000007
  0
SPLINE
  5
E2
330
1F
100
AcDbEntity
  8
0
  6
Continuous
 62
     7
370
    25
100
AcDbSpline
210
0.0
220
0.0
230
1.0
 70
    24
 71
     3
 72
    14
 73
    10
 74
     0
 42
0.000000001
 43
0.00000001
 40
0.0
 40
0.0
 40
0.0
 40
0.0
 40
0.2499999999999999
 40
0.2499999999999999
 40
0.4999999999999999
 40
0.4999999999999999
 40
0.7499999999999999
 40
0.7499999999999999
 40
1.0
 40
1.0
 40
1.0
 40
1.0
 10
113.9553356085881
 20
36.02307673680224
 30
0.0
 10
113.9553356085881
 20
36.58696905146427
 30
0.0
 10
113.9553356085881
 20
37.16410562491951
 30
0.0
 10
113.9553356085881
 20
38.32069161095376
 30
0.0
 10
113.9553356085881
 20
38.90246878647992
 30
0.0
 10
113.9553356085881
 20
40.07420982633025
 30
0.0
 10
113.9553356085881
 20
40.66785635579389
 30
0.0
 10
113.9553356085881
 20
41.82404471209878
 30
0.0
 10
113.9553356085881
 20
42.39127402206654
 30
0.0
 10
113.9553356085881
 20
42.95127996707777
 30
0.0
  0
SPLINE
  5
E3
330
1F
100
AcDbEntity
  8
0
  6
Continuous
 62
     7
370
    25
100
AcDbSpline
210
0.0
220
0.0
230
1.0
 70
    24
 71
     3
 72
    14
 73
    10
 74
     0
 42
0.000000001
 43
0.00000001
 40
0.0
 40
0.0
 40
0.0
 40
0.0
 40
0.4999999999999994
 40
0.4999999999999994
 40
0.6249999999999994
 40
0.6249999999999994
 40
0.7499999999999994
 40
0.7499999999999994
 40
1.0
 40
1.0
 40
1.0
 40
1.0
 10
107.9553356085881
 20
32.55897512166439
 30
0.0
 10
108.9350213037164
 20
33.12459692146794
 30
0.0
 10
109.9293844811038
 20
33.69869276960485
 30
0.0
 10
111.2046589413679
 20
34.43497282252899
 30
0.0
 10
111.4609134539963
 20
34.58292143437608
 30
0.0
 10
111.9678119953089
 20
34.87557944365471
 30
0.0
 10
112.2195618214502
 20
35.02092727354587
 30
0.0
 10
112.9703292331004
 20
35.45438304076087
 30
0.0
 10
113.4648822162441
 20
35.73991333870747
 30
0.0
 10
113.9553356085882
 20
36.02307673680227
 30
0.0
  0
SPLINE
  5
E4
330
1F
100
AcDbEntity
  8
0
  6
Continuous
 62
     7
370
    25
100
AcDbSpline
210
0.0
220
0.0
230
1.0
 70
    24
 71
     3
 72
    14
 73
    10
 74
     0
 42
0.000000001
 43
0.00000001
 40
0.0
 40
0.0
 40
0.0
 40
0.0
 40
0.4999999999999997
 40
0.4999999999999997
 40
0.6249999999999997
 40
0.6249999999999997
 40
0.7499999999999997
 40
0.7499999999999997
 40
1.0
 40
1.0
 40
1.0
 40
1.0
 10
101.955335608588
 20
36.0230767368022
 30
0.0
 10
102.9350213037163
 20
35.45745493699867
 30
0.0
 10
103.9293844811038
 20
34.88335908886177
 30
0.0
 10
105.2046589413679
 20
34.14707903593764
 30
0.0
 10
105.4609134539963
 20
33.99913042409057
 30
0.0
 10
105.9678119953089
 20
33.70647241481194
 30
0.0
 10
106.2195618214502
 20
33.56112458492078
 30
0.0
 10
106.9703292331003
 20
33.1276688177058
 30
0.0
 10
107.4648822162441
 20
32.8421385197592
 30
0.0
 10
107.9553356085882
 20
32.5589751216644
 30
0.0
  0
SPLINE
  5
E5
330
1F
100
AcDbEntity
  8
0
  6
Continuous
 62
     7
370
    25
100
AcDbSpline
210
0.0
220
0.0
230
1.0
 70
    24
 71
     3
 72
    14
 73
    10
 74
     0
 42
0.000000001
 43
0.00000001
 40
0.0
 40
0.0
 40
0.0
 40
0.0
 40
0.25
 40
0.25
 40
0.5
 40
0.5
 40
0.75
 40
0.75
 40
1.0
 40
1.0
 40
1.0
 40
1.0
 10
101.9553356085881
 20
36.02307673680215
 30
0.0
 10
101.9553356085881
 20
36.58696905146419
 30
0.0
 10
101.9553356085881
 20
37.16410562491943
 30
0.0
 10
101.9553356085881
 20
38.32069161095367
 30
0.0
 10
101.9553356085881
 20
38.90246878647984
 30
0.0
 10
101.9553356085881
 20
40.07420982633017
 30
0.0
 10
101.9553356085881
 20
40.66785635579381
 30
0.0
 10
101.9553356085881
 20
41.82404471209869
 30
0.0
 10
101.9553356085881
 20
42.39127402206646
 30
0.0
 10
101.9553356085881
 20
42.95127996707769
 30
0.0
  0
SPLINE
  5
E6
330
1F
100
AcDbEntity
  8
0
  6
Continuous
 62
     7
370
    25
100
AcDbSpline
210
0.0
220
0.0
230
1.0
 70
    24
 71
     3
 72
    14
 73
    10
 74
     0
 42
0.000000001
 43
0.00000001
 40
0.0
 40
0.0
 40
0.0
 40
0.0
 40
0.4999999999999999
 40
0.4999999999999999
 40
0.6249999999999999
 40
0.6249999999999999
 40
0.7499999999999998
 40
0.7499999999999998
 40
1.0
 40
1.0
 40
1.0
 40
1.0
 10
107.9553356085882
 20
46.4153815822155
 30
0.0
 10
106.9756499134599
 20
45.84975978241196
 30
0.0
 10
105.9812867360724
 20
45.27566393427506
 30
0.0
 10
104.7060122758083
 20
44.53938388135092
 30
0.0
 10
104.4497577631799
 20
44.39143526950385
 30
0.0
 10
103.9428592218673
 20
44.09877726022521
 30
0.0
 10
103.691109395726
 20
43.95342943033405
 30
0.0
 10
102.9403419840759
 20
43.51997366311906
 30
0.0
 10
102.4457890009321
 20
43.23444336517247
 30
0.0
 10
101.955335608588
 20
42.95127996707766
 30
0.0
  0
SPLINE
  5
E7
330
1F
100
AcDbEntity
  8
0
  6
Continuous
 62
     7
370
    25
100
AcDbSpline
210
0.0
220
0.0
230
1.0
 70
    24
 71
     3
 72
    14
 73
    10
 74
     0
 42
0.000000001
 43
0.00000001
 40
0.0
 40
0.0
 40
0.0
 40
0.0
 40
0.5000000000000003
 40
0.5000000000000003
 40
0.6250000000000003
 40
0.6250000000000003
 40
0.7500000000000002
 40
0.7500000000000002
 40
1.0
 40
1.0
 40
1.0
 40
1.0
 10
113.9553356085881
 20
42.95127996707773
 30
0.0
 10
112.9756499134598
 20
43.51690176688126
 30
0.0
 10
111.9812867360724
 20
44.09099761501815
 30
0.0
 10
110.7060122758083
 20
44.82727766794227
 30
0.0
 10
110.4497577631799
 20
44.97522627978934
 30
0.0
 10
109.9428592218673
 20
45.26788428906796
 30
0.0
 10
109.691109395726
 20
45.41323211895912
 30
0.0
 10
108.9403419840759
 20
45.84668788617411
 30
0.0
 10
108.4457890009321
 20
46.1322181841207
 30
0.0
 10
107.955335608588
 20
46.41538158221549
 30
0.0
  0
CIRCLE
  5
E8
330
1F
100
AcDbEntity
  8
0
  6
Continuous
 62
     7
370
    25
100
AcDbCircle
 10
107.9553356086
 20
39.4871783519
 30
0.0
 40
5.749999999999986
  0
INSERT
  5
F4
330
1F
100
AcDbEntity
  8
0
  6
Continuous
 62
     7
370
    18
100
AcDbBlockReference
  2
SW_CENTERMARKSYMBOL_0
 10
107.9553356086
 20
39.4871783519
 30
0.0
  0
INSERT
  5
100
330
1F
100
AcDbEntity
  8
0
  6
Continuous
 62
     7
370
    18
100
AcDbBlockReference
  2
SW_CENTERMARKSYMBOL_1
 10
107.9553356086
 20
39.4871783519
 30
0.0
  0
LINE
  5
101
330
1F
100
AcDbEntity
  8
0
  6
Continuous
 62
     7
370
    25
100
AcDbLine
 10
65.8882262503
 20
66.1449099655
 30
0.0
 11
65.743888683
 21
65.8949099655
 31
0.0
  0
LINE
  5
102
330
1F
100
AcDbEntity
  8
0
  6
Continuous
 62
     7
370
    25
100
AcDbLine
 10
65.743888683
 20
54.3949099655
 30
0.0
 11
65.8882262503
 21
54.1449099655
 31
0.0
  0
LINE
  5
103
330
1F
100
AcDbEntity
  8
0
  6
Continuous
 62
     7
370
    25
100
AcDbLine
 10
70.5995511157
 20
54.1449099655
 30
0.0
 11
70.743888683
 21
54.3949099655
 31
0.0
  0
LINE
  5
104
330
1F
100
AcDbEntity
  8
0
  6
Continuous
 62
     7
370
    25
100
AcDbLine
 10
70.743888683
 20
65.8949099655
 30
0.0
 11
70.5995511157
 21
66.1449099655
 31
0.0
  0
LINE
  5
105
330
1F
100
AcDbEntity
  8
0
  6
Continuous
 62
     7
370
    25
100
AcDbLine
 10
65.743888683
 20
65.1660974655
 30
0.0
 11
58.0988367424
 21
64.9271895923
 31
0.0
  0
LINE
  5
106
330
1F
100
AcDbEntity
  8
0
  6
Continuous
 62
     7
370
    25
100
AcDbLine
 10
58.0988367424
 20
55.3626303386
 30
0.0
 11
65.743888683
 21
55.1237224655
 31
0.0
  0
LINE
  5
107
330
1F
100
AcDbEntity
  8
0
  6
Continuous
 62
     7
370
    25
100
AcDbLine
 10
58.0988367424
 20
64.9271895923
 30
0.0
 11
56.743888683
 21
64.1449099655
 31
0.0
  0
LINE
  5
108
330
1F
100
AcDbEntity
  8
0
  6
Continuous
 62
     7
370
    25
100
AcDbLine
 10
56.743888683
 20
56.1449099655
 30
0.0
 11
58.0988367424
 21
55.3626303386
 31
0.0
  0
LINE
  5
109
330
1F
100
AcDbEntity
  8
0
  6
Continuous
 62
     7
370
    25
100
AcDbLine
 10
86.243888683
 20
56.6449099655
 30
0.0
 11
90.3153690643
 21
57.2330126872
 31
0.0
  0
LINE
  5
10A
330
1F
100
AcDbEntity
  8
0
  6
Continuous
 62
     7
370
    25
100
AcDbLine
 10
90.3153690643
 20
63.0568072437
 30
0.0
 11
86.243888683
 21
63.6449099655
 31
0.0
  0
LINE
  5
10B
330
1F
100
AcDbEntity
  8
0
  6
Continuous
 62
     7
370
    25
100
AcDbLine
 10
74.243888683
 20
56.6449099655
 30
0.0
 11
78.243888683
 21
57.2949099655
 31
0.0
  0
LINE
  5
10C
330
1F
100
AcDbEntity
  8
0
  6
Continuous
 62
     7
370
    25
100
AcDbLine
 10
78.243888683
 20
62.9949099655
 30
0.0
 11
74.243888683
 21
63.6449099655
 31
0.0
  0
LINE
  5
10D
330
1F
100
AcDbEntity
  8
0
  6
Continuous
 62
     7
370
    25
100
AcDbLine
 10
74.243888683
 20
63.6449099655
 30
0.0
 11
70.743888683
 21
63.6449099655
 31
0.0
  0
LINE
  5
10E
330
1F
100
AcDbEntity
  8
0
  6
Continuous
 62
     7
370
    25
100
AcDbLine
 10
70.743888683
 20
56.6449099655
 30
0.0
 11
74.243888683
 21
56.6449099655
 31
0.0
  0
LINE
  5
10F
330
1F
100
AcDbEntity
  8
0
  6
Continuous
 62
     7
370
    25
100
AcDbLine
 10
82.243888683
 20
56.6449099655
 30
0.0
 11
86.243888683
 21
57.2949099655
 31
0.0
  0
LINE
  5
110
330
1F
100
AcDbEntity
  8
0
  6
Continuous
 62
     7
370
    25
100
AcDbLine
 10
86.243888683
 20
62.9949099655
 30
0.0
 11
82.243888683
 21
63.6449099655
 31
0.0
  0
LINE
  5
111
330
1F
100
AcDbEntity
  8
0
  6
Continuous
 62
     7
370
    25
100
AcDbLine
 10
78.243888683
 20
56.6449099655
 30
0.0
 11
82.243888683
 21
57.2949099655
 31
0.0
  0
LINE
  5
112
330
1F
100
AcDbEntity
  8
0
  6
Continuous
 62
     7
370
    25
100
AcDbLine
 10
82.243888683
 20
62.9949099655
 30
0.0
 11
78.243888683
 21
63.6449099655
 31
0.0
  0
ARC
  5
113
330
1F
100
AcDbEntity
  8
0
  6
Continuous
 62
     7
370
    25
100
AcDbCircle
 10
90.243888683
 20
62.5619430653
 30
0.0
 40
0.5
100
AcDbArc
 50
0.0
 51
81.7807907511
  0
ARC
  5
114
330
1F
100
AcDbEntity
  8
0
  6
Continuous
 62
     7
370
    25
100
AcDbCircle
 10
90.243888683
 20
57.7278768656
 30
0.0
 40
0.5000000000000003
100
AcDbArc
 50
278.2192092489
 51
0.0
  0
SPLINE
  5
115
330
1F
100
AcDbEntity
  8
0
  6
Continuous
 62
     7
370
    25
100
AcDbSpline
210
0.0
220
0.0
230
1.0
 70
     8
 71
     3
 72
    14
 73
    10
 74
     0
 42
0.000000001
 43
0.00000001
 40
0.0
 40
0.0
 40
0.0
 40
0.0
 40
0.5000000000000003
 40
0.5000000000000003
 40
0.6250000000000003
 40
0.6250000000000003
 40
0.7500000000000002
 40
0.7500000000000002
 40
1.0
 40
1.0
 40
1.0
 40
1.0
 10
66.42412463516523
 20
66.14490996547443
 30
0.0
 10
66.09756273678914
 20
65.16522427034614
 30
0.0
 10
65.88897858527163
 20
64.17086109295869
 30
0.0
 10
65.88804080078326
 20
62.89558663269461
 30
0.0
 10
65.90056690717327
 20
62.63933212006619
 30
0.0
 10
65.94941194794853
 20
62.13243357875363
 30
0.0
 10
65.9856813260058
 20
61.88068375261226
 30
0.0
 10
66.12573402666494
 20
61.12991634096216
 30
0.0
 10
66.26064017105084
 20
60.63536335781838
 30
0.0
 10
66.42412463516551
 20
60.14490996547434
 30
0.0
  0
SPLINE
  5
116
330
1F
100
AcDbEntity
  8
0
  6
Continuous
 62
     7
370
    25
100
AcDbSpline
210
0.0
220
0.0
230
1.0
 70
     8
 71
     3
 72
    14
 73
    10
 74
     0
 42
0.000000001
 43
0.00000001
 40
0.0
 40
0.0
 40
0.0
 40
0.0
 40
0.4999999999999999
 40
0.4999999999999999
 40
0.6249999999999999
 40
0.6249999999999999
 40
0.7499999999999998
 40
0.7499999999999998
 40
1.0
 40
1.0
 40
1.0
 40
1.0
 10
66.42412463516523
 20
60.14490996547446
 30
0.0
 10
66.09756273678913
 20
59.16522427034617
 30
0.0
 10
65.88897858527162
 20
58.17086109295872
 30
0.0
 10
65.88804080078324
 20
56.89558663269462
 30
0.0
 10
65.90056690717326
 20
56.63933212006619
 30
0.0
 10
65.94941194794852
 20
56.13243357875363
 30
0.0
 10
65.98568132600579
 20
55.88068375261226
 30
0.0
 10
66.12573402666494
 20
55.12991634096215
 30
0.0
 10
66.26064017105084
 20
54.63536335781838
 30
0.0
 10
66.42412463516551
 20
54.14490996547433
 30
0.0
  0
SPLINE
  5
117
330
1F
100
AcDbEntity
  8
0
  6
Continuous
 62
     7
370
    25
100
AcDbSpline
210
0.0
220
0.0
230
1.0
 70
    24
 71
     3
 72
    13
 73
     9
 74
     0
 42
0.000000001
 43
0.00000001
 40
0.0
 40
0.0
 40
0.0
 40
0.0
 40
0.1860786003335929
 40
0.3724795848768403
 40
0.5601351062813932
 40
0.7483576858103148
 40
0.9979954374562114
 40
1.0
 40
1.0
 40
1.0
 40
1.0
 10
66.42412463516581
 20
54.14490996547437
 30
0.0
 10
66.36579602787363
 20
54.14490996547437
 30
0.0
 10
66.24903775802589
 20
54.14490996547438
 30
0.0
 10
66.10713857212981
 20
54.14490996547437
 30
0.0
 10
65.99349886140267
 20
54.14490996547438
 30
0.0
 10
65.9149006386151
 20
54.14490996547437
 30
0.0
 10
65.87607586676454
 20
54.14490996547442
 30
0.0
 10
65.8884232618715
 20
54.14490996547438
 30
0.0
 10
65.88852162023315
 20
54.14490996547438
 30
0.0
  0
SPLINE
  5
118
330
1F
100
AcDbEntity
  8
0
  6
Continuous
 62
     7
370
    25
100
AcDbSpline
210
0.0
220
0.0
230
1.0
 70
    24
 71
     3
 72
    12
 73
     8
 74
     0
 42
0.000000001
 43
0.00000001
 40
0.0
 40
0.0
 40
0.0
 40
0.0
 40
0.251698787508088
 40
0.4375021183522809
 40
0.6238957820467701
 40
0.8117634221975745
 40
1.0
 40
1.0
 40
1.0
 40
1.0
 10
65.8891465031691
 20
66.14490996547438
 30
0.0
 10
65.89591725471382
 20
66.14490996547438
 30
0.0
 10
65.90768615583956
 20
66.14490996547438
 30
0.0
 10
65.99419859843903
 20
66.14490996547437
 30
0.0
 10
66.10482079435839
 20
66.14490996547437
 30
0.0
 10
66.24739328869096
 20
66.14490996547435
 30
0.0
 10
66.36517567364994
 20
66.14490996547435
 30
0.0
 10
66.42412463516581
 20
66.14490996547435
 30
0.0
  0
LINE
  5
119
330
1F
100
AcDbEntity
  8
0
  6
Continuous
 62
     7
370
    25
100
AcDbLine
 10
65.743888683
 20
65.8949099655
 30
0.0
 11
65.743888683
 21
54.3949099655
 31
0.0
  0
LINE
  5
11A
330
1F
100
AcDbEntity
  8
0
  6
Continuous
 62
     7
370
    25
100
AcDbLine
 10
68.1635039253
 20
60.1449099655
 30
0.0
 11
66.4241246352
 21
60.1449099655
 31
0.0
  0
LINE
  5
11B
330
1F
100
AcDbEntity
  8
0
  6
Continuous
 62
     7
370
    25
100
AcDbLine
 10
68.1635039253
 20
66.1449099655
 30
0.0
 11
66.4241246352
 21
66.1449099655
 31
0.0
  0
SPLINE
  5
11C
330
1F
100
AcDbEntity
  8
0
  6
Continuous
 62
     7
370
    25
100
AcDbSpline
210
0.0
220
0.0
230
1.0
 70
     8
 71
     3
 72
     8
 73
     4
 74
     0
 42
0.000000001
 43
0.00000001
 40
0.0
 40
0.0
 40
0.0
 40
0.0
 40
1.0
 40
1.0
 40
1.0
 40
1.0
 10
68.24388868300615
 20
65.58413290452195
 30
0.0
 10
68.2192707363934
 20
65.77137563124263
 30
0.0
 10
68.19237466244249
 20
65.95828658673155
 30
0.0
 10
68.16350392527683
 20
66.14490996547435
 30
0.0
  0
SPLINE
  5
11D
330
1F
100
AcDbEntity
  8
0
  6
Continuous
 62
     7
370
    25
100
AcDbSpline
210
0.0
220
0.0
230
1.0
 70
     8
 71
     3
 72
     8
 73
     4
 74
     0
 42
0.000000001
 43
0.00000001
 40
0.0
 40
0.0
 40
0.0
 40
0.0
 40
1.0
 40
1.0
 40
1.0
 40
1.0
 10
68.3242734407355
 20
66.14490996547435
 30
0.0
 10
68.29538369208218
 20
65.95816369454354
 30
0.0
 10
68.26848965155142
 20
65.77124649700974
 30
0.0
 10
68.24388868300615
 20
65.58413290452195
 30
0.0
  0
LINE
  5
11E
330
1F
100
AcDbEntity
  8
0
  6
Continuous
 62
     7
370
    25
100
AcDbLine
 10
70.0636527308
 20
66.1449099655
 30
0.0
 11
68.3242734407
 21
66.1449099655
 31
0.0
  0
SPLINE
  5
11F
330
1F
100
AcDbEntity
  8
0
  6
Continuous
 62
     7
370
    25
100
AcDbSpline
210
0.0
220
0.0
230
1.0
 70
     8
 71
     3
 72
    14
 73
    10
 74
     0
 42
0.000000001
 43
0.00000001
 40
0.0
 40
0.0
 40
0.0
 40
0.0
 40
0.5000000000000003
 40
0.5000000000000003
 40
0.6250000000000003
 40
0.6250000000000003
 40
0.7500000000000002
 40
0.7500000000000002
 40
1.0
 40
1.0
 40
1.0
 40
1.0
 10
70.0636527308471
 20
66.14490996547443
 30
0.0
 10
70.39021462922318
 20
65.16522427034614
 30
0.0
 10
70.5987987807407
 20
64.17086109295869
 30
0.0
 10
70.59973656522907
 20
62.89558663269461
 30
0.0
 10
70.58721045883905
 20
62.63933212006619
 30
0.0
 10
70.53836541806379
 20
62.13243357875363
 30
0.0
 10
70.5020960400065
 20
61.88068375261226
 30
0.0
 10
70.36204333934738
 20
61.12991634096216
 30
0.0
 10
70.22713719496149
 20
60.63536335781838
 30
0.0
 10
70.0636527308468
 20
60.14490996547434
 30
0.0
  0
LINE
  5
120
330
1F
100
AcDbEntity
  8
0
  6
Continuous
 62
     7
370
    25
100
AcDbLine
 10
70.0636527308
 20
60.1449099655
 30
0.0
 11
68.3242734407
 21
60.1449099655
 31
0.0
  0
SPLINE
  5
121
330
1F
100
AcDbEntity
  8
0
  6
Continuous
 62
     7
370
    25
100
AcDbSpline
210
0.0
220
0.0
230
1.0
 70
     8
 71
     3
 72
     8
 73
     4
 74
     0
 42
0.000000001
 43
0.00000001
 40
0.0
 40
0.0
 40
0.0
 40
0.0
 40
1.0
 40
1.0
 40
1.0
 40
1.0
 10
68.24388868300615
 20
60.70568702642679
 30
0.0
 10
68.26850662961891
 20
60.51844429970611
 30
0.0
 10
68.29540270356983
 20
60.33153334421721
 30
0.0
 10
68.3242734407355
 20
60.14490996547438
 30
0.0
  0
SPLINE
  5
122
330
1F
100
AcDbEntity
  8
0
  6
Continuous
 62
     7
370
    25
100
AcDbSpline
210
0.0
220
0.0
230
1.0
 70
     8
 71
     3
 72
     8
 73
     4
 74
     0
 42
0.000000001
 43
0.00000001
 40
0.0
 40
0.0
 40
0.0
 40
0.0
 40
1.0
 40
1.0
 40
1.0
 40
1.0
 10
68.16350392527683
 20
60.14490996547438
 30
0.0
 10
68.19239367393014
 20
60.33165623640519
 30
0.0
 10
68.21928771446089
 20
60.51857343393899
 30
0.0
 10
68.24388868300615
 20
60.70568702642679
 30
0.0
  0
SPLINE
  5
123
330
1F
100
AcDbEntity
  8
0
  6
Continuous
 62
     7
370
    25
100
AcDbSpline
210
0.0
220
0.0
230
1.0
 70
    24
 71
     3
 72
    12
 73
     8
 74
     0
 42
0.000000001
 43
0.00000001
 40
0.0
 40
0.0
 40
0.0
 40
0.0
 40
0.251698787508088
 40
0.4375021183522809
 40
0.6238957820467701
 40
0.8117634221975745
 40
1.0
 40
1.0
 40
1.0
 40
1.0
 10
70.59863086284322
 20
66.14490996547438
 30
0.0
 10
70.5918601112985
 20
66.14490996547438
 30
0.0
 10
70.58009121017277
 20
66.14490996547438
 30
0.0
 10
70.4935787675733
 20
66.14490996547437
 30
0.0
 10
70.38295657165393
 20
66.14490996547437
 30
0.0
 10
70.24038407732137
 20
66.14490996547435
 30
0.0
 10
70.12260169236238
 20
66.14490996547435
 30
0.0
 10
70.06365273084651
 20
66.14490996547435
 30
0.0
  0
SPLINE
  5
124
330
1F
100
AcDbEntity
  8
0
  6
Continuous
 62
     7
370
    25
100
AcDbSpline
210
0.0
220
0.0
230
1.0
 70
    24
 71
     3
 72
    13
 73
     9
 74
     0
 42
0.000000001
 43
0.00000001
 40
0.0
 40
0.0
 40
0.0
 40
0.0
 40
0.186078600333593
 40
0.3724795848768402
 40
0.5601351062813931
 40
0.7483576858103147
 40
0.9979954374562114
 40
0.9999999999999999
 40
0.9999999999999999
 40
0.9999999999999999
 40
0.9999999999999999
 10
70.06365273084651
 20
54.14490996547437
 30
0.0
 10
70.1219813381387
 20
54.14490996547437
 30
0.0
 10
70.23873960798643
 20
54.14490996547438
 30
0.0
 10
70.38063879388251
 20
54.14490996547438
 30
0.0
 10
70.49427850460965
 20
54.14490996547438
 30
0.0
 10
70.57287672739726
 20
54.14490996547437
 30
0.0
 10
70.61170149924772
 20
54.14490996547442
 30
0.0
 10
70.59935410414083
 20
54.14490996547438
 30
0.0
 10
70.59925574577917
 20
54.14490996547438
 30
0.0
  0
SPLINE
  5
125
330
1F
100
AcDbEntity
  8
0
  6
Continuous
 62
     7
370
    25
100
AcDbSpline
210
0.0
220
0.0
230
1.0
 70
     8
 71
     3
 72
    14
 73
    10
 74
     0
 42
0.000000001
 43
0.00000001
 40
0.0
 40
0.0
 40
0.0
 40
0.0
 40
0.4999999999999999
 40
0.4999999999999999
 40
0.6249999999999999
 40
0.6249999999999999
 40
0.7499999999999998
 40
0.7499999999999998
 40
1.0
 40
1.0
 40
1.0
 40
1.0
 10
70.0636527308471
 20
60.14490996547446
 30
0.0
 10
70.3902146292232
 20
59.16522427034617
 30
0.0
 10
70.59879878074071
 20
58.17086109295872
 30
0.0
 10
70.59973656522908
 20
56.89558663269462
 30
0.0
 10
70.58721045883907
 20
56.63933212006619
 30
0.0
 10
70.53836541806379
 20
56.13243357875363
 30
0.0
 10
70.50209604000652
 20
55.88068375261226
 30
0.0
 10
70.3620433393474
 20
55.12991634096215
 30
0.0
 10
70.22713719496149
 20
54.63536335781838
 30
0.0
 10
70.0636527308468
 20
54.14490996547433
 30
0.0
  0
LINE
  5
126
330
1F
100
AcDbEntity
  8
0
  6
Continuous
 62
     7
370
    25
100
AcDbLine
 10
70.743888683
 20
65.8949099655
 30
0.0
 11
70.743888683
 21
54.3949099655
 31
0.0
  0
SPLINE
  5
127
330
1F
100
AcDbEntity
  8
0
  6
Continuous
 62
     7
370
    25
100
AcDbSpline
210
0.0
220
0.0
230
1.0
 70
     8
 71
     3
 72
     8
 73
     4
 74
     0
 42
0.000000001
 43
0.00000001
 40
0.0
 40
0.0
 40
0.0
 40
0.0
 40
1.0
 40
1.0
 40
1.0
 40
1.0
 10
68.3242734407355
 20
60.14490996547438
 30
0.0
 10
68.29538369208218
 20
59.95816369454359
 30
0.0
 10
68.26848965155142
 20
59.77124649700979
 30
0.0
 10
68.24388868300615
 20
59.58413290452199
 30
0.0
  0
LINE
  5
128
330
1F
100
AcDbEntity
  8
0
  6
Continuous
 62
     7
370
    25
100
AcDbLine
 10
68.243888683
 20
59.5841329045
 30
0.0
 11
68.243888683
 21
60.7056870264
 31
0.0
  0
SPLINE
  5
129
330
1F
100
AcDbEntity
  8
0
  6
Continuous
 62
     7
370
    25
100
AcDbSpline
210
0.0
220
0.0
230
1.0
 70
     8
 71
     3
 72
     8
 73
     4
 74
     0
 42
0.000000001
 43
0.00000001
 40
0.0
 40
0.0
 40
0.0
 40
0.0
 40
1.0
 40
1.0
 40
1.0
 40
1.0
 10
68.24388868300615
 20
59.58413290452199
 30
0.0
 10
68.2192707363934
 20
59.77137563124267
 30
0.0
 10
68.19237466244249
 20
59.95828658673158
 30
0.0
 10
68.16350392527683
 20
60.14490996547438
 30
0.0
  0
LINE
  5
12A
330
1F
100
AcDbEntity
  8
0
  6
Continuous
 62
     7
370
    25
100
AcDbLine
 10
68.1635039253
 20
54.1449099655
 30
0.0
 11
66.4241246352
 21
54.1449099655
 31
0.0
  0
LINE
  5
12B
330
1F
100
AcDbEntity
  8
0
  6
Continuous
 62
     7
370
    25
100
AcDbLine
 10
70.0636527308
 20
54.1449099655
 30
0.0
 11
68.3242734407
 21
54.1449099655
 31
0.0
  0
SPLINE
  5
12C
330
1F
100
AcDbEntity
  8
0
  6
Continuous
 62
     7
370
    25
100
AcDbSpline
210
0.0
220
0.0
230
1.0
 70
     8
 71
     3
 72
     8
 73
     4
 74
     0
 42
0.000000001
 43
0.00000001
 40
0.0
 40
0.0
 40
0.0
 40
0.0
 40
1.0
 40
1.0
 40
1.0
 40
1.0
 10
68.24388868300615
 20
54.70568702642677
 30
0.0
 10
68.26850662961891
 20
54.51844429970609
 30
0.0
 10
68.29540270356983
 20
54.33153334421718
 30
0.0
 10
68.3242734407355
 20
54.14490996547437
 30
0.0
  0
SPLINE
  5
12D
330
1F
100
AcDbEntity
  8
0
  6
Continuous
 62
     7
370
    25
100
AcDbSpline
210
0.0
220
0.0
230
1.0
 70
     8
 71
     3
 72
     8
 73
     4
 74
     0
 42
0.000000001
 43
0.00000001
 40
0.0
 40
0.0
 40
0.0
 40
0.0
 40
1.0
 40
1.0
 40
1.0
 40
1.0
 10
68.16350392527683
 20
54.14490996547437
 30
0.0
 10
68.19239367393014
 20
54.33165623640517
 30
0.0
 10
68.21928771446089
 20
54.51857343393897
 30
0.0
 10
68.24388868300615
 20
54.70568702642677
 30
0.0
  0
LINE
  5
12E
330
1F
100
AcDbEntity
  8
0
  6
Continuous
 62
     7
370
    25
100
AcDbLine
 10
58.0988367424
 20
64.9271895923
 30
0.0
 11
58.0988367424
 21
55.3626303386
 31
0.0
  0
LINE
  5
12F
330
1F
100
AcDbEntity
  8
0
  6
Continuous
 62
     7
370
    25
100
AcDbLine
 10
56.743888683
 20
56.1449099655
 30
0.0
 11
56.743888683
 21
64.1449099655
 31
0.0
  0
LINE
  5
130
330
1F
100
AcDbEntity
  8
0
  6
Continuous
 62
     7
370
    25
100
AcDbLine
 10
68.243888683
 20
65.5841329045
 30
0.0
 11
68.243888683
 21
66.1449099655
 31
0.0
  0
SPLINE
  5
131
330
1F
100
AcDbEntity
  8
0
  6
Continuous
 62
     7
370
    25
100
AcDbSpline
210
0.0
220
0.0
230
1.0
 70
    24
 71
     3
 72
     8
 73
     4
 74
     0
 42
0.000000001
 43
0.00000001
 40
0.0
 40
0.0
 40
0.0
 40
0.0
 40
1.0
 40
1.0
 40
1.0
 40
1.0
 10
68.24388868300615
 20
66.14490996547435
 30
0.0
 10
68.26850575533565
 20
66.14490996547435
 30
0.0
 10
68.29540172582702
 20
66.14490996547435
 30
0.0
 10
68.3242734407355
 20
66.14490996547435
 30
0.0
  0
SPLINE
  5
132
330
1F
100
AcDbEntity
  8
0
  6
Continuous
 62
     7
370
    25
100
AcDbSpline
210
0.0
220
0.0
230
1.0
 70
    24
 71
     3
 72
     8
 73
     4
 74
     0
 42
0.000000001
 43
0.00000001
 40
0.0
 40
0.0
 40
0.0
 40
0.0
 40
1.0
 40
1.0
 40
1.0
 40
1.0
 10
68.16350392527683
 20
66.14490996547435
 30
0.0
 10
68.19239646338569
 20
66.14490996547435
 30
0.0
 10
68.21929020171552
 20
66.14490996547435
 30
0.0
 10
68.24388868300615
 20
66.14490996547435
 30
0.0
  0
SPLINE
  5
133
330
1F
100
AcDbEntity
  8
0
  6
Continuous
 62
     7
370
    25
100
AcDbSpline
210
0.0
220
0.0
230
1.0
 70
    24
 71
     3
 72
     8
 73
     4
 74
     0
 42
0.000000001
 43
0.00000001
 40
0.0
 40
0.0
 40
0.0
 40
0.0
 40
1.0
 40
1.0
 40
1.0
 40
1.0
 10
68.3242734407355
 20
54.14490996547437
 30
0.0
 10
68.29538090262663
 20
54.14490996547437
 30
0.0
 10
68.2684871642968
 20
54.14490996547437
 30
0.0
 10
68.24388868300615
 20
54.14490996547437
 30
0.0
  0
LINE
  5
134
330
1F
100
AcDbEntity
  8
0
  6
Continuous
 62
     7
370
    25
100
AcDbLine
 10
68.243888683
 20
54.1449099655
 30
0.0
 11
68.243888683
 21
54.7056870264
 31
0.0
  0
SPLINE
  5
135
330
1F
100
AcDbEntity
  8
0
  6
Continuous
 62
     7
370
    25
100
AcDbSpline
210
0.0
220
0.0
230
1.0
 70
    24
 71
     3
 72
     8
 73
     4
 74
     0
 42
0.000000001
 43
0.00000001
 40
0.0
 40
0.0
 40
0.0
 40
0.0
 40
1.0
 40
1.0
 40
1.0
 40
1.0
 10
68.24388868300615
 20
54.14490996547437
 30
0.0
 10
68.21927161067667
 20
54.14490996547437
 30
0.0
 10
68.1923756401853
 20
54.14490996547437
 30
0.0
 10
68.16350392527683
 20
54.14490996547437
 30
0.0
  0
LINE
  5
136
330
1F
100
AcDbEntity
  8
0
  6
Continuous
 62
     7
370
    25
100
AcDbLine
 10
86.243888683
 20
60.1449099655
 30
0.0
 11
86.243888683
 21
56.6449099655
 31
0.0
  0
LINE
  5
137
330
1F
100
AcDbEntity
  8
0
  6
Continuous
 62
     7
370
    25
100
AcDbLine
 10
86.243888683
 20
63.6449099655
 30
0.0
 11
86.243888683
 21
60.1449099655
 31
0.0
  0
LINE
  5
138
330
1F
100
AcDbEntity
  8
0
  6
Continuous
 62
     7
370
    25
100
AcDbLine
 10
74.243888683
 20
60.1449099655
 30
0.0
 11
74.243888683
 21
56.6449099655
 31
0.0
  0
LINE
  5
139
330
1F
100
AcDbEntity
  8
0
  6
Continuous
 62
     7
370
    25
100
AcDbLine
 10
74.243888683
 20
63.6449099655
 30
0.0
 11
74.243888683
 21
60.1449099655
 31
0.0
  0
LINE
  5
13A
330
1F
100
AcDbEntity
  8
0
  6
Continuous
 62
     7
370
    25
100
AcDbLine
 10
82.243888683
 20
60.1449099655
 30
0.0
 11
82.243888683
 21
56.6449099655
 31
0.0
  0
LINE
  5
13B
330
1F
100
AcDbEntity
  8
0
  6
Continuous
 62
     7
370
    25
100
AcDbLine
 10
82.243888683
 20
63.6449099655
 30
0.0
 11
82.243888683
 21
60.1449099655
 31
0.0
  0
LINE
  5
13C
330
1F
100
AcDbEntity
  8
0
  6
Continuous
 62
     7
370
    25
100
AcDbLine
 10
78.243888683
 20
60.1449099655
 30
0.0
 11
78.243888683
 21
56.6449099655
 31
0.0
  0
LINE
  5
13D
330
1F
100
AcDbEntity
  8
0
  6
Continuous
 62
     7
370
    25
100
AcDbLine
 10
78.243888683
 20
63.6449099655
 30
0.0
 11
78.243888683
 21
60.1449099655
 31
0.0
  0
LINE
  5
13E
330
1F
100
AcDbEntity
  8
0
  6
Continuous
 62
     7
370
    25
100
AcDbLine
 10
90.743888683
 20
60.1449099655
 30
0.0
 11
90.743888683
 21
57.7278768656
 31
0.0
  0
LINE
  5
13F
330
1F
100
AcDbEntity
  8
0
  6
Continuous
 62
     7
370
    25
100
AcDbLine
 10
90.743888683
 20
62.5619430653
 30
0.0
 11
90.743888683
 21
60.1449099655
 31
0.0
  0
LINE
  5
140
330
1F
100
AcDbEntity
  8
0
  6
Continuous
 62
     8
370
    25
100
AcDbLine
 10
90.3153690643
 20
60.1449099655
 30
0.0
 11
90.3153690643
 21
63.0568072437
 31
0.0
  0
LINE
  5
141
330
1F
100
AcDbEntity
  8
0
  6
Continuous
 62
     8
370
    25
100
AcDbLine
 10
90.3153690643
 20
57.2330126872
 30
0.0
 11
90.3153690643
 21
60.1449099655
 31
0.0
  0
LINE
  5
142
330
1F
100
AcDbEntity
  8
0
  6
Continuous
 62
     7
370
    18
100
AcDbLine
 10
57.2621085338
 20
64.4441043358
 30
0.0
 11
65.243888683
 21
64.6935349655
 31
0.0
  0
LINE
  5
143
330
1F
100
AcDbEntity
  8
0
  6
Continuous
 62
     7
370
    18
100
AcDbLine
 10
57.2621085338
 20
55.8457155951
 30
0.0
 11
65.243888683
 21
55.5962849655
 31
0.0
  0
LINE
  5
144
330
1F
100
AcDbEntity
  8
0
  6
Continuous
 62
     7
370
    18
100
AcDbLine
 10
65.243888683
 20
55.1393474655
 30
0.0
 11
65.243888683
 21
65.1504724655
 31
0.0
  0
LINE
  5
145
330
1F
100
AcDbEntity
  8
0
  6
CENTERX2
 62
     7
370
    18
100
AcDbLine
 10
91.743888683
 20
60.1449099655
 30
0.0
 11
55.7005051738
 21
60.1449099655
 31
0.0
  0
ENDSEC
  0
SECTION
  2
OBJECTS
  0
DICTIONARY
  5
C
330
0
100
AcDbDictionary
281
     1
  3
ACAD_GROUP
350
D
  3
ACAD_LAYOUT
350
1A
  3
ACAD_MLINESTYLE
350
17
  3
ACAD_PLOTSETTINGS
350
19
  3
ACAD_PLOTSTYLENAME
350
E
  3
ACAD_SCALELIST
350
47
  0
DICTIONARY
  5
D
102
{ACAD_REACTORS
330
C
102
}
330
C
100
AcDbDictionary
281
     1
  0
DICTIONARY
  5
1A
102
{ACAD_REACTORS
330
C
102
}
330
C
100
AcDbDictionary
281
     1
  3
Layout1
350
1E
  3
Layout2
350
26
  3
Model
350
22
  0
DICTIONARY
  5
17
102
{ACAD_REACTORS
330
C
102
}
330
C
100
AcDbDictionary
281
     1
  3
Standard
350
18
  0
DICTIONARY
  5
19
102
{ACAD_REACTORS
330
C
102
}
330
C
100
AcDbDictionary
281
     1
  0
ACDBDICTIONARYWDFLT
  5
E
102
{ACAD_REACTORS
330
C
102
}
330
C
100
AcDbDictionary
281
     1
  3
Normal
350
F
100
AcDbDictionaryWithDefault
340
F
  0
DICTIONARY
  5
47
102
{ACAD_REACTORS
330
C
102
}
330
C
100
AcDbDictionary
281
     1
  3
A0
350
48
  3
A1
350
49
  3
A2
350
4A
  3
A3
350
4B
  3
A4
350
4C
  3
A5
350
4D
  3
A6
350
4E
  3
A7
350
4F
  3
A8
350
50
  3
A9
350
51
  3
B0
350
52
  3
B1
350
53
  3
B2
350
54
  3
B3
350
55
  3
B4
350
56
  3
B5
350
57
  3
B6
350
58
  3
B7
350
59
  3
B8
350
5A
  3
B9
350
5B
  3
C0
350
5C
  3
C1
350
5D
  3
C2
350
5E
  3
C3
350
5F
  3
C4
350
60
  3
C5
350
61
  3
C6
350
62
  3
C7
350
63
  3
C8
350
64
  3
C9
350
65
  3
D0
350
66
  3
D1
350
67
  3
D2
350
68
  0
LAYOUT
  5
1E
102
{ACAD_REACTORS
330
1A
102
}
330
1A
100
AcDbPlotSettings
  1

  2
none_device
  4

  6

 40
0.0
 41
0.0
 42
0.0
 43
0.0
 44
0.0
 45
0.0
 46
0.0
 47
0.0
 48
0.0
 49
0.0
140
0.0
141
0.0
142
1.0
143
1.0
 70
   688
 72
     1
 73
     0
 74
     5
  7

 75
    16
147
1.0
148
0.0
149
0.0
100
AcDbLayout
  1
Layout1
 70
     1
 71
     1
 10
0.0
 20
0.0
 11
420.0
 21
297.0
 12
0.0
 22
0.0
 32
0.0
 14
1.0000000000E+20
 24
1.0000000000E+20
 34
1.0000000000E+20
 15
-1.0000000000E+20
 25
-1.0000000000E+20
 35
-1.0000000000E+20
146
0.0
 13
0.0
 23
0.0
 33
0.0
 16
1.0
 26
0.0
 36
0.0
 17
0.0
 27
1.0
 37
0.0
 76
     0
330
1B
  0
LAYOUT
  5
26
102
{ACAD_REACTORS
330
1A
102
}
330
1A
100
AcDbPlotSettings
  1

  2
none_device
  4

  6

 40
0.0
 41
0.0
 42
0.0
 43
0.0
 44
0.0
 45
0.0
 46
0.0
 47
0.0
 48
0.0
 49
0.0
140
0.0
141
0.0
142
1.0
143
1.0
 70
   688
 72
     1
 73
     0
 74
     5
  7

 75
    16
147
1.0
148
0.0
149
0.0
100
AcDbLayout
  1
Layout2
 70
     1
 71
     2
 10
0.0
 20
0.0
 11
0.0
 21
0.0
 12
0.0
 22
0.0
 32
0.0
 14
0.0
 24
0.0
 34
0.0
 15
0.0
 25
0.0
 35
0.0
146
0.0
 13
0.0
 23
0.0
 33
0.0
 16
1.0
 26
0.0
 36
0.0
 17
0.0
 27
1.0
 37
0.0
 76
     0
330
23
  0
LAYOUT
  5
22
102
{ACAD_REACTORS
330
1A
102
}
330
1A
100
AcDbPlotSettings
  1

  2
none_device
  4
Letter_(8.50_x_11.00_Inches)
  6

 40
6.35
 41
6.35
 42
6.35000508
 43
6.35000508
 44
215.9
 45
279.4
 46
0.0
 47
0.0
 48
0.0
 49
0.0
140
0.0
141
0.0
142
1.0
143
1.0
 70
  1712
 72
     1
 73
     0
 74
     0
  7

 75
     0
147
1.0
148
0.0
149
0.0
100
AcDbLayout
  1
Model
 70
     1
 71
     0
 10
0.0
 20
0.0
 11
215.9
 21
139.7
 12
0.0
 22
0.0
 32
0.0
 14
0.0
 24
0.0
 34
0.0
 15
215.9
 25
139.7
 35
0.0
146
0.0
 13
0.0
 23
0.0
 33
0.0
 16
1.0
 26
0.0
 36
0.0
 17
0.0
 27
1.0
 37
0.0
 76
     0
330
1F
331
29
  0
MLINESTYLE
  5
18
102
{ACAD_REACTORS
330
17
102
}
330
17
100
AcDbMlineStyle
  2
Standard
 70
     0
  3

 62
   256
 51
90.0
 52
90.0
 71
     2
 49
0.5
 62
   256
  6
BYLAYER
 49
-0.5
 62
   256
  6
BYLAYER
  0
ACDBPLACEHOLDER
  5
F
102
{ACAD_REACTORS
330
E
102
}
330
E
  0
SCALE
  5
48
102
{ACAD_REACTORS
330
47
102
}
330
47
100
AcDbScale
 70
     0
300
1:1
140
1.0
141
1.0
290
     1
  0
SCALE
  5
49
102
{ACAD_REACTORS
330
47
102
}
330
47
100
AcDbScale
 70
     0
300
1:2
140
1.0
141
2.0
290
     0
  0
SCALE
  5
4A
102
{ACAD_REACTORS
330
47
102
}
330
47
100
AcDbScale
 70
     0
300
1:4
140
1.0
141
4.0
290
     0
  0
SCALE
  5
4B
102
{ACAD_REACTORS
330
47
102
}
330
47
100
AcDbScale
 70
     0
300
1:5
140
1.0
141
5.0
290
     0
  0
SCALE
  5
4C
102
{ACAD_REACTORS
330
47
102
}
330
47
100
AcDbScale
 70
     0
300
1:8
140
1.0
141
8.0
290
     0
  0
SCALE
  5
4D
102
{ACAD_REACTORS
330
47
102
}
330
47
100
AcDbScale
 70
     0
300
1:10
140
1.0
141
10.0
290
     0
  0
SCALE
  5
4E
102
{ACAD_REACTORS
330
47
102
}
330
47
100
AcDbScale
 70
     0
300
1:16
140
1.0
141
16.0
290
     0
  0
SCALE
  5
4F
102
{ACAD_REACTORS
330
47
102
}
330
47
100
AcDbScale
 70
     0
300
1:20
140
1.0
141
20.0
290
     0
  0
SCALE
  5
50
102
{ACAD_REACTORS
330
47
102
}
330
47
100
AcDbScale
 70
     0
300
1:30
140
1.0
141
30.0
290
     0
  0
SCALE
  5
51
102
{ACAD_REACTORS
330
47
102
}
330
47
100
AcDbScale
 70
     0
300
1:40
140
1.0
141
40.0
290
     0
  0
SCALE
  5
52
102
{ACAD_REACTORS
330
47
102
}
330
47
100
AcDbScale
 70
     0
300
1:50
140
1.0
141
50.0
290
     0
  0
SCALE
  5
53
102
{ACAD_REACTORS
330
47
102
}
330
47
100
AcDbScale
 70
     0
300
1:100
140
1.0
141
100.0
290
     0
  0
SCALE
  5
54
102
{ACAD_REACTORS
330
47
102
}
330
47
100
AcDbScale
 70
     0
300
2:1
140
2.0
141
1.0
290
     0
  0
SCALE
  5
55
102
{ACAD_REACTORS
330
47
102
}
330
47
100
AcDbScale
 70
     0
300
4:1
140
4.0
141
1.0
290
     0
  0
SCALE
  5
56
102
{ACAD_REACTORS
330
47
102
}
330
47
100
AcDbScale
 70
     0
300
8:1
140
8.0
141
1.0
290
     0
  0
SCALE
  5
57
102
{ACAD_REACTORS
330
47
102
}
330
47
100
AcDbScale
 70
     0
300
10:1
140
10.0
141
1.0
290
     0
  0
SCALE
  5
58
102
{ACAD_REACTORS
330
47
102
}
330
47
100
AcDbScale
 70
     0
300
100:1
140
100.0
141
1.0
290
     0
  0
SCALE
  5
59
102
{ACAD_REACTORS
330
47
102
}
330
47
100
AcDbScale
 70
     0
300
1/128" = 1'-0"
140
0.0078125
141
12.0
290
     0
  0
SCALE
  5
5A
102
{ACAD_REACTORS
330
47
102
}
330
47
100
AcDbScale
 70
     0
300
1/64" = 1'-0"
140
0.015625
141
12.0
290
     0
  0
SCALE
  5
5B
102
{ACAD_REACTORS
330
47
102
}
330
47
100
AcDbScale
 70
     0
300
1/32" = 1'-0"
140
0.03125
141
12.0
290
     0
  0
SCALE
  5
5C
102
{ACAD_REACTORS
330
47
102
}
330
47
100
AcDbScale
 70
     0
300
1/16" = 1'-0"
140
0.0625
141
12.0
290
     0
  0
SCALE
  5
5D
102
{ACAD_REACTORS
330
47
102
}
330
47
100
AcDbScale
 70
     0
300
3/32" = 1'-0"
140
0.09375
141
12.0
290
     0
  0
SCALE
  5
5E
102
{ACAD_REACTORS
330
47
102
}
330
47
100
AcDbScale
 70
     0
300
1/8" = 1'-0"
140
0.125
141
12.0
290
     0
  0
SCALE
  5
5F
102
{ACAD_REACTORS
330
47
102
}
330
47
100
AcDbScale
 70
     0
300
3/16" = 1'-0"
140
0.1875
141
12.0
290
     0
  0
SCALE
  5
60
102
{ACAD_REACTORS
330
47
102
}
330
47
100
AcDbScale
 70
     0
300
1/4" = 1'-0"
140
0.25
141
12.0
290
     0
  0
SCALE
  5
61
102
{ACAD_REACTORS
330
47
102
}
330
47
100
AcDbScale
 70
     0
300
3/8" = 1'-0"
140
0.375
141
12.0
290
     0
  0
SCALE
  5
62
102
{ACAD_REACTORS
330
47
102
}
330
47
100
AcDbScale
 70
     0
300
1/2" = 1'-0"
140
0.5
141
12.0
290
     0
  0
SCALE
  5
63
102
{ACAD_REACTORS
330
47
102
}
330
47
100
AcDbScale
 70
     0
300
3/4" = 1'-0"
140
0.75
141
12.0
290
     0
  0
SCALE
  5
64
102
{ACAD_REACTORS
330
47
102
}
330
47
100
AcDbScale
 70
     0
300
1" = 1'-0"
140
1.0
141
12.0
290
     0
  0
SCALE
  5
65
102
{ACAD_REACTORS
330
47
102
}
330
47
100
AcDbScale
 70
     0
300
1-1/2" = 1'-0"
140
1.5
141
12.0
290
     0
  0
SCALE
  5
66
102
{ACAD_REACTORS
330
47
102
}
330
47
100
AcDbScale
 70
     0
300
3" = 1'-0"
140
3.0
141
12.0
290
     0
  0
SCALE
  5
67
102
{ACAD_REACTORS
330
47
102
}
330
47
100
AcDbScale
 70
     0
300
6" = 1'-0"
140
6.0
141
12.0
290
     0
  0
SCALE
  5
68
102
{ACAD_REACTORS
330
47
102
}
330
47
100
AcDbScale
 70
     0
300
1'-0" = 1'-0"
140
12.0
141
12.0
290
     0
  0
ENDSEC
  0
EOF
