  0
SECTION
  2
HEADER
  9
$ACADVER
  1
AC1015
  9
$ACADMAINTVER
 70
     6
  9
$DWGCODEPAGE
  3
DOS932
  9
$INSBASE
 10
0.0
 20
0.0
 30
0.0
  9
$EXTMIN
 10
0.0
 20
0.0
 30
0.0
  9
$EXTMAX
 10
215.9
 20
139.7
 30
0.0
  9
$LIMMIN
 10
0.0
 20
0.0
  9
$LIMMAX
 10
215.9
 20
139.7
  9
$ORTHOMODE
 70
     0
  9
$REGENMODE
 70
     1
  9
$FILLMODE
 70
     1
  9
$QTEXTMODE
 70
     0
  9
$MIRRTEXT
 70
     1
  9
$LTSCALE
 40
0.5
  9
$ATTMODE
 70
     1
  9
$TEXTSIZE
 40
1.75
  9
$TRACEWID
 40
1.0
  9
$TEXTSTYLE
  7
Standard
  9
$CLAYER
  8
0
  9
$CELTYPE
  6
ByLayer
  9
$CECOLOR
 62
   256
  9
$CELTSCALE
 40
1.0
  9
$DISPSILH
 70
     0
  9
$DIMSCALE
 40
1.0
  9
$DIMASZ
 40
1.651
  9
$DIMEXO
 40
0.5
  9
$DIMDLI
 40
3.75
  9
$DIMRND
 40
0.0
  9
$DIMDLE
 40
0.0
  9
$DIMEXE
 40
0.5
  9
$DIMTP
 40
0.0
  9
$DIMTM
 40
0.0
  9
$DIMTXT
 40
1.75
  9
$DIMCEN
 40
2.5
  9
$DIMTSZ
 40
0.0
  9
$DIMTOL
 70
     0
  9
$DIMLIM
 70
     0
  9
$DIMTIH
 70
     1
  9
$DIMTOH
 70
     1
  9
$DIMSE1
 70
     0
  9
$DIMSE2
 70
     0
  9
$DIMTAD
 70
     1
  9
$DIMZIN
 70
     1
  9
$DIMBLK
  1

  9
$DIMASO
 70
     1
  9
$DIMSHO
 70
     1
  9
$DIMPOST
  1

  9
$DIMAPOST
  1

  9
$DIMALT
 70
     0
  9
$DIMALTD
 70
     3
  9
$DIMALTF
 40
0.0393700787
  9
$DIMLFAC
 40
1.0
  9
$DIMTOFL
 70
     1
  9
$DIMTVP
 40
0.0
  9
$DIMTIX
 70
     0
  9
$DIMSOXD
 70
     0
  9
$DIMSAH
 70
     0
  9
$DIMBLK1
  1

  9
$DIMBLK2
  1

  9
$DIMSTYLE
  2
ISO-25
  9
$DIMCLRD
 70
     0
  9
$DIMCLRE
 70
     0
  9
$DIMCLRT
 70
     0
  9
$DIMTFAC
 40
1.0
  9
$DIMGAP
 40
0.762
  9
$DIMJUST
 70
     0
  9
$DIMSD1
 70
     0
  9
$DIMSD2
 70
     0
  9
$DIMTOLJ
 70
     0
  9
$DIMTZIN
 70
     1
  9
$DIMALTZ
 70
     0
  9
$DIMALTTZ
 70
     0
  9
$DIMUPT
 70
     0
  9
$DIMDEC
 70
     2
  9
$DIMTDEC
 70
     2
  9
$DIMALTU
 70
     2
  9
$DIMALTTD
 70
     3
  9
$DIMTXSTY
  7
Standard
  9
$DIMAUNIT
 70
     0
  9
$DIMADEC
 70
     2
  9
$DIMALTRND
 40
0.0
  9
$DIMAZIN
 70
     0
  9
$DIMDSEP
 70
    44
  9
$DIMATFIT
 70
     3
  9
$DIMFRAC
 70
     0
  9
$DIMLDRBLK
  1

  9
$DIMLUNIT
 70
     2
  9
$DIMLWD
 70
    -2
  9
$DIMLWE
 70
    -2
  9
$DIMTMOVE
 70
     0
  9
$LUNITS
 70
     2
  9
$LUPREC
 70
     2
  9
$SKETCHINC
 40
1.0
  9
$FILLETRAD
 40
10.0
  9
$AUNITS
 70
     0
  9
$AUPREC
 70
     2
  9
$MENU
  1
.
  9
$ELEVATION
 40
0.0
  9
$PELEVATION
 40
0.0
  9
$THICKNESS
 40
0.0
  9
$LIMCHECK
 70
     0
  9
$CHAMFERA
 40
0.0
  9
$CHAMFERB
 40
0.0
  9
$CHAMFERC
 40
0.0
  9
$CHAMFERD
 40
0.0
  9
$SKPOLY
 70
     0
  9
$TDCREATE
 40
2460066.381333773
  9
$TDUCREATE
 40
2460066.006333773
  9
$TDUPDATE
 40
2460066.381334491
  9
$TDUUPDATE
 40
2460066.006334491
  9
$TDINDWG
 40
0.0000000116
  9
$TDUSRTIMER
 40
0.0000000116
  9
$USRTIMER
 70
     1
  9
$ANGBASE
 50
0.0
  9
$ANGDIR
 70
     0
  9
$PDMODE
 70
     0
  9
$PDSIZE
 40
-1.0
  9
$PLINEWID
 40
0.0
  9
$SPLFRAME
 70
     0
  9
$SPLINETYPE
 70
     6
  9
$SPLINESEGS
 70
     8
  9
$HANDSEED
  5
146
  9
$SURFTAB1
 70
     6
  9
$SURFTAB2
 70
     6
  9
$SURFTYPE
 70
     6
  9
$SURFU
 70
     6
  9
$SURFV
 70
     6
  9
$UCSBASE
  2

  9
$UCSNAME
  2

  9
$UCSORG
 10
0.0
 20
0.0
 30
0.0
  9
$UCSXDIR
 10
1.0
 20
0.0
 30
0.0
  9
$UCSYDIR
 10
0.0
 20
1.0
 30
0.0
  9
$UCSORTHOREF
  2

  9
$UCSORTHOVIEW
 70
     0
  9
$UCSORGTOP
 10
0.0
 20
0.0
 30
0.0
  9
$UCSORGBOTTOM
 10
0.0
 20
0.0
 30
0.0
  9
$UCSORGLEFT
 10
0.0
 20
0.0
 30
0.0
  9
$UCSORGRIGHT
 10
0.0
 20
0.0
 30
0.0
  9
$UCSORGFRONT
 10
0.0
 20
0.0
 30
0.0
  9
$UCSORGBACK
 10
0.0
 20
0.0
 30
0.0
  9
$PUCSBASE
  2

  9
$PUCSNAME
  2

  9
$PUCSORG
 10
0.0
 20
0.0
 30
0.0
  9
$PUCSXDIR
 10
1.0
 20
0.0
 30
0.0
  9
$PUCSYDIR
 10
0.0
 20
1.0
 30
0.0
  9
$PUCSORTHOREF
  2

  9
$PUCSORTHOVIEW
 70
     0
  9
$PUCSORGTOP
 10
0.0
 20
0.0
 30
0.0
  9
$PUCSORGBOTTOM
 10
0.0
 20
0.0
 30
0.0
  9
$PUCSORGLEFT
 10
0.0
 20
0.0
 30
0.0
  9
$PUCSORGRIGHT
 10
0.0
 20
0.0
 30
0.0
  9
$PUCSORGFRONT
 10
0.0
 20
0.0
 30
0.0
  9
$PUCSORGBACK
 10
0.0
 20
0.0
 30
0.0
  9
$USERI1
 70
     0
  9
$USERI2
 70
     0
  9
$USERI3
 70
     0
  9
$USERI4
 70
     0
  9
$USERI5
 70
     0
  9
$USERR1
 40
0.0
  9
$USERR2
 40
0.0
  9
$USERR3
 40
0.0
  9
$USERR4
 40
0.0
  9
$USERR5
 40
0.0
  9
$WORLDVIEW
 70
     1
  9
$SHADEDGE
 70
     3
  9
$SHADEDIF
 70
    70
  9
$TILEMODE
 70
     1
  9
$MAXACTVP
 70
    64
  9
$PINSBASE
 10
0.0
 20
0.0
 30
0.0
  9
$PLIMCHECK
 70
     0
  9
$PEXTMIN
 10
1.0000000000E+20
 20
1.0000000000E+20
 30
1.0000000000E+20
  9
$PEXTMAX
 10
-1.0000000000E+20
 20
-1.0000000000E+20
 30
-1.0000000000E+20
  9
$PLIMMIN
 10
0.0
 20
0.0
  9
$PLIMMAX
 10
420.0
 20
297.0
  9
$UNITMODE
 70
     0
  9
$VISRETAIN
 70
     1
  9
$PLINEGEN
 70
     0
  9
$PSLTSCALE
 70
     1
  9
$TREEDEPTH
 70
  3020
  9
$CMLSTYLE
  2
Standard
  9
$CMLJUST
 70
     0
  9
$CMLSCALE
 40
20.0
  9
$PROXYGRAPHICS
 70
     1
  9
$MEASUREMENT
 70
     1
  9
$CELWEIGHT
370
    -1
  9
$ENDCAPS
280
     0
  9
$JOINSTYLE
280
     0
  9
$LWDISPLAY
290
     1
  9
$INSUNITS
 70
     4
  9
$HYPERLINKBASE
  1

  9
$STYLESHEET
  1

  9
$XEDIT
290
     1
  9
$CEPSNTYPE
380
     0
  9
$PSTYLEMODE
290
     1
  9
$FINGERPRINTGUID
  2
{97593098-9337-48B4-BCF8-B3CAEB11B5D0}
  9
$VERSIONGUID
  2
{FAEB1C32-E019-11D5-929B-00C0DF256EC4}
  9
$EXTNAMES
290
     1
  9
$PSVPSCALE
 40
0.0
  9
$OLESTARTUP
290
     0
  0
ENDSEC
  0
SECTION
  2
CLASSES
  0
CLASS
  1
ACDBDICTIONARYWDFLT
  2
AcDbDictionaryWithDefault
  3
ObjectDBX Classes
 90
        0
280
     0
281
     0
  0
CLASS
  1
VISUALSTYLE
  2
AcDbVisualStyle
  3
ObjectDBX Classes
 90
     4095
280
     0
281
     0
  0
CLASS
  1
MATERIAL
  2
AcDbMaterial
  3
ObjectDBX Classes
 90
     1153
280
     0
281
     0
  0
CLASS
  1
SCALE
  2
AcDbScale
  3
ObjectDBX Classes
 90
     1153
280
     0
281
     0
  0
CLASS
  1
TABLESTYLE
  2
AcDbTableStyle
  3
ObjectDBX Classes
 90
     4095
280
     0
281
     0
  0
CLASS
  1
MLEADERSTYLE
  2
AcDbMLeaderStyle
  3
ACDB_MLEADERSTYLE_CLASS
 90
     4095
280
     0
281
     0
  0
CLASS
  1
SUN
  2
AcDbSun
  3
SCENEOE
 90
     1153
280
     0
281
     0
  0
CLASS
  1
ACDBPLACEHOLDER
  2
AcDbPlaceHolder
  3
ObjectDBX Classes
 90
        0
280
     0
281
     0
  0
CLASS
  1
LAYOUT
  2
AcDbLayout
  3
ObjectDBX Classes
 90
        0
280
     0
281
     0
  0
ENDSEC
  0
SECTION
  2
TABLES
  0
TABLE
  2
VPORT
  5
8
330
0
100
AcDbSymbolTable
 70
     1
  0
VPORT
  5
29
330
8
100
AcDbSymbolTableRecord
100
AcDbViewportTableRecord
  2
*Active
 70
     0
 10
0.0
 20
0.0
 11
1.0
 21
1.0
 12
107.95
 22
69.85
 13
0.0
 23
0.0
 14
10.0
 24
10.0
 15
10.0
 25
10.0
 16
0.0
 26
0.0
 36
1.0
 17
0.0
 27
0.0
 37
0.0
 40
139.7
 41
1.5454545455
 42
50.0
 43
0.0
 44
0.0
 50
0.0
 51
0.0
 71
     0
 72
  2000
 73
     1
 74
     3
 75
     0
 76
     0
 77
     0
 78
     0
281
     0
 65
     1
110
0.0
120
0.0
130
0.0
111
1.0
121
0.0
131
0.0
112
0.0
122
1.0
132
0.0
 79
     0
146
0.0
  0
ENDTAB
  0
TABLE
  2
LTYPE
  5
5
330
0
100
AcDbSymbolTable
 70
     6
  0
LTYPE
  5
14
330
5
100
AcDbSymbolTableRecord
100
AcDbLinetypeTableRecord
  2
ByBlock
 70
     0
  3

 72
    65
 73
     0
 40
0.0
  0
LTYPE
  5
15
330
5
100
AcDbSymbolTableRecord
100
AcDbLinetypeTableRecord
  2
ByLayer
 70
     0
  3

 72
    65
 73
     0
 40
0.0
  0
LTYPE
  5
16
330
5
100
AcDbSymbolTableRecord
100
AcDbLinetypeTableRecord
  2
Continuous
 70
     0
  3
Solid line
 72
    65
 73
     0
 40
0.0
  0
LTYPE
  5
6E
330
5
100
AcDbSymbolTableRecord
100
AcDbLinetypeTableRecord
  2
HIDDEN
 70
     0
  3
Hidden __ __ __ __ __ __ __ __ __ __ __ __ __ __
 72
    65
 73
     2
 40
1.905
 49
1.27
 74
     0
 49
-0.635
 74
     0
  0
LTYPE
  5
6F
330
5
100
AcDbSymbolTableRecord
100
AcDbLinetypeTableRecord
  2
PHANTOM
 70
     0
  3
Phantom ______  __  __  ______  __  __  ______
 72
    65
 73
     6
 40
12.7
 49
6.35
 74
     0
 49
-1.27
 74
     0
 49
1.27
 74
     0
 49
-1.27
 74
     0
 49
1.27
 74
     0
 49
-1.27
 74
     0
  0
LTYPE
  5
70
330
5
100
AcDbSymbolTableRecord
100
AcDbLinetypeTableRecord
  2
CENTER
 70
     0
  3
Center ____ _ ____ _ ____ _ ____ _ ____ _ ____
 72
    65
 73
     4
 40
10.16
 49
6.35
 74
     0
 49
-1.27
 74
     0
 49
1.27
 74
     0
 49
-1.27
 74
     0
  0
LTYPE
  5
71
330
5
100
AcDbSymbolTableRecord
100
AcDbLinetypeTableRecord
  2
CENTERX2
 70
     0
  3
Center (2x) ________  __  ________  __  _____
 72
    65
 73
     4
 40
20.32
 49
12.7
 74
     0
 49
-2.54
 74
     0
 49
2.54
 74
     0
 49
-2.54
 74
     0
  0
LTYPE
  5
72
330
5
100
AcDbSymbolTableRecord
100
AcDbLinetypeTableRecord
  2
DOT2
 70
     0
  3
Dot (.5x) ........................................
 72
    65
 73
     2
 40
0.635
 49
0.0
 74
     0
 49
-0.635
 74
     0
  0
ENDTAB
  0
TABLE
  2
LAYER
  5
2
330
0
100
AcDbSymbolTable
 70
     1
  0
LAYER
  5
10
330
2
100
AcDbSymbolTableRecord
100
AcDbLayerTableRecord
  2
0
 70
     0
 62
     7
  6
Continuous
370
    -3
390
F
  0
ENDTAB
  0
TABLE
  2
STYLE
  5
3
330
0
100
AcDbSymbolTable
 70
     2
  0
STYLE
  5
11
330
3
100
AcDbSymbolTableRecord
100
AcDbTextStyleTableRecord
  2
Standard
 70
     0
 40
0.0
 41
1.0
 50
0.0
 71
     0
 42
1.75
  3
txt
  4
bigfont
  0
STYLE
  5
73
330
3
100
AcDbSymbolTableRecord
100
AcDbTextStyleTableRecord
  2
SLDTEXTSTYLE0
 70
     0
 40
0.0
 41
0.7
 50
0.0
 71
     0
 42
1.75
  3
TXT
  4
bigfont
  0
ENDTAB
  0
TABLE
  2
VIEW
  5
6
330
0
100
AcDbSymbolTable
 70
     0
  0
ENDTAB
  0
TABLE
  2
UCS
  5
7
330
0
100
AcDbSymbolTable
 70
     0
  0
ENDTAB
  0
TABLE
  2
APPID
  5
9
330
0
100
AcDbSymbolTable
 70
     1
  0
APPID
  5
12
330
9
100
AcDbSymbolTableRecord
100
AcDbRegAppTableRecord
  2
ACAD
 70
     0
  0
ENDTAB
  0
TABLE
  2
DIMSTYLE
  5
A
330
0
100
AcDbSymbolTable
 70
     1
100
AcDbDimStyleTable
  0
DIMSTYLE
105
27
330
A
100
AcDbSymbolTableRecord
100
AcDbDimStyleTableRecord
  2
ISO-25
 70
     0
 41
2.5
 42
0.625
 43
3.75
 44
1.25
 73
     0
 74
     0
 77
     1
 78
     8
140
2.5
141
2.5
143
0.0393700787
147
0.625
171
     3
172
     1
178
     0
271
     2
272
     2
274
     3
278
    44
283
     0
284
     8
340
11
  0
ENDTAB
  0
TABLE
  2
BLOCK_RECORD
  5
1
330
0
100
AcDbSymbolTable
 70
     3
  0
BLOCK_RECORD
  5
1F
330
1
100
AcDbSymbolTableRecord
100
AcDbBlockTableRecord
  2
*Model_Space
340
22
  0
BLOCK_RECORD
  5
1B
330
1
100
AcDbSymbolTableRecord
100
AcDbBlockTableRecord
  2
*Paper_Space
340
1E
  0
BLOCK_RECORD
  5
23
330
1
100
AcDbSymbolTableRecord
100
AcDbBlockTableRecord
  2
*Paper_Space0
340
26
  0
BLOCK_RECORD
  5
E9
330
1
100
AcDbSymbolTableRecord
100
AcDbBlockTableRecord
  2
SW_CENTERMARKSYMBOL_0
340
0
102
{BLKREFS
331
F4
102
}
  0
BLOCK_RECORD
  5
F5
330
1
100
AcDbSymbolTableRecord
100
AcDbBlockTableRecord
  2
SW_CENTERMARKSYMBOL_1
340
0
102
{BLKREFS
331
100
102
}
  0
ENDTAB
  0
ENDSEC
  0
SECTION
  2
BLOCKS
  0
BLOCK
  5
20
330
1F
100
AcDbEntity
  8
0
100
AcDbBlockBegin
  2
*Model_Space
 70
     0
 10
0.0
 20
0.0
 30
0.0
  3
*Model_Space
  1

  0
ENDBLK
  5
21
330
1F
100
AcDbEntity
  8
0
100
AcDbBlockEnd
  0
BLOCK
  5
1C
330
1B
100
AcDbEntity
 67
     1
  8
0
100
AcDbBlockBegin
  2
*Paper_Space
 70
     0
 10
0.0
 20
0.0
 30
0.0
  3
*Paper_Space
  1

  0
ENDBLK
  5
1D
330
1B
100
AcDbEntity
 67
     1
  8
0
100
AcDbBlockEnd
  0
BLOCK
  5
24
330
23
100
AcDbEntity
  8
0
100
AcDbBlockBegin
  2
*Paper_Space0
 70
     0
 10
0.0
 20
0.0
 30
0.0
  3
*Paper_Space0
  1

  0
ENDBLK
  5
25
330
23
100
AcDbEntity
  8
0
100
AcDbBlockEnd
  0
BLOCK
  5
EA
330
E9
100
AcDbEntity
  8
0
100
AcDbBlockBegin
  2
SW_CENTERMARKSYMBOL_0
 70
     0
 10
0.0
 20
0.0
 30
0.0
  3
SW_CENTERMARKSYMBOL_0
  1

  0
LINE
  5
EC
330
E9
100
AcDbEntity
  8
0
  6
Continuous
 62
     0
370
    18
100
AcDbLine
 10
0.0
 20
0.0
 30
0.0
 11
0.0
 21
2.5
 31
0.0
  0
LINE
  5
ED
330
E9
100
AcDbEntity
  8
0
  6
Continuous
 62
     0
370
    18
100
AcDbLine
 10
0.0
 20
0.0
 30
0.0
 11
-2.5
 21
0.0
 31
0.0
  0
LINE
  5
EE
330
E9
100
AcDbEntity
  8
0
  6
Continuous
 62
     0
370
    18
100
AcDbLine
 10
0.0
 20
0.0
 30
0.0
 11
0.0
 21
-2.5
 31
0.0
  0
LINE
  5
EF
330
E9
100
AcDbEntity
  8
0
  6
Continuous
 62
     0
370
    18
100
AcDbLine
 10
0.0
 20
0.0
 30
0.0
 11
2.5
 21
0.0
 31
0.0
  0
LINE
  5
F0
330
E9
100
AcDbEntity
  8
0
  6
Continuous
 62
     0
370
    18
100
AcDbLine
 10
0.0
 20
2.5
 30
0.0
 11
0.0
 21
4.0
 31
0.0
  0
LINE
  5
F1
330
E9
100
AcDbEntity
  8
0
  6
Continuous
 62
     0
370
    18
100
AcDbLine
 10
-2.5
 20
0.0
 30
0.0
 11
-4.0
 21
0.0
 31
0.0
  0
LINE
  5
F2
330
E9
100
AcDbEntity
  8
0
  6
Continuous
 62
     0
370
    18
100
AcDbLine
 10
0.0
 20
-2.5
 30
0.0
 11
0.0
 21
-4.0
 31
0.0
  0
LINE
  5
F3
330
E9
100
AcDbEntity
  8
0
  6
Continuous
 62
     0
370
    18
100
AcDbLine
 10
2.5
 20
0.0
 30
0.0
 11
4.0
 21
0.0
 31
0.0
  0
ENDBLK
  5
EB
330
E9
100
AcDbEntity
  8
0
100
AcDbBlockEnd
  0
BLOCK
  5
F6
330
F5
100
AcDbEntity
  8
0
100
AcDbBlockBegin
  2
SW_CENTERMARKSYMBOL_1
 70
     0
 10
0.0
 20
0.0
 30
0.0
  3
SW_CENTERMARKSYMBOL_1
  1

  0
LINE
  5
F8
330
F5
100
AcDbEntity
  8
0
  6
Continuous
 62
     0
370
    18
100
AcDbLine
 10
0.0
 20
0.0
 30
0.0
 11
0.0
 21
2.5
 31
0.0
  0
LINE
  5
F9
330
F5
100
AcDbEntity
  8
0
  6
Continuous
 62
     0
370
    18
100
AcDbLine
 10
0.0
 20
0.0
 30
0.0
 11
-2.5
 21
0.0
 31
0.0
  0
LINE
  5
FA
330
F5
100
AcDbEntity
  8
0
  6
Continuous
 62
     0
370
    18
100
AcDbLine
 10
0.0
 20
0.0
 30
0.0
 11
0.0
 21
-2.5
 31
0.0
  0
LINE
  5
FB
330
F5
100
AcDbEntity
  8
0
  6
Continuous
 62
     0
370
    18
100
AcDbLine
 10
0.0
 20
0.0
 30
0.0
 11
2.5
 21
0.0
 31
0.0
  0
LINE
  5
FC
330
F5
100
AcDbEntity
  8
0
  6
Continuous
 62
     0
370
    18
100
AcDbLine
 10
0.0
 20
5.0
 30
0.0
 11
0.0
 21
8.25
 31
0.0
  0
LINE
  5
FD
330
F5
100
AcDbEntity
  8
0
  6
Continuous
 62
     0
370
    18
100
AcDbLine
 10
-5.0
 20
0.0
 30
0.0
 11
-8.25
 21
0.0
 31
0.0
  0
LINE
  5
FE
330
F5
100
AcDbEntity
  8
0
  6
Continuous
 62
     0
370
    18
100
AcDbLine
 10
0.0
 20
-5.0
 30
0.0
 11
0.0
 21
-8.25
 31
0.0
  0
LINE
  5
FF
330
F5
100
AcDbEntity
  8
0
  6
Continuous
 62
     0
370
    18
100
AcDbLine
 10
5.0
 20
0.0
 30
0.0
 11
8.25
 21
0.0
 31
0.0
  0
ENDBLK
  5
F7
330
F5
100
AcDbEntity
  8
0
100
AcDbBlockEnd
  0
ENDSEC
  0
SECTION
  2
ENTITIES
  0
MTEXT
  5
74
330
1F
100
AcDbEntity
  8
0
  6
Continuous
 62
     7
370
     0
100
AcDbMText
 10
91.6018358949
 20
52.834995083
 30
0.0
 40
1.8520833333
 41
0.0
 71
     1
 72
     1
  1
エースニップル　HN-8106
  7
SLDTEXTSTYLE0
 73
     1
 44
1.0
  0
LINE
  5
75
330
1F
100
AcDbEntity
  8
0
  6
Continuous
 62
     7
370
    25
100
AcDbLine
 10
68.5073110967
 20
46.0555084326
 30
0.0
 11
67.8270751445
 21
44.8773052023
 31
0.0
  0
LINE
  5
76
330
1F
100
AcDbEntity
  8
0
  6
Continuous
 62
     7
370
    25
100
AcDbLine
 10
67.8270751445
 20
33.3773052023
 30
0.0
 11
68.5073110967
 21
32.199101972
 31
0.0
  0
LINE
  5
77
330
1F
100
AcDbEntity
  8
0
  6
Continuous
 62
     7
370
    25
100
AcDbLine
 10
72.1468391923
 20
32.199101972
 30
0.0
 11
72.8270751445
 21
33.3773052023
 31
0.0
  0
LINE
  5
78
330
1F
100
AcDbEntity
  8
0
  6
Continuous
 62
     7
370
    25
100
AcDbLine
 10
72.8270751445
 20
44.8773052023
 30
0.0
 11
72.1468391923
 21
46.0555084326
 31
0.0
  0
LINE
  5
79
330
1F
100
AcDbEntity
  8
0
  6
Continuous
 62
     7
370
    25
100
AcDbLine
 10
67.8270751445
 20
44.1484927023
 30
0.0
 11
60.182023204
 21
43.9095848292
 31
0.0
  0
LINE
  5
7A
330
1F
100
AcDbEntity
  8
0
  6
Continuous
 62
     7
370
    25
100
AcDbLine
 10
60.182023204
 20
34.3450255755
 30
0.0
 11
67.8270751445
 21
34.1061177023
 31
0.0
  0
LINE
  5
7B
330
1F
100
AcDbEntity
  8
0
  6
Continuous
 62
     7
370
    25
100
AcDbLine
 10
60.182023204
 20
43.9095848292
 30
0.0
 11
58.8270751445
 21
43.1273052023
 31
0.0
  0
LINE
  5
7C
330
1F
100
AcDbEntity
  8
0
  6
Continuous
 62
     7
370
    25
100
AcDbLine
 10
58.8270751445
 20
35.1273052023
 30
0.0
 11
60.182023204
 21
34.3450255755
 31
0.0
  0
LINE
  5
7D
330
1F
100
AcDbEntity
  8
0
  6
Continuous
 62
     7
370
    25
100
AcDbLine
 10
76.3270751445
 20
36.1273052023
 30
0.0
 11
80.3270751445
 21
36.7773052023
 31
0.0
  0
LINE
  5
7E
330
1F
100
AcDbEntity
  8
0
  6
Continuous
 62
     7
370
    25
100
AcDbLine
 10
80.3270751445
 20
41.4773052023
 30
0.0
 11
76.3270751445
 21
42.1273052023
 31
0.0
  0
LINE
  5
7F
330
1F
100
AcDbEntity
  8
0
  6
Continuous
 62
     7
370
    25
100
AcDbLine
 10
88.3270751445
 20
36.1273052023
 30
0.0
 11
92.3985555258
 21
36.7154079241
 31
0.0
  0
LINE
  5
80
330
1F
100
AcDbEntity
  8
0
  6
Continuous
 62
     7
370
    25
100
AcDbLine
 10
92.3985555258
 20
41.5392024806
 30
0.0
 11
88.3270751445
 21
42.1273052023
 31
0.0
  0
LINE
  5
81
330
1F
100
AcDbEntity
  8
0
  6
Continuous
 62
     7
370
    25
100
AcDbLine
 10
80.3270751445
 20
36.1273052023
 30
0.0
 11
84.3270751445
 21
36.7773052023
 31
0.0
  0
LINE
  5
82
330
1F
100
AcDbEntity
  8
0
  6
Continuous
 62
     7
370
    25
100
AcDbLine
 10
84.3270751445
 20
41.4773052023
 30
0.0
 11
80.3270751445
 21
42.1273052023
 31
0.0
  0
LINE
  5
83
330
1F
100
AcDbEntity
  8
0
  6
Continuous
 62
     7
370
    25
100
AcDbLine
 10
76.3270751445
 20
42.1273052023
 30
0.0
 11
72.8270751445
 21
42.1273052023
 31
0.0
  0
LINE
  5
84
330
1F
100
AcDbEntity
  8
0
  6
Continuous
 62
     7
370
    25
100
AcDbLine
 10
72.8270751445
 20
36.1273052023
 30
0.0
 11
76.3270751445
 21
36.1273052023
 31
0.0
  0
LINE
  5
85
330
1F
100
AcDbEntity
  8
0
  6
Continuous
 62
     7
370
    25
100
AcDbLine
 10
84.3270751445
 20
36.1273052023
 30
0.0
 11
88.3270751445
 21
36.7773052023
 31
0.0
  0
LINE
  5
86
330
1F
100
AcDbEntity
  8
0
  6
Continuous
 62
     7
370
    25
100
AcDbLine
 10
88.3270751445
 20
41.4773052023
 30
0.0
 11
84.3270751445
 21
42.1273052023
 31
0.0
  0
ARC
  5
87
330
1F
100
AcDbEntity
  8
0
  6
Continuous
 62
     7
370
    25
100
AcDbCircle
 10
92.3270751445
 20
41.0443383021
 30
0.0
 40
0.5000000000000073
100
AcDbArc
 50
0.0
 51
81.7807907511
  0
ARC
  5
88
330
1F
100
AcDbEntity
  8
0
  6
Continuous
 62
     7
370
    25
100
AcDbCircle
 10
92.3270751445
 20
37.2102721025
 30
0.0
 40
0.5
100
AcDbArc
 50
278.2192092489
 51
0.0
  0
LINE
  5
89
330
1F
100
AcDbEntity
  8
0
  6
Continuous
 62
     7
370
    25
100
AcDbLine
 10
70.4074599022
 20
46.0555084326
 30
0.0
 11
70.3270751445
 21
45.7555084326
 31
0.0
  0
LINE
  5
8A
330
1F
100
AcDbEntity
  8
0
  6
Continuous
 62
     7
370
    25
100
AcDbLine
 10
70.3270751445
 20
45.7555084326
 30
0.0
 11
70.2466903868
 21
46.0555084326
 31
0.0
  0
LINE
  5
8B
330
1F
100
AcDbEntity
  8
0
  6
Continuous
 62
     7
370
    25
100
AcDbLine
 10
70.3270751445
 20
32.499101972
 30
0.0
 11
70.4074599022
 21
32.199101972
 31
0.0
  0
LINE
  5
8C
330
1F
100
AcDbEntity
  8
0
  6
Continuous
 62
     7
370
    25
100
AcDbLine
 10
70.2466903868
 20
32.199101972
 30
0.0
 11
70.3270751445
 21
32.499101972
 31
0.0
  0
SPLINE
  5
8D
330
1F
100
AcDbEntity
  8
0
  6
Continuous
 62
     7
370
    25
100
AcDbSpline
210
0.0
220
0.0
230
1.0
 70
     8
 71
     3
 72
    14
 73
    10
 74
     0
 42
0.000000001
 43
0.00000001
 40
0.0
 40
0.0
 40
0.0
 40
0.0
 40
0.4999999999999999
 40
0.4999999999999999
 40
0.6249999999999999
 40
0.6249999999999999
 40
0.7499999999999998
 40
0.7499999999999998
 40
1.0
 40
1.0
 40
1.0
 40
1.0
 10
68.50731109666772
 20
46.05550843258769
 30
0.0
 10
68.18074919829162
 20
45.48988663278415
 30
0.0
 10
67.9721650467741
 20
44.91579078464726
 30
0.0
 10
67.97122726228574
 20
44.17951073172312
 30
0.0
 10
67.98375336867575
 20
44.03156211987604
 30
0.0
 10
68.03259840945101
 20
43.73890411059741
 30
0.0
 10
68.06886778750828
 20
43.59355628070624
 30
0.0
 10
68.20892048816744
 20
43.16010051349126
 30
0.0
 10
68.34382663255333
 20
42.87457021554466
 30
0.0
 10
68.507311096668
 20
42.59140681744986
 30
0.0
  0
SPLINE
  5
8E
330
1F
100
AcDbEntity
  8
0
  6
Continuous
 62
     7
370
    25
100
AcDbSpline
210
0.0
220
0.0
230
1.0
 70
     8
 71
     3
 72
    14
 73
    10
 74
     0
 42
0.000000001
 43
0.00000001
 40
0.0
 40
0.0
 40
0.0
 40
0.0
 40
0.25
 40
0.25
 40
0.5
 40
0.5
 40
0.75
 40
0.75
 40
1.0
 40
1.0
 40
1.0
 40
1.0
 10
68.50731109666829
 20
35.66320358717435
 30
0.0
 10
68.34452940683624
 20
36.22709590183639
 30
0.0
 10
68.20813617788731
 20
36.80423247529163
 30
0.0
 10
68.02167890454925
 20
37.96081846132586
 30
0.0
 10
67.97134732736191
 20
38.54259563685203
 30
0.0
 10
67.9714782259438
 20
39.71433667670237
 30
0.0
 10
68.02328658413083
 20
40.307983206166
 30
0.0
 10
68.21105671076265
 20
41.46417156247089
 30
0.0
 10
68.34565130511828
 20
42.03140087243865
 30
0.0
 10
68.5073110966683
 20
42.59140681744989
 30
0.0
  0
SPLINE
  5
8F
330
1F
100
AcDbEntity
  8
0
  6
Continuous
 62
     7
370
    25
100
AcDbSpline
210
0.0
220
0.0
230
1.0
 70
     8
 71
     3
 72
    14
 73
    10
 74
     0
 42
0.000000001
 43
0.00000001
 40
0.0
 40
0.0
 40
0.0
 40
0.0
 40
0.4999999999999997
 40
0.4999999999999997
 40
0.6249999999999997
 40
0.6249999999999997
 40
0.7499999999999997
 40
0.7499999999999997
 40
1.0
 40
1.0
 40
1.0
 40
1.0
 10
68.50731109666772
 20
35.66320358717439
 30
0.0
 10
68.18074919829162
 20
35.09758178737086
 30
0.0
 10
67.9721650467741
 20
34.52348593923397
 30
0.0
 10
67.97122726228574
 20
33.78720588630984
 30
0.0
 10
67.98375336867575
 20
33.63925727446276
 30
0.0
 10
68.03259840945101
 20
33.34659926518414
 30
0.0
 10
68.06886778750828
 20
33.20125143529297
 30
0.0
 10
68.20892048816742
 20
32.76779566807799
 30
0.0
 10
68.34382663255333
 20
32.48226537013139
 30
0.0
 10
68.507311096668
 20
32.1991019720366
 30
0.0
  0
LINE
  5
90
330
1F
100
AcDbEntity
  8
0
  6
Continuous
 62
     7
370
    25
100
AcDbLine
 10
67.8270751445
 20
44.8773052023
 30
0.0
 11
67.8270751445
 21
33.3773052023
 31
0.0
  0
LINE
  5
91
330
1F
100
AcDbEntity
  8
0
  6
Continuous
 62
     7
370
    25
100
AcDbLine
 10
70.2466903868
 20
35.6632035872
 30
0.0
 11
68.5073110967
 21
35.6632035872
 31
0.0
  0
LINE
  5
92
330
1F
100
AcDbEntity
  8
0
  6
Continuous
 62
     7
370
    25
100
AcDbLine
 10
70.2466903868
 20
42.5914068174
 30
0.0
 11
68.5073110967
 21
42.5914068174
 31
0.0
  0
SPLINE
  5
93
330
1F
100
AcDbEntity
  8
0
  6
Continuous
 62
     7
370
    25
100
AcDbSpline
210
0.0
220
0.0
230
1.0
 70
     8
 71
     3
 72
     8
 73
     4
 74
     0
 42
0.000000001
 43
0.00000001
 40
0.0
 40
0.0
 40
0.0
 40
0.0
 40
1.0
 40
1.0
 40
1.0
 40
1.0
 10
70.32707514450864
 20
41.94387724325742
 30
0.0
 10
70.30245807217916
 20
42.16007884213982
 30
0.0
 10
70.2755621016878
 20
42.37590540356966
 30
0.0
 10
70.24669038677932
 20
42.59140681744989
 30
0.0
  0
SPLINE
  5
94
330
1F
100
AcDbEntity
  8
0
  6
Continuous
 62
     7
370
    25
100
AcDbSpline
210
0.0
220
0.0
230
1.0
 70
     8
 71
     3
 72
     8
 73
     4
 74
     0
 42
0.000000001
 43
0.00000001
 40
0.0
 40
0.0
 40
0.0
 40
0.0
 40
1.0
 40
1.0
 40
1.0
 40
1.0
 10
70.40745990223799
 20
42.59140681744989
 30
0.0
 10
70.37856736412913
 20
42.37574997708607
 30
0.0
 10
70.3516736257993
 20
42.15991556470906
 30
0.0
 10
70.32707514450864
 20
41.94387724325742
 30
0.0
  0
LINE
  5
95
330
1F
100
AcDbEntity
  8
0
  6
Continuous
 62
     7
370
    25
100
AcDbLine
 10
72.1468391923
 20
42.5914068174
 30
0.0
 11
70.4074599022
 21
42.5914068174
 31
0.0
  0
SPLINE
  5
96
330
1F
100
AcDbEntity
  8
0
  6
Continuous
 62
     7
370
    25
100
AcDbSpline
210
0.0
220
0.0
230
1.0
 70
     8
 71
     3
 72
    14
 73
    10
 74
     0
 42
0.000000001
 43
0.00000001
 40
0.0
 40
0.0
 40
0.0
 40
0.0
 40
0.25
 40
0.25
 40
0.5
 40
0.5
 40
0.75
 40
0.75
 40
1.0
 40
1.0
 40
1.0
 40
1.0
 10
72.14683919234902
 20
35.66320358717435
 30
0.0
 10
72.30962088218105
 20
36.22709590183639
 30
0.0
 10
72.44601411112998
 20
36.80423247529163
 30
0.0
 10
72.63247138446806
 20
37.96081846132586
 30
0.0
 10
72.68280296165538
 20
38.54259563685203
 30
0.0
 10
72.68267206307351
 20
39.71433667670237
 30
0.0
 10
72.63086370488648
 20
40.307983206166
 30
0.0
 10
72.44309357825465
 20
41.46417156247088
 30
0.0
 10
72.30849898389901
 20
42.03140087243865
 30
0.0
 10
72.146839192349
 20
42.59140681744989
 30
0.0
  0
LINE
  5
97
330
1F
100
AcDbEntity
  8
0
  6
Continuous
 62
     7
370
    25
100
AcDbLine
 10
72.1468391923
 20
35.6632035872
 30
0.0
 11
70.4074599022
 21
35.6632035872
 31
0.0
  0
SPLINE
  5
98
330
1F
100
AcDbEntity
  8
0
  6
Continuous
 62
     7
370
    25
100
AcDbSpline
210
0.0
220
0.0
230
1.0
 70
     8
 71
     3
 72
     8
 73
     4
 74
     0
 42
0.000000001
 43
0.00000001
 40
0.0
 40
0.0
 40
0.0
 40
0.0
 40
1.0
 40
1.0
 40
1.0
 40
1.0
 10
70.32707514450864
 20
36.31073316136682
 30
0.0
 10
70.35169221683813
 20
36.09453156248441
 30
0.0
 10
70.3785881873295
 20
35.87870500105458
 30
0.0
 10
70.40745990223799
 20
35.66320358717436
 30
0.0
  0
SPLINE
  5
99
330
1F
100
AcDbEntity
  8
0
  6
Continuous
 62
     7
370
    25
100
AcDbSpline
210
0.0
220
0.0
230
1.0
 70
     8
 71
     3
 72
     8
 73
     4
 74
     0
 42
0.000000001
 43
0.00000001
 40
0.0
 40
0.0
 40
0.0
 40
0.0
 40
1.0
 40
1.0
 40
1.0
 40
1.0
 10
70.24669038677932
 20
35.66320358717436
 30
0.0
 10
70.27558292488818
 20
35.87886042753816
 30
0.0
 10
70.30247666321802
 20
36.09469483991519
 30
0.0
 10
70.32707514450864
 20
36.31073316136682
 30
0.0
  0
LINE
  5
9A
330
1F
100
AcDbEntity
  8
0
  6
Continuous
 62
     7
370
    25
100
AcDbLine
 10
70.2810414907
 20
38.5299588019
 30
0.0
 11
70.965536683
 21
38.0822424557
 31
0.0
  0
SPLINE
  5
9B
330
1F
100
AcDbEntity
  8
0
  6
Continuous
 62
     7
370
    25
100
AcDbSpline
210
0.0
220
0.0
230
1.0
 70
     8
 71
     3
 72
    19
 73
    15
 74
     0
 42
0.000000001
 43
0.00000001
 40
0.0
 40
0.0
 40
0.0
 40
0.0
 40
0.0978059775289525
 40
0.1996122522918966
 40
0.3052960258330041
 40
0.4158173591641854
 40
0.474240566618493
 40
0.5372869128296534
 40
0.6033858352934854
 40
0.6743111580696056
 40
0.749530467357482
 40
0.8286083142695116
 40
0.9120427387714447
 40
0.9999999999999999
 40
0.9999999999999999
 40
0.9999999999999999
 40
0.9999999999999999
 10
69.84534437527788
 20
38.6976270711244
 30
0.0
 10
69.8607864292412
 20
38.6970834504239
 30
0.0
 10
69.89230212234617
 20
38.69597397475421
 30
0.0
 10
69.94017159640858
 20
38.68935275178121
 30
0.0
 10
69.98896040959086
 20
38.67720861988218
 30
0.0
 10
70.03031997523688
 20
38.66406601491263
 30
0.0
 10
70.0645731890421
 20
38.6510245834676
 30
0.0
 10
70.09162204714916
 20
38.63893226815087
 30
0.0
 10
70.12018650982642
 20
38.62541158621141
 30
0.0
 10
70.14972610933201
 20
38.60956346409218
 30
0.0
 10
70.18108485600494
 20
38.59276317569248
 30
0.0
 10
70.21310143972163
 20
38.57313853234414
 30
0.0
 10
70.24694520498124
 20
38.5526599154638
 30
0.0
 10
70.26947785818297
 20
38.53765780279525
 30
0.0
 10
70.2810414906625
 20
38.52995880189363
 30
0.0
  0
SPLINE
  5
9C
330
1F
100
AcDbEntity
  8
0
  6
Continuous
 62
     7
370
    25
100
AcDbSpline
210
0.0
220
0.0
230
1.0
 70
     8
 71
     3
 72
    19
 73
    15
 74
     0
 42
0.000000001
 43
0.00000001
 40
0.0
 40
0.0
 40
0.0
 40
0.0
 40
0.0843261511037433
 40
0.1670353409858406
 40
0.2495407139852792
 40
0.3327066655796642
 40
0.4158726171740492
 40
0.4977774155681174
 40
0.5803136056784763
 40
0.6645325781316563
 40
0.7495711764063215
 40
0.8324741628544073
 40
0.9156738488962566
 40
1.0
 40
1.0
 40
1.0
 40
1.0
 10
69.38861360604712
 20
38.24330014804748
 30
0.0
 10
69.38926854971227
 20
38.26348445221922
 30
0.0
 10
69.3905658784413
 20
38.30346602478904
 30
0.0
 10
69.40212273314413
 20
38.36228002253739
 30
0.0
 10
69.42085425705828
 20
38.41879295975573
 30
0.0
 10
69.44666072110581
 20
38.47260759746116
 30
0.0
 10
69.47925567453733
 20
38.522462306443
 30
0.0
 10
69.51850137792547
 20
38.56705073986654
 30
0.0
 10
69.56353045617486
 20
38.6062177652081
 30
0.0
 10
69.61448104201605
 20
38.63864113254802
 30
0.0
 10
69.66887818325387
 20
38.66506626493192
 30
0.0
 10
69.7261157919985
 20
38.68370429292884
 30
0.0
 10
69.78504193866098
 20
38.69575755428423
 30
0.0
 10
69.82515365763682
 20
38.69700111156518
 30
0.0
 10
69.84534437527788
 20
38.6976270711244
 30
0.0
  0
SPLINE
  5
9D
330
1F
100
AcDbEntity
  8
0
  6
Continuous
 62
     7
370
    25
100
AcDbSpline
210
0.0
220
0.0
230
1.0
 70
     8
 71
     3
 72
    19
 73
    15
 74
     0
 42
0.000000001
 43
0.00000001
 40
0.0
 40
0.0
 40
0.0
 40
0.0
 40
0.0859901205637198
 40
0.1691084375726415
 40
0.2505285789581879
 40
0.332255696176845
 40
0.4135763652356403
 40
0.4941261456201216
 40
0.576305934120417
 40
0.6607126719045473
 40
0.7461272722239103
 40
0.8300149859609743
 40
0.9144197259288509
 40
1.0
 40
1.0
 40
1.0
 40
1.0
 10
69.84804870220096
 20
37.77455014804748
 30
0.0
 10
69.82706987891484
 20
37.77533294605063
 30
0.0
 10
69.78581286002976
 20
37.77687239902937
 30
0.0
 10
69.72547111088801
 20
37.78807896286265
 30
0.0
 10
69.66844621566717
 20
37.80741898815882
 30
0.0
 10
69.61451407594419
 20
37.83329362283916
 30
0.0
 10
69.56524385047847
 20
37.86686392679183
 30
0.0
 10
69.52071677844818
 20
37.90664658264733
 30
0.0
 10
69.48190489404678
 20
37.9530176477218
 30
0.0
 10
69.44860979518901
 20
38.00487904495796
 30
0.0
 10
69.42215688107132
 20
38.06100918275499
 30
0.0
 10
69.40259970173025
 20
38.11986346828083
 30
0.0
 10
69.39091379005038
 20
38.18093884686255
 30
0.0
 10
69.38938386079833
 20
38.22241743237704
 30
0.0
 10
69.38861360604712
 20
38.24330014804748
 30
0.0
  0
SPLINE
  5
9E
330
1F
100
AcDbEntity
  8
0
  6
Continuous
 62
     7
370
    25
100
AcDbSpline
210
0.0
220
0.0
230
1.0
 70
     8
 71
     3
 72
    23
 73
    19
 74
     0
 42
0.000000001
 43
0.00000001
 40
0.0
 40
0.0
 40
0.0
 40
0.0
 40
0.0652308037420294
 40
0.1284048960032227
 40
0.1900670715964781
 40
0.25094336576828
 40
0.3115458328521431
 40
0.3728628021568291
 40
0.4350236738562383
 40
0.4990717247070431
 40
0.563091075049662
 40
0.625510106330375
 40
0.6866800359296492
 40
0.7472825030135124
 40
0.8085634952159588
 40
0.8707421035159856
 40
0.9343409515059125
 40
1.0
 40
1.0
 40
1.0
 40
1.0
 10
70.29245975989326
 20
38.21956216727826
 30
0.0
 10
70.29204999773793
 20
38.20431681170604
 30
0.0
 10
70.29124339312902
 20
38.1743067829392
 30
0.0
 10
70.2850360285468
 20
38.13024672486463
 30
0.0
 10
70.2752538377224
 20
38.08790860944756
 30
0.0
 10
70.26099429945889
 20
38.04746791848095
 30
0.0
 10
70.24277900473218
 20
38.008779497684
 30
0.0
 10
70.22094806032626
 20
37.9716213279232
 30
0.0
 10
70.19437419731622
 20
37.93669189502053
 30
0.0
 10
70.164689216266
 20
37.903541389644
 30
0.0
 10
70.13181050862521
 20
37.87344406218988
 30
0.0
 10
70.09692422146547
 20
37.84679718123666
 30
0.0
 10
70.06006670103767
 20
37.82441427049347
 30
0.0
 10
70.02125661563768
 20
37.80625401837293
 30
0.0
 10
69.98055379011174
 20
37.79215192754526
 30
0.0
 10
69.93801030175958
 20
37.78187150824087
 30
0.0
 10
69.89359681399095
 20
37.7757945398895
 30
0.0
 10
69.86339188173402
 20
37.77496932958303
 30
0.0
 10
69.84804870220096
 20
37.77455014804748
 30
0.0
  0
SPLINE
  5
9F
330
1F
100
AcDbEntity
  8
0
  6
Continuous
 62
     7
370
    25
100
AcDbSpline
210
0.0
220
0.0
230
1.0
 70
     8
 71
     3
 72
     9
 73
     5
 74
     0
 42
0.000000001
 43
0.00000001
 40
0.0
 40
0.0
 40
0.0
 40
0.0
 40
0.5126593363417812
 40
1.0
 40
1.0
 40
1.0
 40
1.0
 10
70.2780366829702
 20
38.37491072497056
 30
0.0
 10
70.28224262325031
 20
38.34852346340627
 30
0.0
 10
70.29044678531653
 20
38.2970521262166
 30
0.0
 10
70.29180019050871
 20
38.24495245542043
 30
0.0
 10
70.29245975989326
 20
38.21956216727826
 30
0.0
  0
LINE
  5
A0
330
1F
100
AcDbEntity
  8
0
  6
Continuous
 62
     7
370
    25
100
AcDbLine
 10
70.8841063945
 20
37.9785765904
 30
0.0
 11
70.278036683
 21
38.374910725
 31
0.0
  0
LINE
  5
A1
330
1F
100
AcDbEntity
  8
0
  6
Continuous
 62
     7
370
    25
100
AcDbLine
 10
70.965536683
 20
38.0822424557
 30
0.0
 11
70.8841063945
 21
37.9785765904
 31
0.0
  0
LINE
  5
A2
330
1F
100
AcDbEntity
  8
0
  6
Continuous
 62
     7
370
    25
100
AcDbLine
 10
70.7732289907
 20
39.4260094761
 30
0.0
 11
70.9270751445
 21
39.3379686107
 31
0.0
  0
LINE
  5
A3
330
1F
100
AcDbEntity
  8
0
  6
Continuous
 62
     7
370
    25
100
AcDbLine
 10
70.7732289907
 20
39.1952402453
 30
0.0
 11
70.7732289907
 21
39.4260094761
 31
0.0
  0
LINE
  5
A4
330
1F
100
AcDbEntity
  8
0
  6
Continuous
 62
     7
370
    25
100
AcDbLine
 10
69.4270751445
 20
39.1952402453
 30
0.0
 11
70.7732289907
 21
39.1952402453
 31
0.0
  0
LINE
  5
A5
330
1F
100
AcDbEntity
  8
0
  6
Continuous
 62
     7
370
    25
100
AcDbLine
 10
69.4270751445
 20
39.0606248607
 30
0.0
 11
69.4270751445
 21
39.1952402453
 31
0.0
  0
LINE
  5
A6
330
1F
100
AcDbEntity
  8
0
  6
Continuous
 62
     7
370
    25
100
AcDbLine
 10
70.9270751445
 20
39.0606248607
 30
0.0
 11
69.4270751445
 21
39.0606248607
 31
0.0
  0
LINE
  5
A7
330
1F
100
AcDbEntity
  8
0
  6
Continuous
 62
     7
370
    25
100
AcDbLine
 10
70.9270751445
 20
39.3379686107
 30
0.0
 11
70.9270751445
 21
39.0606248607
 31
0.0
  0
SPLINE
  5
A8
330
1F
100
AcDbEntity
  8
0
  6
Continuous
 62
     7
370
    25
100
AcDbSpline
210
0.0
220
0.0
230
1.0
 70
     8
 71
     3
 72
    19
 73
    15
 74
     0
 42
0.000000001
 43
0.00000001
 40
0.0
 40
0.0
 40
0.0
 40
0.0
 40
0.1227280999764553
 40
0.239716523588393
 40
0.3518621792202463
 40
0.4632019818032239
 40
0.5202611541541643
 40
0.5794324380306665
 40
0.6405963441586369
 40
0.70529822908802
 40
0.7732361059084537
 40
0.844648929340316
 40
0.9200459817773698
 40
1.0
 40
1.0
 40
1.0
 40
1.0
 10
70.81169052912404
 20
40.25334729693265
 30
0.0
 10
70.81109538777626
 20
40.27042714761792
 30
0.0
 10
70.80993293830493
 20
40.30378806847032
 30
0.0
 10
70.79971553142478
 20
40.35187231207755
 30
0.0
 10
70.7835271034932
 20
40.3965269811066
 30
0.0
 10
70.76397962477998
 20
40.43054483118487
 30
0.0
 10
70.7447501424172
 20
40.45570743597652
 30
0.0
 10
70.72820701877014
 20
40.47403313796138
 30
0.0
 10
70.70945050489495
 20
40.4917009918838
 30
0.0
 10
70.6879661307252
 20
40.50801769513295
 30
0.0
 10
70.66449265693251
 20
40.52396097911981
 30
0.0
 10
70.63890080036349
 20
40.53937860931408
 30
0.0
 10
70.61082569773362
 20
40.55377537107697
 30
0.0
 10
70.59108247635665
 20
40.56253891568729
 30
0.0
 10
70.58092129835481
 20
40.56704922000957
 30
0.0
  0
SPLINE
  5
A9
330
1F
100
AcDbEntity
  8
0
  6
Continuous
 62
     7
370
    25
100
AcDbSpline
210
0.0
220
0.0
230
1.0
 70
     8
 71
     3
 72
    23
 73
    19
 74
     0
 42
0.000000001
 43
0.00000001
 40
0.0
 40
0.0
 40
0.0
 40
0.0
 40
0.0552698294993248
 40
0.1099567044850938
 40
0.1632335040550556
 40
0.2180575651623568
 40
0.2732775387226747
 40
0.330881045495497
 40
0.3904799376860887
 40
0.4536559730386417
 40
0.5189026226022311
 40
0.5833461108214766
 40
0.6485466930814431
 40
0.7150552190344909
 40
0.7825206438000536
 40
0.852335294426451
 40
0.9249348997257087
 40
0.9999999999999999
 40
0.9999999999999999
 40
0.9999999999999999
 40
0.9999999999999999
 10
70.57641408681636
 20
39.95166460462496
 30
0.0
 10
70.58424742499473
 20
39.95184218864647
 30
0.0
 10
70.59983147978582
 20
39.95219548363492
 30
0.0
 10
70.62259909004122
 20
39.95665176322276
 30
0.0
 10
70.64467195551121
 20
39.96334664823645
 30
0.0
 10
70.66594992264787
 20
39.97255658515844
 30
0.0
 10
70.68630948423231
 20
39.98486145543847
 30
0.0
 10
70.70577561745928
 20
39.99963139889937
 30
0.0
 10
70.72467455456261
 20
40.01687354428469
 30
0.0
 10
70.74210214726621
 20
40.03703851464404
 30
0.0
 10
70.75854082995859
 20
40.05886924569702
 30
0.0
 10
70.77275145963559
 20
40.08257115088096
 30
0.0
 10
70.78479637985305
 20
40.10762145574464
 30
0.0
 10
70.79474805162312
 20
40.13404319582594
 30
0.0
 10
70.80222929799191
 20
40.16194221575969
 30
0.0
 10
70.80760216724562
 20
40.19118190696045
 30
0.0
 10
70.81096106033931
 20
40.221819558539
 30
0.0
 10
70.811444681258
 20
40.24272171929641
 30
0.0
 10
70.81169052912404
 20
40.25334729693265
 30
0.0
  0
SPLINE
  5
AA
330
1F
100
AcDbEntity
  8
0
  6
Continuous
 62
     7
370
    25
100
AcDbSpline
210
0.0
220
0.0
230
1.0
 70
     8
 71
     3
 72
    19
 73
    15
 74
     0
 42
0.000000001
 43
0.00000001
 40
0.0
 40
0.0
 40
0.0
 40
0.0
 40
0.1101423815503176
 40
0.2157418685830274
 40
0.3179605426392306
 40
0.4180517606815226
 40
0.5115631470355316
 40
0.5965727584443461
 40
0.6733290469034968
 40
0.7440491927238595
 40
0.8107168223002833
 40
0.8740854521098849
 40
0.9367096168966699
 40
1.0
 40
1.0
 40
1.0
 40
1.0
 10
70.33092129835481
 20
40.33627998924035
 30
0.0
 10
70.3312375873234
 20
40.31772285970818
 30
0.0
 10
70.33185711971537
 20
40.28137400158059
 30
0.0
 10
70.33929836682597
 20
40.22826922210196
 30
0.0
 10
70.34970769264584
 20
40.17742767247034
 30
0.0
 10
70.36528386428732
 20
40.13000986839554
 30
0.0
 10
70.38397971598731
 20
40.08693115029727
 30
0.0
 10
70.40506065410993
 20
40.04935171494427
 30
0.0
 10
70.42894441115075
 20
40.0181621802536
 30
0.0
 10
70.45531753569897
 20
39.99328462195216
 30
0.0
 10
70.48393332509046
 20
39.97502537750024
 30
0.0
 10
70.51344625245127
 20
39.96132000604481
 30
0.0
 10
70.54454298565327
 20
39.95328536199199
 30
0.0
 10
70.5657529788212
 20
39.95220675938879
 30
0.0
 10
70.57641408681634
 20
39.95166460462496
 30
0.0
  0
LINE
  5
AB
330
1F
100
AcDbEntity
  8
0
  6
Continuous
 62
     7
370
    25
100
AcDbLine
 10
70.1770751445
 20
40.3362799892
 30
0.0
 11
70.3309212984
 21
40.3362799892
 31
0.0
  0
SPLINE
  5
AC
330
1F
100
AcDbEntity
  8
0
  6
Continuous
 62
     7
370
    25
100
AcDbSpline
210
0.0
220
0.0
230
1.0
 70
     8
 71
     3
 72
    23
 73
    19
 74
     0
 42
0.000000001
 43
0.00000001
 40
0.0
 40
0.0
 40
0.0
 40
0.0
 40
0.0669051223273616
 40
0.1334773340846825
 40
0.2010229080576287
 40
0.2712178684297488
 40
0.3428591616573978
 40
0.4138109980627169
 40
0.4855518488903453
 40
0.5598002749200529
 40
0.5998999649035781
 40
0.6436094423977958
 40
0.6919106424505659
 40
0.7447030291556902
 40
0.8015038302285953
 40
0.8628660266331954
 40
0.9293326711591618
 40
1.0
 40
1.0
 40
1.0
 40
1.0
 10
69.85976745220096
 20
39.87474152770188
 30
0.0
 10
69.8737437560835
 20
39.8753973595669
 30
0.0
 10
69.90162681970712
 20
39.87670575996893
 30
0.0
 10
69.94264840066715
 20
39.886695325594
 30
0.0
 10
69.98217364303916
 20
39.90312558704375
 30
0.0
 10
70.0195225092432
 20
39.92613075743702
 30
0.0
 10
70.05415457725853
 20
39.95412159110484
 30
0.0
 10
70.08493399621507
 20
39.98682713837128
 30
0.0
 10
70.11058686700713
 20
40.02432762586011
 30
0.0
 10
70.12824534124289
 20
40.05906448704483
 30
0.0
 10
70.14001397170856
 20
40.08990748879981
 30
0.0
 10
70.14826591507352
 20
40.11624986278192
 30
0.0
 10
70.1548623723775
 20
40.14576704108907
 30
0.0
 10
70.16124313310114
 20
40.17810467642594
 30
0.0
 10
70.16659235796924
 20
40.21339915262091
 30
0.0
 10
70.17107254345852
 20
40.25168226777095
 30
0.0
 10
70.17465176430255
 20
40.29296942346505
 30
0.0
 10
70.1762510216369
 20
40.32155129427352
 30
0.0
 10
70.17707514450865
 20
40.33627998924035
 30
0.0
  0
SPLINE
  5
AD
330
1F
100
AcDbEntity
  8
0
  6
Continuous
 62
     7
370
    25
100
AcDbSpline
210
0.0
220
0.0
230
1.0
 70
     8
 71
     3
 72
    23
 73
    19
 74
     0
 42
0.000000001
 43
0.00000001
 40
0.0
 40
0.0
 40
0.0
 40
0.0
 40
0.0760618905628339
 40
0.1487324608035359
 40
0.2183745247439722
 40
0.2857225935927383
 40
0.3510576941824569
 40
0.414934915729319
 40
0.4784859417740854
 40
0.542169035281216
 40
0.6047501165431387
 40
0.6641185017301124
 40
0.7214996756099116
 40
0.7776159163852547
 40
0.832666108697549
 40
0.8878580281135741
 40
0.9434676608977686
 40
1.0
 40
1.0
 40
1.0
 40
1.0
 10
69.54245975989326
 20
40.25665258539419
 30
0.0
 10
69.54272329000253
 20
40.2426151799584
 30
0.0
 10
69.54323860038141
 20
40.2151662454353
 30
0.0
 10
69.54799132940444
 20
40.17511681757161
 30
0.0
 10
69.55488293453033
 20
40.1370041404567
 30
0.0
 10
69.56566274489235
 20
40.10121715384504
 30
0.0
 10
69.57859490821673
 20
40.06726888466851
 30
0.0
 10
69.59552548348944
 20
40.03591715637445
 30
0.0
 10
69.61464583112522
 20
40.00624026688534
 30
0.0
 10
69.63688647284117
 20
39.97910761191104
 30
0.0
 10
69.66092619916589
 20
39.95464619674017
 30
0.0
 10
69.68643020642801
 20
39.93350883138738
 30
0.0
 10
69.71260770443094
 20
39.91520145552384
 30
0.0
 10
69.74006936128959
 20
39.90048538054283
 30
0.0
 10
69.76854580022648
 20
39.88884427452603
 30
0.0
 10
69.7981436088048
 20
39.88092427914312
 30
0.0
 10
69.82861355495668
 20
39.87541612055038
 30
0.0
 10
69.8493260122861
 20
39.87496762206945
 30
0.0
 10
69.85976745220096
 20
39.87474152770188
 30
0.0
  0
SPLINE
  5
AE
330
1F
100
AcDbEntity
  8
0
  6
Continuous
 62
     7
370
    25
100
AcDbSpline
210
0.0
220
0.0
230
1.0
 70
     8
 71
     3
 72
    15
 73
    11
 74
     0
 42
0.000000001
 43
0.00000001
 40
0.0
 40
0.0
 40
0.0
 40
0.0
 40
0.1182713048357256
 40
0.2361775330837632
 40
0.355662932948509
 40
0.4759041646706825
 40
0.6001273417110832
 40
0.7286081161551193
 40
0.8613134756739422
 40
1.0
 40
1.0
 40
1.0
 40
1.0
 10
69.62358956758557
 20
40.50725354693265
 30
0.0
 10
69.61711456734892
 20
40.49885501413615
 30
0.0
 10
69.60418455372701
 20
40.48208387290157
 30
0.0
 10
69.58768385578225
 20
40.45475463100224
 30
0.0
 10
69.57338627349593
 20
40.42601253696549
 30
0.0
 10
69.5624646896175
 20
40.39523481944225
 30
0.0
 10
69.55321712070786
 20
40.36308563210481
 30
0.0
 10
69.54716546965109
 20
40.32904533271974
 30
0.0
 10
69.54301339621829
 20
40.29341423967185
 30
0.0
 10
69.54264699700727
 20
40.26908519817911
 30
0.0
 10
69.54245975989326
 20
40.25665258539419
 30
0.0
  0
SPLINE
  5
AF
330
1F
100
AcDbEntity
  8
0
  6
Continuous
 62
     7
370
    25
100
AcDbSpline
210
0.0
220
0.0
230
1.0
 70
     8
 71
     3
 72
    15
 73
    11
 74
     0
 42
0.000000001
 43
0.00000001
 40
0.0
 40
0.0
 40
0.0
 40
0.0
 40
0.1497703860319681
 40
0.2913164099952446
 40
0.4259663731047426
 40
0.5521595739695285
 40
0.6715274135235928
 40
0.7861216286916589
 40
0.8953250730704446
 40
1.0
 40
1.0
 40
1.0
 40
1.0
 10
69.83092129835481
 20
40.62474152770188
 30
0.0
 10
69.81937172123968
 20
40.6212344027989
 30
0.0
 10
69.7969067905462
 20
40.61441274023123
 30
0.0
 10
69.76457523097125
 20
40.60280089821619
 30
0.0
 10
69.73493606530349
 20
40.58957163875742
 30
0.0
 10
69.70777187017006
 20
40.57537968505625
 30
0.0
 10
69.68281512625684
 20
40.56047463676079
 30
0.0
 10
69.66072575381367
 20
40.54379681170233
 30
0.0
 10
69.64053352429518
 20
40.52658146378206
 30
0.0
 10
69.6291572620351
 20
40.51360459806006
 30
0.0
 10
69.62358956758557
 20
40.50725354693265
 30
0.0
  0
LINE
  5
B0
330
1F
100
AcDbEntity
  8
0
  6
Continuous
 62
     7
370
    25
100
AcDbLine
 10
69.8309212984
 20
40.7593569123
 30
0.0
 11
69.8309212984
 21
40.6247415277
 31
0.0
  0
SPLINE
  5
B1
330
1F
100
AcDbEntity
  8
0
  6
Continuous
 62
     7
370
    25
100
AcDbSpline
210
0.0
220
0.0
230
1.0
 70
     8
 71
     3
 72
    23
 73
    19
 74
     0
 42
0.000000001
 43
0.00000001
 40
0.0
 40
0.0
 40
0.0
 40
0.0
 40
0.0655411703374033
 40
0.1289631677825933
 40
0.1903771361885609
 40
0.2500923616690527
 40
0.308548432459201
 40
0.3663979630552958
 40
0.42454218926668
 40
0.4831699964229055
 40
0.5422433998311199
 40
0.6017393520173299
 40
0.6625060022496068
 40
0.7248555134488469
 40
0.7891278292811811
 40
0.8563463998785099
 40
0.9262952349869055
 40
1.0
 40
1.0
 40
1.0
 40
1.0
 10
69.38861360604712
 20
40.25905643154803
 30
0.0
 10
69.3889856974436
 20
40.27509327452653
 30
0.0
 10
69.38971784923385
 20
40.30664843384228
 30
0.0
 10
69.39472296403238
 20
40.35303850457927
 30
0.0
 10
69.40386439484858
 20
40.39731923287835
 30
0.0
 10
69.41616581143406
 20
40.43955048910264
 30
0.0
 10
69.4317622723257
 20
40.47976979041416
 30
0.0
 10
69.4511845714777
 20
40.51785440691889
 30
0.0
 10
69.47403235807133
 20
40.55403864699893
 30
0.0
 10
69.50057532427414
 20
40.58798105463232
 30
0.0
 10
69.53026732702703
 20
40.61967758364928
 30
0.0
 10
69.56363547415604
 20
40.64828589403363
 30
0.0
 10
69.60006293297936
 20
40.67428294815166
 30
0.0
 10
69.6399728142074
 20
40.69697265045659
 30
0.0
 10
69.68284935304071
 20
40.71738848729196
 30
0.0
 10
69.72924156663285
 20
40.73418032585509
 30
0.0
 10
69.77873471891384
 20
40.74895985527064
 30
0.0
 10
69.8132251789892
 20
40.75583133994753
 30
0.0
 10
69.83092129835481
 20
40.75935691231727
 30
0.0
  0
SPLINE
  5
B2
330
1F
100
AcDbEntity
  8
0
  6
Continuous
 62
     7
370
    25
100
AcDbSpline
210
0.0
220
0.0
230
1.0
 70
     8
 71
     3
 72
    19
 73
    15
 74
     0
 42
0.000000001
 43
0.00000001
 40
0.0
 40
0.0
 40
0.0
 40
0.0
 40
0.079641704194991
 40
0.1589086132578561
 40
0.2395997983184508
 40
0.3224093988203484
 40
0.405827748173513
 40
0.4876442139503137
 40
0.5697199979738974
 40
0.6530646649976934
 40
0.7374573001733065
 40
0.8224924079539125
 40
0.9097550737466981
 40
1.0
 40
1.0
 40
1.0
 40
1.0
 10
69.87268812527789
 20
39.74012614308649
 30
0.0
 10
69.85168479427456
 20
39.74089691379801
 30
0.0
 10
69.80977697427913
 20
39.74243482796175
 30
0.0
 10
69.74784670823647
 20
39.75612545766481
 30
0.0
 10
69.6874135341742
 20
39.77747206196503
 30
0.0
 10
69.6293728752492
 20
39.80725600566545
 30
0.0
 10
69.57518148488957
 20
39.8441065680551
 30
0.0
 10
69.52691490085303
 20
39.8881907135945
 30
0.0
 10
69.48514679460568
 20
39.93843676373707
 30
0.0
 10
69.45036108834914
 20
39.99451586810792
 30
0.0
 10
69.42253402427181
 20
40.05524644725622
 30
0.0
 10
69.40322507862786
 20
40.12020886637592
 30
0.0
 10
69.39064784380011
 20
40.18845849421242
 30
0.0
 10
69.38929923782815
 20
40.23526167626822
 30
0.0
 10
69.38861360604712
 20
40.25905643154803
 30
0.0
  0
SPLINE
  5
B3
330
1F
100
AcDbEntity
  8
0
  6
Continuous
 62
     7
370
    25
100
AcDbSpline
210
0.0
220
0.0
230
1.0
 70
     8
 71
     3
 72
    15
 73
    11
 74
     0
 42
0.000000001
 43
0.00000001
 40
0.0
 40
0.0
 40
0.0
 40
0.0
 40
0.1281455049994643
 40
0.2541925386280419
 40
0.3781411397135888
 40
0.5013808330744057
 40
0.6239569784447038
 40
0.7470758858273289
 40
0.8728647202442611
 40
1.0
 40
1.0
 40
1.0
 40
1.0
 10
70.13921456758557
 20
39.82966941231727
 30
0.0
 10
70.12933372716057
 20
39.82244875612971
 30
0.0
 10
70.1097338519139
 20
39.80812568699917
 30
0.0
 10
70.07820285534832
 20
39.79049623833525
 30
0.0
 10
70.04642675611282
 20
39.77432003091415
 30
0.0
 10
70.01315615896898
 20
39.76241481050405
 30
0.0
 10
69.97945977434847
 20
39.75214107706599
 30
0.0
 10
69.94461602798255
 20
39.74538130255366
 30
0.0
 10
69.90895596495498
 20
39.74104179770796
 30
0.0
 10
69.88482023414598
 20
39.74043244259736
 30
0.0
 10
69.87268812527789
 20
39.74012614308649
 30
0.0
  0
SPLINE
  5
B4
330
1F
100
AcDbEntity
  8
0
  6
Continuous
 62
     7
370
    25
100
AcDbSpline
210
0.0
220
0.0
230
1.0
 70
     8
 71
     3
 72
    11
 73
     7
 74
     0
 42
0.000000001
 43
0.00000001
 40
0.0
 40
0.0
 40
0.0
 40
0.0
 40
0.253879600326656
 40
0.5030089172783633
 40
0.7502910806899731
 40
1.0
 40
1.0
 40
1.0
 40
1.0
 10
70.26721937527789
 20
39.99222950847111
 30
0.0
 10
70.25951444461724
 20
39.97627304222539
 30
0.0
 10
70.24424874849859
 20
39.94465866753945
 30
0.0
 10
70.21431056670549
 20
39.90156558345392
 30
0.0
 10
70.17974356069668
 20
39.86244649401523
 30
0.0
 10
70.15276813801944
 20
39.84063061444217
 30
0.0
 10
70.13921456758557
 20
39.82966941231727
 30
0.0
  0
SPLINE
  5
B5
330
1F
100
AcDbEntity
  8
0
  6
Continuous
 62
     7
370
    25
100
AcDbSpline
210
0.0
220
0.0
230
1.0
 70
     8
 71
     3
 72
    15
 73
    11
 74
     0
 42
0.000000001
 43
0.00000001
 40
0.0
 40
0.0
 40
0.0
 40
0.0
 40
0.1280675485958904
 40
0.2506083188676684
 40
0.3706301659145029
 40
0.4900722467299488
 40
0.6103747641546199
 40
0.7343130699115256
 40
0.8632165042449895
 40
1.0
 40
1.0
 40
1.0
 40
1.0
 10
70.57581312527789
 20
39.81704922000957
 30
0.0
 10
70.55995307040405
 20
39.81754790188689
 30
0.0
 10
70.52891740420559
 20
39.81852374493451
 30
0.0
 10
70.48360819114636
 20
39.82680961874694
 30
0.0
 10
70.44090464816829
 20
39.84075373140818
 30
0.0
 10
70.40062700725821
 20
39.86006934394155
 30
0.0
 10
70.36303064733403
 20
39.8850728654731
 30
0.0
 10
70.32803097982239
 20
39.91536116414038
 30
0.0
 10
70.295472769196
 20
39.95114801918702
 30
0.0
 10
70.27682156649222
 20
39.97826756405414
 30
0.0
 10
70.26721937527789
 20
39.99222950847111
 30
0.0
  0
SPLINE
  5
B6
330
1F
100
AcDbEntity
  8
0
  6
Continuous
 62
     7
370
    25
100
AcDbSpline
210
0.0
220
0.0
230
1.0
 70
     8
 71
     3
 72
    19
 73
    15
 74
     0
 42
0.000000001
 43
0.00000001
 40
0.0
 40
0.0
 40
0.0
 40
0.0
 40
0.0902542493426766
 40
0.1785397915286843
 40
0.2660930338538198
 40
0.3546309779571733
 40
0.4418861533505626
 40
0.5257469151636484
 40
0.6081136336036366
 40
0.6901972728278825
 40
0.770821484330335
 40
0.8483261812554109
 40
0.9240117400247433
 40
1.0
 40
1.0
 40
1.0
 40
1.0
 10
70.9655366829702
 20
40.25515018154804
 30
0.0
 10
70.96494558429379
 20
40.23557186351586
 30
0.0
 10
70.96377628051886
 20
40.19684228739722
 30
0.0
 10
70.95309866488498
 20
40.13994383870416
 30
0.0
 10
70.93620217959032
 20
40.08507520194611
 30
0.0
 10
70.9128562965316
 20
40.03283695288197
 30
0.0
 10
70.88406173374784
 20
39.98431476748357
 30
0.0
 10
70.84979113222153
 20
39.94114211602052
 30
0.0
 10
70.81070571729836
 20
39.90390418281883
 30
0.0
 10
70.7675346183047
 20
39.87266373525021
 30
0.0
 10
70.72139654285314
 20
39.84820302137005
 30
0.0
 10
70.6739107612186
 20
39.83016600416446
 30
0.0
 10
70.62518991633762
 20
39.81918528373647
 30
0.0
 10
70.59229393954827
 20
39.81776218796065
 30
0.0
 10
70.57581312527789
 20
39.81704922000957
 30
0.0
  0
SPLINE
  5
B7
330
1F
100
AcDbEntity
  8
0
  6
Continuous
 62
     7
370
    25
100
AcDbSpline
210
0.0
220
0.0
230
1.0
 70
     8
 71
     3
 72
    23
 73
    19
 74
     0
 42
0.000000001
 43
0.00000001
 40
0.0
 40
0.0
 40
0.0
 40
0.0
 40
0.0726253460834355
 40
0.1419766113262345
 40
0.2089849284189386
 40
0.2739568703644447
 40
0.336889347396841
 40
0.3987449534945902
 40
0.4601158852788617
 40
0.5208249225900291
 40
0.5809944586324857
 40
0.6401519276014648
 40
0.6986224507562546
 40
0.7572710809271643
 40
0.8164266940046602
 40
0.8762540482034705
 40
0.9371652930625374
 40
1.0
 40
1.0
 40
1.0
 40
1.0
 10
70.58092129835481
 20
40.70166460462496
 30
0.0
 10
70.59602093434425
 20
40.69801765433311
 30
0.0
 10
70.62553948765454
 20
40.69088816480863
 30
0.0
 10
70.66771402801767
 20
40.6760177761791
 30
0.0
 10
70.7076241086137
 20
40.65981809538141
 30
0.0
 10
70.74452242591171
 20
40.64036562199652
 30
0.0
 10
70.77915052708286
 20
40.61914758447104
 30
0.0
 10
70.81072300899778
 20
40.59483784666995
 30
0.0
 10
70.84004285134084
 20
40.56855796557027
 30
0.0
 10
70.86606281029393
 20
40.53949013015522
 30
0.0
 10
70.88962469423964
 20
40.50900641802345
 30
0.0
 10
70.90971400452923
 20
40.47667729527313
 30
0.0
 10
70.9269957843283
 20
40.44315319798574
 30
0.0
 10
70.94123302656061
 20
40.40820185529348
 30
0.0
 10
70.95195825098894
 20
40.37171921028262
 30
0.0
 10
70.95973973909928
 20
40.33403508600227
 30
0.0
 10
70.9647930737626
 20
40.29505072881028
 30
0.0
 10
70.96528625794248
 20
40.26858747569674
 30
0.0
 10
70.9655366829702
 20
40.25515018154804
 30
0.0
  0
LINE
  5
B8
330
1F
100
AcDbEntity
  8
0
  6
Continuous
 62
     7
370
    25
100
AcDbLine
 10
70.5809212984
 20
40.56704922
 30
0.0
 11
70.5809212984
 21
40.7016646046
 31
0.0
  0
LINE
  5
B9
330
1F
100
AcDbEntity
  8
0
  6
Continuous
 62
     7
370
    25
100
AcDbLine
 10
70.2466903868
 20
46.0555084326
 30
0.0
 11
68.5073110967
 21
46.0555084326
 31
0.0
  0
SPLINE
  5
BA
330
1F
100
AcDbEntity
  8
0
  6
Continuous
 62
     7
370
    25
100
AcDbSpline
210
0.0
220
0.0
230
1.0
 70
     8
 71
     3
 72
     8
 73
     4
 74
     0
 42
0.000000001
 43
0.00000001
 40
0.0
 40
0.0
 40
0.0
 40
0.0
 40
1.0
 40
1.0
 40
1.0
 40
1.0
 10
70.32707514450864
 20
45.73174364549142
 30
0.0
 10
70.30245719789589
 20
45.83984828416741
 30
0.0
 10
70.27556112394498
 20
45.94776137463342
 30
0.0
 10
70.24669038677932
 20
46.05550843258766
 30
0.0
  0
SPLINE
  5
BB
330
1F
100
AcDbEntity
  8
0
  6
Continuous
 62
     7
370
    25
100
AcDbSpline
210
0.0
220
0.0
230
1.0
 70
     8
 71
     3
 72
     8
 73
     4
 74
     0
 42
0.000000001
 43
0.00000001
 40
0.0
 40
0.0
 40
0.0
 40
0.0
 40
1.0
 40
1.0
 40
1.0
 40
1.0
 10
70.40745990223799
 20
46.05550843258766
 30
0.0
 10
70.37857015358468
 20
45.9476904227956
 30
0.0
 10
70.35167611305391
 20
45.83977372848329
 30
0.0
 10
70.32707514450864
 20
45.73174364549142
 30
0.0
  0
LINE
  5
BC
330
1F
100
AcDbEntity
  8
0
  6
Continuous
 62
     7
370
    25
100
AcDbLine
 10
72.1468391923
 20
46.0555084326
 30
0.0
 11
70.4074599022
 21
46.0555084326
 31
0.0
  0
SPLINE
  5
BD
330
1F
100
AcDbEntity
  8
0
  6
Continuous
 62
     7
370
    25
100
AcDbSpline
210
0.0
220
0.0
230
1.0
 70
     8
 71
     3
 72
    14
 73
    10
 74
     0
 42
0.000000001
 43
0.00000001
 40
0.0
 40
0.0
 40
0.0
 40
0.0
 40
0.4999999999999999
 40
0.4999999999999999
 40
0.6249999999999999
 40
0.6249999999999999
 40
0.7499999999999998
 40
0.7499999999999998
 40
1.0
 40
1.0
 40
1.0
 40
1.0
 10
72.14683919234959
 20
46.05550843258769
 30
0.0
 10
72.47340109072569
 20
45.48988663278415
 30
0.0
 10
72.6819852422432
 20
44.91579078464726
 30
0.0
 10
72.68292302673157
 20
44.17951073172312
 30
0.0
 10
72.67039692034155
 20
44.03156211987604
 30
0.0
 10
72.62155187956628
 20
43.73890411059741
 30
0.0
 10
72.58528250150901
 20
43.59355628070624
 30
0.0
 10
72.44522980084989
 20
43.16010051349126
 30
0.0
 10
72.31032365646398
 20
42.87457021554466
 30
0.0
 10
72.14683919234929
 20
42.59140681744986
 30
0.0
  0
SPLINE
  5
BE
330
1F
100
AcDbEntity
  8
0
  6
Continuous
 62
     7
370
    25
100
AcDbSpline
210
0.0
220
0.0
230
1.0
 70
     8
 71
     3
 72
     8
 73
     4
 74
     0
 42
0.000000001
 43
0.00000001
 40
0.0
 40
0.0
 40
0.0
 40
0.0
 40
1.0
 40
1.0
 40
1.0
 40
1.0
 10
70.32707514450864
 20
42.91517160454612
 30
0.0
 10
70.3516930911214
 20
42.80706696587013
 30
0.0
 10
70.37858916507233
 20
42.69915387540412
 30
0.0
 10
70.40745990223799
 20
42.59140681744989
 30
0.0
  0
SPLINE
  5
BF
330
1F
100
AcDbEntity
  8
0
  6
Continuous
 62
     7
370
    25
100
AcDbSpline
210
0.0
220
0.0
230
1.0
 70
     8
 71
     3
 72
     8
 73
     4
 74
     0
 42
0.000000001
 43
0.00000001
 40
0.0
 40
0.0
 40
0.0
 40
0.0
 40
1.0
 40
1.0
 40
1.0
 40
1.0
 10
70.24669038677932
 20
42.59140681744989
 30
0.0
 10
70.27558013543263
 20
42.69922482724193
 30
0.0
 10
70.30247417596338
 20
42.80714152155424
 30
0.0
 10
70.32707514450864
 20
42.91517160454612
 30
0.0
  0
LINE
  5
C0
330
1F
100
AcDbEntity
  8
0
  6
Continuous
 62
     7
370
    25
100
AcDbLine
 10
70.3270751445
 20
35.3394388001
 30
0.0
 11
70.3270751445
 21
36.3107331614
 31
0.0
  0
SPLINE
  5
C1
330
1F
100
AcDbEntity
  8
0
  6
Continuous
 62
     7
370
    25
100
AcDbSpline
210
0.0
220
0.0
230
1.0
 70
     8
 71
     3
 72
     8
 73
     4
 74
     0
 42
0.000000001
 43
0.00000001
 40
0.0
 40
0.0
 40
0.0
 40
0.0
 40
1.0
 40
1.0
 40
1.0
 40
1.0
 10
70.32707514450864
 20
35.33943880007812
 30
0.0
 10
70.30245719789589
 20
35.44754343875411
 30
0.0
 10
70.27556112394498
 20
35.55545652922012
 30
0.0
 10
70.24669038677932
 20
35.66320358717436
 30
0.0
  0
SPLINE
  5
C2
330
1F
100
AcDbEntity
  8
0
  6
Continuous
 62
     7
370
    25
100
AcDbSpline
210
0.0
220
0.0
230
1.0
 70
     8
 71
     3
 72
    14
 73
    10
 74
     0
 42
0.000000001
 43
0.00000001
 40
0.0
 40
0.0
 40
0.0
 40
0.0
 40
0.4999999999999997
 40
0.4999999999999997
 40
0.6249999999999997
 40
0.6249999999999997
 40
0.7499999999999997
 40
0.7499999999999997
 40
1.0
 40
1.0
 40
1.0
 40
1.0
 10
72.14683919234959
 20
35.66320358717439
 30
0.0
 10
72.47340109072569
 20
35.09758178737086
 30
0.0
 10
72.6819852422432
 20
34.52348593923397
 30
0.0
 10
72.68292302673157
 20
33.78720588630984
 30
0.0
 10
72.67039692034155
 20
33.63925727446276
 30
0.0
 10
72.62155187956628
 20
33.34659926518414
 30
0.0
 10
72.58528250150901
 20
33.20125143529297
 30
0.0
 10
72.44522980084989
 20
32.76779566807799
 30
0.0
 10
72.31032365646398
 20
32.48226537013139
 30
0.0
 10
72.14683919234929
 20
32.1991019720366
 30
0.0
  0
LINE
  5
C3
330
1F
100
AcDbEntity
  8
0
  6
Continuous
 62
     7
370
    25
100
AcDbLine
 10
72.8270751445
 20
44.8773052023
 30
0.0
 11
72.8270751445
 21
33.3773052023
 31
0.0
  0
LINE
  5
C4
330
1F
100
AcDbEntity
  8
0
  6
Continuous
 62
     7
370
    25
100
AcDbLine
 10
70.3270751445
 20
41.9438772433
 30
0.0
 11
70.3270751445
 21
42.9151716045
 31
0.0
  0
SPLINE
  5
C5
330
1F
100
AcDbEntity
  8
0
  6
Continuous
 62
     7
370
    25
100
AcDbSpline
210
0.0
220
0.0
230
1.0
 70
     8
 71
     3
 72
     8
 73
     4
 74
     0
 42
0.000000001
 43
0.00000001
 40
0.0
 40
0.0
 40
0.0
 40
0.0
 40
1.0
 40
1.0
 40
1.0
 40
1.0
 10
70.40745990223799
 20
35.66320358717436
 30
0.0
 10
70.37857015358468
 20
35.5553855773823
 30
0.0
 10
70.35167611305391
 20
35.44746888306999
 30
0.0
 10
70.32707514450864
 20
35.33943880007812
 30
0.0
  0
SPLINE
  5
C6
330
1F
100
AcDbEntity
  8
0
  6
Continuous
 62
     7
370
    25
100
AcDbSpline
210
0.0
220
0.0
230
1.0
 70
     8
 71
     3
 72
    23
 73
    19
 74
     0
 42
0.000000001
 43
0.00000001
 40
0.0
 40
0.0
 40
0.0
 40
0.0
 40
0.0611415679303346
 40
0.1200010135310723
 40
0.1782359705414083
 40
0.2364955434070171
 40
0.2948872487049731
 40
0.3546771928192958
 40
0.4166948132897783
 40
0.4806333779628393
 40
0.5458046334786407
 40
0.6097347883178743
 40
0.6729516883751544
 40
0.7360010960706834
 40
0.7998274385165249
 40
0.864767276939387
 40
0.9310835057306723
 40
1.0
 40
1.0
 40
1.0
 40
1.0
 10
69.83993572143173
 20
37.90916553266287
 30
0.0
 10
69.85017743188187
 20
37.90939862370591
 30
0.0
 10
69.87027857871065
 20
37.90985610561808
 30
0.0
 10
69.8996991923137
 20
37.91513068067427
 30
0.0
 10
69.92822400104723
 20
37.92225487211608
 30
0.0
 10
69.955210437572
 20
37.93376821845342
 30
0.0
 10
69.98140478540238
 20
37.94748155371708
 30
0.0
 10
70.00605839051345
 20
37.96495144201245
 30
0.0
 10
70.02986969395745
 20
37.98498109655043
 30
0.0
 10
70.05196210768757
 20
38.00817738001529
 30
0.0
 10
70.07216962735212
 20
38.03341285986484
 30
0.0
 10
70.09000614988784
 20
38.06024895361807
 30
0.0
 10
70.10505982453346
 20
38.08832357767211
 30
0.0
 10
70.11761998100214
 20
38.11760961220747
 30
0.0
 10
70.12668404955755
 20
38.14844226010837
 30
0.0
 10
70.13382115147645
 20
38.18032383845979
 30
0.0
 10
70.13761915968675
 20
38.21366208410525
 30
0.0
 10
70.13827790181179
 20
38.23628063069241
 30
0.0
 10
70.13861360604712
 20
38.24780735958595
 30
0.0
  0
SPLINE
  5
C7
330
1F
100
AcDbEntity
  8
0
  6
Continuous
 62
     7
370
    25
100
AcDbSpline
210
0.0
220
0.0
230
1.0
 70
     8
 71
     3
 72
    23
 73
    19
 74
     0
 42
0.000000001
 43
0.00000001
 40
0.0
 40
0.0
 40
0.0
 40
0.0
 40
0.0679503475997537
 40
0.1332598223836998
 40
0.1978002967596474
 40
0.2608458295516822
 40
0.3233192927503671
 40
0.3862817224595722
 40
0.450061516233313
 40
0.5152075844858154
 40
0.5796407692199316
 40
0.6418172023841522
 40
0.7016924412115348
 40
0.7607690981778945
 40
0.8192540511346832
 40
0.8787376269055537
 40
0.9381582970160912
 40
1.0
 40
1.0
 40
1.0
 40
1.0
 10
69.54245975989326
 20
38.23608860958595
 30
0.0
 10
69.54278934893439
 20
38.22496052056256
 30
0.0
 10
69.54343571762317
 20
38.20313683283897
 30
0.0
 10
69.54732737162139
 20
38.17091989475427
 30
0.0
 10
69.55421086273203
 20
38.14002822873455
 30
0.0
 10
69.56399269995222
 20
38.11044034989126
 30
0.0
 10
69.57591174178829
 20
38.08190974043049
 30
0.0
 10
69.59112010181609
 20
38.05484118620605
 30
0.0
 10
69.60889735332368
 20
38.02886924227496
 30
0.0
 10
69.6292359065419
 20
38.00455922956981
 30
0.0
 10
69.6510936800105
 20
37.98190754380646
 30
0.0
 10
69.67510228147904
 20
37.96295749273565
 30
0.0
 10
69.6994174038241
 20
37.94585521094034
 30
0.0
 10
69.72551582583797
 20
37.93290083029826
 30
0.0
 10
69.75245222531684
 20
37.92204066064361
 30
0.0
 10
69.7806371860608
 20
37.91473991107632
 30
0.0
 10
69.80992540587624
 20
37.90996034541836
 30
0.0
 10
69.82980001576757
 20
37.90943397329732
 30
0.0
 10
69.83993572143173
 20
37.90916553266287
 30
0.0
  0
SPLINE
  5
C8
330
1F
100
AcDbEntity
  8
0
  6
Continuous
 62
     7
370
    25
100
AcDbSpline
210
0.0
220
0.0
230
1.0
 70
     8
 71
     3
 72
    23
 73
    19
 74
     0
 42
0.000000001
 43
0.00000001
 40
0.0
 40
0.0
 40
0.0
 40
0.0
 40
0.0618526459466917
 40
0.1212838306153701
 40
0.1807779320756125
 40
0.2392732340142805
 40
0.2986414352139417
 40
0.3581858222417117
 40
0.4207600867589709
 40
0.4852046730216432
 40
0.5503622689482871
 40
0.613649924530912
 40
0.6766234955168249
 40
0.7391080134690126
 40
0.8021647022429448
 40
0.8667165971324778
 40
0.9320376285055445
 40
1.0
 40
1.0
 40
1.0
 40
1.0
 10
69.83993572143173
 20
38.56301168650902
 30
0.0
 10
69.82980040157483
 20
38.56274255420156
 30
0.0
 10
69.80992654819404
 20
38.56221482581272
 30
0.0
 10
69.78063282278053
 20
38.55744513055951
 30
0.0
 10
69.75246851252957
 20
38.55010735890626
 30
0.0
 10
69.72541301782867
 20
38.53936680548447
 30
0.0
 10
69.69961392216527
 20
38.52589501102681
 30
0.0
 10
69.67488796702503
 20
38.5093164824949
 30
0.0
 10
69.65121808598495
 20
38.48991193440686
 30
0.0
 10
69.62920114943394
 20
38.46735453226152
 30
0.0
 10
69.60900668019453
 20
38.44302856102698
 30
0.0
 10
69.59102548687251
 20
38.41730223522184
 30
0.0
 10
69.57592609269855
 20
38.3902573545746
 30
0.0
 10
69.5639888314465
 20
38.36173959840351
 30
0.0
 10
69.55421192990418
 20
38.33214823757716
 30
0.0
 10
69.54732708079037
 20
38.3012575295908
 30
0.0
 10
69.54343579414461
 20
38.26904033234917
 30
0.0
 10
69.54278937477632
 20
38.24721668037857
 30
0.0
 10
69.54245975989326
 20
38.23608860958595
 30
0.0
  0
SPLINE
  5
C9
330
1F
100
AcDbEntity
  8
0
  6
Continuous
 62
     7
370
    25
100
AcDbSpline
210
0.0
220
0.0
230
1.0
 70
     8
 71
     3
 72
    23
 73
    19
 74
     0
 42
0.000000001
 43
0.00000001
 40
0.0
 40
0.0
 40
0.0
 40
0.0
 40
0.0705921865358071
 40
0.1385012886049299
 40
0.2037899961427012
 40
0.266787572669601
 40
0.3290979656467183
 40
0.3911745246039658
 40
0.4531677986176573
 40
0.5157967602265844
 40
0.5779688050530403
 40
0.6389663383752914
 40
0.698381066162843
 40
0.7573204555574266
 40
0.8164122397216688
 40
0.876279358230831
 40
0.936823465650193
 40
1.0
 40
1.0
 40
1.0
 40
1.0
 10
70.13861360604712
 20
38.24780735958595
 30
0.0
 10
70.13827574159251
 20
38.25923367742376
 30
0.0
 10
70.13761285431517
 20
38.28165201891746
 30
0.0
 10
70.13386886219621
 20
38.31450147513269
 30
0.0
 10
70.1267750235758
 20
38.34550740881839
 30
0.0
 10
70.11759898001952
 20
38.37502395830253
 30
0.0
 10
70.10510515462272
 20
38.40274348365003
 30
0.0
 10
70.0901090220784
 20
38.42898218227838
 30
0.0
 10
70.0722796008056
 20
38.45347969022529
 30
0.0
 10
70.05181568446955
 20
38.47580578875748
 30
0.0
 10
70.02973793018965
 20
38.49630666119183
 30
0.0
 10
70.005949006451
 20
38.5139407592668
 30
0.0
 10
69.98117570647022
 20
38.52916852037512
 30
0.0
 10
69.95518519128636
 20
38.54154542107809
 30
0.0
 10
69.92799413281169
 20
38.55118429937595
 30
0.0
 10
69.89972580195561
 20
38.55815633231864
 30
0.0
 10
69.87019112120055
 20
38.56203653151849
 30
0.0
 10
69.85016290272175
 20
38.56268205652726
 30
0.0
 10
69.83993572143173
 20
38.56301168650902
 30
0.0
  0
LINE
  5
CA
330
1F
100
AcDbEntity
  8
0
  6
Continuous
 62
     7
370
    25
100
AcDbLine
 10
70.2466903868
 20
32.199101972
 30
0.0
 11
68.5073110967
 21
32.199101972
 31
0.0
  0
LINE
  5
CB
330
1F
100
AcDbEntity
  8
0
  6
Continuous
 62
     7
370
    25
100
AcDbLine
 10
72.1468391923
 20
32.199101972
 30
0.0
 11
70.4074599022
 21
32.199101972
 31
0.0
  0
SPLINE
  5
CC
330
1F
100
AcDbEntity
  8
0
  6
Continuous
 62
     7
370
    25
100
AcDbSpline
210
0.0
220
0.0
230
1.0
 70
     8
 71
     3
 72
     8
 73
     4
 74
     0
 42
0.000000001
 43
0.00000001
 40
0.0
 40
0.0
 40
0.0
 40
0.0
 40
1.0
 40
1.0
 40
1.0
 40
1.0
 10
70.32707514450864
 20
32.52286675913286
 30
0.0
 10
70.3516930911214
 20
32.41476212045687
 30
0.0
 10
70.37858916507233
 20
32.30684902999086
 30
0.0
 10
70.40745990223799
 20
32.19910197203662
 30
0.0
  0
SPLINE
  5
CD
330
1F
100
AcDbEntity
  8
0
  6
Continuous
 62
     7
370
    25
100
AcDbSpline
210
0.0
220
0.0
230
1.0
 70
     8
 71
     3
 72
     8
 73
     4
 74
     0
 42
0.000000001
 43
0.00000001
 40
0.0
 40
0.0
 40
0.0
 40
0.0
 40
1.0
 40
1.0
 40
1.0
 40
1.0
 10
70.24669038677932
 20
32.19910197203662
 30
0.0
 10
70.27558013543263
 20
32.30691998182868
 30
0.0
 10
70.30247417596338
 20
32.41483667614099
 30
0.0
 10
70.32707514450864
 20
32.52286675913286
 30
0.0
  0
LINE
  5
CE
330
1F
100
AcDbEntity
  8
0
  6
Continuous
 62
     7
370
    25
100
AcDbLine
 10
60.182023204
 20
43.9095848292
 30
0.0
 11
60.182023204
 21
34.3450255755
 31
0.0
  0
LINE
  5
CF
330
1F
100
AcDbEntity
  8
0
  6
Continuous
 62
     7
370
    25
100
AcDbLine
 10
58.8270751445
 20
39.1273052023
 30
0.0
 11
58.8270751445
 21
43.1273052023
 31
0.0
  0
LINE
  5
D0
330
1F
100
AcDbEntity
  8
0
  6
Continuous
 62
     7
370
    25
100
AcDbLine
 10
58.8270751445
 20
35.1273052023
 30
0.0
 11
58.8270751445
 21
39.1273052023
 31
0.0
  0
LINE
  5
D1
330
1F
100
AcDbEntity
  8
0
  6
Continuous
 62
     7
370
    25
100
AcDbLine
 10
76.3270751445
 20
42.1273052023
 30
0.0
 11
76.3270751445
 21
36.1273052023
 31
0.0
  0
LINE
  5
D2
330
1F
100
AcDbEntity
  8
0
  6
Continuous
 62
     7
370
    25
100
AcDbLine
 10
88.3270751445
 20
42.1273052023
 30
0.0
 11
88.3270751445
 21
36.1273052023
 31
0.0
  0
LINE
  5
D3
330
1F
100
AcDbEntity
  8
0
  6
Continuous
 62
     7
370
    25
100
AcDbLine
 10
80.3270751445
 20
42.1273052023
 30
0.0
 11
80.3270751445
 21
36.1273052023
 31
0.0
  0
LINE
  5
D4
330
1F
100
AcDbEntity
  8
0
  6
Continuous
 62
     7
370
    25
100
AcDbLine
 10
84.3270751445
 20
42.1273052023
 30
0.0
 11
84.3270751445
 21
36.1273052023
 31
0.0
  0
LINE
  5
D5
330
1F
100
AcDbEntity
  8
0
  6
Continuous
 62
     7
370
    25
100
AcDbLine
 10
92.8270751445
 20
41.0443383021
 30
0.0
 11
92.8270751445
 21
37.2102721057
 31
0.0
  0
LINE
  5
D6
330
1F
100
AcDbEntity
  8
0
  6
Continuous
 62
     7
370
    25
100
AcDbLine
 10
70.3270751445
 20
45.7317436455
 30
0.0
 11
70.3270751445
 21
45.7555084326
 31
0.0
  0
LINE
  5
D7
330
1F
100
AcDbEntity
  8
0
  6
Continuous
 62
     7
370
    25
100
AcDbLine
 10
70.3270751445
 20
32.499101972
 30
0.0
 11
70.3270751445
 21
32.5228667591
 31
0.0
  0
LINE
  5
D8
330
1F
100
AcDbEntity
  8
0
  6
Continuous
 62
     8
370
    25
100
AcDbLine
 10
92.3985555258
 20
36.7154079241
 30
0.0
 11
92.3985555258
 21
41.5392024806
 31
0.0
  0
LINE
  5
D9
330
1F
100
AcDbEntity
  8
0
  6
Continuous
 62
     7
370
    18
100
AcDbLine
 10
59.3452949953
 20
43.4264995726
 30
0.0
 11
67.3270751445
 21
43.6759302023
 31
0.0
  0
LINE
  5
DA
330
1F
100
AcDbEntity
  8
0
  6
Continuous
 62
     7
370
    18
100
AcDbLine
 10
59.3452949953
 20
34.828110832
 30
0.0
 11
67.3270751445
 21
34.5786802023
 31
0.0
  0
LINE
  5
DB
330
1F
100
AcDbEntity
  8
0
  6
Continuous
 62
     7
370
    18
100
AcDbLine
 10
67.3270751445
 20
34.1217427023
 30
0.0
 11
67.3270751445
 21
44.1328677023
 31
0.0
  0
LINE
  5
DC
330
1F
100
AcDbEntity
  8
0
  6
CENTERX2
 62
     7
370
    18
100
AcDbLine
 10
93.8270751445
 20
39.1273052023
 30
0.0
 11
57.8677735234
 21
39.1273052023
 31
0.0
  0
CIRCLE
  5
DD
330
1F
100
AcDbEntity
  8
0
  6
Continuous
 62
     7
370
    25
100
AcDbCircle
 10
105.9174969421
 20
39.1273052023
 30
0.0
 40
1.499999999999986
  0
CIRCLE
  5
DE
330
1F
100
AcDbEntity
  8
0
  6
Continuous
 62
     7
370
    25
100
AcDbCircle
 10
105.9174969421
 20
39.1273052023
 30
0.0
 40
1.699999999999989
  0
CIRCLE
  5
DF
330
1F
100
AcDbEntity
  8
0
  6
Continuous
 62
     7
370
    25
100
AcDbCircle
 10
105.9174969421
 20
39.1273052023
 30
0.0
 40
1.917033099830697
  0
CIRCLE
  5
E0
330
1F
100
AcDbEntity
  8
0
  6
Continuous
 62
     7
370
    25
100
AcDbCircle
 10
105.9174969421
 20
39.1273052023
 30
0.0
 40
2.411897278252674
  0
CIRCLE
  5
E1
330
1F
100
AcDbEntity
  8
0
  6
Continuous
 62
     7
370
    25
100
AcDbCircle
 10
105.9174969421
 20
39.1273052023
 30
0.0
 40
3.0
  0
SPLINE
  5
E2
330
1F
100
AcDbEntity
  8
0
  6
Continuous
 62
     7
370
    25
100
AcDbSpline
210
0.0
220
0.0
230
1.0
 70
    24
 71
     3
 72
    14
 73
    10
 74
     0
 42
0.000000001
 43
0.00000001
 40
0.0
 40
0.0
 40
0.0
 40
0.0
 40
0.2499999999999999
 40
0.2499999999999999
 40
0.4999999999999999
 40
0.4999999999999999
 40
0.7499999999999999
 40
0.7499999999999999
 40
1.0
 40
1.0
 40
1.0
 40
1.0
 10
111.9174969420934
 20
35.66320358717443
 30
0.0
 10
111.9174969420933
 20
36.22709590183647
 30
0.0
 10
111.9174969420933
 20
36.80423247529171
 30
0.0
 10
111.9174969420933
 20
37.96081846132595
 30
0.0
 10
111.9174969420933
 20
38.54259563685211
 30
0.0
 10
111.9174969420933
 20
39.71433667670244
 30
0.0
 10
111.9174969420933
 20
40.30798320616609
 30
0.0
 10
111.9174969420933
 20
41.46417156247097
 30
0.0
 10
111.9174969420933
 20
42.03140087243874
 30
0.0
 10
111.9174969420933
 20
42.59140681744996
 30
0.0
  0
SPLINE
  5
E3
330
1F
100
AcDbEntity
  8
0
  6
Continuous
 62
     7
370
    25
100
AcDbSpline
210
0.0
220
0.0
230
1.0
 70
    24
 71
     3
 72
    14
 73
    10
 74
     0
 42
0.000000001
 43
0.00000001
 40
0.0
 40
0.0
 40
0.0
 40
0.0
 40
0.4999999999999994
 40
0.4999999999999994
 40
0.6249999999999994
 40
0.6249999999999994
 40
0.7499999999999994
 40
0.7499999999999994
 40
1.0
 40
1.0
 40
1.0
 40
1.0
 10
105.9174969420933
 20
32.19910197203659
 30
0.0
 10
106.8971826372216
 20
32.76472377184014
 30
0.0
 10
107.891545814609
 20
33.33881961997704
 30
0.0
 10
109.1668202748731
 20
34.07509967290118
 30
0.0
 10
109.4230747875015
 20
34.22304828474827
 30
0.0
 10
109.9299733288141
 20
34.5157062940269
 30
0.0
 10
110.1817231549555
 20
34.66105412391806
 30
0.0
 10
110.9324905666056
 20
35.09450989113306
 30
0.0
 10
111.4270435497493
 20
35.38004018907966
 30
0.0
 10
111.9174969420934
 20
35.66320358717446
 30
0.0
  0
SPLINE
  5
E4
330
1F
100
AcDbEntity
  8
0
  6
Continuous
 62
     7
370
    25
100
AcDbSpline
210
0.0
220
0.0
230
1.0
 70
    24
 71
     3
 72
    14
 73
    10
 74
     0
 42
0.000000001
 43
0.00000001
 40
0.0
 40
0.0
 40
0.0
 40
0.0
 40
0.4999999999999997
 40
0.4999999999999997
 40
0.6249999999999997
 40
0.6249999999999997
 40
0.7499999999999997
 40
0.7499999999999997
 40
1.0
 40
1.0
 40
1.0
 40
1.0
 10
99.91749694209327
 20
35.66320358717439
 30
0.0
 10
100.8971826372215
 20
35.09758178737086
 30
0.0
 10
101.891545814609
 20
34.52348593923397
 30
0.0
 10
103.1668202748731
 20
33.78720588630984
 30
0.0
 10
103.4230747875015
 20
33.63925727446276
 30
0.0
 10
103.9299733288141
 20
33.34659926518414
 30
0.0
 10
104.1817231549554
 20
33.20125143529297
 30
0.0
 10
104.9324905666056
 20
32.76779566807799
 30
0.0
 10
105.4270435497494
 20
32.48226537013139
 30
0.0
 10
105.9174969420934
 20
32.1991019720366
 30
0.0
  0
SPLINE
  5
E5
330
1F
100
AcDbEntity
  8
0
  6
Continuous
 62
     7
370
    25
100
AcDbSpline
210
0.0
220
0.0
230
1.0
 70
    24
 71
     3
 72
    14
 73
    10
 74
     0
 42
0.000000001
 43
0.00000001
 40
0.0
 40
0.0
 40
0.0
 40
0.0
 40
0.25
 40
0.25
 40
0.5
 40
0.5
 40
0.75
 40
0.75
 40
1.0
 40
1.0
 40
1.0
 40
1.0
 10
99.91749694209332
 20
35.66320358717435
 30
0.0
 10
99.91749694209331
 20
36.22709590183639
 30
0.0
 10
99.91749694209331
 20
36.80423247529163
 30
0.0
 10
99.91749694209331
 20
37.96081846132586
 30
0.0
 10
99.91749694209331
 20
38.54259563685203
 30
0.0
 10
99.91749694209331
 20
39.71433667670237
 30
0.0
 10
99.91749694209331
 20
40.307983206166
 30
0.0
 10
99.9174969420933
 20
41.46417156247088
 30
0.0
 10
99.9174969420933
 20
42.03140087243865
 30
0.0
 10
99.9174969420933
 20
42.59140681744989
 30
0.0
  0
SPLINE
  5
E6
330
1F
100
AcDbEntity
  8
0
  6
Continuous
 62
     7
370
    25
100
AcDbSpline
210
0.0
220
0.0
230
1.0
 70
    24
 71
     3
 72
    14
 73
    10
 74
     0
 42
0.000000001
 43
0.00000001
 40
0.0
 40
0.0
 40
0.0
 40
0.0
 40
0.4999999999999999
 40
0.4999999999999999
 40
0.6249999999999999
 40
0.6249999999999999
 40
0.7499999999999998
 40
0.7499999999999998
 40
1.0
 40
1.0
 40
1.0
 40
1.0
 10
105.9174969420934
 20
46.05550843258769
 30
0.0
 10
104.9378112469651
 20
45.48988663278415
 30
0.0
 10
103.9434480695776
 20
44.91579078464726
 30
0.0
 10
102.6681736093135
 20
44.17951073172312
 30
0.0
 10
102.4119190966851
 20
44.03156211987604
 30
0.0
 10
101.9050205553726
 20
43.73890411059741
 30
0.0
 10
101.6532707292312
 20
43.59355628070624
 30
0.0
 10
100.9025033175811
 20
43.16010051349126
 30
0.0
 10
100.4079503344373
 20
42.87457021554466
 30
0.0
 10
99.91749694209327
 20
42.59140681744986
 30
0.0
  0
SPLINE
  5
E7
330
1F
100
AcDbEntity
  8
0
  6
Continuous
 62
     7
370
    25
100
AcDbSpline
210
0.0
220
0.0
230
1.0
 70
    24
 71
     3
 72
    14
 73
    10
 74
     0
 42
0.000000001
 43
0.00000001
 40
0.0
 40
0.0
 40
0.0
 40
0.0
 40
0.5000000000000003
 40
0.5000000000000003
 40
0.6250000000000003
 40
0.6250000000000003
 40
0.7500000000000002
 40
0.7500000000000002
 40
1.0
 40
1.0
 40
1.0
 40
1.0
 10
111.9174969420934
 20
42.59140681744992
 30
0.0
 10
110.9378112469651
 20
43.15702861725346
 30
0.0
 10
109.9434480695776
 20
43.73112446539034
 30
0.0
 10
108.6681736093135
 20
44.46740451831446
 30
0.0
 10
108.4119190966851
 20
44.61535313016153
 30
0.0
 10
107.9050205553726
 20
44.90801113944016
 30
0.0
 10
107.6532707292312
 20
45.05335896933132
 30
0.0
 10
106.9025033175811
 20
45.4868147365463
 30
0.0
 10
106.4079503344373
 20
45.77234503449289
 30
0.0
 10
105.9174969420933
 20
46.05550843258769
 30
0.0
  0
CIRCLE
  5
E8
330
1F
100
AcDbEntity
  8
0
  6
Continuous
 62
     7
370
    25
100
AcDbCircle
 10
105.9174969421
 20
39.1273052023
 30
0.0
 40
5.749999999999986
  0
INSERT
  5
F4
330
1F
100
AcDbEntity
  8
0
  6
Continuous
 62
     7
370
    18
100
AcDbBlockReference
  2
SW_CENTERMARKSYMBOL_0
 10
105.9174969421
 20
39.1273052023
 30
0.0
  0
INSERT
  5
100
330
1F
100
AcDbEntity
  8
0
  6
Continuous
 62
     7
370
    18
100
AcDbBlockReference
  2
SW_CENTERMARKSYMBOL_1
 10
105.9174969421
 20
39.1273052023
 30
0.0
  0
LINE
  5
101
330
1F
100
AcDbEntity
  8
0
  6
Continuous
 62
     7
370
    25
100
AcDbLine
 10
67.9714127118
 20
64.6370363865
 30
0.0
 11
67.8270751445
 21
64.3870363865
 31
0.0
  0
LINE
  5
102
330
1F
100
AcDbEntity
  8
0
  6
Continuous
 62
     7
370
    25
100
AcDbLine
 10
67.8270751445
 20
52.8870363865
 30
0.0
 11
67.9714127118
 21
52.6370363865
 31
0.0
  0
LINE
  5
103
330
1F
100
AcDbEntity
  8
0
  6
Continuous
 62
     7
370
    25
100
AcDbLine
 10
72.6827375772
 20
52.6370363865
 30
0.0
 11
72.8270751445
 21
52.8870363865
 31
0.0
  0
LINE
  5
104
330
1F
100
AcDbEntity
  8
0
  6
Continuous
 62
     7
370
    25
100
AcDbLine
 10
72.8270751445
 20
64.3870363865
 30
0.0
 11
72.6827375772
 21
64.6370363865
 31
0.0
  0
LINE
  5
105
330
1F
100
AcDbEntity
  8
0
  6
Continuous
 62
     7
370
    25
100
AcDbLine
 10
67.8270751445
 20
63.6582238865
 30
0.0
 11
60.182023204
 21
63.4193160134
 31
0.0
  0
LINE
  5
106
330
1F
100
AcDbEntity
  8
0
  6
Continuous
 62
     7
370
    25
100
AcDbLine
 10
60.182023204
 20
53.8547567597
 30
0.0
 11
67.8270751445
 21
53.6158488865
 31
0.0
  0
LINE
  5
107
330
1F
100
AcDbEntity
  8
0
  6
Continuous
 62
     7
370
    25
100
AcDbLine
 10
60.182023204
 20
63.4193160134
 30
0.0
 11
58.8270751445
 21
62.6370363865
 31
0.0
  0
LINE
  5
108
330
1F
100
AcDbEntity
  8
0
  6
Continuous
 62
     7
370
    25
100
AcDbLine
 10
58.8270751445
 20
54.6370363865
 30
0.0
 11
60.182023204
 21
53.8547567597
 31
0.0
  0
LINE
  5
109
330
1F
100
AcDbEntity
  8
0
  6
Continuous
 62
     7
370
    25
100
AcDbLine
 10
84.3270751445
 20
55.6370363865
 30
0.0
 11
88.3270751445
 21
56.2870363865
 31
0.0
  0
LINE
  5
10A
330
1F
100
AcDbEntity
  8
0
  6
Continuous
 62
     7
370
    25
100
AcDbLine
 10
88.3270751445
 20
60.9870363865
 30
0.0
 11
84.3270751445
 21
61.6370363865
 31
0.0
  0
LINE
  5
10B
330
1F
100
AcDbEntity
  8
0
  6
Continuous
 62
     7
370
    25
100
AcDbLine
 10
88.3270751445
 20
55.6370363865
 30
0.0
 11
92.3985555258
 21
56.2251391083
 31
0.0
  0
LINE
  5
10C
330
1F
100
AcDbEntity
  8
0
  6
Continuous
 62
     7
370
    25
100
AcDbLine
 10
92.3985555258
 20
61.0489336648
 30
0.0
 11
88.3270751445
 21
61.6370363865
 31
0.0
  0
LINE
  5
10D
330
1F
100
AcDbEntity
  8
0
  6
Continuous
 62
     7
370
    25
100
AcDbLine
 10
80.3270751445
 20
55.6370363865
 30
0.0
 11
84.3270751445
 21
56.2870363865
 31
0.0
  0
LINE
  5
10E
330
1F
100
AcDbEntity
  8
0
  6
Continuous
 62
     7
370
    25
100
AcDbLine
 10
84.3270751445
 20
60.9870363865
 30
0.0
 11
80.3270751445
 21
61.6370363865
 31
0.0
  0
LINE
  5
10F
330
1F
100
AcDbEntity
  8
0
  6
Continuous
 62
     7
370
    25
100
AcDbLine
 10
76.3270751445
 20
55.6370363865
 30
0.0
 11
80.3270751445
 21
56.2870363865
 31
0.0
  0
LINE
  5
110
330
1F
100
AcDbEntity
  8
0
  6
Continuous
 62
     7
370
    25
100
AcDbLine
 10
80.3270751445
 20
60.9870363865
 30
0.0
 11
76.3270751445
 21
61.6370363865
 31
0.0
  0
LINE
  5
111
330
1F
100
AcDbEntity
  8
0
  6
Continuous
 62
     7
370
    25
100
AcDbLine
 10
76.3270751445
 20
61.6370363865
 30
0.0
 11
72.8270751445
 21
61.6370363865
 31
0.0
  0
LINE
  5
112
330
1F
100
AcDbEntity
  8
0
  6
Continuous
 62
     7
370
    25
100
AcDbLine
 10
72.8270751445
 20
55.6370363865
 30
0.0
 11
76.3270751445
 21
55.6370363865
 31
0.0
  0
ARC
  5
113
330
1F
100
AcDbEntity
  8
0
  6
Continuous
 62
     7
370
    25
100
AcDbCircle
 10
92.3270751445
 20
60.5540694863
 30
0.0
 40
0.5000000000000003
100
AcDbArc
 50
0.0
 51
81.7807907511
  0
ARC
  5
114
330
1F
100
AcDbEntity
  8
0
  6
Continuous
 62
     7
370
    25
100
AcDbCircle
 10
92.3270751445
 20
56.7200032867
 30
0.0
 40
0.5
100
AcDbArc
 50
278.2192092489
 51
0.0
  0
SPLINE
  5
115
330
1F
100
AcDbEntity
  8
0
  6
Continuous
 62
     7
370
    25
100
AcDbSpline
210
0.0
220
0.0
230
1.0
 70
     8
 71
     3
 72
    14
 73
    10
 74
     0
 42
0.000000001
 43
0.00000001
 40
0.0
 40
0.0
 40
0.0
 40
0.0
 40
0.5000000000000003
 40
0.5000000000000003
 40
0.6250000000000003
 40
0.6250000000000003
 40
0.7500000000000002
 40
0.7500000000000002
 40
1.0
 40
1.0
 40
1.0
 40
1.0
 10
68.50731109666772
 20
64.63703638650911
 30
0.0
 10
68.18074919829164
 20
63.65735069138084
 30
0.0
 10
67.97216504677411
 20
62.66298751399339
 30
0.0
 10
67.97122726228574
 20
61.3877130537293
 30
0.0
 10
67.98375336867576
 20
61.13145854110088
 30
0.0
 10
68.03259840945103
 20
60.62455999978833
 30
0.0
 10
68.0688677875083
 20
60.37281017364695
 30
0.0
 10
68.20892048816744
 20
59.62204276199685
 30
0.0
 10
68.34382663255333
 20
59.12748977885308
 30
0.0
 10
68.507311096668
 20
58.63703638650904
 30
0.0
  0
SPLINE
  5
116
330
1F
100
AcDbEntity
  8
0
  6
Continuous
 62
     7
370
    25
100
AcDbSpline
210
0.0
220
0.0
230
1.0
 70
     8
 71
     3
 72
    14
 73
    10
 74
     0
 42
0.000000001
 43
0.00000001
 40
0.0
 40
0.0
 40
0.0
 40
0.0
 40
0.4999999999999999
 40
0.4999999999999999
 40
0.6249999999999999
 40
0.6249999999999999
 40
0.7499999999999998
 40
0.7499999999999998
 40
1.0
 40
1.0
 40
1.0
 40
1.0
 10
68.50731109666772
 20
58.63703638650915
 30
0.0
 10
68.18074919829162
 20
57.65735069138086
 30
0.0
 10
67.9721650467741
 20
56.66298751399341
 30
0.0
 10
67.97122726228574
 20
55.38771305372931
 30
0.0
 10
67.98375336867575
 20
55.13145854110089
 30
0.0
 10
68.03259840945101
 20
54.62455999978833
 30
0.0
 10
68.06886778750828
 20
54.37281017364696
 30
0.0
 10
68.20892048816744
 20
53.62204276199685
 30
0.0
 10
68.34382663255333
 20
53.12748977885307
 30
0.0
 10
68.507311096668
 20
52.63703638650902
 30
0.0
  0
SPLINE
  5
117
330
1F
100
AcDbEntity
  8
0
  6
Continuous
 62
     7
370
    25
100
AcDbSpline
210
0.0
220
0.0
230
1.0
 70
    24
 71
     3
 72
    13
 73
     9
 74
     0
 42
0.000000001
 43
0.00000001
 40
0.0
 40
0.0
 40
0.0
 40
0.0
 40
0.1860786003335929
 40
0.3724795848768403
 40
0.5601351062813932
 40
0.7483576858103148
 40
0.9979954374562114
 40
1.0
 40
1.0
 40
1.0
 40
1.0
 10
68.5073110966683
 20
52.63703638650907
 30
0.0
 10
68.44898248937612
 20
52.63703638650907
 30
0.0
 10
68.33222421952838
 20
52.63703638650907
 30
0.0
 10
68.1903250336323
 20
52.63703638650907
 30
0.0
 10
68.07668532290516
 20
52.63703638650907
 30
0.0
 10
67.99808710011757
 20
52.63703638650906
 30
0.0
 10
67.95926232826703
 20
52.63703638650912
 30
0.0
 10
67.97160972337399
 20
52.63703638650908
 30
0.0
 10
67.97170808173564
 20
52.63703638650908
 30
0.0
  0
SPLINE
  5
118
330
1F
100
AcDbEntity
  8
0
  6
Continuous
 62
     7
370
    25
100
AcDbSpline
210
0.0
220
0.0
230
1.0
 70
    24
 71
     3
 72
    12
 73
     8
 74
     0
 42
0.000000001
 43
0.00000001
 40
0.0
 40
0.0
 40
0.0
 40
0.0
 40
0.251698787508088
 40
0.4375021183522809
 40
0.6238957820467701
 40
0.8117634221975745
 40
1.0
 40
1.0
 40
1.0
 40
1.0
 10
67.9723329646716
 20
64.63703638650908
 30
0.0
 10
67.9791037162163
 20
64.63703638650908
 30
0.0
 10
67.99087261734205
 20
64.63703638650907
 30
0.0
 10
68.07738505994152
 20
64.63703638650907
 30
0.0
 10
68.18800725586088
 20
64.63703638650905
 30
0.0
 10
68.33057975019345
 20
64.63703638650905
 30
0.0
 10
68.44836213515244
 20
64.63703638650904
 30
0.0
 10
68.5073110966683
 20
64.63703638650904
 30
0.0
  0
LINE
  5
119
330
1F
100
AcDbEntity
  8
0
  6
Continuous
 62
     7
370
    25
100
AcDbLine
 10
67.8270751445
 20
64.3870363865
 30
0.0
 11
67.8270751445
 21
52.8870363865
 31
0.0
  0
SPLINE
  5
11A
330
1F
100
AcDbEntity
  8
0
  6
Continuous
 62
     7
370
    25
100
AcDbSpline
210
0.0
220
0.0
230
1.0
 70
    24
 71
     3
 72
    12
 73
     8
 74
     0
 42
0.000000001
 43
0.00000001
 40
0.0
 40
0.0
 40
0.0
 40
0.0
 40
0.251698787508088
 40
0.4375021183522809
 40
0.6238957820467701
 40
0.8117634221975745
 40
1.0
 40
1.0
 40
1.0
 40
1.0
 10
72.68181732434572
 20
64.63703638650908
 30
0.0
 10
72.675046572801
 20
64.63703638650908
 30
0.0
 10
72.66327767167526
 20
64.63703638650907
 30
0.0
 10
72.57676522907579
 20
64.63703638650907
 30
0.0
 10
72.46614303315641
 20
64.63703638650905
 30
0.0
 10
72.32357053882384
 20
64.63703638650905
 30
0.0
 10
72.20578815386487
 20
64.63703638650904
 30
0.0
 10
72.146839192349
 20
64.63703638650904
 30
0.0
  0
SPLINE
  5
11B
330
1F
100
AcDbEntity
  8
0
  6
Continuous
 62
     7
370
    25
100
AcDbSpline
210
0.0
220
0.0
230
1.0
 70
    24
 71
     3
 72
    13
 73
     9
 74
     0
 42
0.000000001
 43
0.00000001
 40
0.0
 40
0.0
 40
0.0
 40
0.0
 40
0.186078600333593
 40
0.3724795848768402
 40
0.5601351062813931
 40
0.7483576858103147
 40
0.9979954374562114
 40
0.9999999999999999
 40
0.9999999999999999
 40
0.9999999999999999
 40
0.9999999999999999
 10
72.146839192349
 20
52.63703638650907
 30
0.0
 10
72.20516779964119
 20
52.63703638650907
 30
0.0
 10
72.32192606948892
 20
52.63703638650907
 30
0.0
 10
72.463825255385
 20
52.63703638650907
 30
0.0
 10
72.57746496611215
 20
52.63703638650908
 30
0.0
 10
72.65606318889975
 20
52.63703638650907
 30
0.0
 10
72.69488796075021
 20
52.63703638650912
 30
0.0
 10
72.68254056564331
 20
52.63703638650908
 30
0.0
 10
72.68244220728167
 20
52.63703638650908
 30
0.0
  0
SPLINE
  5
11C
330
1F
100
AcDbEntity
  8
0
  6
Continuous
 62
     7
370
    25
100
AcDbSpline
210
0.0
220
0.0
230
1.0
 70
     8
 71
     3
 72
    14
 73
    10
 74
     0
 42
0.000000001
 43
0.00000001
 40
0.0
 40
0.0
 40
0.0
 40
0.0
 40
0.4999999999999999
 40
0.4999999999999999
 40
0.6249999999999999
 40
0.6249999999999999
 40
0.7499999999999998
 40
0.7499999999999998
 40
1.0
 40
1.0
 40
1.0
 40
1.0
 10
72.14683919234959
 20
58.63703638650915
 30
0.0
 10
72.47340109072569
 20
57.65735069138086
 30
0.0
 10
72.6819852422432
 20
56.66298751399341
 30
0.0
 10
72.68292302673157
 20
55.38771305372931
 30
0.0
 10
72.67039692034155
 20
55.13145854110089
 30
0.0
 10
72.62155187956628
 20
54.62455999978833
 30
0.0
 10
72.58528250150901
 20
54.37281017364696
 30
0.0
 10
72.44522980084989
 20
53.62204276199685
 30
0.0
 10
72.31032365646398
 20
53.12748977885307
 30
0.0
 10
72.14683919234929
 20
52.63703638650902
 30
0.0
  0
SPLINE
  5
11D
330
1F
100
AcDbEntity
  8
0
  6
Continuous
 62
     7
370
    25
100
AcDbSpline
210
0.0
220
0.0
230
1.0
 70
     8
 71
     3
 72
    14
 73
    10
 74
     0
 42
0.000000001
 43
0.00000001
 40
0.0
 40
0.0
 40
0.0
 40
0.0
 40
0.5000000000000003
 40
0.5000000000000003
 40
0.6250000000000003
 40
0.6250000000000003
 40
0.7500000000000002
 40
0.7500000000000002
 40
1.0
 40
1.0
 40
1.0
 40
1.0
 10
72.14683919234959
 20
64.63703638650911
 30
0.0
 10
72.47340109072567
 20
63.65735069138084
 30
0.0
 10
72.68198524224319
 20
62.66298751399339
 30
0.0
 10
72.68292302673156
 20
61.3877130537293
 30
0.0
 10
72.67039692034153
 20
61.13145854110088
 30
0.0
 10
72.62155187956627
 20
60.62455999978833
 30
0.0
 10
72.585282501509
 20
60.37281017364695
 30
0.0
 10
72.44522980084987
 20
59.62204276199685
 30
0.0
 10
72.31032365646398
 20
59.12748977885308
 30
0.0
 10
72.14683919234929
 20
58.63703638650904
 30
0.0
  0
LINE
  5
11E
330
1F
100
AcDbEntity
  8
0
  6
Continuous
 62
     7
370
    25
100
AcDbLine
 10
72.8270751445
 20
64.3870363865
 30
0.0
 11
72.8270751445
 21
52.8870363865
 31
0.0
  0
LINE
  5
11F
330
1F
100
AcDbEntity
  8
0
  6
Continuous
 62
     7
370
    25
100
AcDbLine
 10
70.2466903868
 20
58.6370363865
 30
0.0
 11
68.5073110967
 21
58.6370363865
 31
0.0
  0
LINE
  5
120
330
1F
100
AcDbEntity
  8
0
  6
Continuous
 62
     7
370
    25
100
AcDbLine
 10
70.2466903868
 20
64.6370363865
 30
0.0
 11
68.5073110967
 21
64.6370363865
 31
0.0
  0
SPLINE
  5
121
330
1F
100
AcDbEntity
  8
0
  6
Continuous
 62
     7
370
    25
100
AcDbSpline
210
0.0
220
0.0
230
1.0
 70
     8
 71
     3
 72
     8
 73
     4
 74
     0
 42
0.000000001
 43
0.00000001
 40
0.0
 40
0.0
 40
0.0
 40
0.0
 40
1.0
 40
1.0
 40
1.0
 40
1.0
 10
70.32707514450864
 20
64.07625932555663
 30
0.0
 10
70.30245719789589
 20
64.26350205227732
 30
0.0
 10
70.27556112394498
 20
64.45041300776623
 30
0.0
 10
70.24669038677932
 20
64.63703638650904
 30
0.0
  0
SPLINE
  5
122
330
1F
100
AcDbEntity
  8
0
  6
Continuous
 62
     7
370
    25
100
AcDbSpline
210
0.0
220
0.0
230
1.0
 70
     8
 71
     3
 72
     8
 73
     4
 74
     0
 42
0.000000001
 43
0.00000001
 40
0.0
 40
0.0
 40
0.0
 40
0.0
 40
1.0
 40
1.0
 40
1.0
 40
1.0
 10
70.40745990223799
 20
64.63703638650904
 30
0.0
 10
70.37857015358468
 20
64.45029011557826
 30
0.0
 10
70.35167611305391
 20
64.26337291804444
 30
0.0
 10
70.32707514450864
 20
64.07625932555663
 30
0.0
  0
LINE
  5
123
330
1F
100
AcDbEntity
  8
0
  6
Continuous
 62
     7
370
    25
100
AcDbLine
 10
72.1468391923
 20
64.6370363865
 30
0.0
 11
70.4074599022
 21
64.6370363865
 31
0.0
  0
LINE
  5
124
330
1F
100
AcDbEntity
  8
0
  6
Continuous
 62
     7
370
    25
100
AcDbLine
 10
72.1468391923
 20
58.6370363865
 30
0.0
 11
70.4074599022
 21
58.6370363865
 31
0.0
  0
SPLINE
  5
125
330
1F
100
AcDbEntity
  8
0
  6
Continuous
 62
     7
370
    25
100
AcDbSpline
210
0.0
220
0.0
230
1.0
 70
     8
 71
     3
 72
     8
 73
     4
 74
     0
 42
0.000000001
 43
0.00000001
 40
0.0
 40
0.0
 40
0.0
 40
0.0
 40
1.0
 40
1.0
 40
1.0
 40
1.0
 10
70.32707514450864
 20
59.19781344746148
 30
0.0
 10
70.3516930911214
 20
59.01057072074081
 30
0.0
 10
70.37858916507233
 20
58.8236597652519
 30
0.0
 10
70.40745990223799
 20
58.63703638650908
 30
0.0
  0
SPLINE
  5
126
330
1F
100
AcDbEntity
  8
0
  6
Continuous
 62
     7
370
    25
100
AcDbSpline
210
0.0
220
0.0
230
1.0
 70
     8
 71
     3
 72
     8
 73
     4
 74
     0
 42
0.000000001
 43
0.00000001
 40
0.0
 40
0.0
 40
0.0
 40
0.0
 40
1.0
 40
1.0
 40
1.0
 40
1.0
 10
70.24669038677932
 20
58.63703638650908
 30
0.0
 10
70.27558013543263
 20
58.82378265743988
 30
0.0
 10
70.30247417596338
 20
59.01069985497368
 30
0.0
 10
70.32707514450864
 20
59.19781344746148
 30
0.0
  0
LINE
  5
127
330
1F
100
AcDbEntity
  8
0
  6
Continuous
 62
     7
370
    25
100
AcDbLine
 10
70.3270751445
 20
58.0762593256
 30
0.0
 11
70.3270751445
 21
59.1978134475
 31
0.0
  0
SPLINE
  5
128
330
1F
100
AcDbEntity
  8
0
  6
Continuous
 62
     7
370
    25
100
AcDbSpline
210
0.0
220
0.0
230
1.0
 70
     8
 71
     3
 72
     8
 73
     4
 74
     0
 42
0.000000001
 43
0.00000001
 40
0.0
 40
0.0
 40
0.0
 40
0.0
 40
1.0
 40
1.0
 40
1.0
 40
1.0
 10
70.32707514450864
 20
58.07625932555668
 30
0.0
 10
70.30245719789589
 20
58.26350205227737
 30
0.0
 10
70.27556112394498
 20
58.45041300776627
 30
0.0
 10
70.24669038677932
 20
58.63703638650908
 30
0.0
  0
SPLINE
  5
129
330
1F
100
AcDbEntity
  8
0
  6
Continuous
 62
     7
370
    25
100
AcDbSpline
210
0.0
220
0.0
230
1.0
 70
     8
 71
     3
 72
     8
 73
     4
 74
     0
 42
0.000000001
 43
0.00000001
 40
0.0
 40
0.0
 40
0.0
 40
0.0
 40
1.0
 40
1.0
 40
1.0
 40
1.0
 10
70.40745990223799
 20
58.63703638650908
 30
0.0
 10
70.37857015358468
 20
58.45029011557828
 30
0.0
 10
70.35167611305391
 20
58.26337291804449
 30
0.0
 10
70.32707514450864
 20
58.07625932555668
 30
0.0
  0
LINE
  5
12A
330
1F
100
AcDbEntity
  8
0
  6
Continuous
 62
     7
370
    25
100
AcDbLine
 10
70.2466903868
 20
52.6370363865
 30
0.0
 11
68.5073110967
 21
52.6370363865
 31
0.0
  0
LINE
  5
12B
330
1F
100
AcDbEntity
  8
0
  6
Continuous
 62
     7
370
    25
100
AcDbLine
 10
72.1468391923
 20
52.6370363865
 30
0.0
 11
70.4074599022
 21
52.6370363865
 31
0.0
  0
SPLINE
  5
12C
330
1F
100
AcDbEntity
  8
0
  6
Continuous
 62
     7
370
    25
100
AcDbSpline
210
0.0
220
0.0
230
1.0
 70
     8
 71
     3
 72
     8
 73
     4
 74
     0
 42
0.000000001
 43
0.00000001
 40
0.0
 40
0.0
 40
0.0
 40
0.0
 40
1.0
 40
1.0
 40
1.0
 40
1.0
 10
70.32707514450864
 20
53.19781344746147
 30
0.0
 10
70.3516930911214
 20
53.01057072074079
 30
0.0
 10
70.37858916507233
 20
52.82365976525188
 30
0.0
 10
70.40745990223799
 20
52.63703638650907
 30
0.0
  0
SPLINE
  5
12D
330
1F
100
AcDbEntity
  8
0
  6
Continuous
 62
     7
370
    25
100
AcDbSpline
210
0.0
220
0.0
230
1.0
 70
     8
 71
     3
 72
     8
 73
     4
 74
     0
 42
0.000000001
 43
0.00000001
 40
0.0
 40
0.0
 40
0.0
 40
0.0
 40
1.0
 40
1.0
 40
1.0
 40
1.0
 10
70.24669038677932
 20
52.63703638650907
 30
0.0
 10
70.27558013543263
 20
52.82378265743986
 30
0.0
 10
70.30247417596338
 20
53.01069985497367
 30
0.0
 10
70.32707514450864
 20
53.19781344746147
 30
0.0
  0
LINE
  5
12E
330
1F
100
AcDbEntity
  8
0
  6
Continuous
 62
     7
370
    25
100
AcDbLine
 10
60.182023204
 20
63.4193160134
 30
0.0
 11
60.182023204
 21
53.8547567597
 31
0.0
  0
LINE
  5
12F
330
1F
100
AcDbEntity
  8
0
  6
Continuous
 62
     7
370
    25
100
AcDbLine
 10
58.8270751445
 20
54.6370363865
 30
0.0
 11
58.8270751445
 21
62.6370363865
 31
0.0
  0
LINE
  5
130
330
1F
100
AcDbEntity
  8
0
  6
Continuous
 62
     7
370
    25
100
AcDbLine
 10
70.3270751445
 20
64.0762593256
 30
0.0
 11
70.3270751445
 21
64.6370363865
 31
0.0
  0
SPLINE
  5
131
330
1F
100
AcDbEntity
  8
0
  6
Continuous
 62
     7
370
    25
100
AcDbSpline
210
0.0
220
0.0
230
1.0
 70
    24
 71
     3
 72
     8
 73
     4
 74
     0
 42
0.000000001
 43
0.00000001
 40
0.0
 40
0.0
 40
0.0
 40
0.0
 40
1.0
 40
1.0
 40
1.0
 40
1.0
 10
70.32707514450864
 20
64.63703638650905
 30
0.0
 10
70.35169221683813
 20
64.63703638650905
 30
0.0
 10
70.3785881873295
 20
64.63703638650904
 30
0.0
 10
70.40745990223799
 20
64.63703638650904
 30
0.0
  0
SPLINE
  5
132
330
1F
100
AcDbEntity
  8
0
  6
Continuous
 62
     7
370
    25
100
AcDbSpline
210
0.0
220
0.0
230
1.0
 70
    24
 71
     3
 72
     8
 73
     4
 74
     0
 42
0.000000001
 43
0.00000001
 40
0.0
 40
0.0
 40
0.0
 40
0.0
 40
1.0
 40
1.0
 40
1.0
 40
1.0
 10
70.24669038677932
 20
64.63703638650904
 30
0.0
 10
70.27558292488818
 20
64.63703638650904
 30
0.0
 10
70.30247666321802
 20
64.63703638650905
 30
0.0
 10
70.32707514450864
 20
64.63703638650905
 30
0.0
  0
SPLINE
  5
133
330
1F
100
AcDbEntity
  8
0
  6
Continuous
 62
     7
370
    25
100
AcDbSpline
210
0.0
220
0.0
230
1.0
 70
    24
 71
     3
 72
     8
 73
     4
 74
     0
 42
0.000000001
 43
0.00000001
 40
0.0
 40
0.0
 40
0.0
 40
0.0
 40
1.0
 40
1.0
 40
1.0
 40
1.0
 10
70.32707514450864
 20
52.63703638650907
 30
0.0
 10
70.30245807217916
 20
52.63703638650907
 30
0.0
 10
70.2755621016878
 20
52.63703638650907
 30
0.0
 10
70.24669038677932
 20
52.63703638650907
 30
0.0
  0
LINE
  5
134
330
1F
100
AcDbEntity
  8
0
  6
Continuous
 62
     7
370
    25
100
AcDbLine
 10
70.3270751445
 20
52.6370363865
 30
0.0
 11
70.3270751445
 21
53.1978134475
 31
0.0
  0
SPLINE
  5
135
330
1F
100
AcDbEntity
  8
0
  6
Continuous
 62
     7
370
    25
100
AcDbSpline
210
0.0
220
0.0
230
1.0
 70
    24
 71
     3
 72
     8
 73
     4
 74
     0
 42
0.000000001
 43
0.00000001
 40
0.0
 40
0.0
 40
0.0
 40
0.0
 40
1.0
 40
1.0
 40
1.0
 40
1.0
 10
70.40745990223799
 20
52.63703638650907
 30
0.0
 10
70.37856736412913
 20
52.63703638650907
 30
0.0
 10
70.3516736257993
 20
52.63703638650907
 30
0.0
 10
70.32707514450864
 20
52.63703638650907
 30
0.0
  0
LINE
  5
136
330
1F
100
AcDbEntity
  8
0
  6
Continuous
 62
     7
370
    25
100
AcDbLine
 10
84.3270751445
 20
58.6370363865
 30
0.0
 11
84.3270751445
 21
55.6370363865
 31
0.0
  0
LINE
  5
137
330
1F
100
AcDbEntity
  8
0
  6
Continuous
 62
     7
370
    25
100
AcDbLine
 10
84.3270751445
 20
61.6370363865
 30
0.0
 11
84.3270751445
 21
58.6370363865
 31
0.0
  0
LINE
  5
138
330
1F
100
AcDbEntity
  8
0
  6
Continuous
 62
     7
370
    25
100
AcDbLine
 10
88.3270751445
 20
58.6370363865
 30
0.0
 11
88.3270751445
 21
55.6370363865
 31
0.0
  0
LINE
  5
139
330
1F
100
AcDbEntity
  8
0
  6
Continuous
 62
     7
370
    25
100
AcDbLine
 10
88.3270751445
 20
61.6370363865
 30
0.0
 11
88.3270751445
 21
58.6370363865
 31
0.0
  0
LINE
  5
13A
330
1F
100
AcDbEntity
  8
0
  6
Continuous
 62
     7
370
    25
100
AcDbLine
 10
80.3270751445
 20
58.6370363865
 30
0.0
 11
80.3270751445
 21
55.6370363865
 31
0.0
  0
LINE
  5
13B
330
1F
100
AcDbEntity
  8
0
  6
Continuous
 62
     7
370
    25
100
AcDbLine
 10
80.3270751445
 20
61.6370363865
 30
0.0
 11
80.3270751445
 21
58.6370363865
 31
0.0
  0
LINE
  5
13C
330
1F
100
AcDbEntity
  8
0
  6
Continuous
 62
     7
370
    25
100
AcDbLine
 10
76.3270751445
 20
58.6370363865
 30
0.0
 11
76.3270751445
 21
55.6370363865
 31
0.0
  0
LINE
  5
13D
330
1F
100
AcDbEntity
  8
0
  6
Continuous
 62
     7
370
    25
100
AcDbLine
 10
76.3270751445
 20
61.6370363865
 30
0.0
 11
76.3270751445
 21
58.6370363865
 31
0.0
  0
LINE
  5
13E
330
1F
100
AcDbEntity
  8
0
  6
Continuous
 62
     7
370
    25
100
AcDbLine
 10
92.8270751445
 20
58.6370363865
 30
0.0
 11
92.8270751445
 21
56.7200032867
 31
0.0
  0
LINE
  5
13F
330
1F
100
AcDbEntity
  8
0
  6
Continuous
 62
     7
370
    25
100
AcDbLine
 10
92.8270751445
 20
60.5540694863
 30
0.0
 11
92.8270751445
 21
58.6370363865
 31
0.0
  0
LINE
  5
140
330
1F
100
AcDbEntity
  8
0
  6
Continuous
 62
     8
370
    25
100
AcDbLine
 10
92.3985555258
 20
58.6370363865
 30
0.0
 11
92.3985555258
 21
61.0489336648
 31
0.0
  0
LINE
  5
141
330
1F
100
AcDbEntity
  8
0
  6
Continuous
 62
     8
370
    25
100
AcDbLine
 10
92.3985555258
 20
56.2251391083
 30
0.0
 11
92.3985555258
 21
58.6370363865
 31
0.0
  0
LINE
  5
142
330
1F
100
AcDbEntity
  8
0
  6
Continuous
 62
     7
370
    18
100
AcDbLine
 10
59.3452949953
 20
62.9362307568
 30
0.0
 11
67.3270751445
 21
63.1856613865
 31
0.0
  0
LINE
  5
143
330
1F
100
AcDbEntity
  8
0
  6
Continuous
 62
     7
370
    18
100
AcDbLine
 10
59.3452949953
 20
54.3378420162
 30
0.0
 11
67.3270751445
 21
54.0884113865
 31
0.0
  0
LINE
  5
144
330
1F
100
AcDbEntity
  8
0
  6
Continuous
 62
     7
370
    18
100
AcDbLine
 10
67.3270751445
 20
53.6314738865
 30
0.0
 11
67.3270751445
 21
63.6425988865
 31
0.0
  0
LINE
  5
145
330
1F
100
AcDbEntity
  8
0
  6
CENTERX2
 62
     7
370
    18
100
AcDbLine
 10
93.8270751445
 20
58.6370363865
 30
0.0
 11
57.7634499758
 21
58.6370363865
 31
0.0
  0
ENDSEC
  0
SECTION
  2
OBJECTS
  0
DICTIONARY
  5
C
330
0
100
AcDbDictionary
281
     1
  3
ACAD_GROUP
350
D
  3
ACAD_LAYOUT
350
1A
  3
ACAD_MLINESTYLE
350
17
  3
ACAD_PLOTSETTINGS
350
19
  3
ACAD_PLOTSTYLENAME
350
E
  3
ACAD_SCALELIST
350
47
  0
DICTIONARY
  5
D
102
{ACAD_REACTORS
330
C
102
}
330
C
100
AcDbDictionary
281
     1
  0
DICTIONARY
  5
1A
102
{ACAD_REACTORS
330
C
102
}
330
C
100
AcDbDictionary
281
     1
  3
Layout1
350
1E
  3
Layout2
350
26
  3
Model
350
22
  0
DICTIONARY
  5
17
102
{ACAD_REACTORS
330
C
102
}
330
C
100
AcDbDictionary
281
     1
  3
Standard
350
18
  0
DICTIONARY
  5
19
102
{ACAD_REACTORS
330
C
102
}
330
C
100
AcDbDictionary
281
     1
  0
ACDBDICTIONARYWDFLT
  5
E
102
{ACAD_REACTORS
330
C
102
}
330
C
100
AcDbDictionary
281
     1
  3
Normal
350
F
100
AcDbDictionaryWithDefault
340
F
  0
DICTIONARY
  5
47
102
{ACAD_REACTORS
330
C
102
}
330
C
100
AcDbDictionary
281
     1
  3
A0
350
48
  3
A1
350
49
  3
A2
350
4A
  3
A3
350
4B
  3
A4
350
4C
  3
A5
350
4D
  3
A6
350
4E
  3
A7
350
4F
  3
A8
350
50
  3
A9
350
51
  3
B0
350
52
  3
B1
350
53
  3
B2
350
54
  3
B3
350
55
  3
B4
350
56
  3
B5
350
57
  3
B6
350
58
  3
B7
350
59
  3
B8
350
5A
  3
B9
350
5B
  3
C0
350
5C
  3
C1
350
5D
  3
C2
350
5E
  3
C3
350
5F
  3
C4
350
60
  3
C5
350
61
  3
C6
350
62
  3
C7
350
63
  3
C8
350
64
  3
C9
350
65
  3
D0
350
66
  3
D1
350
67
  3
D2
350
68
  0
LAYOUT
  5
1E
102
{ACAD_REACTORS
330
1A
102
}
330
1A
100
AcDbPlotSettings
  1

  2
none_device
  4

  6

 40
0.0
 41
0.0
 42
0.0
 43
0.0
 44
0.0
 45
0.0
 46
0.0
 47
0.0
 48
0.0
 49
0.0
140
0.0
141
0.0
142
1.0
143
1.0
 70
   688
 72
     1
 73
     0
 74
     5
  7

 75
    16
147
1.0
148
0.0
149
0.0
100
AcDbLayout
  1
Layout1
 70
     1
 71
     1
 10
0.0
 20
0.0
 11
420.0
 21
297.0
 12
0.0
 22
0.0
 32
0.0
 14
1.0000000000E+20
 24
1.0000000000E+20
 34
1.0000000000E+20
 15
-1.0000000000E+20
 25
-1.0000000000E+20
 35
-1.0000000000E+20
146
0.0
 13
0.0
 23
0.0
 33
0.0
 16
1.0
 26
0.0
 36
0.0
 17
0.0
 27
1.0
 37
0.0
 76
     0
330
1B
  0
LAYOUT
  5
26
102
{ACAD_REACTORS
330
1A
102
}
330
1A
100
AcDbPlotSettings
  1

  2
none_device
  4

  6

 40
0.0
 41
0.0
 42
0.0
 43
0.0
 44
0.0
 45
0.0
 46
0.0
 47
0.0
 48
0.0
 49
0.0
140
0.0
141
0.0
142
1.0
143
1.0
 70
   688
 72
     1
 73
     0
 74
     5
  7

 75
    16
147
1.0
148
0.0
149
0.0
100
AcDbLayout
  1
Layout2
 70
     1
 71
     2
 10
0.0
 20
0.0
 11
0.0
 21
0.0
 12
0.0
 22
0.0
 32
0.0
 14
0.0
 24
0.0
 34
0.0
 15
0.0
 25
0.0
 35
0.0
146
0.0
 13
0.0
 23
0.0
 33
0.0
 16
1.0
 26
0.0
 36
0.0
 17
0.0
 27
1.0
 37
0.0
 76
     0
330
23
  0
LAYOUT
  5
22
102
{ACAD_REACTORS
330
1A
102
}
330
1A
100
AcDbPlotSettings
  1

  2
none_device
  4
Letter_(8.50_x_11.00_Inches)
  6

 40
6.35
 41
6.35
 42
6.35000508
 43
6.35000508
 44
215.9
 45
279.4
 46
0.0
 47
0.0
 48
0.0
 49
0.0
140
0.0
141
0.0
142
1.0
143
1.0
 70
  1712
 72
     1
 73
     0
 74
     0
  7

 75
     0
147
1.0
148
0.0
149
0.0
100
AcDbLayout
  1
Model
 70
     1
 71
     0
 10
0.0
 20
0.0
 11
215.9
 21
139.7
 12
0.0
 22
0.0
 32
0.0
 14
0.0
 24
0.0
 34
0.0
 15
215.9
 25
139.7
 35
0.0
146
0.0
 13
0.0
 23
0.0
 33
0.0
 16
1.0
 26
0.0
 36
0.0
 17
0.0
 27
1.0
 37
0.0
 76
     0
330
1F
331
29
  0
MLINESTYLE
  5
18
102
{ACAD_REACTORS
330
17
102
}
330
17
100
AcDbMlineStyle
  2
Standard
 70
     0
  3

 62
   256
 51
90.0
 52
90.0
 71
     2
 49
0.5
 62
   256
  6
BYLAYER
 49
-0.5
 62
   256
  6
BYLAYER
  0
ACDBPLACEHOLDER
  5
F
102
{ACAD_REACTORS
330
E
102
}
330
E
  0
SCALE
  5
48
102
{ACAD_REACTORS
330
47
102
}
330
47
100
AcDbScale
 70
     0
300
1:1
140
1.0
141
1.0
290
     1
  0
SCALE
  5
49
102
{ACAD_REACTORS
330
47
102
}
330
47
100
AcDbScale
 70
     0
300
1:2
140
1.0
141
2.0
290
     0
  0
SCALE
  5
4A
102
{ACAD_REACTORS
330
47
102
}
330
47
100
AcDbScale
 70
     0
300
1:4
140
1.0
141
4.0
290
     0
  0
SCALE
  5
4B
102
{ACAD_REACTORS
330
47
102
}
330
47
100
AcDbScale
 70
     0
300
1:5
140
1.0
141
5.0
290
     0
  0
SCALE
  5
4C
102
{ACAD_REACTORS
330
47
102
}
330
47
100
AcDbScale
 70
     0
300
1:8
140
1.0
141
8.0
290
     0
  0
SCALE
  5
4D
102
{ACAD_REACTORS
330
47
102
}
330
47
100
AcDbScale
 70
     0
300
1:10
140
1.0
141
10.0
290
     0
  0
SCALE
  5
4E
102
{ACAD_REACTORS
330
47
102
}
330
47
100
AcDbScale
 70
     0
300
1:16
140
1.0
141
16.0
290
     0
  0
SCALE
  5
4F
102
{ACAD_REACTORS
330
47
102
}
330
47
100
AcDbScale
 70
     0
300
1:20
140
1.0
141
20.0
290
     0
  0
SCALE
  5
50
102
{ACAD_REACTORS
330
47
102
}
330
47
100
AcDbScale
 70
     0
300
1:30
140
1.0
141
30.0
290
     0
  0
SCALE
  5
51
102
{ACAD_REACTORS
330
47
102
}
330
47
100
AcDbScale
 70
     0
300
1:40
140
1.0
141
40.0
290
     0
  0
SCALE
  5
52
102
{ACAD_REACTORS
330
47
102
}
330
47
100
AcDbScale
 70
     0
300
1:50
140
1.0
141
50.0
290
     0
  0
SCALE
  5
53
102
{ACAD_REACTORS
330
47
102
}
330
47
100
AcDbScale
 70
     0
300
1:100
140
1.0
141
100.0
290
     0
  0
SCALE
  5
54
102
{ACAD_REACTORS
330
47
102
}
330
47
100
AcDbScale
 70
     0
300
2:1
140
2.0
141
1.0
290
     0
  0
SCALE
  5
55
102
{ACAD_REACTORS
330
47
102
}
330
47
100
AcDbScale
 70
     0
300
4:1
140
4.0
141
1.0
290
     0
  0
SCALE
  5
56
102
{ACAD_REACTORS
330
47
102
}
330
47
100
AcDbScale
 70
     0
300
8:1
140
8.0
141
1.0
290
     0
  0
SCALE
  5
57
102
{ACAD_REACTORS
330
47
102
}
330
47
100
AcDbScale
 70
     0
300
10:1
140
10.0
141
1.0
290
     0
  0
SCALE
  5
58
102
{ACAD_REACTORS
330
47
102
}
330
47
100
AcDbScale
 70
     0
300
100:1
140
100.0
141
1.0
290
     0
  0
SCALE
  5
59
102
{ACAD_REACTORS
330
47
102
}
330
47
100
AcDbScale
 70
     0
300
1/128" = 1'-0"
140
0.0078125
141
12.0
290
     0
  0
SCALE
  5
5A
102
{ACAD_REACTORS
330
47
102
}
330
47
100
AcDbScale
 70
     0
300
1/64" = 1'-0"
140
0.015625
141
12.0
290
     0
  0
SCALE
  5
5B
102
{ACAD_REACTORS
330
47
102
}
330
47
100
AcDbScale
 70
     0
300
1/32" = 1'-0"
140
0.03125
141
12.0
290
     0
  0
SCALE
  5
5C
102
{ACAD_REACTORS
330
47
102
}
330
47
100
AcDbScale
 70
     0
300
1/16" = 1'-0"
140
0.0625
141
12.0
290
     0
  0
SCALE
  5
5D
102
{ACAD_REACTORS
330
47
102
}
330
47
100
AcDbScale
 70
     0
300
3/32" = 1'-0"
140
0.09375
141
12.0
290
     0
  0
SCALE
  5
5E
102
{ACAD_REACTORS
330
47
102
}
330
47
100
AcDbScale
 70
     0
300
1/8" = 1'-0"
140
0.125
141
12.0
290
     0
  0
SCALE
  5
5F
102
{ACAD_REACTORS
330
47
102
}
330
47
100
AcDbScale
 70
     0
300
3/16" = 1'-0"
140
0.1875
141
12.0
290
     0
  0
SCALE
  5
60
102
{ACAD_REACTORS
330
47
102
}
330
47
100
AcDbScale
 70
     0
300
1/4" = 1'-0"
140
0.25
141
12.0
290
     0
  0
SCALE
  5
61
102
{ACAD_REACTORS
330
47
102
}
330
47
100
AcDbScale
 70
     0
300
3/8" = 1'-0"
140
0.375
141
12.0
290
     0
  0
SCALE
  5
62
102
{ACAD_REACTORS
330
47
102
}
330
47
100
AcDbScale
 70
     0
300
1/2" = 1'-0"
140
0.5
141
12.0
290
     0
  0
SCALE
  5
63
102
{ACAD_REACTORS
330
47
102
}
330
47
100
AcDbScale
 70
     0
300
3/4" = 1'-0"
140
0.75
141
12.0
290
     0
  0
SCALE
  5
64
102
{ACAD_REACTORS
330
47
102
}
330
47
100
AcDbScale
 70
     0
300
1" = 1'-0"
140
1.0
141
12.0
290
     0
  0
SCALE
  5
65
102
{ACAD_REACTORS
330
47
102
}
330
47
100
AcDbScale
 70
     0
300
1-1/2" = 1'-0"
140
1.5
141
12.0
290
     0
  0
SCALE
  5
66
102
{ACAD_REACTORS
330
47
102
}
330
47
100
AcDbScale
 70
     0
300
3" = 1'-0"
140
3.0
141
12.0
290
     0
  0
SCALE
  5
67
102
{ACAD_REACTORS
330
47
102
}
330
47
100
AcDbScale
 70
     0
300
6" = 1'-0"
140
6.0
141
12.0
290
     0
  0
SCALE
  5
68
102
{ACAD_REACTORS
330
47
102
}
330
47
100
AcDbScale
 70
     0
300
1'-0" = 1'-0"
140
12.0
141
12.0
290
     0
  0
ENDSEC
  0
EOF
