  0
SECTION
  2
HEADER
  9
$ACADVER
  1
AC1015
  9
$ACADMAINTVER
 70
     6
  9
$DWGCODEPAGE
  3
DOS932
  9
$INSBASE
 10
0.0
 20
0.0
 30
0.0
  9
$EXTMIN
 10
0.0
 20
0.0
 30
0.0
  9
$EXTMAX
 10
863.6
 20
558.8
 30
0.0
  9
$LIMMIN
 10
0.0
 20
0.0
  9
$LIMMAX
 10
863.6
 20
558.8
  9
$ORTHOMODE
 70
     0
  9
$REGENMODE
 70
     1
  9
$FILLMODE
 70
     1
  9
$QTEXTMODE
 70
     0
  9
$MIRRTEXT
 70
     1
  9
$LTSCALE
 40
2.0
  9
$ATTMODE
 70
     1
  9
$TEXTSIZE
 40
7.0
  9
$TRACEWID
 40
1.0
  9
$TEXTSTYLE
  7
Standard
  9
$CLAYER
  8
0
  9
$CELTYPE
  6
ByLayer
  9
$CECOLOR
 62
   256
  9
$CELTSCALE
 40
1.0
  9
$DISPSILH
 70
     0
  9
$DIMSCALE
 40
1.0
  9
$DIMASZ
 40
6.604
  9
$DIMEXO
 40
2.0
  9
$DIMDLI
 40
3.75
  9
$DIMRND
 40
0.0
  9
$DIMDLE
 40
0.0
  9
$DIMEXE
 40
2.0
  9
$DIMTP
 40
0.0
  9
$DIMTM
 40
0.0
  9
$DIMTXT
 40
7.0
  9
$DIMCEN
 40
2.5
  9
$DIMTSZ
 40
0.0
  9
$DIMTOL
 70
     0
  9
$DIMLIM
 70
     0
  9
$DIMTIH
 70
     1
  9
$DIMTOH
 70
     1
  9
$DIMSE1
 70
     0
  9
$DIMSE2
 70
     0
  9
$DIMTAD
 70
     1
  9
$DIMZIN
 70
     1
  9
$DIMBLK
  1

  9
$DIMASO
 70
     1
  9
$DIMSHO
 70
     1
  9
$DIMPOST
  1

  9
$DIMAPOST
  1

  9
$DIMALT
 70
     0
  9
$DIMALTD
 70
     3
  9
$DIMALTF
 40
0.0393700787
  9
$DIMLFAC
 40
1.0
  9
$DIMTOFL
 70
     1
  9
$DIMTVP
 40
0.0
  9
$DIMTIX
 70
     0
  9
$DIMSOXD
 70
     0
  9
$DIMSAH
 70
     0
  9
$DIMBLK1
  1

  9
$DIMBLK2
  1

  9
$DIMSTYLE
  2
ISO-25
  9
$DIMCLRD
 70
     0
  9
$DIMCLRE
 70
     0
  9
$DIMCLRT
 70
     0
  9
$DIMTFAC
 40
1.0
  9
$DIMGAP
 40
3.048
  9
$DIMJUST
 70
     0
  9
$DIMSD1
 70
     0
  9
$DIMSD2
 70
     0
  9
$DIMTOLJ
 70
     0
  9
$DIMTZIN
 70
     1
  9
$DIMALTZ
 70
     0
  9
$DIMALTTZ
 70
     0
  9
$DIMUPT
 70
     0
  9
$DIMDEC
 70
     2
  9
$DIMTDEC
 70
     2
  9
$DIMALTU
 70
     2
  9
$DIMALTTD
 70
     3
  9
$DIMTXSTY
  7
Standard
  9
$DIMAUNIT
 70
     0
  9
$DIMADEC
 70
     2
  9
$DIMALTRND
 40
0.0
  9
$DIMAZIN
 70
     0
  9
$DIMDSEP
 70
    44
  9
$DIMATFIT
 70
     3
  9
$DIMFRAC
 70
     0
  9
$DIMLDRBLK
  1

  9
$DIMLUNIT
 70
     2
  9
$DIMLWD
 70
    -2
  9
$DIMLWE
 70
    -2
  9
$DIMTMOVE
 70
     0
  9
$LUNITS
 70
     2
  9
$LUPREC
 70
     2
  9
$SKETCHINC
 40
1.0
  9
$FILLETRAD
 40
10.0
  9
$AUNITS
 70
     0
  9
$AUPREC
 70
     2
  9
$MENU
  1
.
  9
$ELEVATION
 40
0.0
  9
$PELEVATION
 40
0.0
  9
$THICKNESS
 40
0.0
  9
$LIMCHECK
 70
     0
  9
$CHAMFERA
 40
0.0
  9
$CHAMFERB
 40
0.0
  9
$CHAMFERC
 40
0.0
  9
$CHAMFERD
 40
0.0
  9
$SKPOLY
 70
     0
  9
$TDCREATE
 40
2460084.760263935
  9
$TDUCREATE
 40
2460084.385263935
  9
$TDUPDATE
 40
2460084.760264514
  9
$TDUUPDATE
 40
2460084.385264514
  9
$TDINDWG
 40
0.0000000116
  9
$TDUSRTIMER
 40
0.0000000116
  9
$USRTIMER
 70
     1
  9
$ANGBASE
 50
0.0
  9
$ANGDIR
 70
     0
  9
$PDMODE
 70
     0
  9
$PDSIZE
 40
-1.0
  9
$PLINEWID
 40
0.0
  9
$SPLFRAME
 70
     0
  9
$SPLINETYPE
 70
     6
  9
$SPLINESEGS
 70
     8
  9
$HANDSEED
  5
146
  9
$SURFTAB1
 70
     6
  9
$SURFTAB2
 70
     6
  9
$SURFTYPE
 70
     6
  9
$SURFU
 70
     6
  9
$SURFV
 70
     6
  9
$UCSBASE
  2

  9
$UCSNAME
  2

  9
$UCSORG
 10
0.0
 20
0.0
 30
0.0
  9
$UCSXDIR
 10
1.0
 20
0.0
 30
0.0
  9
$UCSYDIR
 10
0.0
 20
1.0
 30
0.0
  9
$UCSORTHOREF
  2

  9
$UCSORTHOVIEW
 70
     0
  9
$UCSORGTOP
 10
0.0
 20
0.0
 30
0.0
  9
$UCSORGBOTTOM
 10
0.0
 20
0.0
 30
0.0
  9
$UCSORGLEFT
 10
0.0
 20
0.0
 30
0.0
  9
$UCSORGRIGHT
 10
0.0
 20
0.0
 30
0.0
  9
$UCSORGFRONT
 10
0.0
 20
0.0
 30
0.0
  9
$UCSORGBACK
 10
0.0
 20
0.0
 30
0.0
  9
$PUCSBASE
  2

  9
$PUCSNAME
  2

  9
$PUCSORG
 10
0.0
 20
0.0
 30
0.0
  9
$PUCSXDIR
 10
1.0
 20
0.0
 30
0.0
  9
$PUCSYDIR
 10
0.0
 20
1.0
 30
0.0
  9
$PUCSORTHOREF
  2

  9
$PUCSORTHOVIEW
 70
     0
  9
$PUCSORGTOP
 10
0.0
 20
0.0
 30
0.0
  9
$PUCSORGBOTTOM
 10
0.0
 20
0.0
 30
0.0
  9
$PUCSORGLEFT
 10
0.0
 20
0.0
 30
0.0
  9
$PUCSORGRIGHT
 10
0.0
 20
0.0
 30
0.0
  9
$PUCSORGFRONT
 10
0.0
 20
0.0
 30
0.0
  9
$PUCSORGBACK
 10
0.0
 20
0.0
 30
0.0
  9
$USERI1
 70
     0
  9
$USERI2
 70
     0
  9
$USERI3
 70
     0
  9
$USERI4
 70
     0
  9
$USERI5
 70
     0
  9
$USERR1
 40
0.0
  9
$USERR2
 40
0.0
  9
$USERR3
 40
0.0
  9
$USERR4
 40
0.0
  9
$USERR5
 40
0.0
  9
$WORLDVIEW
 70
     1
  9
$SHADEDGE
 70
     3
  9
$SHADEDIF
 70
    70
  9
$TILEMODE
 70
     1
  9
$MAXACTVP
 70
    64
  9
$PINSBASE
 10
0.0
 20
0.0
 30
0.0
  9
$PLIMCHECK
 70
     0
  9
$PEXTMIN
 10
1.0000000000E+20
 20
1.0000000000E+20
 30
1.0000000000E+20
  9
$PEXTMAX
 10
-1.0000000000E+20
 20
-1.0000000000E+20
 30
-1.0000000000E+20
  9
$PLIMMIN
 10
0.0
 20
0.0
  9
$PLIMMAX
 10
420.0
 20
297.0
  9
$UNITMODE
 70
     0
  9
$VISRETAIN
 70
     1
  9
$PLINEGEN
 70
     0
  9
$PSLTSCALE
 70
     1
  9
$TREEDEPTH
 70
  3020
  9
$CMLSTYLE
  2
Standard
  9
$CMLJUST
 70
     0
  9
$CMLSCALE
 40
20.0
  9
$PROXYGRAPHICS
 70
     1
  9
$MEASUREMENT
 70
     1
  9
$CELWEIGHT
370
    -1
  9
$ENDCAPS
280
     0
  9
$JOINSTYLE
280
     0
  9
$LWDISPLAY
290
     1
  9
$INSUNITS
 70
     4
  9
$HYPERLINKBASE
  1

  9
$STYLESHEET
  1

  9
$XEDIT
290
     1
  9
$CEPSNTYPE
380
     0
  9
$PSTYLEMODE
290
     1
  9
$FINGERPRINTGUID
  2
{1D842D19-3C21-488E-92CC-BAA1F0F93075}
  9
$VERSIONGUID
  2
{FAEB1C32-E019-11D5-929B-00C0DF256EC4}
  9
$EXTNAMES
290
     1
  9
$PSVPSCALE
 40
0.0
  9
$OLESTARTUP
290
     0
  0
ENDSEC
  0
SECTION
  2
CLASSES
  0
CLASS
  1
ACDBDICTIONARYWDFLT
  2
AcDbDictionaryWithDefault
  3
ObjectDBX Classes
 90
        0
280
     0
281
     0
  0
CLASS
  1
VISUALSTYLE
  2
AcDbVisualStyle
  3
ObjectDBX Classes
 90
     4095
280
     0
281
     0
  0
CLASS
  1
MATERIAL
  2
AcDbMaterial
  3
ObjectDBX Classes
 90
     1153
280
     0
281
     0
  0
CLASS
  1
SCALE
  2
AcDbScale
  3
ObjectDBX Classes
 90
     1153
280
     0
281
     0
  0
CLASS
  1
TABLESTYLE
  2
AcDbTableStyle
  3
ObjectDBX Classes
 90
     4095
280
     0
281
     0
  0
CLASS
  1
MLEADERSTYLE
  2
AcDbMLeaderStyle
  3
ACDB_MLEADERSTYLE_CLASS
 90
     4095
280
     0
281
     0
  0
CLASS
  1
SUN
  2
AcDbSun
  3
SCENEOE
 90
     1153
280
     0
281
     0
  0
CLASS
  1
ACDBPLACEHOLDER
  2
AcDbPlaceHolder
  3
ObjectDBX Classes
 90
        0
280
     0
281
     0
  0
CLASS
  1
LAYOUT
  2
AcDbLayout
  3
ObjectDBX Classes
 90
        0
280
     0
281
     0
  0
ENDSEC
  0
SECTION
  2
TABLES
  0
TABLE
  2
VPORT
  5
8
330
0
100
AcDbSymbolTable
 70
     1
  0
VPORT
  5
29
330
8
100
AcDbSymbolTableRecord
100
AcDbViewportTableRecord
  2
*Active
 70
     0
 10
0.0
 20
0.0
 11
1.0
 21
1.0
 12
431.8
 22
279.4
 13
0.0
 23
0.0
 14
10.0
 24
10.0
 15
10.0
 25
10.0
 16
0.0
 26
0.0
 36
1.0
 17
0.0
 27
0.0
 37
0.0
 40
558.8
 41
1.5454545455
 42
50.0
 43
0.0
 44
0.0
 50
0.0
 51
0.0
 71
     0
 72
  2000
 73
     1
 74
     3
 75
     0
 76
     0
 77
     0
 78
     0
281
     0
 65
     1
110
0.0
120
0.0
130
0.0
111
1.0
121
0.0
131
0.0
112
0.0
122
1.0
132
0.0
 79
     0
146
0.0
  0
ENDTAB
  0
TABLE
  2
LTYPE
  5
5
330
0
100
AcDbSymbolTable
 70
     6
  0
LTYPE
  5
14
330
5
100
AcDbSymbolTableRecord
100
AcDbLinetypeTableRecord
  2
ByBlock
 70
     0
  3

 72
    65
 73
     0
 40
0.0
  0
LTYPE
  5
15
330
5
100
AcDbSymbolTableRecord
100
AcDbLinetypeTableRecord
  2
ByLayer
 70
     0
  3

 72
    65
 73
     0
 40
0.0
  0
LTYPE
  5
16
330
5
100
AcDbSymbolTableRecord
100
AcDbLinetypeTableRecord
  2
Continuous
 70
     0
  3
Solid line
 72
    65
 73
     0
 40
0.0
  0
LTYPE
  5
6E
330
5
100
AcDbSymbolTableRecord
100
AcDbLinetypeTableRecord
  2
HIDDEN
 70
     0
  3
Hidden __ __ __ __ __ __ __ __ __ __ __ __ __ __
 72
    65
 73
     2
 40
1.905
 49
1.27
 74
     0
 49
-0.635
 74
     0
  0
LTYPE
  5
6F
330
5
100
AcDbSymbolTableRecord
100
AcDbLinetypeTableRecord
  2
PHANTOM
 70
     0
  3
Phantom ______  __  __  ______  __  __  ______
 72
    65
 73
     6
 40
12.7
 49
6.35
 74
     0
 49
-1.27
 74
     0
 49
1.27
 74
     0
 49
-1.27
 74
     0
 49
1.27
 74
     0
 49
-1.27
 74
     0
  0
LTYPE
  5
70
330
5
100
AcDbSymbolTableRecord
100
AcDbLinetypeTableRecord
  2
CENTER
 70
     0
  3
Center ____ _ ____ _ ____ _ ____ _ ____ _ ____
 72
    65
 73
     4
 40
10.16
 49
6.35
 74
     0
 49
-1.27
 74
     0
 49
1.27
 74
     0
 49
-1.27
 74
     0
  0
LTYPE
  5
71
330
5
100
AcDbSymbolTableRecord
100
AcDbLinetypeTableRecord
  2
CENTERX2
 70
     0
  3
Center (2x) ________  __  ________  __  _____
 72
    65
 73
     4
 40
20.32
 49
12.7
 74
     0
 49
-2.54
 74
     0
 49
2.54
 74
     0
 49
-2.54
 74
     0
  0
LTYPE
  5
72
330
5
100
AcDbSymbolTableRecord
100
AcDbLinetypeTableRecord
  2
DOT2
 70
     0
  3
Dot (.5x) ........................................
 72
    65
 73
     2
 40
0.635
 49
0.0
 74
     0
 49
-0.635
 74
     0
  0
ENDTAB
  0
TABLE
  2
LAYER
  5
2
330
0
100
AcDbSymbolTable
 70
     1
  0
LAYER
  5
10
330
2
100
AcDbSymbolTableRecord
100
AcDbLayerTableRecord
  2
0
 70
     0
 62
     7
  6
Continuous
370
    -3
390
F
  0
ENDTAB
  0
TABLE
  2
STYLE
  5
3
330
0
100
AcDbSymbolTable
 70
     2
  0
STYLE
  5
11
330
3
100
AcDbSymbolTableRecord
100
AcDbTextStyleTableRecord
  2
Standard
 70
     0
 40
0.0
 41
1.0
 50
0.0
 71
     0
 42
7.0
  3
txt
  4
bigfont
  0
STYLE
  5
73
330
3
100
AcDbSymbolTableRecord
100
AcDbTextStyleTableRecord
  2
SLDTEXTSTYLE0
 70
     0
 40
0.0
 41
0.7
 50
0.0
 71
     0
 42
7.0
  3
TXT
  4
bigfont
  0
ENDTAB
  0
TABLE
  2
VIEW
  5
6
330
0
100
AcDbSymbolTable
 70
     0
  0
ENDTAB
  0
TABLE
  2
UCS
  5
7
330
0
100
AcDbSymbolTable
 70
     0
  0
ENDTAB
  0
TABLE
  2
APPID
  5
9
330
0
100
AcDbSymbolTable
 70
     1
  0
APPID
  5
12
330
9
100
AcDbSymbolTableRecord
100
AcDbRegAppTableRecord
  2
ACAD
 70
     0
  0
ENDTAB
  0
TABLE
  2
DIMSTYLE
  5
A
330
0
100
AcDbSymbolTable
 70
     1
100
AcDbDimStyleTable
  0
DIMSTYLE
105
27
330
A
100
AcDbSymbolTableRecord
100
AcDbDimStyleTableRecord
  2
ISO-25
 70
     0
 41
2.5
 42
0.625
 43
3.75
 44
1.25
 73
     0
 74
     0
 77
     1
 78
     8
140
2.5
141
2.5
143
0.0393700787
147
0.625
171
     3
172
     1
178
     0
271
     2
272
     2
274
     3
278
    44
283
     0
284
     8
340
11
  0
ENDTAB
  0
TABLE
  2
BLOCK_RECORD
  5
1
330
0
100
AcDbSymbolTable
 70
     3
  0
BLOCK_RECORD
  5
1F
330
1
100
AcDbSymbolTableRecord
100
AcDbBlockTableRecord
  2
*Model_Space
340
22
  0
BLOCK_RECORD
  5
1B
330
1
100
AcDbSymbolTableRecord
100
AcDbBlockTableRecord
  2
*Paper_Space
340
1E
  0
BLOCK_RECORD
  5
23
330
1
100
AcDbSymbolTableRecord
100
AcDbBlockTableRecord
  2
*Paper_Space0
340
26
  0
BLOCK_RECORD
  5
EF
330
1
100
AcDbSymbolTableRecord
100
AcDbBlockTableRecord
  2
SW_CENTERMARKSYMBOL_0
340
0
102
{BLKREFS
331
FA
102
}
  0
BLOCK_RECORD
  5
FB
330
1
100
AcDbSymbolTableRecord
100
AcDbBlockTableRecord
  2
SW_CENTERMARKSYMBOL_1
340
0
102
{BLKREFS
331
106
102
}
  0
ENDTAB
  0
ENDSEC
  0
SECTION
  2
BLOCKS
  0
BLOCK
  5
20
330
1F
100
AcDbEntity
  8
0
100
AcDbBlockBegin
  2
*Model_Space
 70
     0
 10
0.0
 20
0.0
 30
0.0
  3
*Model_Space
  1

  0
ENDBLK
  5
21
330
1F
100
AcDbEntity
  8
0
100
AcDbBlockEnd
  0
BLOCK
  5
1C
330
1B
100
AcDbEntity
 67
     1
  8
0
100
AcDbBlockBegin
  2
*Paper_Space
 70
     0
 10
0.0
 20
0.0
 30
0.0
  3
*Paper_Space
  1

  0
ENDBLK
  5
1D
330
1B
100
AcDbEntity
 67
     1
  8
0
100
AcDbBlockEnd
  0
BLOCK
  5
24
330
23
100
AcDbEntity
  8
0
100
AcDbBlockBegin
  2
*Paper_Space0
 70
     0
 10
0.0
 20
0.0
 30
0.0
  3
*Paper_Space0
  1

  0
ENDBLK
  5
25
330
23
100
AcDbEntity
  8
0
100
AcDbBlockEnd
  0
BLOCK
  5
F0
330
EF
100
AcDbEntity
  8
0
100
AcDbBlockBegin
  2
SW_CENTERMARKSYMBOL_0
 70
     0
 10
0.0
 20
0.0
 30
0.0
  3
SW_CENTERMARKSYMBOL_0
  1

  0
LINE
  5
F2
330
EF
100
AcDbEntity
  8
0
  6
Continuous
 62
     0
370
    18
100
AcDbLine
 10
0.0
 20
0.0
 30
0.0
 11
0.0
 21
2.5
 31
0.0
  0
LINE
  5
F3
330
EF
100
AcDbEntity
  8
0
  6
Continuous
 62
     0
370
    18
100
AcDbLine
 10
0.0
 20
0.0
 30
0.0
 11
-2.5
 21
0.0
 31
0.0
  0
LINE
  5
F4
330
EF
100
AcDbEntity
  8
0
  6
Continuous
 62
     0
370
    18
100
AcDbLine
 10
0.0
 20
0.0
 30
0.0
 11
0.0
 21
-2.5
 31
0.0
  0
LINE
  5
F5
330
EF
100
AcDbEntity
  8
0
  6
Continuous
 62
     0
370
    18
100
AcDbLine
 10
0.0
 20
0.0
 30
0.0
 11
2.5
 21
0.0
 31
0.0
  0
LINE
  5
F6
330
EF
100
AcDbEntity
  8
0
  6
Continuous
 62
     0
370
    18
100
AcDbLine
 10
0.0
 20
5.0
 30
0.0
 11
0.0
 21
47.5
 31
0.0
  0
LINE
  5
F7
330
EF
100
AcDbEntity
  8
0
  6
Continuous
 62
     0
370
    18
100
AcDbLine
 10
-5.0
 20
0.0
 30
0.0
 11
-47.5
 21
0.0
 31
0.0
  0
LINE
  5
F8
330
EF
100
AcDbEntity
  8
0
  6
Continuous
 62
     0
370
    18
100
AcDbLine
 10
0.0
 20
-5.0
 30
0.0
 11
0.0
 21
-47.5
 31
0.0
  0
LINE
  5
F9
330
EF
100
AcDbEntity
  8
0
  6
Continuous
 62
     0
370
    18
100
AcDbLine
 10
5.0
 20
0.0
 30
0.0
 11
47.5
 21
0.0
 31
0.0
  0
ENDBLK
  5
F1
330
EF
100
AcDbEntity
  8
0
100
AcDbBlockEnd
  0
BLOCK
  5
FC
330
FB
100
AcDbEntity
  8
0
100
AcDbBlockBegin
  2
SW_CENTERMARKSYMBOL_1
 70
     0
 10
0.0
 20
0.0
 30
0.0
  3
SW_CENTERMARKSYMBOL_1
  1

  0
LINE
  5
FE
330
FB
100
AcDbEntity
  8
0
  6
Continuous
 62
     0
370
    18
100
AcDbLine
 10
0.0
 20
0.0
 30
0.0
 11
0.0
 21
2.5
 31
0.0
  0
LINE
  5
FF
330
FB
100
AcDbEntity
  8
0
  6
Continuous
 62
     0
370
    18
100
AcDbLine
 10
0.0
 20
0.0
 30
0.0
 11
-2.5
 21
0.0
 31
0.0
  0
LINE
  5
100
330
FB
100
AcDbEntity
  8
0
  6
Continuous
 62
     0
370
    18
100
AcDbLine
 10
0.0
 20
0.0
 30
0.0
 11
0.0
 21
-2.5
 31
0.0
  0
LINE
  5
101
330
FB
100
AcDbEntity
  8
0
  6
Continuous
 62
     0
370
    18
100
AcDbLine
 10
0.0
 20
0.0
 30
0.0
 11
2.5
 21
0.0
 31
0.0
  0
LINE
  5
102
330
FB
100
AcDbEntity
  8
0
  6
Continuous
 62
     0
370
    18
100
AcDbLine
 10
0.0
 20
5.0
 30
0.0
 11
0.0
 21
62.25
 31
0.0
  0
LINE
  5
103
330
FB
100
AcDbEntity
  8
0
  6
Continuous
 62
     0
370
    18
100
AcDbLine
 10
-5.0
 20
0.0
 30
0.0
 11
-62.25
 21
0.0
 31
0.0
  0
LINE
  5
104
330
FB
100
AcDbEntity
  8
0
  6
Continuous
 62
     0
370
    18
100
AcDbLine
 10
0.0
 20
-5.0
 30
0.0
 11
0.0
 21
-62.25
 31
0.0
  0
LINE
  5
105
330
FB
100
AcDbEntity
  8
0
  6
Continuous
 62
     0
370
    18
100
AcDbLine
 10
5.0
 20
0.0
 30
0.0
 11
62.25
 21
0.0
 31
0.0
  0
ENDBLK
  5
FD
330
FB
100
AcDbEntity
  8
0
100
AcDbBlockEnd
  0
ENDSEC
  0
SECTION
  2
ENTITIES
  0
MTEXT
  5
74
330
1F
100
AcDbEntity
  8
0
  6
Continuous
 62
     7
370
     0
100
AcDbMText
 10
492.970454265
 20
281.9624543621
 30
0.0
 40
8.4666666667
 41
0.0
 71
     1
 72
     1
  1
メガニップル　HN-8100
  7
SLDTEXTSTYLE0
 73
     1
 44
1.0
  0
LINE
  5
75
330
1F
100
AcDbEntity
  8
0
  6
Continuous
 62
     7
370
    25
100
AcDbLine
 10
386.064163738
 20
252.7996614916
 30
0.0
 11
385.9198261707
 21
252.5496614916
 31
0.0
  0
LINE
  5
76
330
1F
100
AcDbEntity
  8
0
  6
Continuous
 62
     7
370
    25
100
AcDbLine
 10
385.9198261707
 20
133.0496614916
 30
0.0
 11
386.064163738
 21
132.7996614916
 31
0.0
  0
LINE
  5
77
330
1F
100
AcDbEntity
  8
0
  6
Continuous
 62
     7
370
    25
100
AcDbLine
 10
400.7754886034
 20
132.7996614916
 30
0.0
 11
400.9198261707
 21
133.0496614916
 31
0.0
  0
LINE
  5
78
330
1F
100
AcDbEntity
  8
0
  6
Continuous
 62
     7
370
    25
100
AcDbLine
 10
400.9198261707
 20
252.5496614916
 30
0.0
 11
400.7754886034
 21
252.7996614916
 31
0.0
  0
LINE
  5
79
330
1F
100
AcDbEntity
  8
0
  6
Continuous
 62
     7
370
    25
100
AcDbLine
 10
385.9198261707
 20
249.7084114916
 30
0.0
 11
350.9183623989
 21
248.6146157487
 31
0.0
  0
LINE
  5
7A
330
1F
100
AcDbEntity
  8
0
  6
Continuous
 62
     7
370
    25
100
AcDbLine
 10
350.9183623989
 20
136.9847072345
 30
0.0
 11
385.9198261707
 21
135.8909114916
 31
0.0
  0
LINE
  5
7B
330
1F
100
AcDbEntity
  8
0
  6
Continuous
 62
     7
370
    25
100
AcDbLine
 10
350.9183623989
 20
248.6146157487
 30
0.0
 11
347.9198261707
 21
245.4226255703
 31
0.0
  0
LINE
  5
7C
330
1F
100
AcDbEntity
  8
0
  6
Continuous
 62
     7
370
    25
100
AcDbLine
 10
347.9198261707
 20
140.1766974129
 30
0.0
 11
350.9183623989
 21
136.9847072345
 31
0.0
  0
LINE
  5
7D
330
1F
100
AcDbEntity
  8
0
  6
Continuous
 62
     7
370
    25
100
AcDbLine
 10
421.9198261707
 20
142.2996614916
 30
0.0
 11
436.9198261707
 21
143.2996614916
 31
0.0
  0
LINE
  5
7E
330
1F
100
AcDbEntity
  8
0
  6
Continuous
 62
     7
370
    25
100
AcDbLine
 10
436.9198261707
 20
242.2996614916
 30
0.0
 11
421.9198261707
 21
243.2996614916
 31
0.0
  0
LINE
  5
7F
330
1F
100
AcDbEntity
  8
0
  6
Continuous
 62
     7
370
    25
100
AcDbLine
 10
436.9198261707
 20
142.2996614916
 30
0.0
 11
451.9198261707
 21
143.2996614916
 31
0.0
  0
LINE
  5
80
330
1F
100
AcDbEntity
  8
0
  6
Continuous
 62
     7
370
    25
100
AcDbLine
 10
451.9198261707
 20
242.2996614916
 30
0.0
 11
436.9198261707
 21
243.2996614916
 31
0.0
  0
LINE
  5
81
330
1F
100
AcDbEntity
  8
0
  6
Continuous
 62
     7
370
    25
100
AcDbLine
 10
451.9198261707
 20
142.2996614916
 30
0.0
 11
466.9198261707
 21
143.2996614916
 31
0.0
  0
LINE
  5
82
330
1F
100
AcDbEntity
  8
0
  6
Continuous
 62
     7
370
    25
100
AcDbLine
 10
466.9198261707
 20
242.2996614916
 30
0.0
 11
451.9198261707
 21
243.2996614916
 31
0.0
  0
LINE
  5
83
330
1F
100
AcDbEntity
  8
0
  6
Continuous
 62
     7
370
    25
100
AcDbLine
 10
421.9198261707
 20
243.2996614916
 30
0.0
 11
400.9198261707
 21
243.2996614916
 31
0.0
  0
LINE
  5
84
330
1F
100
AcDbEntity
  8
0
  6
Continuous
 62
     7
370
    25
100
AcDbLine
 10
400.9198261707
 20
142.2996614916
 30
0.0
 11
421.9198261707
 21
142.2996614916
 31
0.0
  0
LINE
  5
85
330
1F
100
AcDbEntity
  8
0
  6
Continuous
 62
     7
370
    25
100
AcDbLine
 10
466.9198261707
 20
142.2996614916
 30
0.0
 11
481.9198261707
 21
143.2996614916
 31
0.0
  0
LINE
  5
86
330
1F
100
AcDbEntity
  8
0
  6
Continuous
 62
     7
370
    25
100
AcDbLine
 10
481.9198261707
 20
242.2996614916
 30
0.0
 11
466.9198261707
 21
243.2996614916
 31
0.0
  0
LINE
  5
87
330
1F
100
AcDbEntity
  8
0
  6
Continuous
 62
     7
370
    25
100
AcDbLine
 10
481.9198261707
 20
142.2996614916
 30
0.0
 11
496.5133935999
 21
143.2117594559
 31
0.0
  0
LINE
  5
88
330
1F
100
AcDbEntity
  8
0
  6
Continuous
 62
     7
370
    25
100
AcDbLine
 10
496.5133935999
 20
242.3875635273
 30
0.0
 11
481.9198261707
 21
243.2996614916
 31
0.0
  0
ARC
  5
89
330
1F
100
AcDbEntity
  8
0
  6
Continuous
 62
     7
370
    25
100
AcDbCircle
 10
496.4198261707
 20
240.8904846595
 30
0.0
 40
1.50000000000002
100
AcDbArc
 50
0.0
 51
86.423665625
  0
ARC
  5
8A
330
1F
100
AcDbEntity
  8
0
  6
Continuous
 62
     7
370
    25
100
AcDbCircle
 10
496.4198261707
 20
144.7088383237
 30
0.0
 40
1.5
100
AcDbArc
 50
273.576334375
 51
0.0
  0
SPLINE
  5
8B
330
1F
100
AcDbEntity
  8
0
  6
Continuous
 62
     7
370
    25
100
AcDbSpline
210
0.0
220
0.0
230
1.0
 70
    24
 71
     3
 72
    12
 73
     8
 74
     0
 42
0.000000001
 43
0.00000001
 40
0.0
 40
0.0
 40
0.0
 40
0.0
 40
0.1300143563287032
 40
0.3695687162377007
 40
0.6089631473235347
 40
0.8043404891475626
 40
1.0
 40
1.0
 40
1.0
 40
1.0
 10
386.1052798265213
 20
252.7996614915996
 30
0.0
 10
386.0994071376603
 20
252.7996614915996
 30
0.0
 10
386.0827138882029
 20
252.7996614915997
 30
0.0
 10
386.4067935088124
 20
252.7996614915996
 30
0.0
 10
387.0012888092664
 20
252.7996614915996
 30
0.0
 10
387.7903590097809
 20
252.7996614915996
 30
0.0
 10
388.4218978511632
 20
252.7996614915996
 30
0.0
 10
388.7378951285129
 20
252.7996614915996
 30
0.0
  0
SPLINE
  5
8C
330
1F
100
AcDbEntity
  8
0
  6
Continuous
 62
     7
370
    25
100
AcDbSpline
210
0.0
220
0.0
230
1.0
 70
     8
 71
     3
 72
    12
 73
     8
 74
     0
 42
0.000000001
 43
0.00000001
 40
0.0
 40
0.0
 40
0.0
 40
0.0
 40
0.2499999999999988
 40
0.2499999999999988
 40
0.4999999999999976
 40
0.4999999999999976
 40
1.0
 40
1.0
 40
1.0
 40
1.0
 10
388.7378951285129
 20
252.2138750539727
 30
0.0
 10
388.7657912447969
 20
252.3057883205404
 30
0.0
 10
388.7869500278998
 20
252.3881525616197
 30
0.0
 10
388.8156903114935
 20
252.5335348711266
 30
0.0
 10
388.8231534328248
 20
252.5969066645596
 30
0.0
 10
388.8232178739005
 20
252.7477768654759
 30
0.0
 10
388.7937019847388
 20
252.7996614915996
 30
0.0
 10
388.7378951285129
 20
252.7996614915996
 30
0.0
  0
SPLINE
  5
8D
330
1F
100
AcDbEntity
  8
0
  6
Continuous
 62
     7
370
    25
100
AcDbSpline
210
0.0
220
0.0
230
1.0
 70
     8
 71
     3
 72
    18
 73
    14
 74
     0
 42
0.000000001
 43
0.00000001
 40
0.0
 40
0.0
 40
0.0
 40
0.0
 40
0.25
 40
0.25
 40
0.4999999999999998
 40
0.4999999999999998
 40
0.6249999999999998
 40
0.6249999999999998
 40
0.6874999999999998
 40
0.6874999999999998
 40
0.7499999999999998
 40
0.7499999999999998
 40
1.0
 40
1.0
 40
1.0
 40
1.0
 10
388.7378951285129
 20
252.2138750539727
 30
0.0
 10
387.887461089194
 20
249.4118301471348
 30
0.0
 10
387.2165354746074
 20
246.6012911331476
 30
0.0
 10
386.3060937814739
 20
240.9597993623094
 30
0.0
 10
386.0675139468382
 20
238.128802303604
 30
0.0
 10
386.0625416472262
 20
233.8656080632271
 30
0.0
 10
386.1193238883934
 20
232.4417780264122
 30
0.0
 10
386.2918884295074
 20
230.3018977332894
 30
0.0
 10
386.3639472158524
 20
229.5879164172557
 30
0.0
 10
386.5367691882753
 20
228.1585955300123
 30
0.0
 10
386.6376157965075
 20
227.4429129612734
 30
0.0
 10
387.2095454640368
 20
223.8757808666105
 30
0.0
 10
387.8854416398214
 20
221.0469603429603
 30
0.0
 10
388.7378951285134
 20
218.2382616716105
 30
0.0
  0
SPLINE
  5
8E
330
1F
100
AcDbEntity
  8
0
  6
Continuous
 62
     7
370
    25
100
AcDbSpline
210
0.0
220
0.0
230
1.0
 70
     8
 71
     3
 72
    12
 73
     8
 74
     0
 42
0.000000001
 43
0.00000001
 40
0.0
 40
0.0
 40
0.0
 40
0.0
 40
0.2500000000000003
 40
0.2500000000000003
 40
0.5000000000000006
 40
0.5000000000000006
 40
1.0
 40
1.0
 40
1.0
 40
1.0
 10
388.7378951285129
 20
216.8240481092391
 30
0.0
 10
388.7657912447969
 20
216.9540330973809
 30
0.0
 10
388.7869500278998
 20
217.0830660167223
 30
0.0
 10
388.8156903114934
 20
217.3391943409899
 30
0.0
 10
388.8231534328248
 20
217.4675347446895
 30
0.0
 10
388.8232178739006
 20
217.8315548215563
 30
0.0
 10
388.7937019847386
 20
218.0543869558505
 30
0.0
 10
388.7378951285128
 20
218.2382616716125
 30
0.0
  0
SPLINE
  5
8F
330
1F
100
AcDbEntity
  8
0
  6
Continuous
 62
     7
370
    25
100
AcDbSpline
210
0.0
220
0.0
230
1.0
 70
     8
 71
     3
 72
    20
 73
    16
 74
     0
 42
0.000000001
 43
0.00000001
 40
0.0
 40
0.0
 40
0.0
 40
0.0
 40
0.0625
 40
0.0625
 40
0.125
 40
0.125
 40
0.25
 40
0.25
 40
0.4999999999999999
 40
0.4999999999999999
 40
0.7499999999999999
 40
0.7499999999999999
 40
0.875
 40
0.875
 40
1.0
 40
1.0
 40
1.0
 40
1.0
 10
388.7378951285129
 20
168.7752748739599
 30
0.0
 10
388.5257446670321
 20
169.7638130252623
 30
0.0
 10
388.3240933059119
 20
170.7560024469981
 30
0.0
 10
387.9433541280251
 20
172.7482282106381
 30
0.0
 10
387.764118514177
 20
173.7492962668078
 30
0.0
 10
387.2649077687971
 20
176.7507685656898
 30
0.0
 10
386.9827423494381
 20
178.7528756220176
 30
0.0
 10
386.2998790197638
 20
184.7628335682949
 30
0.0
 10
386.0644947030725
 20
188.7743585886871
 30
0.0
 10
386.0638334768976
 20
196.8078568684717
 30
0.0
 10
386.2986252848173
 20
200.8298316551232
 30
0.0
 10
386.9856952363188
 20
206.870236665447
 30
0.0
 10
387.2708832262941
 20
208.8878998667301
 30
0.0
 10
387.9358709443018
 20
212.8791999206348
 30
0.0
 10
388.316104222303
 20
214.8586675027079
 30
0.0
 10
388.7378951285129
 20
216.8240481092391
 30
0.0
  0
SPLINE
  5
90
330
1F
100
AcDbEntity
  8
0
  6
Continuous
 62
     7
370
    25
100
AcDbSpline
210
0.0
220
0.0
230
1.0
 70
     8
 71
     3
 72
    12
 73
     8
 74
     0
 42
0.000000001
 43
0.00000001
 40
0.0
 40
0.0
 40
0.0
 40
0.0
 40
0.2499999999999987
 40
0.2499999999999987
 40
0.4999999999999974
 40
0.4999999999999974
 40
1.0
 40
1.0
 40
1.0
 40
1.0
 10
388.7378951285129
 20
167.361061311587
 30
0.0
 10
388.7657912447969
 20
167.4529745781547
 30
0.0
 10
388.7869500278998
 20
167.5530904416009
 30
0.0
 10
388.8156903114935
 20
167.7699282819817
 30
0.0
 10
388.8231534328248
 20
167.8880572280612
 30
0.0
 10
388.8232178739005
 20
168.2519891568267
 30
0.0
 10
388.7937019847388
 20
168.5152367571515
 30
0.0
 10
388.7378951285129
 20
168.7752748739601
 30
0.0
  0
SPLINE
  5
91
330
1F
100
AcDbEntity
  8
0
  6
Continuous
 62
     7
370
    25
100
AcDbSpline
210
0.0
220
0.0
230
1.0
 70
     8
 71
     3
 72
    18
 73
    14
 74
     0
 42
0.000000001
 43
0.00000001
 40
0.0
 40
0.0
 40
0.0
 40
0.0
 40
0.2499999999999998
 40
0.2499999999999998
 40
0.4999999999999996
 40
0.4999999999999996
 40
0.6249999999999997
 40
0.6249999999999997
 40
0.6874999999999997
 40
0.6874999999999997
 40
0.7499999999999998
 40
0.7499999999999998
 40
1.0
 40
1.0
 40
1.0
 40
1.0
 10
388.7378951285129
 20
167.361061311587
 30
0.0
 10
387.887461089194
 20
164.5590164047491
 30
0.0
 10
387.2165354746074
 20
161.7484773907618
 30
0.0
 10
386.3060937814738
 20
156.1069856199236
 30
0.0
 10
386.0675139468382
 20
153.2759885612183
 30
0.0
 10
386.0625416472262
 20
149.0127943208414
 30
0.0
 10
386.1193238883934
 20
147.5889642840266
 30
0.0
 10
386.2918884295074
 20
145.4490839909037
 30
0.0
 10
386.3639472158524
 20
144.73510267487
 30
0.0
 10
386.5367691882753
 20
143.3057817876266
 30
0.0
 10
386.6376157965075
 20
142.5900992188877
 30
0.0
 10
387.2095454640368
 20
139.0229671242248
 30
0.0
 10
387.8854416398214
 20
136.1941466005746
 30
0.0
 10
388.7378951285134
 20
133.3854479292248
 30
0.0
  0
SPLINE
  5
92
330
1F
100
AcDbEntity
  8
0
  6
Continuous
 62
     7
370
    25
100
AcDbSpline
210
0.0
220
0.0
230
1.0
 70
     8
 71
     3
 72
    12
 73
     8
 74
     0
 42
0.000000001
 43
0.00000001
 40
0.0
 40
0.0
 40
0.0
 40
0.0
 40
0.2499999999999972
 40
0.2499999999999972
 40
0.4999999999999944
 40
0.4999999999999944
 40
1.0
 40
1.0
 40
1.0
 40
1.0
 10
388.7378951285129
 20
132.7996614915996
 30
0.0
 10
388.7657912447968
 20
132.7996614915996
 30
0.0
 10
388.7869500278998
 20
132.8122137841523
 30
0.0
 10
388.8156903114934
 20
132.8627404745864
 30
0.0
 10
388.8231534328248
 20
132.9014596285411
 30
0.0
 10
388.8232178739005
 20
133.0521170211142
 30
0.0
 10
388.7937019847386
 20
133.2015732134647
 30
0.0
 10
388.7378951285128
 20
133.3854479292268
 30
0.0
  0
SPLINE
  5
93
330
1F
100
AcDbEntity
  8
0
  6
Continuous
 62
     7
370
    25
100
AcDbSpline
210
0.0
220
0.0
230
1.0
 70
    24
 71
     3
 72
    12
 73
     8
 74
     0
 42
0.000000001
 43
0.00000001
 40
0.0
 40
0.0
 40
0.0
 40
0.0
 40
0.1953837294240693
 40
0.3910335965241624
 40
0.6244486423428116
 40
0.8580115407738867
 40
1.0
 40
1.0
 40
1.0
 40
1.0
 10
388.7378951285129
 20
132.7996614915996
 30
0.0
 10
388.4222982465405
 20
132.7996614915996
 30
0.0
 10
387.7906745992019
 20
132.7996614915996
 30
0.0
 10
387.0093250934704
 20
132.7996614915996
 30
0.0
 10
386.4200341094923
 20
132.7996614915996
 30
0.0
 10
386.0910704088092
 20
132.7996614915997
 30
0.0
 10
386.0986726530257
 20
132.7996614915996
 30
0.0
 10
386.101546909558
 20
132.7996614915996
 30
0.0
  0
LINE
  5
94
330
1F
100
AcDbEntity
  8
0
  6
Continuous
 62
     7
370
    25
100
AcDbLine
 10
385.9198261707
 20
252.5496614916
 30
0.0
 11
385.9198261707
 21
133.0496614916
 31
0.0
  0
LINE
  5
95
330
1F
100
AcDbEntity
  8
0
  6
Continuous
 62
     7
370
    25
100
AcDbLine
 10
398.1017572128
 20
216.8240481092
 30
0.0
 11
388.7378951285
 21
216.8240481092
 31
0.0
  0
SPLINE
  5
96
330
1F
100
AcDbEntity
  8
0
  6
Continuous
 62
     7
370
    25
100
AcDbSpline
210
0.0
220
0.0
230
1.0
 70
     8
 71
     3
 72
    20
 73
    16
 74
     0
 42
0.000000001
 43
0.00000001
 40
0.0
 40
0.0
 40
0.0
 40
0.0
 40
0.0625000000000001
 40
0.0625000000000001
 40
0.1250000000000001
 40
0.1250000000000001
 40
0.2500000000000001
 40
0.2500000000000001
 40
0.5
 40
0.5
 40
0.75
 40
0.75
 40
0.8750000000000001
 40
0.8750000000000001
 40
1.0
 40
1.0
 40
1.0
 40
1.0
 10
398.1017572128141
 20
168.7752748739601
 30
0.0
 10
398.3139076742948
 20
169.7638130252624
 30
0.0
 10
398.5155590354152
 20
170.7560024469981
 30
0.0
 10
398.8962982133019
 20
172.7482282106383
 30
0.0
 10
399.07553382715
 20
173.7492962668079
 30
0.0
 10
399.5747445725299
 20
176.7507685656899
 30
0.0
 10
399.8569099918889
 20
178.7528756220177
 30
0.0
 10
400.5397733215631
 20
184.762833568295
 30
0.0
 10
400.7751576382544
 20
188.7743585886872
 30
0.0
 10
400.7758188644293
 20
196.8078568684717
 30
0.0
 10
400.5410270565097
 20
200.8298316551233
 30
0.0
 10
399.8539571050081
 20
206.870236665447
 30
0.0
 10
399.5687691150329
 20
208.8878998667301
 30
0.0
 10
398.9037813970251
 20
212.8791999206348
 30
0.0
 10
398.523548119024
 20
214.8586675027079
 30
0.0
 10
398.1017572128141
 20
216.8240481092391
 30
0.0
  0
LINE
  5
97
330
1F
100
AcDbEntity
  8
0
  6
Continuous
 62
     7
370
    25
100
AcDbLine
 10
388.7378951285
 20
168.775274874
 30
0.0
 11
398.1017572128
 21
168.775274874
 31
0.0
  0
LINE
  5
98
330
1F
100
AcDbEntity
  8
0
  6
Continuous
 62
     7
370
    25
100
AcDbLine
 10
393.5856915553
 20
190.3791038448
 30
0.0
 11
396.3236723245
 21
188.5882384602
 31
0.0
  0
SPLINE
  5
99
330
1F
100
AcDbEntity
  8
0
  6
Continuous
 62
     7
370
    25
100
AcDbSpline
210
0.0
220
0.0
230
1.0
 70
     8
 71
     3
 72
    19
 73
    15
 74
     0
 42
0.000000001
 43
0.00000001
 40
0.0
 40
0.0
 40
0.0
 40
0.0
 40
0.0978059775289525
 40
0.1996122522918966
 40
0.3052960258330041
 40
0.4158173591641854
 40
0.474240566618493
 40
0.5372869128296534
 40
0.6033858352934854
 40
0.6743111580696056
 40
0.749530467357482
 40
0.8286083142695116
 40
0.9120427387714447
 40
0.9999999999999999
 40
0.9999999999999999
 40
0.9999999999999999
 40
0.9999999999999999
 10
391.8429030937404
 20
191.0497769217585
 30
0.0
 10
391.9046713095937
 20
191.0476024389565
 30
0.0
 10
392.0307340820136
 20
191.0431645362777
 30
0.0
 10
392.2222119782631
 20
191.0166796443857
 30
0.0
 10
392.4173672309923
 20
190.9681031167896
 30
0.0
 10
392.5828054935764
 20
190.9155326969114
 30
0.0
 10
392.7198183487972
 20
190.8633669711313
 30
0.0
 10
392.8280137812254
 20
190.8149977098644
 30
0.0
 10
392.9422716319345
 20
190.7609149821065
 30
0.0
 10
393.0604300299569
 20
190.6975224936296
 30
0.0
 10
393.1858650166486
 20
190.6303213400308
 30
0.0
 10
393.3139313515154
 20
190.5518227666374
 30
0.0
 10
393.4493064125539
 20
190.4699082991161
 30
0.0
 10
393.5394370253607
 20
190.4098998484419
 30
0.0
 10
393.5856915552789
 20
190.3791038448354
 30
0.0
  0
SPLINE
  5
9A
330
1F
100
AcDbEntity
  8
0
  6
Continuous
 62
     7
370
    25
100
AcDbSpline
210
0.0
220
0.0
230
1.0
 70
     8
 71
     3
 72
    19
 73
    15
 74
     0
 42
0.000000001
 43
0.00000001
 40
0.0
 40
0.0
 40
0.0
 40
0.0
 40
0.0843261511037433
 40
0.1670353409858406
 40
0.2495407139852792
 40
0.3327066655796642
 40
0.4158726171740492
 40
0.4977774155681174
 40
0.5803136056784763
 40
0.6645325781316563
 40
0.7495711764063215
 40
0.8324741628544073
 40
0.9156738488962568
 40
1.0
 40
1.0
 40
1.0
 40
1.0
 10
390.0159800168173
 20
189.2324692294508
 30
0.0
 10
390.0185997914779
 20
189.3132064461377
 30
0.0
 10
390.023789106394
 20
189.473132736417
 30
0.0
 10
390.0700165252054
 20
189.7083887274104
 30
0.0
 10
390.144942620862
 20
189.9344404762838
 30
0.0
 10
390.2481684770522
 20
190.1496990271055
 30
0.0
 10
390.3785482907782
 20
190.3491178630329
 30
0.0
 10
390.5355311043307
 20
190.5274715967271
 30
0.0
 10
390.7156474173283
 20
190.6841396980933
 30
0.0
 10
390.9194497606931
 20
190.813833167453
 30
0.0
 10
391.1370383256443
 20
190.9195336969886
 30
0.0
 10
391.3659887606229
 20
190.9940858089763
 30
0.0
 10
391.6016933472727
 20
191.0422988543978
 30
0.0
 10
391.7621402231762
 20
191.0472730835216
 30
0.0
 10
391.8429030937404
 20
191.0497769217585
 30
0.0
  0
SPLINE
  5
9B
330
1F
100
AcDbEntity
  8
0
  6
Continuous
 62
     7
370
    25
100
AcDbSpline
210
0.0
220
0.0
230
1.0
 70
     8
 71
     3
 72
    19
 73
    15
 74
     0
 42
0.000000001
 43
0.00000001
 40
0.0
 40
0.0
 40
0.0
 40
0.0
 40
0.0859901205637197
 40
0.1691084375726415
 40
0.2505285789581879
 40
0.332255696176845
 40
0.4135763652356403
 40
0.4941261456201216
 40
0.576305934120417
 40
0.6607126719045473
 40
0.7461272722239103
 40
0.8300149859609743
 40
0.9144197259288509
 40
1.0
 40
1.0
 40
1.0
 40
1.0
 10
391.8537204014327
 20
187.3574692294508
 30
0.0
 10
391.7698051082882
 20
187.3606004214633
 30
0.0
 10
391.6047770327478
 20
187.3667582333784
 30
0.0
 10
391.3634100361809
 20
187.4115844887114
 30
0.0
 10
391.1353104552975
 20
187.4889445898961
 30
0.0
 10
390.9195818964056
 20
187.5924431286175
 30
0.0
 10
390.7225009945428
 20
187.7267243444282
 30
0.0
 10
390.5443927064216
 20
187.8858549678502
 30
0.0
 10
390.389145168816
 20
188.071339228148
 30
0.0
 10
390.2559647733849
 20
188.2787848170927
 30
0.0
 10
390.1501531169142
 20
188.5033053682808
 30
0.0
 10
390.0719243995499
 20
188.7387225103842
 30
0.0
 10
390.0251807528304
 20
188.983024024711
 30
0.0
 10
390.0190610358222
 20
189.148938366769
 30
0.0
 10
390.0159800168173
 20
189.2324692294508
 30
0.0
  0
SPLINE
  5
9C
330
1F
100
AcDbEntity
  8
0
  6
Continuous
 62
     7
370
    25
100
AcDbSpline
210
0.0
220
0.0
230
1.0
 70
     8
 71
     3
 72
    23
 73
    19
 74
     0
 42
0.000000001
 43
0.00000001
 40
0.0
 40
0.0
 40
0.0
 40
0.0
 40
0.0652308037420294
 40
0.1284048960032227
 40
0.1900670715964781
 40
0.25094336576828
 40
0.3115458328521431
 40
0.3728628021568291
 40
0.4350236738562383
 40
0.4990717247070431
 40
0.563091075049662
 40
0.625510106330375
 40
0.6866800359296492
 40
0.7472825030135124
 40
0.8085634952159588
 40
0.8707421035159856
 40
0.9343409515059125
 40
1.0
 40
1.0
 40
1.0
 40
1.0
 10
393.631364632202
 20
189.1375173063739
 30
0.0
 10
393.6297255835806
 20
189.076535884085
 30
0.0
 10
393.626499165145
 20
188.9564957690177
 30
0.0
 10
393.6016697068161
 20
188.7802555367194
 30
0.0
 10
393.5625409435185
 20
188.6109030750511
 30
0.0
 10
393.5055027904644
 20
188.4491403111847
 30
0.0
 10
393.4326416115576
 20
188.2943866279969
 30
0.0
 10
393.3453178339339
 20
188.1457539489537
 30
0.0
 10
393.2390223818938
 20
188.006036217343
 30
0.0
 10
393.1202824576929
 20
187.8734341958369
 30
0.0
 10
392.9887676271297
 20
187.7530448860204
 30
0.0
 10
392.8492224784908
 20
187.6464573622075
 30
0.0
 10
392.7017923967796
 20
187.5569257192347
 30
0.0
 10
392.5465520551796
 20
187.4842847107526
 30
0.0
 10
392.3837407530759
 20
187.4278763474419
 30
0.0
 10
392.2135667996671
 20
187.3867546702243
 30
0.0
 10
392.0359128485927
 20
187.3624467968189
 30
0.0
 10
391.9150931195649
 20
187.359145955593
 30
0.0
 10
391.8537204014327
 20
187.3574692294508
 30
0.0
  0
SPLINE
  5
9D
330
1F
100
AcDbEntity
  8
0
  6
Continuous
 62
     7
370
    25
100
AcDbSpline
210
0.0
220
0.0
230
1.0
 70
     8
 71
     3
 72
     9
 73
     5
 74
     0
 42
0.000000001
 43
0.00000001
 40
0.0
 40
0.0
 40
0.0
 40
0.0
 40
0.5126593363417812
 40
1.0
 40
1.0
 40
1.0
 40
1.0
 10
393.5736723245096
 20
189.7589115371431
 30
0.0
 10
393.5904960856301
 20
189.653362490886
 30
0.0
 10
393.623312733895
 20
189.4474771421273
 30
0.0
 10
393.6287263546637
 20
189.2390784589426
 30
0.0
 10
393.631364632202
 20
189.1375173063739
 30
0.0
  0
LINE
  5
9E
330
1F
100
AcDbEntity
  8
0
  6
Continuous
 62
     7
370
    25
100
AcDbLine
 10
395.9979511707
 20
188.1735749987
 30
0.0
 11
393.5736723245
 21
189.7589115371
 31
0.0
  0
LINE
  5
9F
330
1F
100
AcDbEntity
  8
0
  6
Continuous
 62
     7
370
    25
100
AcDbLine
 10
396.3236723245
 20
188.5882384602
 30
0.0
 11
395.9979511707
 21
188.1735749987
 31
0.0
  0
LINE
  5
A0
330
1F
100
AcDbEntity
  8
0
  6
Continuous
 62
     7
370
    25
100
AcDbLine
 10
395.5544415553
 20
193.7982005578
 30
0.0
 11
396.1698261707
 21
193.4460370963
 31
0.0
  0
LINE
  5
A1
330
1F
100
AcDbEntity
  8
0
  6
Continuous
 62
     7
370
    25
100
AcDbLine
 10
395.5544415553
 20
192.8751236348
 30
0.0
 11
395.5544415553
 21
193.7982005578
 31
0.0
  0
LINE
  5
A2
330
1F
100
AcDbEntity
  8
0
  6
Continuous
 62
     7
370
    25
100
AcDbLine
 10
390.1698261707
 20
192.8751236348
 30
0.0
 11
395.5544415553
 21
192.8751236348
 31
0.0
  0
LINE
  5
A3
330
1F
100
AcDbEntity
  8
0
  6
Continuous
 62
     7
370
    25
100
AcDbLine
 10
390.1698261707
 20
192.3366620963
 30
0.0
 11
390.1698261707
 21
192.8751236348
 31
0.0
  0
LINE
  5
A4
330
1F
100
AcDbEntity
  8
0
  6
Continuous
 62
     7
370
    25
100
AcDbLine
 10
396.1698261707
 20
192.3366620963
 30
0.0
 11
390.1698261707
 21
192.3366620963
 31
0.0
  0
LINE
  5
A5
330
1F
100
AcDbEntity
  8
0
  6
Continuous
 62
     7
370
    25
100
AcDbLine
 10
396.1698261707
 20
193.4460370963
 30
0.0
 11
396.1698261707
 21
192.3366620963
 31
0.0
  0
SPLINE
  5
A6
330
1F
100
AcDbEntity
  8
0
  6
Continuous
 62
     7
370
    25
100
AcDbSpline
210
0.0
220
0.0
230
1.0
 70
     8
 71
     3
 72
    19
 73
    15
 74
     0
 42
0.000000001
 43
0.00000001
 40
0.0
 40
0.0
 40
0.0
 40
0.0
 40
0.1227280999764555
 40
0.239716523588393
 40
0.3518621792202463
 40
0.4632019818032243
 40
0.5202611541541644
 40
0.5794324380306665
 40
0.640596344158637
 40
0.7052982290880201
 40
0.7732361059084535
 40
0.8446489293403159
 40
0.92004598177737
 40
1.0
 40
1.0
 40
1.0
 40
1.0
 10
395.708287709125
 20
196.3687008669224
 30
0.0
 10
395.7059071437339
 20
196.4370202696635
 30
0.0
 10
395.7012573458486
 20
196.5704639530731
 30
0.0
 10
395.660387718328
 20
196.762800927502
 30
0.0
 10
395.5956340066017
 20
196.9414196036182
 30
0.0
 10
395.5174440917488
 20
197.0774910039313
 30
0.0
 10
395.4405261622977
 20
197.1781414230979
 30
0.0
 10
395.3743536677094
 20
197.2514442310373
 30
0.0
 10
395.2993276122087
 20
197.322115646727
 30
0.0
 10
395.2133901155297
 20
197.3873824597236
 30
0.0
 10
395.1194962203589
 20
197.4511555956711
 30
0.0
 10
395.0171287940829
 20
197.5128261164481
 30
0.0
 10
394.9048283835634
 20
197.5704131634998
 30
0.0
 10
394.8258554980554
 20
197.605467341941
 30
0.0
 10
394.7852107860481
 20
197.6235085592301
 30
0.0
  0
SPLINE
  5
A7
330
1F
100
AcDbEntity
  8
0
  6
Continuous
 62
     7
370
    25
100
AcDbSpline
210
0.0
220
0.0
230
1.0
 70
     8
 71
     3
 72
    23
 73
    19
 74
     0
 42
0.000000001
 43
0.00000001
 40
0.0
 40
0.0
 40
0.0
 40
0.0
 40
0.0552698294993248
 40
0.1099567044850939
 40
0.1632335040550556
 40
0.2180575651623569
 40
0.2732775387226747
 40
0.330881045495497
 40
0.3904799376860887
 40
0.4536559730386418
 40
0.5189026226022312
 40
0.5833461108214767
 40
0.6485466930814432
 40
0.7150552190344911
 40
0.7825206438000537
 40
0.8523352944264511
 40
0.9249348997257085
 40
1.0
 40
1.0
 40
1.0
 40
1.0
 10
394.7671819398942
 20
195.1619700976917
 30
0.0
 10
394.7985152926078
 20
195.1626804337777
 30
0.0
 10
394.8608515117722
 20
195.1640936137315
 30
0.0
 10
394.9519219527938
 20
195.1819187320828
 30
0.0
 10
395.0402134146738
 20
195.2086982721376
 30
0.0
 10
395.1253252832204
 20
195.2455380198255
 30
0.0
 10
395.2067635295581
 20
195.2947575009457
 30
0.0
 10
395.284628062466
 20
195.3538372747893
 30
0.0
 10
395.3602238108793
 20
195.4228058563306
 30
0.0
 10
395.4299341816937
 20
195.503465737768
 30
0.0
 10
395.4956889124632
 20
195.5907886619799
 30
0.0
 10
395.5525314311712
 20
195.6855962827156
 30
0.0
 10
395.6007111120411
 20
195.7857975021704
 30
0.0
 10
395.6405177991214
 20
195.8914844624956
 30
0.0
 10
395.6704427845966
 20
196.0030805422306
 30
0.0
 10
395.6919342616114
 20
196.1200393070336
 30
0.0
 10
395.7053698339861
 20
196.2425899133478
 30
0.0
 10
395.7073043176608
 20
196.3261985563774
 30
0.0
 10
395.708287709125
 20
196.3687008669224
 30
0.0
  0
SPLINE
  5
A8
330
1F
100
AcDbEntity
  8
0
  6
Continuous
 62
     7
370
    25
100
AcDbSpline
210
0.0
220
0.0
230
1.0
 70
     8
 71
     3
 72
    19
 73
    15
 74
     0
 42
0.000000001
 43
0.00000001
 40
0.0
 40
0.0
 40
0.0
 40
0.0
 40
0.1101423815503174
 40
0.2157418685830274
 40
0.3179605426392306
 40
0.4180517606815226
 40
0.5115631470355316
 40
0.5965727584443461
 40
0.6733290469034968
 40
0.7440491927238595
 40
0.8107168223002833
 40
0.8740854521098849
 40
0.9367096168966699
 40
1.0
 40
1.0
 40
1.0
 40
1.0
 10
393.7852107860481
 20
196.7004316361532
 30
0.0
 10
393.7864759419225
 20
196.6262031180245
 30
0.0
 10
393.7889540714904
 20
196.4808076855142
 30
0.0
 10
393.8187190599327
 20
196.2683885675997
 30
0.0
 10
393.8603563632122
 20
196.0650223690732
 30
0.0
 10
393.9226610497781
 20
195.875351152774
 30
0.0
 10
393.9974444565781
 20
195.7030362803809
 30
0.0
 10
394.0817682090685
 20
195.5527185389689
 30
0.0
 10
394.1773032372318
 20
195.4279604002062
 30
0.0
 10
394.2827957354247
 20
195.3284501670005
 30
0.0
 10
394.3972588929907
 20
195.2554131891928
 30
0.0
 10
394.515310602434
 20
195.2005917033711
 30
0.0
 10
394.639697535242
 20
195.1684531271598
 30
0.0
 10
394.7245375079136
 20
195.1641387167469
 30
0.0
 10
394.7671819398942
 20
195.1619700976917
 30
0.0
  0
LINE
  5
A9
330
1F
100
AcDbEntity
  8
0
  6
Continuous
 62
     7
370
    25
100
AcDbLine
 10
393.1698261707
 20
196.7004316362
 30
0.0
 11
393.785210786
 21
196.7004316362
 31
0.0
  0
SPLINE
  5
AA
330
1F
100
AcDbEntity
  8
0
  6
Continuous
 62
     7
370
    25
100
AcDbSpline
210
0.0
220
0.0
230
1.0
 70
     8
 71
     3
 72
    23
 73
    19
 74
     0
 42
0.000000001
 43
0.00000001
 40
0.0
 40
0.0
 40
0.0
 40
0.0
 40
0.0669051223273616
 40
0.1334773340846825
 40
0.2010229080576287
 40
0.2712178684297488
 40
0.3428591616573978
 40
0.4138109980627169
 40
0.4855518488903453
 40
0.5598002749200529
 40
0.5998999649035781
 40
0.6436094423977958
 40
0.6919106424505659
 40
0.7447030291556902
 40
0.8015038302285953
 40
0.8628660266331954
 40
0.9293326711591618
 40
1.0
 40
1.0
 40
1.0
 40
1.0
 10
391.9005954014327
 20
194.8542777899993
 30
0.0
 10
391.9565006169629
 20
194.8569011174594
 30
0.0
 10
392.0680328714573
 20
194.8621347190675
 30
0.0
 10
392.2321191952975
 20
194.9020929815678
 30
0.0
 10
392.3902201647855
 20
194.9678140273668
 30
0.0
 10
392.5396156296017
 20
195.0598347089399
 30
0.0
 10
392.678143901663
 20
195.1717980436111
 30
0.0
 10
392.8012615774892
 20
195.3026202326769
 30
0.0
 10
392.9038730606574
 20
195.4526221826323
 30
0.0
 10
392.9745069576004
 20
195.5915696273711
 30
0.0
 10
393.0215814794631
 20
195.714941634391
 30
0.0
 10
393.054589252923
 20
195.8203111303195
 30
0.0
 10
393.0809750821389
 20
195.9383798435481
 30
0.0
 10
393.1064981250335
 20
196.0677303848956
 30
0.0
 10
393.1278950245058
 20
196.2089082896754
 30
0.0
 10
393.1458157664629
 20
196.3620407502756
 30
0.0
 10
393.1601326498391
 20
196.527189373052
 30
0.0
 10
393.1665296791764
 20
196.6415168562859
 30
0.0
 10
393.1698261706635
 20
196.7004316361532
 30
0.0
  0
SPLINE
  5
AB
330
1F
100
AcDbEntity
  8
0
  6
Continuous
 62
     7
370
    25
100
AcDbSpline
210
0.0
220
0.0
230
1.0
 70
     8
 71
     3
 72
    23
 73
    19
 74
     0
 42
0.000000001
 43
0.00000001
 40
0.0
 40
0.0
 40
0.0
 40
0.0
 40
0.0760618905628339
 40
0.1487324608035361
 40
0.2183745247439722
 40
0.2857225935927383
 40
0.3510576941824569
 40
0.414934915729319
 40
0.4784859417740854
 40
0.542169035281216
 40
0.6047501165431387
 40
0.6641185017301124
 40
0.7214996756099116
 40
0.7776159163852547
 40
0.8326661086975489
 40
0.8878580281135741
 40
0.9434676608977686
 40
1.0
 40
1.0
 40
1.0
 40
1.0
 10
390.631364632202
 20
196.3819220207686
 30
0.0
 10
390.632418752639
 20
196.3257723990254
 30
0.0
 10
390.6344799941546
 20
196.215976660933
 30
0.0
 10
390.6534909102467
 20
196.0557789494783
 30
0.0
 10
390.6810573307502
 20
195.9033282410186
 30
0.0
 10
390.7241765721983
 20
195.760180294572
 30
0.0
 10
390.7759052254958
 20
195.6243872178659
 30
0.0
 10
390.8436275265867
 20
195.4989803046896
 30
0.0
 10
390.9201089171297
 20
195.3802727467332
 30
0.0
 10
391.0090714839936
 20
195.271742126836
 30
0.0
 10
391.1052303892924
 20
195.1738964661525
 30
0.0
 10
391.2072464183408
 20
195.0893470047413
 30
0.0
 10
391.3119564103526
 20
195.0161175012872
 30
0.0
 10
391.4218030377872
 20
194.9572532013631
 30
0.0
 10
391.5357087935348
 20
194.9106887772959
 30
0.0
 10
391.6541000278481
 20
194.8790087957643
 30
0.0
 10
391.7759798124556
 20
194.8569761613934
 30
0.0
 10
391.8588296417732
 20
194.8551821674696
 30
0.0
 10
391.9005954014327
 20
194.8542777899993
 30
0.0
  0
SPLINE
  5
AC
330
1F
100
AcDbEntity
  8
0
  6
Continuous
 62
     7
370
    25
100
AcDbSpline
210
0.0
220
0.0
230
1.0
 70
     8
 71
     3
 72
    15
 73
    11
 74
     0
 42
0.000000001
 43
0.00000001
 40
0.0
 40
0.0
 40
0.0
 40
0.0
 40
0.1182713048357256
 40
0.2361775330837632
 40
0.3556629329485091
 40
0.4759041646706833
 40
0.6001273417110832
 40
0.7286081161551198
 40
0.8613134756739422
 40
1.0
 40
1.0
 40
1.0
 40
1.0
 10
390.9558838629712
 20
197.3843258669224
 30
0.0
 10
390.9299838620246
 20
197.3507317357364
 30
0.0
 10
390.8782638075369
 20
197.2836471707981
 30
0.0
 10
390.8122610157579
 20
197.1743302032008
 30
0.0
 10
390.7550706866126
 20
197.0593618270538
 30
0.0
 10
390.7113843510989
 20
196.9362509569608
 30
0.0
 10
390.6743940754603
 20
196.8076542076111
 30
0.0
 10
390.6501874712333
 20
196.6714930100708
 30
0.0
 10
390.633579177502
 20
196.5289686378792
 30
0.0
 10
390.6321135806579
 20
196.4316524719083
 30
0.0
 10
390.631364632202
 20
196.3819220207686
 30
0.0
  0
SPLINE
  5
AD
330
1F
100
AcDbEntity
  8
0
  6
Continuous
 62
     7
370
    25
100
AcDbSpline
210
0.0
220
0.0
230
1.0
 70
     8
 71
     3
 72
    15
 73
    11
 74
     0
 42
0.000000001
 43
0.00000001
 40
0.0
 40
0.0
 40
0.0
 40
0.0
 40
0.1497703860319679
 40
0.2913164099952444
 40
0.4259663731047425
 40
0.5521595739695284
 40
0.6715274135235927
 40
0.7861216286916589
 40
0.8953250730704446
 40
1.0
 40
1.0
 40
1.0
 40
1.0
 10
391.7852107860481
 20
197.8542777899993
 30
0.0
 10
391.7390124775876
 20
197.8402492903874
 30
0.0
 10
391.6491527548137
 20
197.8129626401168
 30
0.0
 10
391.5198265165139
 20
197.7665152720566
 30
0.0
 10
391.4012698538428
 20
197.7135982342215
 30
0.0
 10
391.2926130733092
 20
197.6568304194168
 30
0.0
 10
391.1927860976562
 20
197.597210226235
 30
0.0
 10
391.1044286078835
 20
197.5304989260012
 30
0.0
 10
391.0236596898096
 20
197.4616375343201
 30
0.0
 10
390.9781546407692
 20
197.409730071432
 30
0.0
 10
390.9558838629712
 20
197.3843258669224
 30
0.0
  0
LINE
  5
AE
330
1F
100
AcDbEntity
  8
0
  6
Continuous
 62
     7
370
    25
100
AcDbLine
 10
391.785210786
 20
198.3927393285
 30
0.0
 11
391.785210786
 21
197.85427779
 31
0.0
  0
SPLINE
  5
AF
330
1F
100
AcDbEntity
  8
0
  6
Continuous
 62
     7
370
    25
100
AcDbSpline
210
0.0
220
0.0
230
1.0
 70
     8
 71
     3
 72
    23
 73
    19
 74
     0
 42
0.000000001
 43
0.00000001
 40
0.0
 40
0.0
 40
0.0
 40
0.0
 40
0.0655411703374033
 40
0.1289631677825933
 40
0.1903771361885611
 40
0.2500923616690527
 40
0.3085484324592009
 40
0.3663979630552961
 40
0.42454218926668
 40
0.4831699964229058
 40
0.5422433998311199
 40
0.60173935201733
 40
0.6625060022496068
 40
0.7248555134488469
 40
0.7891278292811811
 40
0.8563463998785099
 40
0.9262952349869054
 40
1.0
 40
1.0
 40
1.0
 40
1.0
 10
390.0159800168173
 20
196.391537405384
 30
0.0
 10
390.0174683824033
 20
196.4556847772979
 30
0.0
 10
390.0203969895642
 20
196.5819054145609
 30
0.0
 10
390.0404174487584
 20
196.7674656975089
 30
0.0
 10
390.0769831720232
 20
196.9445886107052
 30
0.0
 10
390.1261888383651
 20
197.1135136356024
 30
0.0
 10
390.1885746819317
 20
197.2743908408484
 30
0.0
 10
390.2662638785396
 20
197.4267293068674
 30
0.0
 10
390.3576550249142
 20
197.5714662671876
 30
0.0
 10
390.4638268897255
 20
197.7072358977211
 30
0.0
 10
390.582594900737
 20
197.8340220137889
 30
0.0
 10
390.7160674892531
 20
197.9484552553263
 30
0.0
 10
390.8617773245463
 20
198.0524434717985
 30
0.0
 10
391.0214168494584
 20
198.1432022810182
 30
0.0
 10
391.1929230047917
 20
198.2248656283597
 30
0.0
 10
391.3784918591603
 20
198.2920329826122
 30
0.0
 10
391.5764644682843
 20
198.3511511002744
 30
0.0
 10
391.7144263085857
 20
198.378637038982
 30
0.0
 10
391.7852107860481
 20
198.3927393284609
 30
0.0
  0
SPLINE
  5
B0
330
1F
100
AcDbEntity
  8
0
  6
Continuous
 62
     7
370
    25
100
AcDbSpline
210
0.0
220
0.0
230
1.0
 70
     8
 71
     3
 72
    19
 73
    15
 74
     0
 42
0.000000001
 43
0.00000001
 40
0.0
 40
0.0
 40
0.0
 40
0.0
 40
0.079641704194991
 40
0.158908613257856
 40
0.2395997983184508
 40
0.3224093988203483
 40
0.405827748173513
 40
0.4876442139503136
 40
0.5697199979738973
 40
0.6530646649976933
 40
0.7374573001733064
 40
0.8224924079539123
 40
0.9097550737466982
 40
1.0
 40
1.0
 40
1.0
 40
1.0
 10
391.9522780937404
 20
194.3158162515378
 30
0.0
 10
391.8682647697271
 20
194.3188993343838
 30
0.0
 10
391.7006334897454
 20
194.3250509910388
 30
0.0
 10
391.4529124255747
 20
194.379813509851
 30
0.0
 10
391.2111797293257
 20
194.4651999270519
 30
0.0
 10
390.9790170936257
 20
194.5843357018536
 30
0.0
 10
390.7622515321872
 20
194.7317379514122
 30
0.0
 10
390.569185196041
 20
194.9080745335698
 30
0.0
 10
390.4021127710516
 20
195.1090587341401
 30
0.0
 10
390.2629699460255
 20
195.3333751516235
 30
0.0
 10
390.1516616897161
 20
195.5762974682167
 30
0.0
 10
390.0744259071403
 20
195.8361471446955
 30
0.0
 10
390.0241169678293
 20
196.1091456560415
 30
0.0
 10
390.0187225439415
 20
196.2963583842647
 30
0.0
 10
390.0159800168173
 20
196.391537405384
 30
0.0
  0
SPLINE
  5
B1
330
1F
100
AcDbEntity
  8
0
  6
Continuous
 62
     7
370
    25
100
AcDbSpline
210
0.0
220
0.0
230
1.0
 70
     8
 71
     3
 72
    15
 73
    11
 74
     0
 42
0.000000001
 43
0.00000001
 40
0.0
 40
0.0
 40
0.0
 40
0.0
 40
0.1281455049994643
 40
0.2541925386280419
 40
0.3781411397135888
 40
0.5013808330744057
 40
0.6239569784447038
 40
0.7470758858273289
 40
0.8728647202442611
 40
1.0
 40
1.0
 40
1.0
 40
1.0
 10
393.0183838629712
 20
194.6739893284609
 30
0.0
 10
392.9788605012712
 20
194.6451067037107
 30
0.0
 10
392.9004610002845
 20
194.5878144271885
 30
0.0
 10
392.7743370140222
 20
194.5172966325328
 30
0.0
 10
392.6472326170801
 20
194.4525918028484
 30
0.0
 10
392.5141502285048
 20
194.404970921208
 30
0.0
 10
392.3793646900228
 20
194.3638759874558
 30
0.0
 10
392.2399897045591
 20
194.3368368894064
 30
0.0
 10
392.0973494524488
 20
194.3194788700237
 30
0.0
 10
392.0008065292128
 20
194.3170414495813
 30
0.0
 10
391.9522780937404
 20
194.3158162515378
 30
0.0
  0
SPLINE
  5
B2
330
1F
100
AcDbEntity
  8
0
  6
Continuous
 62
     7
370
    25
100
AcDbSpline
210
0.0
220
0.0
230
1.0
 70
     8
 71
     3
 72
    11
 73
     7
 74
     0
 42
0.000000001
 43
0.00000001
 40
0.0
 40
0.0
 40
0.0
 40
0.0
 40
0.253879600326656
 40
0.5030089172783633
 40
0.7502910806899731
 40
1.0
 40
1.0
 40
1.0
 40
1.0
 10
393.5304030937405
 20
195.3242297130763
 30
0.0
 10
393.4995833710979
 20
195.2604038480934
 30
0.0
 10
393.4385205866232
 20
195.1339463493496
 30
0.0
 10
393.3187678594508
 20
194.9615740130075
 30
0.0
 10
393.1804998354156
 20
194.8050976552527
 30
0.0
 10
393.0725981447066
 20
194.7178341369605
 30
0.0
 10
393.0183838629712
 20
194.6739893284609
 30
0.0
  0
SPLINE
  5
B3
330
1F
100
AcDbEntity
  8
0
  6
Continuous
 62
     7
370
    25
100
AcDbSpline
210
0.0
220
0.0
230
1.0
 70
     8
 71
     3
 72
    15
 73
    11
 74
     0
 42
0.000000001
 43
0.00000001
 40
0.0
 40
0.0
 40
0.0
 40
0.0
 40
0.1280675485958904
 40
0.2506083188676684
 40
0.3706301659145029
 40
0.4900722467299488
 40
0.6103747641546199
 40
0.7343130699115256
 40
0.8632165042449895
 40
1.0
 40
1.0
 40
1.0
 40
1.0
 10
394.7647780937404
 20
194.6235085592301
 30
0.0
 10
394.7013378742451
 20
194.6255032867394
 30
0.0
 10
394.5771952094512
 20
194.6294066589299
 30
0.0
 10
394.3959583572143
 20
194.6625501541796
 30
0.0
 10
394.225144185302
 20
194.7183266048245
 30
0.0
 10
394.0640336216617
 20
194.795589054958
 30
0.0
 10
393.913648181965
 20
194.8956031410842
 30
0.0
 10
393.7736495119184
 20
195.0167563357533
 30
0.0
 10
393.6434166694128
 20
195.1599037559399
 30
0.0
 10
393.5688118585977
 20
195.2683819354084
 30
0.0
 10
393.5304030937405
 20
195.3242297130763
 30
0.0
  0
SPLINE
  5
B4
330
1F
100
AcDbEntity
  8
0
  6
Continuous
 62
     7
370
    25
100
AcDbSpline
210
0.0
220
0.0
230
1.0
 70
     8
 71
     3
 72
    19
 73
    15
 74
     0
 42
0.000000001
 43
0.00000001
 40
0.0
 40
0.0
 40
0.0
 40
0.0
 40
0.0902542493426766
 40
0.1785397915286845
 40
0.2660930338538198
 40
0.3546309779571733
 40
0.4418861533505626
 40
0.5257469151636484
 40
0.6081136336036366
 40
0.6901972728278825
 40
0.770821484330335
 40
0.8483261812554109
 40
0.9240117400247433
 40
1.0
 40
1.0
 40
1.0
 40
1.0
 10
396.3236723245096
 20
196.375912405384
 30
0.0
 10
396.321307929804
 20
196.2975991332553
 30
0.0
 10
396.3166307147043
 20
196.1426808287808
 30
0.0
 10
396.2739202521688
 20
195.9150870340085
 30
0.0
 10
396.2063343109901
 20
195.6956124869762
 30
0.0
 10
396.1129507787552
 20
195.4866594907197
 30
0.0
 10
395.9977725276203
 20
195.2925707491261
 30
0.0
 10
395.8606901215149
 20
195.1198801432739
 30
0.0
 10
395.7043484618223
 20
194.9709284104671
 30
0.0
 10
395.5316640658477
 20
194.8459666201926
 30
0.0
 10
395.3471117640415
 20
194.748123764672
 30
0.0
 10
395.1571686375033
 20
194.6759756958496
 30
0.0
 10
394.9622852579794
 20
194.6320528141377
 30
0.0
 10
394.8307013508219
 20
194.6263604310344
 30
0.0
 10
394.7647780937404
 20
194.6235085592301
 30
0.0
  0
SPLINE
  5
B5
330
1F
100
AcDbEntity
  8
0
  6
Continuous
 62
     7
370
    25
100
AcDbSpline
210
0.0
220
0.0
230
1.0
 70
     8
 71
     3
 72
    23
 73
    19
 74
     0
 42
0.000000001
 43
0.00000001
 40
0.0
 40
0.0
 40
0.0
 40
0.0
 40
0.0726253460834354
 40
0.1419766113262345
 40
0.2089849284189386
 40
0.2739568703644448
 40
0.3368893473968407
 40
0.3987449534945902
 40
0.4601158852788614
 40
0.5208249225900293
 40
0.5809944586324857
 40
0.6401519276014648
 40
0.6986224507562546
 40
0.7572710809271643
 40
0.8164266940046601
 40
0.8762540482034704
 40
0.9371652930625374
 40
1.0
 40
1.0
 40
1.0
 40
1.0
 10
394.7852107860481
 20
198.1619700976917
 30
0.0
 10
394.8456093300059
 20
198.1473822965242
 30
0.0
 10
394.963683543247
 20
198.1188643384263
 30
0.0
 10
395.1323817046995
 20
198.0593827839082
 30
0.0
 10
395.2920220270836
 20
197.9945840607175
 30
0.0
 10
395.4396152962757
 20
197.9167741671779
 30
0.0
 10
395.5781277009604
 20
197.8319020170759
 30
0.0
 10
395.70441762862
 20
197.7346630658716
 30
0.0
 10
395.8216969979923
 20
197.6295435414729
 30
0.0
 10
395.9257768338046
 20
197.5132721998127
 30
0.0
 10
396.0200243695875
 20
197.3913373512856
 30
0.0
 10
396.1003816107458
 20
197.2620208602844
 30
0.0
 10
396.1695087299421
 20
197.1279244711347
 30
0.0
 10
396.2264576988713
 20
196.9881191003657
 30
0.0
 10
396.2693585965847
 20
196.8421885203223
 30
0.0
 10
396.300484549026
 20
196.6914520232009
 30
0.0
 10
396.3206978876793
 20
196.535514594433
 30
0.0
 10
396.3226706243988
 20
196.4296615819788
 30
0.0
 10
396.3236723245096
 20
196.375912405384
 30
0.0
  0
LINE
  5
B6
330
1F
100
AcDbEntity
  8
0
  6
Continuous
 62
     7
370
    25
100
AcDbLine
 10
394.785210786
 20
197.6235085592
 30
0.0
 11
394.785210786
 21
198.1619700977
 31
0.0
  0
SPLINE
  5
B7
330
1F
100
AcDbEntity
  8
0
  6
Continuous
 62
     7
370
    25
100
AcDbSpline
210
0.0
220
0.0
230
1.0
 70
    24
 71
     3
 72
    12
 73
     8
 74
     0
 42
0.000000001
 43
0.00000001
 40
0.0
 40
0.0
 40
0.0
 40
0.0
 40
0.1953837294240693
 40
0.3910335965241624
 40
0.6244486423428116
 40
0.8580115407738867
 40
1.0
 40
1.0
 40
1.0
 40
1.0
 10
398.1017572128141
 20
132.7996614915996
 30
0.0
 10
398.4173540947864
 20
132.7996614915996
 30
0.0
 10
399.048977742125
 20
132.7996614915996
 30
0.0
 10
399.8303272478566
 20
132.7996614915996
 30
0.0
 10
400.4196182318347
 20
132.7996614915996
 30
0.0
 10
400.7485819325178
 20
132.7996614915997
 30
0.0
 10
400.7409796883013
 20
132.7996614915996
 30
0.0
 10
400.738105431769
 20
132.7996614915996
 30
0.0
  0
SPLINE
  5
B8
330
1F
100
AcDbEntity
  8
0
  6
Continuous
 62
     7
370
    25
100
AcDbSpline
210
0.0
220
0.0
230
1.0
 70
     8
 71
     3
 72
    12
 73
     8
 74
     0
 42
0.000000001
 43
0.00000001
 40
0.0
 40
0.0
 40
0.0
 40
0.0
 40
0.2500000000000003
 40
0.2500000000000003
 40
0.5000000000000006
 40
0.5000000000000006
 40
1.0
 40
1.0
 40
1.0
 40
1.0
 10
398.1017572128173
 20
133.3854479292266
 30
0.0
 10
398.0738610965333
 20
133.2935346626589
 30
0.0
 10
398.0527023134272
 20
133.2111704215799
 30
0.0
 10
398.0239620298335
 20
133.0657881120729
 30
0.0
 10
398.0164989085022
 20
133.0024163186398
 30
0.0
 10
398.0164344674264
 20
132.8515461177234
 30
0.0
 10
398.0459503565882
 20
132.7996614915997
 30
0.0
 10
398.1017572128141
 20
132.7996614915996
 30
0.0
  0
SPLINE
  5
B9
330
1F
100
AcDbEntity
  8
0
  6
Continuous
 62
     7
370
    25
100
AcDbSpline
210
0.0
220
0.0
230
1.0
 70
     8
 71
     3
 72
    18
 73
    14
 74
     0
 42
0.000000001
 43
0.00000001
 40
0.0
 40
0.0
 40
0.0
 40
0.0
 40
0.2500000000000001
 40
0.2500000000000001
 40
0.5
 40
0.5
 40
0.625
 40
0.625
 40
0.6875000000000001
 40
0.6875000000000001
 40
0.7500000000000001
 40
0.7500000000000001
 40
1.0
 40
1.0
 40
1.0
 40
1.0
 10
398.1017572128141
 20
167.361061311587
 30
0.0
 10
398.9521912521329
 20
164.5590164047492
 30
0.0
 10
399.6231168667196
 20
161.7484773907621
 30
0.0
 10
400.5335585598531
 20
156.1069856199243
 30
0.0
 10
400.7721383944886
 20
153.2759885612192
 30
0.0
 10
400.7771106941008
 20
149.0127943208425
 30
0.0
 10
400.7203284529336
 20
147.5889642840278
 30
0.0
 10
400.5477639118197
 20
145.4490839909051
 30
0.0
 10
400.4757051254747
 20
144.7351026748714
 30
0.0
 10
400.3028831530518
 20
143.3057817876281
 30
0.0
 10
400.2020365448197
 20
142.5900992188892
 30
0.0
 10
399.6301068772906
 20
139.0229671242266
 30
0.0
 10
398.954210701506
 20
136.1941466005765
 30
0.0
 10
398.1017572128142
 20
133.3854479292269
 30
0.0
  0
SPLINE
  5
BA
330
1F
100
AcDbEntity
  8
0
  6
Continuous
 62
     7
370
    25
100
AcDbSpline
210
0.0
220
0.0
230
1.0
 70
     8
 71
     3
 72
    12
 73
     8
 74
     0
 42
0.000000001
 43
0.00000001
 40
0.0
 40
0.0
 40
0.0
 40
0.0
 40
0.2499999999999988
 40
0.2499999999999988
 40
0.4999999999999976
 40
0.4999999999999976
 40
1.0
 40
1.0
 40
1.0
 40
1.0
 10
398.1017572128141
 20
168.7752748739601
 30
0.0
 10
398.07386109653
 20
168.6452898858181
 30
0.0
 10
398.0527023134272
 20
168.5162569664764
 30
0.0
 10
398.0239620298335
 20
168.2601286422085
 30
0.0
 10
398.0164989085022
 20
168.1317882385088
 30
0.0
 10
398.0164344674264
 20
167.7677681616415
 30
0.0
 10
398.0459503565882
 20
167.5449360273493
 30
0.0
 10
398.1017572128141
 20
167.361061311587
 30
0.0
  0
SPLINE
  5
BB
330
1F
100
AcDbEntity
  8
0
  6
Continuous
 62
     7
370
    25
100
AcDbSpline
210
0.0
220
0.0
230
1.0
 70
     8
 71
     3
 72
    12
 73
     8
 74
     0
 42
0.000000001
 43
0.00000001
 40
0.0
 40
0.0
 40
0.0
 40
0.0
 40
0.2500000000000003
 40
0.2500000000000003
 40
0.5000000000000006
 40
0.5000000000000006
 40
1.0
 40
1.0
 40
1.0
 40
1.0
 10
398.1017572128173
 20
218.2382616716122
 30
0.0
 10
398.0738610965333
 20
218.1463484050446
 30
0.0
 10
398.0527023134272
 20
218.0462325415987
 30
0.0
 10
398.0239620298335
 20
217.8293947012179
 30
0.0
 10
398.0164989085022
 20
217.7112657551383
 30
0.0
 10
398.0164344674264
 20
217.3473338263726
 30
0.0
 10
398.0459503565882
 20
217.0840862260478
 30
0.0
 10
398.1017572128141
 20
216.8240481092391
 30
0.0
  0
SPLINE
  5
BC
330
1F
100
AcDbEntity
  8
0
  6
Continuous
 62
     7
370
    25
100
AcDbSpline
210
0.0
220
0.0
230
1.0
 70
     8
 71
     3
 72
    18
 73
    14
 74
     0
 42
0.000000001
 43
0.00000001
 40
0.0
 40
0.0
 40
0.0
 40
0.0
 40
0.2499999999999996
 40
0.2499999999999996
 40
0.4999999999999991
 40
0.4999999999999991
 40
0.6249999999999989
 40
0.6249999999999989
 40
0.6874999999999991
 40
0.6874999999999991
 40
0.7499999999999993
 40
0.7499999999999993
 40
1.0
 40
1.0
 40
1.0
 40
1.0
 10
398.1017572128141
 20
252.2138750539727
 30
0.0
 10
398.9521912521329
 20
249.4118301471349
 30
0.0
 10
399.6231168667196
 20
246.6012911331479
 30
0.0
 10
400.5335585598531
 20
240.95979936231
 30
0.0
 10
400.7721383944886
 20
238.1288023036048
 30
0.0
 10
400.7771106941008
 20
233.8656080632283
 30
0.0
 10
400.7203284529336
 20
232.4417780264135
 30
0.0
 10
400.5477639118197
 20
230.3018977332908
 30
0.0
 10
400.4757051254747
 20
229.5879164172571
 30
0.0
 10
400.3028831530518
 20
228.1585955300138
 30
0.0
 10
400.2020365448197
 20
227.4429129612749
 30
0.0
 10
399.6301068772906
 20
223.8757808666122
 30
0.0
 10
398.954210701506
 20
221.0469603429622
 30
0.0
 10
398.1017572128142
 20
218.2382616716126
 30
0.0
  0
SPLINE
  5
BD
330
1F
100
AcDbEntity
  8
0
  6
Continuous
 62
     7
370
    25
100
AcDbSpline
210
0.0
220
0.0
230
1.0
 70
     8
 71
     3
 72
    12
 73
     8
 74
     0
 42
0.000000001
 43
0.00000001
 40
0.0
 40
0.0
 40
0.0
 40
0.0
 40
0.2500000000000013
 40
0.2500000000000013
 40
0.5000000000000026
 40
0.5000000000000026
 40
1.0
 40
1.0
 40
1.0
 40
1.0
 10
398.1017572128141
 20
252.7996614915996
 30
0.0
 10
398.0738610965301
 20
252.7996614915996
 30
0.0
 10
398.0527023134272
 20
252.7871091990469
 30
0.0
 10
398.0239620298335
 20
252.7365825086126
 30
0.0
 10
398.0164989085022
 20
252.6978633546578
 30
0.0
 10
398.0164344674264
 20
252.5472059620843
 30
0.0
 10
398.0459503565882
 20
252.397749769735
 30
0.0
 10
398.1017572128141
 20
252.2138750539727
 30
0.0
  0
SPLINE
  5
BE
330
1F
100
AcDbEntity
  8
0
  6
Continuous
 62
     7
370
    25
100
AcDbSpline
210
0.0
220
0.0
230
1.0
 70
    24
 71
     3
 72
    12
 73
     8
 74
     0
 42
0.000000001
 43
0.00000001
 40
0.0
 40
0.0
 40
0.0
 40
0.0
 40
0.1300143563287032
 40
0.3695687162377007
 40
0.6089631473235347
 40
0.8043404891475626
 40
1.0
 40
1.0
 40
1.0
 40
1.0
 10
400.7343725148057
 20
252.7996614915996
 30
0.0
 10
400.7402452036667
 20
252.7996614915996
 30
0.0
 10
400.7569384531241
 20
252.7996614915997
 30
0.0
 10
400.4328588325146
 20
252.7996614915996
 30
0.0
 10
399.8383635320606
 20
252.7996614915996
 30
0.0
 10
399.0492933315461
 20
252.7996614915996
 30
0.0
 10
398.4177544901638
 20
252.7996614915996
 30
0.0
 10
398.1017572128141
 20
252.7996614915996
 30
0.0
  0
LINE
  5
BF
330
1F
100
AcDbEntity
  8
0
  6
Continuous
 62
     7
370
    25
100
AcDbLine
 10
400.9198261707
 20
252.5496614916
 30
0.0
 11
400.9198261707
 21
133.0496614916
 31
0.0
  0
LINE
  5
C0
330
1F
100
AcDbEntity
  8
0
  6
Continuous
 62
     7
370
    25
100
AcDbLine
 10
388.7378951285
 20
218.2382616716
 30
0.0
 11
398.1017572128
 21
218.2382616716
 31
0.0
  0
SPLINE
  5
C1
330
1F
100
AcDbEntity
  8
0
  6
Continuous
 62
     7
370
    25
100
AcDbSpline
210
0.0
220
0.0
230
1.0
 70
     8
 71
     3
 72
    23
 73
    19
 74
     0
 42
0.000000001
 43
0.00000001
 40
0.0
 40
0.0
 40
0.0
 40
0.0
 40
0.0611415679303346
 40
0.1200010135310723
 40
0.1782359705414083
 40
0.2364955434070171
 40
0.2948872487049731
 40
0.3546771928192958
 40
0.4166948132897783
 40
0.4806333779628393
 40
0.5458046334786407
 40
0.6097347883178743
 40
0.6729516883751544
 40
0.7360010960706834
 40
0.7998274385165249
 40
0.864767276939387
 40
0.9310835057306723
 40
1.0
 40
1.0
 40
1.0
 40
1.0
 10
391.8212684783558
 20
187.8959307679123
 30
0.0
 10
391.8622353201564
 20
187.8968631320845
 30
0.0
 10
391.9426399074715
 20
187.8986930597332
 30
0.0
 10
392.0603223618837
 20
187.919791359958
 30
0.0
 10
392.1744215968178
 20
187.9482881257252
 30
0.0
 10
392.2823673429169
 20
187.9943415110746
 30
0.0
 10
392.3871447342384
 20
188.0491948521292
 30
0.0
 10
392.4857591546827
 20
188.1190744053107
 30
0.0
 10
392.5810043684587
 20
188.1991930234626
 30
0.0
 10
392.6693740233792
 20
188.291978157322
 30
0.0
 10
392.7502041020373
 20
188.3929200767202
 30
0.0
 10
392.8215501921802
 20
188.5002644517332
 30
0.0
 10
392.8817648907627
 20
188.6125629479493
 30
0.0
 10
392.9320055166374
 20
188.7297070860908
 30
0.0
 10
392.9682617908591
 20
188.8530376776943
 30
0.0
 10
392.9968101985347
 20
188.9805639911
 30
0.0
 10
393.0120022313759
 20
189.1139169736819
 30
0.0
 10
393.0146371998761
 20
189.2043911600305
 30
0.0
 10
393.0159800168173
 20
189.2504980756046
 30
0.0
  0
SPLINE
  5
C2
330
1F
100
AcDbEntity
  8
0
  6
Continuous
 62
     7
370
    25
100
AcDbSpline
210
0.0
220
0.0
230
1.0
 70
     8
 71
     3
 72
    23
 73
    19
 74
     0
 42
0.000000001
 43
0.00000001
 40
0.0
 40
0.0
 40
0.0
 40
0.0
 40
0.0679503475997537
 40
0.1332598223836998
 40
0.1978002967596474
 40
0.2608458295516822
 40
0.3233192927503671
 40
0.3862817224595722
 40
0.450061516233313
 40
0.5152075844858154
 40
0.5796407692199316
 40
0.6418172023841522
 40
0.7016924412115348
 40
0.7607690981778945
 40
0.8192540511346832
 40
0.8787376269055537
 40
0.9381582970160911
 40
1.0
 40
1.0
 40
1.0
 40
1.0
 10
390.631364632202
 20
189.2036230756046
 30
0.0
 10
390.6326829883665
 20
189.1591107195111
 30
0.0
 10
390.6352684631216
 20
189.0718159686167
 30
0.0
 10
390.6508350791145
 20
188.942948216278
 30
0.0
 10
390.678369043557
 20
188.8193815521991
 30
0.0
 10
390.7174963924378
 20
188.7010300368259
 30
0.0
 10
390.7651725597821
 20
188.5869075989828
 30
0.0
 10
390.8260059998932
 20
188.4786333820851
 30
0.0
 10
390.8971150059236
 20
188.3747456063607
 30
0.0
 10
390.9784692187964
 20
188.2775055555402
 30
0.0
 10
391.0659003126709
 20
188.1868988124867
 30
0.0
 10
391.1619347185451
 20
188.1110986082035
 30
0.0
 10
391.2591952079253
 20
188.0426894810223
 30
0.0
 10
391.3635888959808
 20
187.9908719584539
 30
0.0
 10
391.4713344938963
 20
187.9474312798353
 30
0.0
 10
391.584074336872
 20
187.9182282815661
 30
0.0
 10
391.7012272161339
 20
187.8991100189343
 30
0.0
 10
391.7807256556992
 20
187.8970045304501
 30
0.0
 10
391.8212684783558
 20
187.8959307679123
 30
0.0
  0
SPLINE
  5
C3
330
1F
100
AcDbEntity
  8
0
  6
Continuous
 62
     7
370
    25
100
AcDbSpline
210
0.0
220
0.0
230
1.0
 70
     8
 71
     3
 72
    23
 73
    19
 74
     0
 42
0.000000001
 43
0.00000001
 40
0.0
 40
0.0
 40
0.0
 40
0.0
 40
0.0618526459466918
 40
0.1212838306153701
 40
0.1807779320756125
 40
0.2392732340142805
 40
0.2986414352139417
 40
0.3581858222417117
 40
0.4207600867589709
 40
0.4852046730216432
 40
0.5503622689482871
 40
0.613649924530912
 40
0.6766234955168249
 40
0.7391080134690126
 40
0.8021647022429448
 40
0.8667165971324778
 40
0.9320376285055445
 40
1.0
 40
1.0
 40
1.0
 40
1.0
 10
391.8212684783558
 20
190.511315383297
 30
0.0
 10
391.7807271989282
 20
190.5102388540671
 30
0.0
 10
391.7012317854051
 20
190.5081279405117
 30
0.0
 10
391.584056883751
 20
190.4890491594989
 30
0.0
 10
391.4713996427471
 20
190.4596980728859
 30
0.0
 10
391.3631776639436
 20
190.4167358591988
 30
0.0
 10
391.2599812812899
 20
190.3628486813681
 30
0.0
 10
391.161077460729
 20
190.2965345672404
 30
0.0
 10
391.0663979365687
 20
190.2189163748883
 30
0.0
 10
390.9783301903647
 20
190.1286867663069
 30
0.0
 10
390.897552313407
 20
190.0313828813688
 30
0.0
 10
390.8256275401189
 20
189.9284775781482
 30
0.0
 10
390.7652299634231
 20
189.8202980555593
 30
0.0
 10
390.7174809184148
 20
189.7062270308749
 30
0.0
 10
390.6783733122456
 20
189.5878615875695
 30
0.0
 10
390.6508339157904
 20
189.4642987556241
 30
0.0
 10
390.6352687692074
 20
189.3354299666576
 30
0.0
 10
390.6326830917342
 20
189.2481353587752
 30
0.0
 10
390.631364632202
 20
189.2036230756046
 30
0.0
  0
SPLINE
  5
C4
330
1F
100
AcDbEntity
  8
0
  6
Continuous
 62
     7
370
    25
100
AcDbSpline
210
0.0
220
0.0
230
1.0
 70
     8
 71
     3
 72
    23
 73
    19
 74
     0
 42
0.000000001
 43
0.00000001
 40
0.0
 40
0.0
 40
0.0
 40
0.0
 40
0.0705921865358071
 40
0.1385012886049299
 40
0.2037899961427012
 40
0.266787572669601
 40
0.3290979656467183
 40
0.3911745246039658
 40
0.4531677986176573
 40
0.5157967602265844
 40
0.5779688050530403
 40
0.6389663383752914
 40
0.698381066162843
 40
0.7573204555574266
 40
0.8164122397216688
 40
0.876279358230831
 40
0.936823465650193
 40
1.0
 40
1.0
 40
1.0
 40
1.0
 10
393.0159800168173
 20
189.2504980756046
 30
0.0
 10
393.0146285589989
 20
189.2962033469559
 30
0.0
 10
393.0119770098895
 20
189.3858767129307
 30
0.0
 10
392.9970010414137
 20
189.5172745377916
 30
0.0
 10
392.9686256869321
 20
189.6412982725344
 30
0.0
 10
392.931921512707
 20
189.759364470471
 30
0.0
 10
392.8819462111197
 20
189.870242571861
 30
0.0
 10
392.8219616809425
 20
189.9751973663743
 30
0.0
 10
392.7506439958513
 20
190.0731873981621
 30
0.0
 10
392.6687883305071
 20
190.1624917922908
 30
0.0
 10
392.5804773133875
 20
190.2444952820282
 30
0.0
 10
392.4853216184329
 20
190.315031674328
 30
0.0
 10
392.3862284185097
 20
190.3759427187613
 30
0.0
 10
392.2822663577743
 20
190.4254503215732
 30
0.0
 10
392.1735021238757
 20
190.4640058347647
 30
0.0
 10
392.0604288004513
 20
190.4918939665354
 30
0.0
 10
391.9422900774311
 20
190.5074147633348
 30
0.0
 10
391.8621772035159
 20
190.5099968633699
 30
0.0
 10
391.8212684783558
 20
190.511315383297
 30
0.0
  0
LINE
  5
C5
330
1F
100
AcDbEntity
  8
0
  6
Continuous
 62
     7
370
    25
100
AcDbLine
 10
398.1017572128
 20
167.3610613116
 30
0.0
 11
388.7378951285
 21
167.3610613116
 31
0.0
  0
LINE
  5
C6
330
1F
100
AcDbEntity
  8
0
  6
Continuous
 62
     7
370
    25
100
AcDbLine
 10
398.1017572128
 20
252.213875054
 30
0.0
 11
388.7378951285
 21
252.213875054
 31
0.0
  0
LINE
  5
C7
330
1F
100
AcDbEntity
  8
0
  6
Continuous
 62
     7
370
    25
100
AcDbLine
 10
388.7378951285
 20
133.3854479292
 30
0.0
 11
398.1017572128
 21
133.3854479292
 31
0.0
  0
LINE
  5
C8
330
1F
100
AcDbEntity
  8
0
  6
Continuous
 62
     7
370
    25
100
AcDbLine
 10
350.9183623989
 20
192.7996614916
 30
0.0
 11
350.9183623989
 21
136.9847072345
 31
0.0
  0
LINE
  5
C9
330
1F
100
AcDbEntity
  8
0
  6
Continuous
 62
     7
370
    25
100
AcDbLine
 10
350.9183623989
 20
248.6146157487
 30
0.0
 11
350.9183623989
 21
192.7996614916
 31
0.0
  0
LINE
  5
CA
330
1F
100
AcDbEntity
  8
0
  6
Continuous
 62
     7
370
    25
100
AcDbLine
 10
347.9198261707
 20
192.7996614916
 30
0.0
 11
347.9198261707
 21
245.4226255703
 31
0.0
  0
LINE
  5
CB
330
1F
100
AcDbEntity
  8
0
  6
Continuous
 62
     7
370
    25
100
AcDbLine
 10
347.9198261707
 20
140.1766974129
 30
0.0
 11
347.9198261707
 21
192.7996614916
 31
0.0
  0
LINE
  5
CC
330
1F
100
AcDbEntity
  8
0
  6
Continuous
 62
     7
370
    25
100
AcDbLine
 10
421.9198261707
 20
243.2996614916
 30
0.0
 11
421.9198261707
 21
142.2996614916
 31
0.0
  0
LINE
  5
CD
330
1F
100
AcDbEntity
  8
0
  6
Continuous
 62
     7
370
    25
100
AcDbLine
 10
436.9198261707
 20
243.2996614916
 30
0.0
 11
436.9198261707
 21
142.2996614916
 31
0.0
  0
LINE
  5
CE
330
1F
100
AcDbEntity
  8
0
  6
Continuous
 62
     7
370
    25
100
AcDbLine
 10
451.9198261707
 20
243.2996614916
 30
0.0
 11
451.9198261707
 21
142.2996614916
 31
0.0
  0
LINE
  5
CF
330
1F
100
AcDbEntity
  8
0
  6
Continuous
 62
     7
370
    25
100
AcDbLine
 10
466.9198261707
 20
243.2996614916
 30
0.0
 11
466.9198261707
 21
142.2996614916
 31
0.0
  0
LINE
  5
D0
330
1F
100
AcDbEntity
  8
0
  6
Continuous
 62
     7
370
    25
100
AcDbLine
 10
481.9198261707
 20
243.2996614916
 30
0.0
 11
481.9198261707
 21
142.2996614916
 31
0.0
  0
LINE
  5
D1
330
1F
100
AcDbEntity
  8
0
  6
Continuous
 62
     7
370
    25
100
AcDbLine
 10
497.9198261707
 20
240.8904846595
 30
0.0
 11
497.9198261707
 21
144.7088383237
 31
0.0
  0
LINE
  5
D2
330
1F
100
AcDbEntity
  8
0
  6
Continuous
 62
     7
370
    25
100
AcDbLine
 10
398.1017572128
 20
132.7996614916
 30
0.0
 11
388.7378951285
 21
132.7996614916
 31
0.0
  0
LINE
  5
D3
330
1F
100
AcDbEntity
  8
0
  6
Continuous
 62
     7
370
    25
100
AcDbLine
 10
388.7378951285
 20
252.7996614916
 30
0.0
 11
398.1017572128
 21
252.7996614916
 31
0.0
  0
LINE
  5
D4
330
1F
100
AcDbEntity
  8
0
  6
Continuous
 62
     8
370
    25
100
AcDbLine
 10
496.5133935999
 20
143.2117594559
 30
0.0
 11
496.5133935999
 21
242.3875635273
 31
0.0
  0
LINE
  5
D5
330
1F
100
AcDbEntity
  8
0
  6
Continuous
 62
     7
370
    18
100
AcDbLine
 10
350.2551741062
 20
247.9086411146
 30
0.0
 11
384.9198261707
 21
248.9919114916
 31
0.0
  0
LINE
  5
D6
330
1F
100
AcDbEntity
  8
0
  6
Continuous
 62
     7
370
    18
100
AcDbLine
 10
350.2551741062
 20
137.6906818686
 30
0.0
 11
384.9198261707
 21
136.6074114916
 31
0.0
  0
LINE
  5
D7
330
1F
100
AcDbEntity
  8
0
  6
Continuous
 62
     7
370
    18
100
AcDbLine
 10
384.9198261707
 20
135.9221614916
 30
0.0
 11
384.9198261707
 21
249.6771614916
 31
0.0
  0
LINE
  5
D8
330
1F
100
AcDbEntity
  8
0
  6
CENTERX2
 62
     7
370
    18
100
AcDbLine
 10
501.9198261707
 20
192.7996614916
 30
0.0
 11
344.1585283598
 21
192.7996614916
 31
0.0
  0
CIRCLE
  5
D9
330
1F
100
AcDbEntity
  8
0
  6
Continuous
 62
     7
370
    25
100
AcDbCircle
 10
610.1060774014
 20
192.7996614916
 30
0.0
 40
48.09082316794866
  0
CIRCLE
  5
DA
330
1F
100
AcDbEntity
  8
0
  6
Continuous
 62
     7
370
    25
100
AcDbCircle
 10
610.1060774014
 20
192.7996614916
 30
0.0
 40
49.58790203567298
  0
CIRCLE
  5
DB
330
1F
100
AcDbEntity
  8
0
  6
Continuous
 62
     7
370
    25
100
AcDbCircle
 10
610.1060774014
 20
192.7996614916
 30
0.0
 40
47.00000000000011
  0
CIRCLE
  5
DC
330
1F
100
AcDbEntity
  8
0
  6
Continuous
 62
     7
370
    25
100
AcDbCircle
 10
610.1060774014
 20
192.7996614916
 30
0.0
 40
45.0
  0
CIRCLE
  5
DD
330
1F
100
AcDbEntity
  8
0
  6
Continuous
 62
     7
370
    25
100
AcDbCircle
 10
610.1060774014
 20
192.7996614916
 30
0.0
 40
50.5
  0
SPLINE
  5
DE
330
1F
100
AcDbEntity
  8
0
  6
Continuous
 62
     7
370
    25
100
AcDbSpline
210
0.0
220
0.0
230
1.0
 70
     8
 71
     3
 72
    12
 73
     8
 74
     0
 42
0.000000001
 43
0.00000001
 40
0.0
 40
0.0
 40
0.0
 40
0.0
 40
0.2500000000000028
 40
0.2500000000000028
 40
0.5000000000000057
 40
0.5000000000000057
 40
1.0
 40
1.0
 40
1.0
 40
1.0
 10
634.1304640190785
 20
132.7996614915996
 30
0.0
 10
634.2604490072206
 20
132.7996614915996
 30
0.0
 10
634.3894819265622
 20
132.8122137841523
 30
0.0
 10
634.6456102508303
 20
132.8627404745866
 30
0.0
 10
634.7739506545299
 20
132.9014596285414
 30
0.0
 10
635.1379707313972
 20
133.0521170211149
 30
0.0
 10
635.3608028656894
 20
133.2015732134642
 30
0.0
 10
635.5446775814518
 20
133.3854479292265
 30
0.0
  0
SPLINE
  5
DF
330
1F
100
AcDbEntity
  8
0
  6
Continuous
 62
     7
370
    25
100
AcDbSpline
210
0.0
220
0.0
230
1.0
 70
    24
 71
     3
 72
    20
 73
    16
 74
     0
 42
0.000000001
 43
0.00000001
 40
0.0
 40
0.0
 40
0.0
 40
0.0
 40
0.0625
 40
0.0625
 40
0.125
 40
0.125
 40
0.2500000000000001
 40
0.2500000000000001
 40
0.5000000000000001
 40
0.5000000000000001
 40
0.75
 40
0.75
 40
0.875
 40
0.875
 40
1.0
 40
1.0
 40
1.0
 40
1.0
 10
634.1304640190785
 20
132.7996614915996
 30
0.0
 10
633.1419258677762
 20
132.7996614915996
 30
0.0
 10
632.1497364460405
 20
132.7996614915996
 30
0.0
 10
630.1575106824005
 20
132.7996614915996
 30
0.0
 10
629.1564426262307
 20
132.7996614915996
 30
0.0
 10
626.1549703273488
 20
132.7996614915996
 30
0.0
 10
624.152863271021
 20
132.7996614915996
 30
0.0
 10
618.1429053247437
 20
132.7996614915996
 30
0.0
 10
614.1313803043514
 20
132.7996614915996
 30
0.0
 10
606.097882024567
 20
132.7996614915996
 30
0.0
 10
602.0759072379154
 20
132.7996614915996
 30
0.0
 10
596.0355022275917
 20
132.7996614915996
 30
0.0
 10
594.0178390263086
 20
132.7996614915996
 30
0.0
 10
590.026538972404
 20
132.7996614915996
 30
0.0
 10
588.0470713903308
 20
132.7996614915996
 30
0.0
 10
586.0816907837996
 20
132.7996614915996
 30
0.0
  0
SPLINE
  5
E0
330
1F
100
AcDbEntity
  8
0
  6
Continuous
 62
     7
370
    25
100
AcDbSpline
210
0.0
220
0.0
230
1.0
 70
     8
 71
     3
 72
    12
 73
     8
 74
     0
 42
0.000000001
 43
0.00000001
 40
0.0
 40
0.0
 40
0.0
 40
0.0
 40
0.2500000000000003
 40
0.2500000000000003
 40
0.5000000000000006
 40
0.5000000000000006
 40
1.0
 40
1.0
 40
1.0
 40
1.0
 10
584.6674772214265
 20
133.3854479292265
 30
0.0
 10
584.7593904879941
 20
133.2935346626589
 30
0.0
 10
584.85950635144
 20
133.2111704215798
 30
0.0
 10
585.0763441918209
 20
133.0657881120729
 30
0.0
 10
585.1944731379004
 20
133.0024163186398
 30
0.0
 10
585.558405066666
 20
132.8515461177234
 30
0.0
 10
585.8216526669909
 20
132.7996614915996
 30
0.0
 10
586.0816907837996
 20
132.7996614915996
 30
0.0
  0
SPLINE
  5
E1
330
1F
100
AcDbEntity
  8
0
  6
Continuous
 62
     7
370
    25
100
AcDbSpline
210
0.0
220
0.0
230
1.0
 70
    24
 71
     3
 72
    18
 73
    14
 74
     0
 42
0.000000001
 43
0.00000001
 40
0.0
 40
0.0
 40
0.0
 40
0.0
 40
0.2500000000000001
 40
0.2500000000000001
 40
0.5
 40
0.5
 40
0.625
 40
0.625
 40
0.6875000000000001
 40
0.6875000000000001
 40
0.7500000000000001
 40
0.7500000000000001
 40
1.0
 40
1.0
 40
1.0
 40
1.0
 10
550.691863839066
 20
167.361061311587
 30
0.0
 10
553.4939087459038
 20
164.5590164047492
 30
0.0
 10
556.3044477598909
 20
161.7484773907621
 30
0.0
 10
561.9459395307287
 20
156.1069856199243
 30
0.0
 10
564.7769365894338
 20
153.2759885612191
 30
0.0
 10
569.0401308298104
 20
149.0127943208425
 30
0.0
 10
570.4639608666253
 20
147.5889642840277
 30
0.0
 10
572.6038411597478
 20
145.4490839909051
 30
0.0
 10
573.3178224757817
 20
144.7351026748713
 30
0.0
 10
574.7471433630249
 20
143.3057817876281
 30
0.0
 10
575.4628259317637
 20
142.5900992188892
 30
0.0
 10
579.0299580264265
 20
139.0229671242265
 30
0.0
 10
581.8587785500765
 20
136.1941466005765
 30
0.0
 10
584.6674772214261
 20
133.3854479292268
 30
0.0
  0
SPLINE
  5
E2
330
1F
100
AcDbEntity
  8
0
  6
Continuous
 62
     7
370
    25
100
AcDbSpline
210
0.0
220
0.0
230
1.0
 70
     8
 71
     3
 72
    12
 73
     8
 74
     0
 42
0.000000001
 43
0.00000001
 40
0.0
 40
0.0
 40
0.0
 40
0.0
 40
0.2499999999999988
 40
0.2499999999999988
 40
0.4999999999999976
 40
0.4999999999999976
 40
1.0
 40
1.0
 40
1.0
 40
1.0
 10
550.1060774014392
 20
168.7752748739601
 30
0.0
 10
550.1060774014392
 20
168.645289885818
 30
0.0
 10
550.1186296939918
 20
168.5162569664764
 30
0.0
 10
550.1691563844261
 20
168.2601286422084
 30
0.0
 10
550.2078755383809
 20
168.1317882385087
 30
0.0
 10
550.3585329309544
 20
167.7677681616414
 30
0.0
 10
550.5079891233037
 20
167.5449360273493
 30
0.0
 10
550.691863839066
 20
167.361061311587
 30
0.0
  0
SPLINE
  5
E3
330
1F
100
AcDbEntity
  8
0
  6
Continuous
 62
     7
370
    25
100
AcDbSpline
210
0.0
220
0.0
230
1.0
 70
    24
 71
     3
 72
    20
 73
    16
 74
     0
 42
0.000000001
 43
0.00000001
 40
0.0
 40
0.0
 40
0.0
 40
0.0
 40
0.0625000000000001
 40
0.0625000000000001
 40
0.1250000000000001
 40
0.1250000000000001
 40
0.2500000000000001
 40
0.2500000000000001
 40
0.5
 40
0.5
 40
0.75
 40
0.75
 40
0.8750000000000001
 40
0.8750000000000001
 40
1.0
 40
1.0
 40
1.0
 40
1.0
 10
550.1060774014392
 20
168.7752748739601
 30
0.0
 10
550.1060774014392
 20
169.7638130252624
 30
0.0
 10
550.106077401439
 20
170.7560024469981
 30
0.0
 10
550.1060774014392
 20
172.7482282106382
 30
0.0
 10
550.1060774014392
 20
173.7492962668078
 30
0.0
 10
550.1060774014392
 20
176.7507685656898
 30
0.0
 10
550.1060774014392
 20
178.7528756220176
 30
0.0
 10
550.106077401439
 20
184.762833568295
 30
0.0
 10
550.1060774014392
 20
188.7743585886872
 30
0.0
 10
550.106077401439
 20
196.8078568684717
 30
0.0
 10
550.1060774014392
 20
200.8298316551233
 30
0.0
 10
550.106077401439
 20
206.870236665447
 30
0.0
 10
550.1060774014392
 20
208.8878998667301
 30
0.0
 10
550.106077401439
 20
212.8791999206348
 30
0.0
 10
550.106077401439
 20
214.8586675027079
 30
0.0
 10
550.106077401439
 20
216.8240481092391
 30
0.0
  0
SPLINE
  5
E4
330
1F
100
AcDbEntity
  8
0
  6
Continuous
 62
     7
370
    25
100
AcDbSpline
210
0.0
220
0.0
230
1.0
 70
     8
 71
     3
 72
    12
 73
     8
 74
     0
 42
0.000000001
 43
0.00000001
 40
0.0
 40
0.0
 40
0.0
 40
0.0
 40
0.2500000000000003
 40
0.2500000000000003
 40
0.5000000000000006
 40
0.5000000000000006
 40
1.0
 40
1.0
 40
1.0
 40
1.0
 10
550.691863839066
 20
218.2382616716122
 30
0.0
 10
550.5999505724983
 20
218.1463484050446
 30
0.0
 10
550.5175863314194
 20
218.0462325415987
 30
0.0
 10
550.3722040219124
 20
217.8293947012179
 30
0.0
 10
550.3088322284792
 20
217.7112657551383
 30
0.0
 10
550.1579620275628
 20
217.3473338263726
 30
0.0
 10
550.1060774014392
 20
217.0840862260478
 30
0.0
 10
550.106077401439
 20
216.8240481092391
 30
0.0
  0
SPLINE
  5
E5
330
1F
100
AcDbEntity
  8
0
  6
Continuous
 62
     7
370
    25
100
AcDbSpline
210
0.0
220
0.0
230
1.0
 70
    24
 71
     3
 72
    18
 73
    14
 74
     0
 42
0.000000001
 43
0.00000001
 40
0.0
 40
0.0
 40
0.0
 40
0.0
 40
0.2499999999999996
 40
0.2499999999999996
 40
0.4999999999999991
 40
0.4999999999999991
 40
0.6249999999999989
 40
0.6249999999999989
 40
0.6874999999999991
 40
0.6874999999999991
 40
0.7499999999999993
 40
0.7499999999999993
 40
1.0
 40
1.0
 40
1.0
 40
1.0
 10
584.6674772214265
 20
252.2138750539727
 30
0.0
 10
581.8654323145887
 20
249.4118301471349
 30
0.0
 10
579.0548933006016
 20
246.6012911331478
 30
0.0
 10
573.4134015297639
 20
240.95979936231
 30
0.0
 10
570.5824044710586
 20
238.1288023036048
 30
0.0
 10
566.319210230682
 20
233.8656080632282
 30
0.0
 10
564.8953801938673
 20
232.4417780264134
 30
0.0
 10
562.7554999007446
 20
230.3018977332908
 30
0.0
 10
562.0415185847108
 20
229.587916417257
 30
0.0
 10
560.6121976974675
 20
228.1585955300138
 30
0.0
 10
559.8965151287288
 20
227.4429129612749
 30
0.0
 10
556.3293830340659
 20
223.8757808666122
 30
0.0
 10
553.5005625104159
 20
221.0469603429622
 30
0.0
 10
550.6918638390663
 20
218.2382616716125
 30
0.0
  0
SPLINE
  5
E6
330
1F
100
AcDbEntity
  8
0
  6
Continuous
 62
     7
370
    25
100
AcDbSpline
210
0.0
220
0.0
230
1.0
 70
     8
 71
     3
 72
    12
 73
     8
 74
     0
 42
0.000000001
 43
0.00000001
 40
0.0
 40
0.0
 40
0.0
 40
0.0
 40
0.2500000000000013
 40
0.2500000000000013
 40
0.5000000000000026
 40
0.5000000000000026
 40
1.0
 40
1.0
 40
1.0
 40
1.0
 10
586.0816907837996
 20
252.7996614915996
 30
0.0
 10
585.9517057956576
 20
252.7996614915996
 30
0.0
 10
585.822672876316
 20
252.7871091990469
 30
0.0
 10
585.566544552048
 20
252.7365825086126
 30
0.0
 10
585.4382041483483
 20
252.6978633546578
 30
0.0
 10
585.0741840714809
 20
252.5472059620842
 30
0.0
 10
584.8513519371888
 20
252.397749769735
 30
0.0
 10
584.6674772214265
 20
252.2138750539727
 30
0.0
  0
SPLINE
  5
E7
330
1F
100
AcDbEntity
  8
0
  6
Continuous
 62
     7
370
    25
100
AcDbSpline
210
0.0
220
0.0
230
1.0
 70
    24
 71
     3
 72
    20
 73
    16
 74
     0
 42
0.000000001
 43
0.00000001
 40
0.0
 40
0.0
 40
0.0
 40
0.0
 40
0.0624999999999999
 40
0.0624999999999999
 40
0.1249999999999998
 40
0.1249999999999998
 40
0.2499999999999998
 40
0.2499999999999998
 40
0.4999999999999998
 40
0.4999999999999998
 40
0.7499999999999998
 40
0.7499999999999998
 40
0.875
 40
0.875
 40
1.0
 40
1.0
 40
1.0
 40
1.0
 10
634.1304640190785
 20
252.7996614915996
 30
0.0
 10
633.1419258677757
 20
252.7996614915996
 30
0.0
 10
632.1497364460396
 20
252.7996614915996
 30
0.0
 10
630.1575106823984
 20
252.7996614915996
 30
0.0
 10
629.1564426262283
 20
252.7996614915996
 30
0.0
 10
626.1549703273465
 20
252.7996614915996
 30
0.0
 10
624.152863271019
 20
252.7996614915996
 30
0.0
 10
618.1429053247429
 20
252.7996614915996
 30
0.0
 10
614.1313803043519
 20
252.7996614915996
 30
0.0
 10
606.0978820245715
 20
252.7996614915996
 30
0.0
 10
602.0759072379228
 20
252.7996614915996
 30
0.0
 10
596.0355022276042
 20
252.7996614915996
 30
0.0
 10
594.0178390263193
 20
252.7996614915996
 30
0.0
 10
590.0265389724087
 20
252.7996614915996
 30
0.0
 10
588.047071390333
 20
252.7996614915996
 30
0.0
 10
586.0816907837996
 20
252.7996614915996
 30
0.0
  0
SPLINE
  5
E8
330
1F
100
AcDbEntity
  8
0
  6
Continuous
 62
     7
370
    25
100
AcDbSpline
210
0.0
220
0.0
230
1.0
 70
     8
 71
     3
 72
    12
 73
     8
 74
     0
 42
0.000000001
 43
0.00000001
 40
0.0
 40
0.0
 40
0.0
 40
0.0
 40
0.2499999999999987
 40
0.2499999999999987
 40
0.4999999999999974
 40
0.4999999999999974
 40
1.0
 40
1.0
 40
1.0
 40
1.0
 10
635.5446775814518
 20
252.2138750539727
 30
0.0
 10
635.4527643148841
 20
252.3057883205404
 30
0.0
 10
635.3526484514381
 20
252.3881525616194
 30
0.0
 10
635.1358106110574
 20
252.5335348711263
 30
0.0
 10
635.0176816649778
 20
252.5969066645594
 30
0.0
 10
634.6537497362121
 20
252.7477768654758
 30
0.0
 10
634.3905021358873
 20
252.7996614915996
 30
0.0
 10
634.1304640190785
 20
252.7996614915996
 30
0.0
  0
SPLINE
  5
E9
330
1F
100
AcDbEntity
  8
0
  6
Continuous
 62
     7
370
    25
100
AcDbSpline
210
0.0
220
0.0
230
1.0
 70
    24
 71
     3
 72
    18
 73
    14
 74
     0
 42
0.000000001
 43
0.00000001
 40
0.0
 40
0.0
 40
0.0
 40
0.0
 40
0.2499999999999999
 40
0.2499999999999999
 40
0.5
 40
0.5
 40
0.625
 40
0.625
 40
0.6875
 40
0.6875
 40
0.75
 40
0.75
 40
1.0
 40
1.0
 40
1.0
 40
1.0
 10
669.5202909638122
 20
218.2382616716122
 30
0.0
 10
666.7182460569744
 20
221.04030657845
 30
0.0
 10
663.9077070429873
 20
223.8508455924371
 30
0.0
 10
658.2662152721495
 20
229.4923373632749
 30
0.0
 10
655.4352182134443
 20
232.3233344219801
 30
0.0
 10
651.1720239730678
 20
236.5865286623567
 30
0.0
 10
649.748193936253
 20
238.0103586991714
 30
0.0
 10
647.6083136431304
 20
240.1502389922941
 30
0.0
 10
646.8943323270964
 20
240.8642203083278
 30
0.0
 10
645.4650114398532
 20
242.2935411955712
 30
0.0
 10
644.7493288711144
 20
243.00922376431
 30
0.0
 10
641.1821967764517
 20
246.5763558589727
 30
0.0
 10
638.3533762528017
 20
249.4051763826227
 30
0.0
 10
635.5446775814521
 20
252.2138750539723
 30
0.0
  0
SPLINE
  5
EA
330
1F
100
AcDbEntity
  8
0
  6
Continuous
 62
     7
370
    25
100
AcDbSpline
210
0.0
220
0.0
230
1.0
 70
     8
 71
     3
 72
    12
 73
     8
 74
     0
 42
0.000000001
 43
0.00000001
 40
0.0
 40
0.0
 40
0.0
 40
0.0
 40
0.2500000000000013
 40
0.2500000000000013
 40
0.5000000000000026
 40
0.5000000000000026
 40
1.0
 40
1.0
 40
1.0
 40
1.0
 10
670.106077401439
 20
216.8240481092391
 30
0.0
 10
670.106077401439
 20
216.9540330973811
 30
0.0
 10
670.0935251088863
 20
217.0830660167227
 30
0.0
 10
670.042998418452
 20
217.3391943409908
 30
0.0
 10
670.0042792644972
 20
217.4675347446905
 30
0.0
 10
669.8536218719238
 20
217.8315548215577
 30
0.0
 10
669.7041656795744
 20
218.0543869558499
 30
0.0
 10
669.5202909638122
 20
218.2382616716122
 30
0.0
  0
SPLINE
  5
EB
330
1F
100
AcDbEntity
  8
0
  6
Continuous
 62
     7
370
    25
100
AcDbSpline
210
0.0
220
0.0
230
1.0
 70
    24
 71
     3
 72
    20
 73
    16
 74
     0
 42
0.000000001
 43
0.00000001
 40
0.0
 40
0.0
 40
0.0
 40
0.0
 40
0.0625
 40
0.0625
 40
0.125
 40
0.125
 40
0.2500000000000001
 40
0.2500000000000001
 40
0.5
 40
0.5
 40
0.75
 40
0.75
 40
0.8750000000000001
 40
0.8750000000000001
 40
1.0
 40
1.0
 40
1.0
 40
1.0
 10
670.106077401439
 20
168.7752748739601
 30
0.0
 10
670.106077401439
 20
169.7638130252624
 30
0.0
 10
670.106077401439
 20
170.7560024469982
 30
0.0
 10
670.106077401439
 20
172.7482282106383
 30
0.0
 10
670.106077401439
 20
173.7492962668079
 30
0.0
 10
670.106077401439
 20
176.7507685656899
 30
0.0
 10
670.106077401439
 20
178.7528756220177
 30
0.0
 10
670.1060774014392
 20
184.762833568295
 30
0.0
 10
670.106077401439
 20
188.7743585886872
 30
0.0
 10
670.106077401439
 20
196.8078568684717
 30
0.0
 10
670.106077401439
 20
200.8298316551233
 30
0.0
 10
670.106077401439
 20
206.870236665447
 30
0.0
 10
670.106077401439
 20
208.8878998667301
 30
0.0
 10
670.1060774014392
 20
212.8791999206348
 30
0.0
 10
670.106077401439
 20
214.8586675027079
 30
0.0
 10
670.106077401439
 20
216.8240481092391
 30
0.0
  0
SPLINE
  5
EC
330
1F
100
AcDbEntity
  8
0
  6
Continuous
 62
     7
370
    25
100
AcDbSpline
210
0.0
220
0.0
230
1.0
 70
     8
 71
     3
 72
    12
 73
     8
 74
     0
 42
0.000000001
 43
0.00000001
 40
0.0
 40
0.0
 40
0.0
 40
0.0
 40
0.2499999999999987
 40
0.2499999999999987
 40
0.4999999999999974
 40
0.4999999999999974
 40
1.0
 40
1.0
 40
1.0
 40
1.0
 10
669.5202909638122
 20
167.361061311587
 30
0.0
 10
669.6122042303798
 20
167.4529745781546
 30
0.0
 10
669.6945684714588
 20
167.5530904416005
 30
0.0
 10
669.8399507809659
 20
167.7699282819814
 30
0.0
 10
669.9033225743989
 20
167.8880572280609
 30
0.0
 10
670.0541927753153
 20
168.2519891568266
 30
0.0
 10
670.1060774014392
 20
168.5152367571514
 30
0.0
 10
670.106077401439
 20
168.7752748739601
 30
0.0
  0
SPLINE
  5
ED
330
1F
100
AcDbEntity
  8
0
  6
Continuous
 62
     7
370
    25
100
AcDbSpline
210
0.0
220
0.0
230
1.0
 70
    24
 71
     3
 72
    18
 73
    14
 74
     0
 42
0.000000001
 43
0.00000001
 40
0.0
 40
0.0
 40
0.0
 40
0.0
 40
0.25
 40
0.25
 40
0.5000000000000002
 40
0.5000000000000002
 40
0.6250000000000001
 40
0.6250000000000001
 40
0.6875000000000001
 40
0.6875000000000001
 40
0.7500000000000001
 40
0.7500000000000001
 40
1.0
 40
1.0
 40
1.0
 40
1.0
 10
635.5446775814518
 20
133.3854479292265
 30
0.0
 10
638.3467224882895
 20
136.1874928360643
 30
0.0
 10
641.1572615022765
 20
138.9980318500513
 30
0.0
 10
646.7987532731144
 20
144.6395236208892
 30
0.0
 10
649.6297503318195
 20
147.4705206795944
 30
0.0
 10
653.8929445721961
 20
151.733714919971
 30
0.0
 10
655.316774609011
 20
153.1575449567857
 30
0.0
 10
657.4566549021336
 20
155.2974252499084
 30
0.0
 10
658.1706362181673
 20
156.0114065659421
 30
0.0
 10
659.5999571054106
 20
157.4407274531854
 30
0.0
 10
660.3156396741495
 20
158.1564100219243
 30
0.0
 10
663.8827717688122
 20
161.723542116587
 30
0.0
 10
666.7115922924621
 20
164.552362640237
 30
0.0
 10
669.5202909638118
 20
167.3610613115866
 30
0.0
  0
CIRCLE
  5
EE
330
1F
100
AcDbEntity
  8
0
  6
Continuous
 62
     7
370
    25
100
AcDbCircle
 10
610.1060774014
 20
192.7996614916
 30
0.0
 40
59.75
  0
INSERT
  5
FA
330
1F
100
AcDbEntity
  8
0
  6
Continuous
 62
     7
370
    18
100
AcDbBlockReference
  2
SW_CENTERMARKSYMBOL_0
 10
610.1060774014
 20
192.7996614916
 30
0.0
  0
INSERT
  5
106
330
1F
100
AcDbEntity
  8
0
  6
Continuous
 62
     7
370
    18
100
AcDbBlockReference
  2
SW_CENTERMARKSYMBOL_1
 10
610.1060774014
 20
192.7996614916
 30
0.0
  0
LINE
  5
107
330
1F
100
AcDbEntity
  8
0
  6
Continuous
 62
     7
370
    25
100
AcDbLine
 10
386.064163738
 20
408.6709643875
 30
0.0
 11
385.9198261707
 21
408.4209643875
 31
0.0
  0
LINE
  5
108
330
1F
100
AcDbEntity
  8
0
  6
Continuous
 62
     7
370
    25
100
AcDbLine
 10
385.9198261707
 20
288.9209643875
 30
0.0
 11
386.064163738
 21
288.6709643875
 31
0.0
  0
LINE
  5
109
330
1F
100
AcDbEntity
  8
0
  6
Continuous
 62
     7
370
    25
100
AcDbLine
 10
400.7754886034
 20
288.6709643875
 30
0.0
 11
400.9198261707
 21
288.9209643875
 31
0.0
  0
LINE
  5
10A
330
1F
100
AcDbEntity
  8
0
  6
Continuous
 62
     7
370
    25
100
AcDbLine
 10
400.9198261707
 20
408.4209643875
 30
0.0
 11
400.7754886034
 21
408.6709643875
 31
0.0
  0
LINE
  5
10B
330
1F
100
AcDbEntity
  8
0
  6
Continuous
 62
     7
370
    25
100
AcDbLine
 10
385.9198261707
 20
405.5797143875
 30
0.0
 11
350.9183623989
 21
404.4859186446
 31
0.0
  0
LINE
  5
10C
330
1F
100
AcDbEntity
  8
0
  6
Continuous
 62
     7
370
    25
100
AcDbLine
 10
350.9183623989
 20
292.8560101304
 30
0.0
 11
385.9198261707
 21
291.7622143875
 31
0.0
  0
LINE
  5
10D
330
1F
100
AcDbEntity
  8
0
  6
Continuous
 62
     7
370
    25
100
AcDbLine
 10
350.9183623989
 20
404.4859186446
 30
0.0
 11
347.9198261707
 21
401.2939284662
 31
0.0
  0
LINE
  5
10E
330
1F
100
AcDbEntity
  8
0
  6
Continuous
 62
     7
370
    25
100
AcDbLine
 10
347.9198261707
 20
296.0480003088
 30
0.0
 11
350.9183623989
 21
292.8560101304
 31
0.0
  0
LINE
  5
10F
330
1F
100
AcDbEntity
  8
0
  6
Continuous
 62
     7
370
    25
100
AcDbLine
 10
421.9198261707
 20
399.1709643875
 30
0.0
 11
400.9198261707
 21
399.1709643875
 31
0.0
  0
LINE
  5
110
330
1F
100
AcDbEntity
  8
0
  6
Continuous
 62
     7
370
    25
100
AcDbLine
 10
400.9198261707
 20
298.1709643875
 30
0.0
 11
421.9198261707
 21
298.1709643875
 31
0.0
  0
LINE
  5
111
330
1F
100
AcDbEntity
  8
0
  6
Continuous
 62
     7
370
    25
100
AcDbLine
 10
481.9198261707
 20
298.1709643875
 30
0.0
 11
496.5133935999
 21
299.0830623518
 31
0.0
  0
LINE
  5
112
330
1F
100
AcDbEntity
  8
0
  6
Continuous
 62
     7
370
    25
100
AcDbLine
 10
496.5133935999
 20
398.2588664232
 30
0.0
 11
481.9198261707
 21
399.1709643875
 31
0.0
  0
LINE
  5
113
330
1F
100
AcDbEntity
  8
0
  6
Continuous
 62
     7
370
    25
100
AcDbLine
 10
436.9198261707
 20
298.1709643875
 30
0.0
 11
451.9198261707
 21
299.1709643875
 31
0.0
  0
LINE
  5
114
330
1F
100
AcDbEntity
  8
0
  6
Continuous
 62
     7
370
    25
100
AcDbLine
 10
451.9198261707
 20
398.1709643875
 30
0.0
 11
436.9198261707
 21
399.1709643875
 31
0.0
  0
LINE
  5
115
330
1F
100
AcDbEntity
  8
0
  6
Continuous
 62
     7
370
    25
100
AcDbLine
 10
421.9198261707
 20
298.1709643875
 30
0.0
 11
436.9198261707
 21
299.1709643875
 31
0.0
  0
LINE
  5
116
330
1F
100
AcDbEntity
  8
0
  6
Continuous
 62
     7
370
    25
100
AcDbLine
 10
436.9198261707
 20
398.1709643875
 30
0.0
 11
421.9198261707
 21
399.1709643875
 31
0.0
  0
LINE
  5
117
330
1F
100
AcDbEntity
  8
0
  6
Continuous
 62
     7
370
    25
100
AcDbLine
 10
466.9198261707
 20
298.1709643875
 30
0.0
 11
481.9198261707
 21
299.1709643875
 31
0.0
  0
LINE
  5
118
330
1F
100
AcDbEntity
  8
0
  6
Continuous
 62
     7
370
    25
100
AcDbLine
 10
481.9198261707
 20
398.1709643875
 30
0.0
 11
466.9198261707
 21
399.1709643875
 31
0.0
  0
LINE
  5
119
330
1F
100
AcDbEntity
  8
0
  6
Continuous
 62
     7
370
    25
100
AcDbLine
 10
451.9198261707
 20
298.1709643875
 30
0.0
 11
466.9198261707
 21
299.1709643875
 31
0.0
  0
LINE
  5
11A
330
1F
100
AcDbEntity
  8
0
  6
Continuous
 62
     7
370
    25
100
AcDbLine
 10
466.9198261707
 20
398.1709643875
 30
0.0
 11
451.9198261707
 21
399.1709643875
 31
0.0
  0
ARC
  5
11B
330
1F
100
AcDbEntity
  8
0
  6
Continuous
 62
     7
370
    25
100
AcDbCircle
 10
496.4198261707
 20
396.7617875554
 30
0.0
 40
1.500000000000048
100
AcDbArc
 50
0.0
 51
86.423665625
  0
ARC
  5
11C
330
1F
100
AcDbEntity
  8
0
  6
Continuous
 62
     7
370
    25
100
AcDbCircle
 10
496.4198261707
 20
300.5801412195
 30
0.0
 40
1.5
100
AcDbArc
 50
273.576334375
 51
0.0
  0
SPLINE
  5
11D
330
1F
100
AcDbEntity
  8
0
  6
Continuous
 62
     7
370
    25
100
AcDbSpline
210
0.0
220
0.0
230
1.0
 70
     8
 71
     3
 72
    12
 73
     8
 74
     0
 42
0.000000001
 43
0.00000001
 40
0.0
 40
0.0
 40
0.0
 40
0.0
 40
0.2499999999999988
 40
0.2499999999999988
 40
0.4999999999999976
 40
0.4999999999999976
 40
1.0
 40
1.0
 40
1.0
 40
1.0
 10
388.7378951285129
 20
408.0851779498672
 30
0.0
 10
388.7657912447969
 20
408.1770912164349
 30
0.0
 10
388.7869500278998
 20
408.2594554575142
 30
0.0
 10
388.8156903114935
 20
408.4048377670211
 30
0.0
 10
388.8231534328248
 20
408.4682095604541
 30
0.0
 10
388.8232178739005
 20
408.6190797613704
 30
0.0
 10
388.7937019847388
 20
408.6709643874941
 30
0.0
 10
388.7378951285129
 20
408.6709643874941
 30
0.0
  0
SPLINE
  5
11E
330
1F
100
AcDbEntity
  8
0
  6
Continuous
 62
     7
370
    25
100
AcDbSpline
210
0.0
220
0.0
230
1.0
 70
     8
 71
     3
 72
    18
 73
    14
 74
     0
 42
0.000000001
 43
0.00000001
 40
0.0
 40
0.0
 40
0.0
 40
0.0
 40
0.2499999999999996
 40
0.2499999999999996
 40
0.499999999999999
 40
0.499999999999999
 40
0.6249999999999989
 40
0.6249999999999989
 40
0.687499999999999
 40
0.687499999999999
 40
0.7499999999999991
 40
0.7499999999999991
 40
1.0
 40
1.0
 40
1.0
 40
1.0
 10
388.7378951285129
 20
408.0851779498672
 30
0.0
 10
387.887461089194
 20
405.2831330430292
 30
0.0
 10
387.2165354746074
 20
402.472594029042
 30
0.0
 10
386.3060937814739
 20
396.8311022582038
 30
0.0
 10
386.0675139468382
 20
394.0001051994985
 30
0.0
 10
386.0625416472262
 20
389.7369109591216
 30
0.0
 10
386.1193238883934
 20
388.3130809223068
 30
0.0
 10
386.2918884295074
 20
386.173200629184
 30
0.0
 10
386.3639472158524
 20
385.4592193131502
 30
0.0
 10
386.5367691882753
 20
384.0298984259068
 30
0.0
 10
386.6376157965075
 20
383.3142158571679
 30
0.0
 10
387.2095454640368
 20
379.747083762505
 30
0.0
 10
387.8854416398214
 20
376.9182632388548
 30
0.0
 10
388.7378951285134
 20
374.109564567505
 30
0.0
  0
SPLINE
  5
11F
330
1F
100
AcDbEntity
  8
0
  6
Continuous
 62
     7
370
    25
100
AcDbSpline
210
0.0
220
0.0
230
1.0
 70
     8
 71
     3
 72
    12
 73
     8
 74
     0
 42
0.000000001
 43
0.00000001
 40
0.0
 40
0.0
 40
0.0
 40
0.0
 40
0.2500000000000028
 40
0.2500000000000028
 40
0.5000000000000056
 40
0.5000000000000056
 40
1.0
 40
1.0
 40
1.0
 40
1.0
 10
388.7378951285129
 20
372.6953510051336
 30
0.0
 10
388.7657912447969
 20
372.8253359932754
 30
0.0
 10
388.7869500278998
 20
372.954368912617
 30
0.0
 10
388.8156903114934
 20
373.2104972368845
 30
0.0
 10
388.8231534328248
 20
373.3388376405841
 30
0.0
 10
388.8232178739006
 20
373.7028577174509
 30
0.0
 10
388.7937019847386
 20
373.925689851745
 30
0.0
 10
388.7378951285128
 20
374.109564567507
 30
0.0
  0
SPLINE
  5
120
330
1F
100
AcDbEntity
  8
0
  6
Continuous
 62
     7
370
    25
100
AcDbSpline
210
0.0
220
0.0
230
1.0
 70
     8
 71
     3
 72
    20
 73
    16
 74
     0
 42
0.000000001
 43
0.00000001
 40
0.0
 40
0.0
 40
0.0
 40
0.0
 40
0.0624999999999999
 40
0.0624999999999999
 40
0.1249999999999998
 40
0.1249999999999998
 40
0.2499999999999998
 40
0.2499999999999998
 40
0.4999999999999998
 40
0.4999999999999998
 40
0.7499999999999999
 40
0.7499999999999999
 40
0.8749999999999999
 40
0.8749999999999999
 40
1.0
 40
1.0
 40
1.0
 40
1.0
 10
388.7378951285129
 20
372.6953510051338
 30
0.0
 10
388.5257446670321
 20
371.706812853831
 30
0.0
 10
388.3240933059117
 20
370.7146234320947
 30
0.0
 10
387.9433541280247
 20
368.7223976684535
 30
0.0
 10
387.7641185141766
 20
367.7213296122836
 30
0.0
 10
387.2649077687967
 20
364.7198573134017
 30
0.0
 10
386.9827423494378
 20
362.7177502570741
 30
0.0
 10
386.2998790197638
 20
356.7077923107979
 30
0.0
 10
386.0644947030726
 20
352.696267290407
 30
0.0
 10
386.0638334768976
 20
344.6627690106266
 30
0.0
 10
386.2986252848169
 20
340.6407942239779
 30
0.0
 10
386.9856952363172
 20
334.6003892136593
 30
0.0
 10
387.2708832262924
 20
332.5827260123745
 30
0.0
 10
387.9358709443009
 20
328.5914259584638
 30
0.0
 10
388.3161042223024
 20
326.6119583763881
 30
0.0
 10
388.7378951285129
 20
324.6465777698546
 30
0.0
  0
SPLINE
  5
121
330
1F
100
AcDbEntity
  8
0
  6
Continuous
 62
     7
370
    25
100
AcDbSpline
210
0.0
220
0.0
230
1.0
 70
     8
 71
     3
 72
    12
 73
     8
 74
     0
 42
0.000000001
 43
0.00000001
 40
0.0
 40
0.0
 40
0.0
 40
0.0
 40
0.2499999999999988
 40
0.2499999999999988
 40
0.4999999999999976
 40
0.4999999999999976
 40
1.0
 40
1.0
 40
1.0
 40
1.0
 10
388.7378951285129
 20
323.2323642074815
 30
0.0
 10
388.7657912447969
 20
323.3242774740492
 30
0.0
 10
388.7869500278998
 20
323.4243933374954
 30
0.0
 10
388.8156903114935
 20
323.6412311778763
 30
0.0
 10
388.8231534328248
 20
323.7593601239558
 30
0.0
 10
388.8232178739005
 20
324.1232920527214
 30
0.0
 10
388.7937019847388
 20
324.386539653046
 30
0.0
 10
388.7378951285129
 20
324.6465777698546
 30
0.0
  0
SPLINE
  5
122
330
1F
100
AcDbEntity
  8
0
  6
Continuous
 62
     7
370
    25
100
AcDbSpline
210
0.0
220
0.0
230
1.0
 70
     8
 71
     3
 72
    18
 73
    14
 74
     0
 42
0.000000001
 43
0.00000001
 40
0.0
 40
0.0
 40
0.0
 40
0.0
 40
0.25
 40
0.25
 40
0.4999999999999998
 40
0.4999999999999998
 40
0.6249999999999998
 40
0.6249999999999998
 40
0.6874999999999998
 40
0.6874999999999998
 40
0.7499999999999998
 40
0.7499999999999998
 40
1.0
 40
1.0
 40
1.0
 40
1.0
 10
388.7378951285129
 20
323.2323642074815
 30
0.0
 10
387.887461089194
 20
320.4303193006436
 30
0.0
 10
387.2165354746074
 20
317.6197802866564
 30
0.0
 10
386.3060937814739
 20
311.9782885158182
 30
0.0
 10
386.0675139468382
 20
309.1472914571128
 30
0.0
 10
386.0625416472262
 20
304.8840972167359
 30
0.0
 10
386.1193238883934
 20
303.4602671799211
 30
0.0
 10
386.2918884295074
 20
301.3203868867982
 30
0.0
 10
386.3639472158524
 20
300.6064055707645
 30
0.0
 10
386.5367691882753
 20
299.1770846835211
 30
0.0
 10
386.6376157965075
 20
298.4614021147822
 30
0.0
 10
387.2095454640368
 20
294.8942700201193
 30
0.0
 10
387.8854416398214
 20
292.0654494964691
 30
0.0
 10
388.7378951285134
 20
289.2567508251192
 30
0.0
  0
SPLINE
  5
123
330
1F
100
AcDbEntity
  8
0
  6
Continuous
 62
     7
370
    25
100
AcDbSpline
210
0.0
220
0.0
230
1.0
 70
     8
 71
     3
 72
    12
 73
     8
 74
     0
 42
0.000000001
 43
0.00000001
 40
0.0
 40
0.0
 40
0.0
 40
0.0
 40
0.2500000000000003
 40
0.2500000000000003
 40
0.5000000000000006
 40
0.5000000000000006
 40
1.0
 40
1.0
 40
1.0
 40
1.0
 10
388.7378951285129
 20
288.6709643874941
 30
0.0
 10
388.7657912447969
 20
288.6709643874941
 30
0.0
 10
388.7869500278998
 20
288.6835166800468
 30
0.0
 10
388.8156903114934
 20
288.7340433704809
 30
0.0
 10
388.8231534328248
 20
288.7727625244356
 30
0.0
 10
388.8232178739006
 20
288.9234199170086
 30
0.0
 10
388.7937019847386
 20
289.0728761093592
 30
0.0
 10
388.7378951285128
 20
289.2567508251213
 30
0.0
  0
SPLINE
  5
124
330
1F
100
AcDbEntity
  8
0
  6
Continuous
 62
     7
370
    25
100
AcDbSpline
210
0.0
220
0.0
230
1.0
 70
    24
 71
     3
 72
    13
 73
     9
 74
     0
 42
0.000000001
 43
0.00000001
 40
0.0
 40
0.0
 40
0.0
 40
0.0
 40
0.1953775089837342
 40
0.3910211471704557
 40
0.5655788740529167
 40
0.7401326218999699
 40
0.9157703211215381
 40
0.9999999999999999
 40
0.9999999999999999
 40
0.9999999999999999
 40
0.9999999999999999
 10
388.7378951285129
 20
288.6709643874941
 30
0.0
 10
388.4220580931444
 20
288.6709643874941
 30
0.0
 10
387.7899538118935
 20
288.6709643874941
 30
0.0
 10
387.0857221613817
 20
288.6709643874942
 30
0.0
 10
386.562333809534
 20
288.6709643874941
 30
0.0
 10
386.2310673605654
 20
288.6709643874941
 30
0.0
 10
386.0678425916152
 20
288.6709643874942
 30
0.0
 10
386.0815358762545
 20
288.6709643874941
 30
0.0
 10
386.0859742208301
 20
288.6709643874941
 30
0.0
  0
SPLINE
  5
125
330
1F
100
AcDbEntity
  8
0
  6
Continuous
 62
     7
370
    25
100
AcDbSpline
210
0.0
220
0.0
230
1.0
 70
    24
 71
     3
 72
    13
 73
     9
 74
     0
 42
0.000000001
 43
0.00000001
 40
0.0
 40
0.0
 40
0.0
 40
0.0
 40
0.0696208123720142
 40
0.2486025275570299
 40
0.4287871824891835
 40
0.6089763116690934
 40
0.8043470760699569
 40
1.0
 40
1.0
 40
1.0
 40
1.0
 10
386.0857563605133
 20
408.6709643874941
 30
0.0
 10
386.0803262329405
 20
408.6709643874941
 30
0.0
 10
386.0609362920081
 20
408.6709643874941
 30
0.0
 10
386.21591234403
 20
408.6709643874941
 30
0.0
 10
386.5467399471918
 20
408.6709643874941
 30
0.0
 10
387.0785003346062
 20
408.6709643874941
 30
0.0
 10
387.7895526791235
 20
408.6709643874941
 30
0.0
 10
388.4216289450102
 20
408.6709643874941
 30
0.0
 10
388.7378951285129
 20
408.6709643874941
 30
0.0
  0
LINE
  5
126
330
1F
100
AcDbEntity
  8
0
  6
Continuous
 62
     7
370
    25
100
AcDbLine
 10
385.9198261707
 20
408.4209643875
 30
0.0
 11
385.9198261707
 21
288.9209643875
 31
0.0
  0
SPLINE
  5
127
330
1F
100
AcDbEntity
  8
0
  6
Continuous
 62
     7
370
    25
100
AcDbSpline
210
0.0
220
0.0
230
1.0
 70
    24
 71
     3
 72
    13
 73
     9
 74
     0
 42
0.000000001
 43
0.00000001
 40
0.0
 40
0.0
 40
0.0
 40
0.0
 40
0.1953775089837342
 40
0.3910211471704557
 40
0.5655788740529167
 40
0.7401326218999699
 40
0.9157703211215381
 40
0.9999999999999999
 40
0.9999999999999999
 40
0.9999999999999999
 40
0.9999999999999999
 10
398.1017572128141
 20
288.6709643874941
 30
0.0
 10
398.4175942481826
 20
288.6709643874941
 30
0.0
 10
399.0496985294334
 20
288.6709643874941
 30
0.0
 10
399.7539301799452
 20
288.6709643874942
 30
0.0
 10
400.277318531793
 20
288.6709643874941
 30
0.0
 10
400.6085849807616
 20
288.6709643874941
 30
0.0
 10
400.7718097497118
 20
288.6709643874942
 30
0.0
 10
400.7581164650724
 20
288.6709643874941
 30
0.0
 10
400.7536781204968
 20
288.6709643874941
 30
0.0
  0
SPLINE
  5
128
330
1F
100
AcDbEntity
  8
0
  6
Continuous
 62
     7
370
    25
100
AcDbSpline
210
0.0
220
0.0
230
1.0
 70
     8
 71
     3
 72
    12
 73
     8
 74
     0
 42
0.000000001
 43
0.00000001
 40
0.0
 40
0.0
 40
0.0
 40
0.0
 40
0.2500000000000003
 40
0.2500000000000003
 40
0.5000000000000006
 40
0.5000000000000006
 40
1.0
 40
1.0
 40
1.0
 40
1.0
 10
398.1017572128173
 20
289.2567508251211
 30
0.0
 10
398.0738610965333
 20
289.1648375585534
 30
0.0
 10
398.0527023134272
 20
289.0824733174744
 30
0.0
 10
398.0239620298335
 20
288.9370910079675
 30
0.0
 10
398.0164989085022
 20
288.8737192145343
 30
0.0
 10
398.0164344674264
 20
288.7228490136179
 30
0.0
 10
398.0459503565882
 20
288.6709643874941
 30
0.0
 10
398.1017572128141
 20
288.6709643874941
 30
0.0
  0
SPLINE
  5
129
330
1F
100
AcDbEntity
  8
0
  6
Continuous
 62
     7
370
    25
100
AcDbSpline
210
0.0
220
0.0
230
1.0
 70
     8
 71
     3
 72
    18
 73
    14
 74
     0
 42
0.000000001
 43
0.00000001
 40
0.0
 40
0.0
 40
0.0
 40
0.0
 40
0.2499999999999996
 40
0.2499999999999996
 40
0.4999999999999991
 40
0.4999999999999991
 40
0.6249999999999989
 40
0.6249999999999989
 40
0.6874999999999991
 40
0.6874999999999991
 40
0.7499999999999993
 40
0.7499999999999993
 40
1.0
 40
1.0
 40
1.0
 40
1.0
 10
398.1017572128141
 20
323.2323642074815
 30
0.0
 10
398.9521912521329
 20
320.4303193006438
 30
0.0
 10
399.6231168667196
 20
317.6197802866566
 30
0.0
 10
400.5335585598531
 20
311.9782885158188
 30
0.0
 10
400.7721383944886
 20
309.1472914571137
 30
0.0
 10
400.7771106941008
 20
304.884097216737
 30
0.0
 10
400.7203284529336
 20
303.4602671799223
 30
0.0
 10
400.5477639118197
 20
301.3203868867996
 30
0.0
 10
400.4757051254747
 20
300.6064055707659
 30
0.0
 10
400.3028831530518
 20
299.1770846835226
 30
0.0
 10
400.2020365448197
 20
298.4614021147837
 30
0.0
 10
399.6301068772906
 20
294.894270020121
 30
0.0
 10
398.954210701506
 20
292.065449496471
 30
0.0
 10
398.1017572128142
 20
289.2567508251213
 30
0.0
  0
SPLINE
  5
12A
330
1F
100
AcDbEntity
  8
0
  6
Continuous
 62
     7
370
    25
100
AcDbSpline
210
0.0
220
0.0
230
1.0
 70
     8
 71
     3
 72
    12
 73
     8
 74
     0
 42
0.000000001
 43
0.00000001
 40
0.0
 40
0.0
 40
0.0
 40
0.0
 40
0.2500000000000013
 40
0.2500000000000013
 40
0.5000000000000026
 40
0.5000000000000026
 40
1.0
 40
1.0
 40
1.0
 40
1.0
 10
398.1017572128141
 20
324.6465777698546
 30
0.0
 10
398.0738610965301
 20
324.5165927817126
 30
0.0
 10
398.0527023134272
 20
324.387559862371
 30
0.0
 10
398.0239620298335
 20
324.131431538103
 30
0.0
 10
398.0164989085022
 20
324.0030911344033
 30
0.0
 10
398.0164344674264
 20
323.639071057536
 30
0.0
 10
398.0459503565882
 20
323.4162389232439
 30
0.0
 10
398.1017572128141
 20
323.2323642074815
 30
0.0
  0
SPLINE
  5
12B
330
1F
100
AcDbEntity
  8
0
  6
Continuous
 62
     7
370
    25
100
AcDbSpline
210
0.0
220
0.0
230
1.0
 70
     8
 71
     3
 72
    20
 73
    16
 74
     0
 42
0.000000001
 43
0.00000001
 40
0.0
 40
0.0
 40
0.0
 40
0.0
 40
0.0624999999999999
 40
0.0624999999999999
 40
0.1249999999999998
 40
0.1249999999999998
 40
0.2499999999999998
 40
0.2499999999999998
 40
0.4999999999999998
 40
0.4999999999999998
 40
0.7499999999999998
 40
0.7499999999999998
 40
0.875
 40
0.875
 40
1.0
 40
1.0
 40
1.0
 40
1.0
 10
398.1017572128141
 20
372.6953510051337
 30
0.0
 10
398.3139076742949
 20
371.7068128538309
 30
0.0
 10
398.5155590354153
 20
370.7146234320946
 30
0.0
 10
398.8962982133023
 20
368.7223976684534
 30
0.0
 10
399.0755338271504
 20
367.7213296122835
 30
0.0
 10
399.5747445725302
 20
364.7198573134016
 30
0.0
 10
399.8569099918892
 20
362.717750257074
 30
0.0
 10
400.5397733215632
 20
356.7077923107978
 30
0.0
 10
400.7751576382543
 20
352.696267290407
 30
0.0
 10
400.7758188644294
 20
344.6627690106266
 30
0.0
 10
400.5410270565101
 20
340.6407942239779
 30
0.0
 10
399.8539571050098
 20
334.6003892136592
 30
0.0
 10
399.5687691150345
 20
332.5827260123744
 30
0.0
 10
398.903781397026
 20
328.5914259584638
 30
0.0
 10
398.5235481190244
 20
326.6119583763881
 30
0.0
 10
398.1017572128141
 20
324.6465777698546
 30
0.0
  0
SPLINE
  5
12C
330
1F
100
AcDbEntity
  8
0
  6
Continuous
 62
     7
370
    25
100
AcDbSpline
210
0.0
220
0.0
230
1.0
 70
     8
 71
     3
 72
    12
 73
     8
 74
     0
 42
0.000000001
 43
0.00000001
 40
0.0
 40
0.0
 40
0.0
 40
0.0
 40
0.2499999999999987
 40
0.2499999999999987
 40
0.4999999999999974
 40
0.4999999999999974
 40
1.0
 40
1.0
 40
1.0
 40
1.0
 10
398.1017572128172
 20
374.1095645675067
 30
0.0
 10
398.0738610965333
 20
374.0176513009391
 30
0.0
 10
398.0527023134272
 20
373.9175354374933
 30
0.0
 10
398.0239620298335
 20
373.7006975971124
 30
0.0
 10
398.0164989085022
 20
373.5825686510328
 30
0.0
 10
398.0164344674264
 20
373.2186367222672
 30
0.0
 10
398.0459503565882
 20
372.9553891219423
 30
0.0
 10
398.1017572128141
 20
372.6953510051336
 30
0.0
  0
SPLINE
  5
12D
330
1F
100
AcDbEntity
  8
0
  6
Continuous
 62
     7
370
    25
100
AcDbSpline
210
0.0
220
0.0
230
1.0
 70
     8
 71
     3
 72
    18
 73
    14
 74
     0
 42
0.000000001
 43
0.00000001
 40
0.0
 40
0.0
 40
0.0
 40
0.0
 40
0.2499999999999999
 40
0.2499999999999999
 40
0.5
 40
0.5
 40
0.625
 40
0.625
 40
0.6875
 40
0.6875
 40
0.75
 40
0.75
 40
1.0
 40
1.0
 40
1.0
 40
1.0
 10
398.1017572128141
 20
408.0851779498672
 30
0.0
 10
398.9521912521329
 20
405.2831330430294
 30
0.0
 10
399.6231168667196
 20
402.4725940290423
 30
0.0
 10
400.5335585598531
 20
396.8311022582045
 30
0.0
 10
400.7721383944886
 20
394.0001051994993
 30
0.0
 10
400.7771106941008
 20
389.7369109591228
 30
0.0
 10
400.7203284529336
 20
388.313080922308
 30
0.0
 10
400.5477639118197
 20
386.1732006291853
 30
0.0
 10
400.4757051254747
 20
385.4592193131516
 30
0.0
 10
400.3028831530518
 20
384.0298984259083
 30
0.0
 10
400.2020365448197
 20
383.3142158571695
 30
0.0
 10
399.6301068772906
 20
379.7470837625067
 30
0.0
 10
398.954210701506
 20
376.9182632388568
 30
0.0
 10
398.1017572128142
 20
374.1095645675071
 30
0.0
  0
SPLINE
  5
12E
330
1F
100
AcDbEntity
  8
0
  6
Continuous
 62
     7
370
    25
100
AcDbSpline
210
0.0
220
0.0
230
1.0
 70
     8
 71
     3
 72
    12
 73
     8
 74
     0
 42
0.000000001
 43
0.00000001
 40
0.0
 40
0.0
 40
0.0
 40
0.0
 40
0.2500000000000013
 40
0.2500000000000013
 40
0.5000000000000026
 40
0.5000000000000026
 40
1.0
 40
1.0
 40
1.0
 40
1.0
 10
398.1017572128141
 20
408.6709643874941
 30
0.0
 10
398.0738610965301
 20
408.6709643874941
 30
0.0
 10
398.0527023134272
 20
408.6584120949414
 30
0.0
 10
398.0239620298335
 20
408.6078854045071
 30
0.0
 10
398.0164989085022
 20
408.5691662505523
 30
0.0
 10
398.0164344674264
 20
408.4185088579787
 30
0.0
 10
398.0459503565882
 20
408.2690526656295
 30
0.0
 10
398.1017572128141
 20
408.0851779498672
 30
0.0
  0
SPLINE
  5
12F
330
1F
100
AcDbEntity
  8
0
  6
Continuous
 62
     7
370
    25
100
AcDbSpline
210
0.0
220
0.0
230
1.0
 70
    24
 71
     3
 72
    13
 73
     9
 74
     0
 42
0.000000001
 43
0.00000001
 40
0.0
 40
0.0
 40
0.0
 40
0.0
 40
0.0696208123720142
 40
0.2486025275570298
 40
0.4287871824891832
 40
0.608976311669093
 40
0.8043470760699566
 40
1.0
 40
1.0
 40
1.0
 40
1.0
 10
400.7538959808137
 20
408.6709643874941
 30
0.0
 10
400.7593261083865
 20
408.6709643874941
 30
0.0
 10
400.7787160493188
 20
408.6709643874941
 30
0.0
 10
400.623739997297
 20
408.6709643874941
 30
0.0
 10
400.2929123941351
 20
408.6709643874941
 30
0.0
 10
399.7611520067208
 20
408.6709643874941
 30
0.0
 10
399.0500996622035
 20
408.6709643874941
 30
0.0
 10
398.4180233963167
 20
408.6709643874941
 30
0.0
 10
398.1017572128141
 20
408.6709643874941
 30
0.0
  0
LINE
  5
130
330
1F
100
AcDbEntity
  8
0
  6
Continuous
 62
     7
370
    25
100
AcDbLine
 10
400.9198261707
 20
408.4209643875
 30
0.0
 11
400.9198261707
 21
288.9209643875
 31
0.0
  0
LINE
  5
131
330
1F
100
AcDbEntity
  8
0
  6
Continuous
 62
     7
370
    25
100
AcDbLine
 10
398.1017572128
 20
372.6953510051
 30
0.0
 11
388.7378951285
 21
372.6953510051
 31
0.0
  0
LINE
  5
132
330
1F
100
AcDbEntity
  8
0
  6
Continuous
 62
     7
370
    25
100
AcDbLine
 10
388.7378951285
 20
374.1095645675
 30
0.0
 11
398.1017572128
 21
374.1095645675
 31
0.0
  0
LINE
  5
133
330
1F
100
AcDbEntity
  8
0
  6
Continuous
 62
     7
370
    25
100
AcDbLine
 10
388.7378951285
 20
324.6465777699
 30
0.0
 11
398.1017572128
 21
324.6465777699
 31
0.0
  0
LINE
  5
134
330
1F
100
AcDbEntity
  8
0
  6
Continuous
 62
     7
370
    25
100
AcDbLine
 10
398.1017572128
 20
323.2323642075
 30
0.0
 11
388.7378951285
 21
323.2323642075
 31
0.0
  0
LINE
  5
135
330
1F
100
AcDbEntity
  8
0
  6
Continuous
 62
     7
370
    25
100
AcDbLine
 10
398.1017572128
 20
408.0851779499
 30
0.0
 11
388.7378951285
 21
408.0851779499
 31
0.0
  0
LINE
  5
136
330
1F
100
AcDbEntity
  8
0
  6
Continuous
 62
     7
370
    25
100
AcDbLine
 10
388.7378951285
 20
289.2567508251
 30
0.0
 11
398.1017572128
 21
289.2567508251
 31
0.0
  0
LINE
  5
137
330
1F
100
AcDbEntity
  8
0
  6
Continuous
 62
     7
370
    25
100
AcDbLine
 10
350.9183623989
 20
404.4859186446
 30
0.0
 11
350.9183623989
 21
292.8560101304
 31
0.0
  0
LINE
  5
138
330
1F
100
AcDbEntity
  8
0
  6
Continuous
 62
     7
370
    25
100
AcDbLine
 10
347.9198261707
 20
296.0480003088
 30
0.0
 11
347.9198261707
 21
401.2939284662
 31
0.0
  0
LINE
  5
139
330
1F
100
AcDbEntity
  8
0
  6
Continuous
 62
     7
370
    25
100
AcDbLine
 10
421.9198261707
 20
399.1709643875
 30
0.0
 11
421.9198261707
 21
298.1709643875
 31
0.0
  0
LINE
  5
13A
330
1F
100
AcDbEntity
  8
0
  6
Continuous
 62
     7
370
    25
100
AcDbLine
 10
481.9198261707
 20
399.1709643875
 30
0.0
 11
481.9198261707
 21
298.1709643875
 31
0.0
  0
LINE
  5
13B
330
1F
100
AcDbEntity
  8
0
  6
Continuous
 62
     7
370
    25
100
AcDbLine
 10
436.9198261707
 20
399.1709643875
 30
0.0
 11
436.9198261707
 21
298.1709643875
 31
0.0
  0
LINE
  5
13C
330
1F
100
AcDbEntity
  8
0
  6
Continuous
 62
     7
370
    25
100
AcDbLine
 10
466.9198261707
 20
399.1709643875
 30
0.0
 11
466.9198261707
 21
298.1709643875
 31
0.0
  0
LINE
  5
13D
330
1F
100
AcDbEntity
  8
0
  6
Continuous
 62
     7
370
    25
100
AcDbLine
 10
451.9198261707
 20
399.1709643875
 30
0.0
 11
451.9198261707
 21
298.1709643875
 31
0.0
  0
LINE
  5
13E
330
1F
100
AcDbEntity
  8
0
  6
Continuous
 62
     7
370
    25
100
AcDbLine
 10
497.9198261707
 20
396.7617875554
 30
0.0
 11
497.9198261707
 21
300.5801412195
 31
0.0
  0
LINE
  5
13F
330
1F
100
AcDbEntity
  8
0
  6
Continuous
 62
     7
370
    25
100
AcDbLine
 10
388.7378951285
 20
408.6709643875
 30
0.0
 11
398.1017572128
 21
408.6709643875
 31
0.0
  0
LINE
  5
140
330
1F
100
AcDbEntity
  8
0
  6
Continuous
 62
     7
370
    25
100
AcDbLine
 10
398.1017572128
 20
288.6709643875
 30
0.0
 11
388.7378951285
 21
288.6709643875
 31
0.0
  0
LINE
  5
141
330
1F
100
AcDbEntity
  8
0
  6
Continuous
 62
     8
370
    25
100
AcDbLine
 10
496.5133935999
 20
299.0830623518
 30
0.0
 11
496.5133935999
 21
398.2588664232
 31
0.0
  0
LINE
  5
142
330
1F
100
AcDbEntity
  8
0
  6
Continuous
 62
     7
370
    18
100
AcDbLine
 10
350.2551741062
 20
403.7799440105
 30
0.0
 11
384.9198261707
 21
404.8632143875
 31
0.0
  0
LINE
  5
143
330
1F
100
AcDbEntity
  8
0
  6
Continuous
 62
     7
370
    18
100
AcDbLine
 10
350.2551741062
 20
293.5619847645
 30
0.0
 11
384.9198261707
 21
292.4787143875
 31
0.0
  0
LINE
  5
144
330
1F
100
AcDbEntity
  8
0
  6
Continuous
 62
     7
370
    18
100
AcDbLine
 10
384.9198261707
 20
291.7934643875
 30
0.0
 11
384.9198261707
 21
405.5484643875
 31
0.0
  0
LINE
  5
145
330
1F
100
AcDbEntity
  8
0
  6
CENTERX2
 62
     7
370
    18
100
AcDbLine
 10
501.9198261707
 20
348.6709643875
 30
0.0
 11
344.1585283598
 21
348.6709643875
 31
0.0
  0
ENDSEC
  0
SECTION
  2
OBJECTS
  0
DICTIONARY
  5
C
330
0
100
AcDbDictionary
281
     1
  3
ACAD_GROUP
350
D
  3
ACAD_LAYOUT
350
1A
  3
ACAD_MLINESTYLE
350
17
  3
ACAD_PLOTSETTINGS
350
19
  3
ACAD_PLOTSTYLENAME
350
E
  3
ACAD_SCALELIST
350
47
  0
DICTIONARY
  5
D
102
{ACAD_REACTORS
330
C
102
}
330
C
100
AcDbDictionary
281
     1
  0
DICTIONARY
  5
1A
102
{ACAD_REACTORS
330
C
102
}
330
C
100
AcDbDictionary
281
     1
  3
Layout1
350
1E
  3
Layout2
350
26
  3
Model
350
22
  0
DICTIONARY
  5
17
102
{ACAD_REACTORS
330
C
102
}
330
C
100
AcDbDictionary
281
     1
  3
Standard
350
18
  0
DICTIONARY
  5
19
102
{ACAD_REACTORS
330
C
102
}
330
C
100
AcDbDictionary
281
     1
  0
ACDBDICTIONARYWDFLT
  5
E
102
{ACAD_REACTORS
330
C
102
}
330
C
100
AcDbDictionary
281
     1
  3
Normal
350
F
100
AcDbDictionaryWithDefault
340
F
  0
DICTIONARY
  5
47
102
{ACAD_REACTORS
330
C
102
}
330
C
100
AcDbDictionary
281
     1
  3
A0
350
48
  3
A1
350
49
  3
A2
350
4A
  3
A3
350
4B
  3
A4
350
4C
  3
A5
350
4D
  3
A6
350
4E
  3
A7
350
4F
  3
A8
350
50
  3
A9
350
51
  3
B0
350
52
  3
B1
350
53
  3
B2
350
54
  3
B3
350
55
  3
B4
350
56
  3
B5
350
57
  3
B6
350
58
  3
B7
350
59
  3
B8
350
5A
  3
B9
350
5B
  3
C0
350
5C
  3
C1
350
5D
  3
C2
350
5E
  3
C3
350
5F
  3
C4
350
60
  3
C5
350
61
  3
C6
350
62
  3
C7
350
63
  3
C8
350
64
  3
C9
350
65
  3
D0
350
66
  3
D1
350
67
  3
D2
350
68
  0
LAYOUT
  5
1E
102
{ACAD_REACTORS
330
1A
102
}
330
1A
100
AcDbPlotSettings
  1

  2
none_device
  4

  6

 40
0.0
 41
0.0
 42
0.0
 43
0.0
 44
0.0
 45
0.0
 46
0.0
 47
0.0
 48
0.0
 49
0.0
140
0.0
141
0.0
142
1.0
143
1.0
 70
   688
 72
     1
 73
     0
 74
     5
  7

 75
    16
147
1.0
148
0.0
149
0.0
100
AcDbLayout
  1
Layout1
 70
     1
 71
     1
 10
0.0
 20
0.0
 11
420.0
 21
297.0
 12
0.0
 22
0.0
 32
0.0
 14
1.0000000000E+20
 24
1.0000000000E+20
 34
1.0000000000E+20
 15
-1.0000000000E+20
 25
-1.0000000000E+20
 35
-1.0000000000E+20
146
0.0
 13
0.0
 23
0.0
 33
0.0
 16
1.0
 26
0.0
 36
0.0
 17
0.0
 27
1.0
 37
0.0
 76
     0
330
1B
  0
LAYOUT
  5
26
102
{ACAD_REACTORS
330
1A
102
}
330
1A
100
AcDbPlotSettings
  1

  2
none_device
  4

  6

 40
0.0
 41
0.0
 42
0.0
 43
0.0
 44
0.0
 45
0.0
 46
0.0
 47
0.0
 48
0.0
 49
0.0
140
0.0
141
0.0
142
1.0
143
1.0
 70
   688
 72
     1
 73
     0
 74
     5
  7

 75
    16
147
1.0
148
0.0
149
0.0
100
AcDbLayout
  1
Layout2
 70
     1
 71
     2
 10
0.0
 20
0.0
 11
0.0
 21
0.0
 12
0.0
 22
0.0
 32
0.0
 14
0.0
 24
0.0
 34
0.0
 15
0.0
 25
0.0
 35
0.0
146
0.0
 13
0.0
 23
0.0
 33
0.0
 16
1.0
 26
0.0
 36
0.0
 17
0.0
 27
1.0
 37
0.0
 76
     0
330
23
  0
LAYOUT
  5
22
102
{ACAD_REACTORS
330
1A
102
}
330
1A
100
AcDbPlotSettings
  1

  2
none_device
  4
Letter_(8.50_x_11.00_Inches)
  6

 40
6.35
 41
6.35
 42
6.35000508
 43
6.35000508
 44
215.9
 45
279.4
 46
0.0
 47
0.0
 48
0.0
 49
0.0
140
0.0
141
0.0
142
1.0
143
1.0
 70
  1712
 72
     1
 73
     0
 74
     0
  7

 75
     0
147
1.0
148
0.0
149
0.0
100
AcDbLayout
  1
Model
 70
     1
 71
     0
 10
0.0
 20
0.0
 11
863.6
 21
558.8
 12
0.0
 22
0.0
 32
0.0
 14
0.0
 24
0.0
 34
0.0
 15
863.6
 25
558.8
 35
0.0
146
0.0
 13
0.0
 23
0.0
 33
0.0
 16
1.0
 26
0.0
 36
0.0
 17
0.0
 27
1.0
 37
0.0
 76
     0
330
1F
331
29
  0
MLINESTYLE
  5
18
102
{ACAD_REACTORS
330
17
102
}
330
17
100
AcDbMlineStyle
  2
Standard
 70
     0
  3

 62
   256
 51
90.0
 52
90.0
 71
     2
 49
0.5
 62
   256
  6
BYLAYER
 49
-0.5
 62
   256
  6
BYLAYER
  0
ACDBPLACEHOLDER
  5
F
102
{ACAD_REACTORS
330
E
102
}
330
E
  0
SCALE
  5
48
102
{ACAD_REACTORS
330
47
102
}
330
47
100
AcDbScale
 70
     0
300
1:1
140
1.0
141
1.0
290
     1
  0
SCALE
  5
49
102
{ACAD_REACTORS
330
47
102
}
330
47
100
AcDbScale
 70
     0
300
1:2
140
1.0
141
2.0
290
     0
  0
SCALE
  5
4A
102
{ACAD_REACTORS
330
47
102
}
330
47
100
AcDbScale
 70
     0
300
1:4
140
1.0
141
4.0
290
     0
  0
SCALE
  5
4B
102
{ACAD_REACTORS
330
47
102
}
330
47
100
AcDbScale
 70
     0
300
1:5
140
1.0
141
5.0
290
     0
  0
SCALE
  5
4C
102
{ACAD_REACTORS
330
47
102
}
330
47
100
AcDbScale
 70
     0
300
1:8
140
1.0
141
8.0
290
     0
  0
SCALE
  5
4D
102
{ACAD_REACTORS
330
47
102
}
330
47
100
AcDbScale
 70
     0
300
1:10
140
1.0
141
10.0
290
     0
  0
SCALE
  5
4E
102
{ACAD_REACTORS
330
47
102
}
330
47
100
AcDbScale
 70
     0
300
1:16
140
1.0
141
16.0
290
     0
  0
SCALE
  5
4F
102
{ACAD_REACTORS
330
47
102
}
330
47
100
AcDbScale
 70
     0
300
1:20
140
1.0
141
20.0
290
     0
  0
SCALE
  5
50
102
{ACAD_REACTORS
330
47
102
}
330
47
100
AcDbScale
 70
     0
300
1:30
140
1.0
141
30.0
290
     0
  0
SCALE
  5
51
102
{ACAD_REACTORS
330
47
102
}
330
47
100
AcDbScale
 70
     0
300
1:40
140
1.0
141
40.0
290
     0
  0
SCALE
  5
52
102
{ACAD_REACTORS
330
47
102
}
330
47
100
AcDbScale
 70
     0
300
1:50
140
1.0
141
50.0
290
     0
  0
SCALE
  5
53
102
{ACAD_REACTORS
330
47
102
}
330
47
100
AcDbScale
 70
     0
300
1:100
140
1.0
141
100.0
290
     0
  0
SCALE
  5
54
102
{ACAD_REACTORS
330
47
102
}
330
47
100
AcDbScale
 70
     0
300
2:1
140
2.0
141
1.0
290
     0
  0
SCALE
  5
55
102
{ACAD_REACTORS
330
47
102
}
330
47
100
AcDbScale
 70
     0
300
4:1
140
4.0
141
1.0
290
     0
  0
SCALE
  5
56
102
{ACAD_REACTORS
330
47
102
}
330
47
100
AcDbScale
 70
     0
300
8:1
140
8.0
141
1.0
290
     0
  0
SCALE
  5
57
102
{ACAD_REACTORS
330
47
102
}
330
47
100
AcDbScale
 70
     0
300
10:1
140
10.0
141
1.0
290
     0
  0
SCALE
  5
58
102
{ACAD_REACTORS
330
47
102
}
330
47
100
AcDbScale
 70
     0
300
100:1
140
100.0
141
1.0
290
     0
  0
SCALE
  5
59
102
{ACAD_REACTORS
330
47
102
}
330
47
100
AcDbScale
 70
     0
300
1/128" = 1'-0"
140
0.0078125
141
12.0
290
     0
  0
SCALE
  5
5A
102
{ACAD_REACTORS
330
47
102
}
330
47
100
AcDbScale
 70
     0
300
1/64" = 1'-0"
140
0.015625
141
12.0
290
     0
  0
SCALE
  5
5B
102
{ACAD_REACTORS
330
47
102
}
330
47
100
AcDbScale
 70
     0
300
1/32" = 1'-0"
140
0.03125
141
12.0
290
     0
  0
SCALE
  5
5C
102
{ACAD_REACTORS
330
47
102
}
330
47
100
AcDbScale
 70
     0
300
1/16" = 1'-0"
140
0.0625
141
12.0
290
     0
  0
SCALE
  5
5D
102
{ACAD_REACTORS
330
47
102
}
330
47
100
AcDbScale
 70
     0
300
3/32" = 1'-0"
140
0.09375
141
12.0
290
     0
  0
SCALE
  5
5E
102
{ACAD_REACTORS
330
47
102
}
330
47
100
AcDbScale
 70
     0
300
1/8" = 1'-0"
140
0.125
141
12.0
290
     0
  0
SCALE
  5
5F
102
{ACAD_REACTORS
330
47
102
}
330
47
100
AcDbScale
 70
     0
300
3/16" = 1'-0"
140
0.1875
141
12.0
290
     0
  0
SCALE
  5
60
102
{ACAD_REACTORS
330
47
102
}
330
47
100
AcDbScale
 70
     0
300
1/4" = 1'-0"
140
0.25
141
12.0
290
     0
  0
SCALE
  5
61
102
{ACAD_REACTORS
330
47
102
}
330
47
100
AcDbScale
 70
     0
300
3/8" = 1'-0"
140
0.375
141
12.0
290
     0
  0
SCALE
  5
62
102
{ACAD_REACTORS
330
47
102
}
330
47
100
AcDbScale
 70
     0
300
1/2" = 1'-0"
140
0.5
141
12.0
290
     0
  0
SCALE
  5
63
102
{ACAD_REACTORS
330
47
102
}
330
47
100
AcDbScale
 70
     0
300
3/4" = 1'-0"
140
0.75
141
12.0
290
     0
  0
SCALE
  5
64
102
{ACAD_REACTORS
330
47
102
}
330
47
100
AcDbScale
 70
     0
300
1" = 1'-0"
140
1.0
141
12.0
290
     0
  0
SCALE
  5
65
102
{ACAD_REACTORS
330
47
102
}
330
47
100
AcDbScale
 70
     0
300
1-1/2" = 1'-0"
140
1.5
141
12.0
290
     0
  0
SCALE
  5
66
102
{ACAD_REACTORS
330
47
102
}
330
47
100
AcDbScale
 70
     0
300
3" = 1'-0"
140
3.0
141
12.0
290
     0
  0
SCALE
  5
67
102
{ACAD_REACTORS
330
47
102
}
330
47
100
AcDbScale
 70
     0
300
6" = 1'-0"
140
6.0
141
12.0
290
     0
  0
SCALE
  5
68
102
{ACAD_REACTORS
330
47
102
}
330
47
100
AcDbScale
 70
     0
300
1'-0" = 1'-0"
140
12.0
141
12.0
290
     0
  0
ENDSEC
  0
EOF
