  0
SECTION
  2
HEADER
  9
$ACADVER
  1
AC1015
  9
$ACADMAINTVER
 70
     6
  9
$DWGCODEPAGE
  3
DOS932
  9
$INSBASE
 10
0.0
 20
0.0
 30
0.0
  9
$EXTMIN
 10
0.0
 20
0.0
 30
0.0
  9
$EXTMAX
 10
863.6
 20
558.8
 30
0.0
  9
$LIMMIN
 10
0.0
 20
0.0
  9
$LIMMAX
 10
863.6
 20
558.8
  9
$ORTHOMODE
 70
     0
  9
$REGENMODE
 70
     1
  9
$FILLMODE
 70
     1
  9
$QTEXTMODE
 70
     0
  9
$MIRRTEXT
 70
     1
  9
$LTSCALE
 40
2.0
  9
$ATTMODE
 70
     1
  9
$TEXTSIZE
 40
7.0
  9
$TRACEWID
 40
1.0
  9
$TEXTSTYLE
  7
Standard
  9
$CLAYER
  8
0
  9
$CELTYPE
  6
ByLayer
  9
$CECOLOR
 62
   256
  9
$CELTSCALE
 40
1.0
  9
$DISPSILH
 70
     0
  9
$DIMSCALE
 40
1.0
  9
$DIMASZ
 40
6.604
  9
$DIMEXO
 40
2.0
  9
$DIMDLI
 40
3.75
  9
$DIMRND
 40
0.0
  9
$DIMDLE
 40
0.0
  9
$DIMEXE
 40
2.0
  9
$DIMTP
 40
0.0
  9
$DIMTM
 40
0.0
  9
$DIMTXT
 40
7.0
  9
$DIMCEN
 40
2.5
  9
$DIMTSZ
 40
0.0
  9
$DIMTOL
 70
     0
  9
$DIMLIM
 70
     0
  9
$DIMTIH
 70
     1
  9
$DIMTOH
 70
     1
  9
$DIMSE1
 70
     0
  9
$DIMSE2
 70
     0
  9
$DIMTAD
 70
     1
  9
$DIMZIN
 70
     1
  9
$DIMBLK
  1

  9
$DIMASO
 70
     1
  9
$DIMSHO
 70
     1
  9
$DIMPOST
  1

  9
$DIMAPOST
  1

  9
$DIMALT
 70
     0
  9
$DIMALTD
 70
     3
  9
$DIMALTF
 40
0.0393700787
  9
$DIMLFAC
 40
1.0
  9
$DIMTOFL
 70
     1
  9
$DIMTVP
 40
0.0
  9
$DIMTIX
 70
     0
  9
$DIMSOXD
 70
     0
  9
$DIMSAH
 70
     0
  9
$DIMBLK1
  1

  9
$DIMBLK2
  1

  9
$DIMSTYLE
  2
ISO-25
  9
$DIMCLRD
 70
     0
  9
$DIMCLRE
 70
     0
  9
$DIMCLRT
 70
     0
  9
$DIMTFAC
 40
1.0
  9
$DIMGAP
 40
3.048
  9
$DIMJUST
 70
     0
  9
$DIMSD1
 70
     0
  9
$DIMSD2
 70
     0
  9
$DIMTOLJ
 70
     0
  9
$DIMTZIN
 70
     1
  9
$DIMALTZ
 70
     0
  9
$DIMALTTZ
 70
     0
  9
$DIMUPT
 70
     0
  9
$DIMDEC
 70
     2
  9
$DIMTDEC
 70
     2
  9
$DIMALTU
 70
     2
  9
$DIMALTTD
 70
     3
  9
$DIMTXSTY
  7
Standard
  9
$DIMAUNIT
 70
     0
  9
$DIMADEC
 70
     2
  9
$DIMALTRND
 40
0.0
  9
$DIMAZIN
 70
     0
  9
$DIMDSEP
 70
    44
  9
$DIMATFIT
 70
     3
  9
$DIMFRAC
 70
     0
  9
$DIMLDRBLK
  1

  9
$DIMLUNIT
 70
     2
  9
$DIMLWD
 70
    -2
  9
$DIMLWE
 70
    -2
  9
$DIMTMOVE
 70
     0
  9
$LUNITS
 70
     2
  9
$LUPREC
 70
     2
  9
$SKETCHINC
 40
1.0
  9
$FILLETRAD
 40
10.0
  9
$AUNITS
 70
     0
  9
$AUPREC
 70
     2
  9
$MENU
  1
.
  9
$ELEVATION
 40
0.0
  9
$PELEVATION
 40
0.0
  9
$THICKNESS
 40
0.0
  9
$LIMCHECK
 70
     0
  9
$CHAMFERA
 40
0.0
  9
$CHAMFERB
 40
0.0
  9
$CHAMFERC
 40
0.0
  9
$CHAMFERD
 40
0.0
  9
$SKPOLY
 70
     0
  9
$TDCREATE
 40
2460084.759556111
  9
$TDUCREATE
 40
2460084.384556111
  9
$TDUPDATE
 40
2460084.75955662
  9
$TDUUPDATE
 40
2460084.38455662
  9
$TDINDWG
 40
0.0000000116
  9
$TDUSRTIMER
 40
0.0000000116
  9
$USRTIMER
 70
     1
  9
$ANGBASE
 50
0.0
  9
$ANGDIR
 70
     0
  9
$PDMODE
 70
     0
  9
$PDSIZE
 40
-1.0
  9
$PLINEWID
 40
0.0
  9
$SPLFRAME
 70
     0
  9
$SPLINETYPE
 70
     6
  9
$SPLINESEGS
 70
     8
  9
$HANDSEED
  5
146
  9
$SURFTAB1
 70
     6
  9
$SURFTAB2
 70
     6
  9
$SURFTYPE
 70
     6
  9
$SURFU
 70
     6
  9
$SURFV
 70
     6
  9
$UCSBASE
  2

  9
$UCSNAME
  2

  9
$UCSORG
 10
0.0
 20
0.0
 30
0.0
  9
$UCSXDIR
 10
1.0
 20
0.0
 30
0.0
  9
$UCSYDIR
 10
0.0
 20
1.0
 30
0.0
  9
$UCSORTHOREF
  2

  9
$UCSORTHOVIEW
 70
     0
  9
$UCSORGTOP
 10
0.0
 20
0.0
 30
0.0
  9
$UCSORGBOTTOM
 10
0.0
 20
0.0
 30
0.0
  9
$UCSORGLEFT
 10
0.0
 20
0.0
 30
0.0
  9
$UCSORGRIGHT
 10
0.0
 20
0.0
 30
0.0
  9
$UCSORGFRONT
 10
0.0
 20
0.0
 30
0.0
  9
$UCSORGBACK
 10
0.0
 20
0.0
 30
0.0
  9
$PUCSBASE
  2

  9
$PUCSNAME
  2

  9
$PUCSORG
 10
0.0
 20
0.0
 30
0.0
  9
$PUCSXDIR
 10
1.0
 20
0.0
 30
0.0
  9
$PUCSYDIR
 10
0.0
 20
1.0
 30
0.0
  9
$PUCSORTHOREF
  2

  9
$PUCSORTHOVIEW
 70
     0
  9
$PUCSORGTOP
 10
0.0
 20
0.0
 30
0.0
  9
$PUCSORGBOTTOM
 10
0.0
 20
0.0
 30
0.0
  9
$PUCSORGLEFT
 10
0.0
 20
0.0
 30
0.0
  9
$PUCSORGRIGHT
 10
0.0
 20
0.0
 30
0.0
  9
$PUCSORGFRONT
 10
0.0
 20
0.0
 30
0.0
  9
$PUCSORGBACK
 10
0.0
 20
0.0
 30
0.0
  9
$USERI1
 70
     0
  9
$USERI2
 70
     0
  9
$USERI3
 70
     0
  9
$USERI4
 70
     0
  9
$USERI5
 70
     0
  9
$USERR1
 40
0.0
  9
$USERR2
 40
0.0
  9
$USERR3
 40
0.0
  9
$USERR4
 40
0.0
  9
$USERR5
 40
0.0
  9
$WORLDVIEW
 70
     1
  9
$SHADEDGE
 70
     3
  9
$SHADEDIF
 70
    70
  9
$TILEMODE
 70
     1
  9
$MAXACTVP
 70
    64
  9
$PINSBASE
 10
0.0
 20
0.0
 30
0.0
  9
$PLIMCHECK
 70
     0
  9
$PEXTMIN
 10
1.0000000000E+20
 20
1.0000000000E+20
 30
1.0000000000E+20
  9
$PEXTMAX
 10
-1.0000000000E+20
 20
-1.0000000000E+20
 30
-1.0000000000E+20
  9
$PLIMMIN
 10
0.0
 20
0.0
  9
$PLIMMAX
 10
420.0
 20
297.0
  9
$UNITMODE
 70
     0
  9
$VISRETAIN
 70
     1
  9
$PLINEGEN
 70
     0
  9
$PSLTSCALE
 70
     1
  9
$TREEDEPTH
 70
  3020
  9
$CMLSTYLE
  2
Standard
  9
$CMLJUST
 70
     0
  9
$CMLSCALE
 40
20.0
  9
$PROXYGRAPHICS
 70
     1
  9
$MEASUREMENT
 70
     1
  9
$CELWEIGHT
370
    -1
  9
$ENDCAPS
280
     0
  9
$JOINSTYLE
280
     0
  9
$LWDISPLAY
290
     1
  9
$INSUNITS
 70
     4
  9
$HYPERLINKBASE
  1

  9
$STYLESHEET
  1

  9
$XEDIT
290
     1
  9
$CEPSNTYPE
380
     0
  9
$PSTYLEMODE
290
     1
  9
$FINGERPRINTGUID
  2
{F472AF7B-BF76-4F63-833C-3C85B084A4A8}
  9
$VERSIONGUID
  2
{FAEB1C32-E019-11D5-929B-00C0DF256EC4}
  9
$EXTNAMES
290
     1
  9
$PSVPSCALE
 40
0.0
  9
$OLESTARTUP
290
     0
  0
ENDSEC
  0
SECTION
  2
CLASSES
  0
CLASS
  1
ACDBDICTIONARYWDFLT
  2
AcDbDictionaryWithDefault
  3
ObjectDBX Classes
 90
        0
280
     0
281
     0
  0
CLASS
  1
VISUALSTYLE
  2
AcDbVisualStyle
  3
ObjectDBX Classes
 90
     4095
280
     0
281
     0
  0
CLASS
  1
MATERIAL
  2
AcDbMaterial
  3
ObjectDBX Classes
 90
     1153
280
     0
281
     0
  0
CLASS
  1
SCALE
  2
AcDbScale
  3
ObjectDBX Classes
 90
     1153
280
     0
281
     0
  0
CLASS
  1
TABLESTYLE
  2
AcDbTableStyle
  3
ObjectDBX Classes
 90
     4095
280
     0
281
     0
  0
CLASS
  1
MLEADERSTYLE
  2
AcDbMLeaderStyle
  3
ACDB_MLEADERSTYLE_CLASS
 90
     4095
280
     0
281
     0
  0
CLASS
  1
SUN
  2
AcDbSun
  3
SCENEOE
 90
     1153
280
     0
281
     0
  0
CLASS
  1
ACDBPLACEHOLDER
  2
AcDbPlaceHolder
  3
ObjectDBX Classes
 90
        0
280
     0
281
     0
  0
CLASS
  1
LAYOUT
  2
AcDbLayout
  3
ObjectDBX Classes
 90
        0
280
     0
281
     0
  0
ENDSEC
  0
SECTION
  2
TABLES
  0
TABLE
  2
VPORT
  5
8
330
0
100
AcDbSymbolTable
 70
     1
  0
VPORT
  5
29
330
8
100
AcDbSymbolTableRecord
100
AcDbViewportTableRecord
  2
*Active
 70
     0
 10
0.0
 20
0.0
 11
1.0
 21
1.0
 12
431.8
 22
279.4
 13
0.0
 23
0.0
 14
10.0
 24
10.0
 15
10.0
 25
10.0
 16
0.0
 26
0.0
 36
1.0
 17
0.0
 27
0.0
 37
0.0
 40
558.8
 41
1.5454545455
 42
50.0
 43
0.0
 44
0.0
 50
0.0
 51
0.0
 71
     0
 72
  2000
 73
     1
 74
     3
 75
     0
 76
     0
 77
     0
 78
     0
281
     0
 65
     1
110
0.0
120
0.0
130
0.0
111
1.0
121
0.0
131
0.0
112
0.0
122
1.0
132
0.0
 79
     0
146
0.0
  0
ENDTAB
  0
TABLE
  2
LTYPE
  5
5
330
0
100
AcDbSymbolTable
 70
     6
  0
LTYPE
  5
14
330
5
100
AcDbSymbolTableRecord
100
AcDbLinetypeTableRecord
  2
ByBlock
 70
     0
  3

 72
    65
 73
     0
 40
0.0
  0
LTYPE
  5
15
330
5
100
AcDbSymbolTableRecord
100
AcDbLinetypeTableRecord
  2
ByLayer
 70
     0
  3

 72
    65
 73
     0
 40
0.0
  0
LTYPE
  5
16
330
5
100
AcDbSymbolTableRecord
100
AcDbLinetypeTableRecord
  2
Continuous
 70
     0
  3
Solid line
 72
    65
 73
     0
 40
0.0
  0
LTYPE
  5
6E
330
5
100
AcDbSymbolTableRecord
100
AcDbLinetypeTableRecord
  2
HIDDEN
 70
     0
  3
Hidden __ __ __ __ __ __ __ __ __ __ __ __ __ __
 72
    65
 73
     2
 40
1.905
 49
1.27
 74
     0
 49
-0.635
 74
     0
  0
LTYPE
  5
6F
330
5
100
AcDbSymbolTableRecord
100
AcDbLinetypeTableRecord
  2
PHANTOM
 70
     0
  3
Phantom ______  __  __  ______  __  __  ______
 72
    65
 73
     6
 40
12.7
 49
6.35
 74
     0
 49
-1.27
 74
     0
 49
1.27
 74
     0
 49
-1.27
 74
     0
 49
1.27
 74
     0
 49
-1.27
 74
     0
  0
LTYPE
  5
70
330
5
100
AcDbSymbolTableRecord
100
AcDbLinetypeTableRecord
  2
CENTER
 70
     0
  3
Center ____ _ ____ _ ____ _ ____ _ ____ _ ____
 72
    65
 73
     4
 40
10.16
 49
6.35
 74
     0
 49
-1.27
 74
     0
 49
1.27
 74
     0
 49
-1.27
 74
     0
  0
LTYPE
  5
71
330
5
100
AcDbSymbolTableRecord
100
AcDbLinetypeTableRecord
  2
CENTERX2
 70
     0
  3
Center (2x) ________  __  ________  __  _____
 72
    65
 73
     4
 40
20.32
 49
12.7
 74
     0
 49
-2.54
 74
     0
 49
2.54
 74
     0
 49
-2.54
 74
     0
  0
LTYPE
  5
72
330
5
100
AcDbSymbolTableRecord
100
AcDbLinetypeTableRecord
  2
DOT2
 70
     0
  3
Dot (.5x) ........................................
 72
    65
 73
     2
 40
0.635
 49
0.0
 74
     0
 49
-0.635
 74
     0
  0
ENDTAB
  0
TABLE
  2
LAYER
  5
2
330
0
100
AcDbSymbolTable
 70
     1
  0
LAYER
  5
10
330
2
100
AcDbSymbolTableRecord
100
AcDbLayerTableRecord
  2
0
 70
     0
 62
     7
  6
Continuous
370
    -3
390
F
  0
ENDTAB
  0
TABLE
  2
STYLE
  5
3
330
0
100
AcDbSymbolTable
 70
     2
  0
STYLE
  5
11
330
3
100
AcDbSymbolTableRecord
100
AcDbTextStyleTableRecord
  2
Standard
 70
     0
 40
0.0
 41
1.0
 50
0.0
 71
     0
 42
7.0
  3
txt
  4
bigfont
  0
STYLE
  5
73
330
3
100
AcDbSymbolTableRecord
100
AcDbTextStyleTableRecord
  2
SLDTEXTSTYLE0
 70
     0
 40
0.0
 41
0.7
 50
0.0
 71
     0
 42
7.0
  3
TXT
  4
bigfont
  0
ENDTAB
  0
TABLE
  2
VIEW
  5
6
330
0
100
AcDbSymbolTable
 70
     0
  0
ENDTAB
  0
TABLE
  2
UCS
  5
7
330
0
100
AcDbSymbolTable
 70
     0
  0
ENDTAB
  0
TABLE
  2
APPID
  5
9
330
0
100
AcDbSymbolTable
 70
     1
  0
APPID
  5
12
330
9
100
AcDbSymbolTableRecord
100
AcDbRegAppTableRecord
  2
ACAD
 70
     0
  0
ENDTAB
  0
TABLE
  2
DIMSTYLE
  5
A
330
0
100
AcDbSymbolTable
 70
     1
100
AcDbDimStyleTable
  0
DIMSTYLE
105
27
330
A
100
AcDbSymbolTableRecord
100
AcDbDimStyleTableRecord
  2
ISO-25
 70
     0
 41
2.5
 42
0.625
 43
3.75
 44
1.25
 73
     0
 74
     0
 77
     1
 78
     8
140
2.5
141
2.5
143
0.0393700787
147
0.625
171
     3
172
     1
178
     0
271
     2
272
     2
274
     3
278
    44
283
     0
284
     8
340
11
  0
ENDTAB
  0
TABLE
  2
BLOCK_RECORD
  5
1
330
0
100
AcDbSymbolTable
 70
     3
  0
BLOCK_RECORD
  5
1F
330
1
100
AcDbSymbolTableRecord
100
AcDbBlockTableRecord
  2
*Model_Space
340
22
  0
BLOCK_RECORD
  5
1B
330
1
100
AcDbSymbolTableRecord
100
AcDbBlockTableRecord
  2
*Paper_Space
340
1E
  0
BLOCK_RECORD
  5
23
330
1
100
AcDbSymbolTableRecord
100
AcDbBlockTableRecord
  2
*Paper_Space0
340
26
  0
BLOCK_RECORD
  5
EF
330
1
100
AcDbSymbolTableRecord
100
AcDbBlockTableRecord
  2
SW_CENTERMARKSYMBOL_0
340
0
102
{BLKREFS
331
FA
102
}
  0
BLOCK_RECORD
  5
FB
330
1
100
AcDbSymbolTableRecord
100
AcDbBlockTableRecord
  2
SW_CENTERMARKSYMBOL_1
340
0
102
{BLKREFS
331
106
102
}
  0
ENDTAB
  0
ENDSEC
  0
SECTION
  2
BLOCKS
  0
BLOCK
  5
20
330
1F
100
AcDbEntity
  8
0
100
AcDbBlockBegin
  2
*Model_Space
 70
     0
 10
0.0
 20
0.0
 30
0.0
  3
*Model_Space
  1

  0
ENDBLK
  5
21
330
1F
100
AcDbEntity
  8
0
100
AcDbBlockEnd
  0
BLOCK
  5
1C
330
1B
100
AcDbEntity
 67
     1
  8
0
100
AcDbBlockBegin
  2
*Paper_Space
 70
     0
 10
0.0
 20
0.0
 30
0.0
  3
*Paper_Space
  1

  0
ENDBLK
  5
1D
330
1B
100
AcDbEntity
 67
     1
  8
0
100
AcDbBlockEnd
  0
BLOCK
  5
24
330
23
100
AcDbEntity
  8
0
100
AcDbBlockBegin
  2
*Paper_Space0
 70
     0
 10
0.0
 20
0.0
 30
0.0
  3
*Paper_Space0
  1

  0
ENDBLK
  5
25
330
23
100
AcDbEntity
  8
0
100
AcDbBlockEnd
  0
BLOCK
  5
F0
330
EF
100
AcDbEntity
  8
0
100
AcDbBlockBegin
  2
SW_CENTERMARKSYMBOL_0
 70
     0
 10
0.0
 20
0.0
 30
0.0
  3
SW_CENTERMARKSYMBOL_0
  1

  0
LINE
  5
F2
330
EF
100
AcDbEntity
  8
0
  6
Continuous
 62
     0
370
    18
100
AcDbLine
 10
0.0
 20
0.0
 30
0.0
 11
0.0
 21
2.5
 31
0.0
  0
LINE
  5
F3
330
EF
100
AcDbEntity
  8
0
  6
Continuous
 62
     0
370
    18
100
AcDbLine
 10
0.0
 20
0.0
 30
0.0
 11
-2.5
 21
0.0
 31
0.0
  0
LINE
  5
F4
330
EF
100
AcDbEntity
  8
0
  6
Continuous
 62
     0
370
    18
100
AcDbLine
 10
0.0
 20
0.0
 30
0.0
 11
0.0
 21
-2.5
 31
0.0
  0
LINE
  5
F5
330
EF
100
AcDbEntity
  8
0
  6
Continuous
 62
     0
370
    18
100
AcDbLine
 10
0.0
 20
0.0
 30
0.0
 11
2.5
 21
0.0
 31
0.0
  0
LINE
  5
F6
330
EF
100
AcDbEntity
  8
0
  6
Continuous
 62
     0
370
    18
100
AcDbLine
 10
0.0
 20
5.0
 30
0.0
 11
0.0
 21
36.0
 31
0.0
  0
LINE
  5
F7
330
EF
100
AcDbEntity
  8
0
  6
Continuous
 62
     0
370
    18
100
AcDbLine
 10
-5.0
 20
0.0
 30
0.0
 11
-36.0
 21
0.0
 31
0.0
  0
LINE
  5
F8
330
EF
100
AcDbEntity
  8
0
  6
Continuous
 62
     0
370
    18
100
AcDbLine
 10
0.0
 20
-5.0
 30
0.0
 11
0.0
 21
-36.0
 31
0.0
  0
LINE
  5
F9
330
EF
100
AcDbEntity
  8
0
  6
Continuous
 62
     0
370
    18
100
AcDbLine
 10
5.0
 20
0.0
 30
0.0
 11
36.0
 21
0.0
 31
0.0
  0
ENDBLK
  5
F1
330
EF
100
AcDbEntity
  8
0
100
AcDbBlockEnd
  0
BLOCK
  5
FC
330
FB
100
AcDbEntity
  8
0
100
AcDbBlockBegin
  2
SW_CENTERMARKSYMBOL_1
 70
     0
 10
0.0
 20
0.0
 30
0.0
  3
SW_CENTERMARKSYMBOL_1
  1

  0
LINE
  5
FE
330
FB
100
AcDbEntity
  8
0
  6
Continuous
 62
     0
370
    18
100
AcDbLine
 10
0.0
 20
0.0
 30
0.0
 11
0.0
 21
2.5
 31
0.0
  0
LINE
  5
FF
330
FB
100
AcDbEntity
  8
0
  6
Continuous
 62
     0
370
    18
100
AcDbLine
 10
0.0
 20
0.0
 30
0.0
 11
-2.5
 21
0.0
 31
0.0
  0
LINE
  5
100
330
FB
100
AcDbEntity
  8
0
  6
Continuous
 62
     0
370
    18
100
AcDbLine
 10
0.0
 20
0.0
 30
0.0
 11
0.0
 21
-2.5
 31
0.0
  0
LINE
  5
101
330
FB
100
AcDbEntity
  8
0
  6
Continuous
 62
     0
370
    18
100
AcDbLine
 10
0.0
 20
0.0
 30
0.0
 11
2.5
 21
0.0
 31
0.0
  0
LINE
  5
102
330
FB
100
AcDbEntity
  8
0
  6
Continuous
 62
     0
370
    18
100
AcDbLine
 10
0.0
 20
5.0
 30
0.0
 11
0.0
 21
48.25
 31
0.0
  0
LINE
  5
103
330
FB
100
AcDbEntity
  8
0
  6
Continuous
 62
     0
370
    18
100
AcDbLine
 10
-5.0
 20
0.0
 30
0.0
 11
-48.25
 21
0.0
 31
0.0
  0
LINE
  5
104
330
FB
100
AcDbEntity
  8
0
  6
Continuous
 62
     0
370
    18
100
AcDbLine
 10
0.0
 20
-5.0
 30
0.0
 11
0.0
 21
-48.25
 31
0.0
  0
LINE
  5
105
330
FB
100
AcDbEntity
  8
0
  6
Continuous
 62
     0
370
    18
100
AcDbLine
 10
5.0
 20
0.0
 30
0.0
 11
48.25
 21
0.0
 31
0.0
  0
ENDBLK
  5
FD
330
FB
100
AcDbEntity
  8
0
100
AcDbBlockEnd
  0
ENDSEC
  0
SECTION
  2
ENTITIES
  0
MTEXT
  5
74
330
1F
100
AcDbEntity
  8
0
  6
Continuous
 62
     7
370
     0
100
AcDbMText
 10
492.970454265
 20
281.9624543621
 30
0.0
 40
8.4666666667
 41
0.0
 71
     1
 72
     1
  1
メガニップル　HN-8078
  7
SLDTEXTSTYLE0
 73
     1
 44
1.0
  0
LINE
  5
75
330
1F
100
AcDbEntity
  8
0
  6
Continuous
 62
     7
370
    25
100
AcDbLine
 10
426.8306909944
 20
161.3442499398
 30
0.0
 11
426.9750285617
 21
161.5942499398
 31
0.0
  0
LINE
  5
76
330
1F
100
AcDbEntity
  8
0
  6
Continuous
 62
     7
370
    25
100
AcDbLine
 10
426.9750285617
 20
253.0942499398
 30
0.0
 11
426.8306909944
 21
253.3442499398
 31
0.0
  0
LINE
  5
77
330
1F
100
AcDbEntity
  8
0
  6
Continuous
 62
     7
370
    25
100
AcDbLine
 10
412.119366129
 20
253.3442499398
 30
0.0
 11
411.9750285617
 21
253.0942499398
 31
0.0
  0
LINE
  5
78
330
1F
100
AcDbEntity
  8
0
  6
Continuous
 62
     7
370
    25
100
AcDbLine
 10
411.9750285617
 20
161.5942499398
 30
0.0
 11
412.119366129
 21
161.3442499398
 31
0.0
  0
LINE
  5
79
330
1F
100
AcDbEntity
  8
0
  6
Continuous
 62
     7
370
    25
100
AcDbLine
 10
411.9750285617
 20
251.7349999398
 30
0.0
 11
378.9740527139
 21
250.7037194446
 31
0.0
  0
LINE
  5
7A
330
1F
100
AcDbEntity
  8
0
  6
Continuous
 62
     7
370
    25
100
AcDbLine
 10
378.9740527139
 20
163.9847804351
 30
0.0
 11
411.9750285617
 21
162.9534999398
 31
0.0
  0
LINE
  5
7B
330
1F
100
AcDbEntity
  8
0
  6
Continuous
 62
     7
370
    25
100
AcDbLine
 10
378.9740527139
 20
250.7037194446
 30
0.0
 11
376.9750285617
 21
248.5757259923
 31
0.0
  0
LINE
  5
7C
330
1F
100
AcDbEntity
  8
0
  6
Continuous
 62
     7
370
    25
100
AcDbLine
 10
376.9750285617
 20
166.1127738874
 30
0.0
 11
378.9740527139
 21
163.9847804351
 31
0.0
  0
LINE
  5
7D
330
1F
100
AcDbEntity
  8
0
  6
Continuous
 62
     7
370
    25
100
AcDbLine
 10
445.9750285617
 20
246.3442499398
 30
0.0
 11
426.9750285617
 21
246.3442499398
 31
0.0
  0
LINE
  5
7E
330
1F
100
AcDbEntity
  8
0
  6
Continuous
 62
     7
370
    25
100
AcDbLine
 10
426.9750285617
 20
168.3442499398
 30
0.0
 11
445.9750285617
 21
168.3442499398
 31
0.0
  0
LINE
  5
7F
330
1F
100
AcDbEntity
  8
0
  6
Continuous
 62
     7
370
    25
100
AcDbLine
 10
445.9750285617
 20
168.3442499398
 30
0.0
 11
457.9750285617
 21
169.3442499398
 31
0.0
  0
LINE
  5
80
330
1F
100
AcDbEntity
  8
0
  6
Continuous
 62
     7
370
    25
100
AcDbLine
 10
457.9750285617
 20
245.3442499398
 30
0.0
 11
445.9750285617
 21
246.3442499398
 31
0.0
  0
LINE
  5
81
330
1F
100
AcDbEntity
  8
0
  6
Continuous
 62
     7
370
    25
100
AcDbLine
 10
493.9750285617
 20
168.3442499398
 30
0.0
 11
505.59007331
 21
169.2377149205
 31
0.0
  0
LINE
  5
82
330
1F
100
AcDbEntity
  8
0
  6
Continuous
 62
     7
370
    25
100
AcDbLine
 10
505.59007331
 20
245.4507849592
 30
0.0
 11
493.9750285617
 21
246.3442499398
 31
0.0
  0
LINE
  5
83
330
1F
100
AcDbEntity
  8
0
  6
Continuous
 62
     7
370
    25
100
AcDbLine
 10
481.9750285617
 20
168.3442499398
 30
0.0
 11
493.9750285617
 21
169.3442499398
 31
0.0
  0
LINE
  5
84
330
1F
100
AcDbEntity
  8
0
  6
Continuous
 62
     7
370
    25
100
AcDbLine
 10
493.9750285617
 20
245.3442499398
 30
0.0
 11
481.9750285617
 21
246.3442499398
 31
0.0
  0
LINE
  5
85
330
1F
100
AcDbEntity
  8
0
  6
Continuous
 62
     7
370
    25
100
AcDbLine
 10
469.9750285617
 20
168.3442499398
 30
0.0
 11
481.9750285617
 21
169.3442499398
 31
0.0
  0
LINE
  5
86
330
1F
100
AcDbEntity
  8
0
  6
Continuous
 62
     7
370
    25
100
AcDbLine
 10
481.9750285617
 20
245.3442499398
 30
0.0
 11
469.9750285617
 21
246.3442499398
 31
0.0
  0
LINE
  5
87
330
1F
100
AcDbEntity
  8
0
  6
Continuous
 62
     7
370
    25
100
AcDbLine
 10
457.9750285617
 20
168.3442499398
 30
0.0
 11
469.9750285617
 21
169.3442499398
 31
0.0
  0
LINE
  5
88
330
1F
100
AcDbEntity
  8
0
  6
Continuous
 62
     7
370
    25
100
AcDbLine
 10
469.9750285617
 20
245.3442499398
 30
0.0
 11
457.9750285617
 21
246.3442499398
 31
0.0
  0
ARC
  5
89
330
1F
100
AcDbEntity
  8
0
  6
Continuous
 62
     7
370
    25
100
AcDbCircle
 10
505.4750285617
 20
243.9552032309
 30
0.0
 40
1.499999999999977
100
AcDbArc
 50
0.0
 51
85.601294645
  0
ARC
  5
8A
330
1F
100
AcDbEntity
  8
0
  6
Continuous
 62
     7
370
    25
100
AcDbCircle
 10
505.4750285617
 20
170.7332966487
 30
0.0
 40
1.500000000000005
100
AcDbArc
 50
274.398705355
 51
0.0
  0
LINE
  5
8B
330
1F
100
AcDbEntity
  8
0
  6
Continuous
 62
     7
370
    25
100
AcDbLine
 10
424.7331752366
 20
225.9838602466
 30
0.0
 11
414.2168818868
 21
225.9838602466
 31
0.0
  0
SPLINE
  5
8C
330
1F
100
AcDbEntity
  8
0
  6
Continuous
 62
     7
370
    25
100
AcDbSpline
210
0.0
220
0.0
230
1.0
 70
     8
 71
     3
 72
    18
 73
    14
 74
     0
 42
0.000000001
 43
0.00000001
 40
0.0
 40
0.0
 40
0.0
 40
0.0
 40
0.125
 40
0.125
 40
0.2499999999999999
 40
0.2499999999999999
 40
0.5
 40
0.5
 40
0.75
 40
0.75
 40
0.875
 40
0.875
 40
1.0
 40
1.0
 40
1.0
 40
1.0
 10
424.7331752365576
 20
188.7046396330495
 30
0.0
 10
425.0653350760048
 20
190.2365786627443
 30
0.0
 10
425.3650479089679
 20
191.7813777353688
 30
0.0
 10
425.8878575011417
 20
194.8896744008332
 30
0.0
 10
426.1094939252373
 20
196.4444470672686
 30
0.0
 10
426.6458168832622
 20
201.1107837755574
 30
0.0
 10
426.830559504111
 20
204.2243878396797
 30
0.0
 10
426.8308223429866
 20
210.4573924835601
 30
0.0
 10
426.6463032310346
 20
213.5767936807695
 30
0.0
 10
426.1074688351894
 20
218.2600095555578
 30
0.0
 10
425.8837556992235
 20
219.8253450777688
 30
0.0
 10
425.3620032423811
 20
222.9230615097159
 30
0.0
 10
425.0637901181761
 20
224.4590466454648
 30
0.0
 10
424.7331752365578
 20
225.9838602466272
 30
0.0
  0
LINE
  5
8D
330
1F
100
AcDbEntity
  8
0
  6
Continuous
 62
     7
370
    25
100
AcDbLine
 10
414.2168818868
 20
188.704639633
 30
0.0
 11
424.7331752366
 21
188.704639633
 31
0.0
  0
SPLINE
  5
8E
330
1F
100
AcDbEntity
  8
0
  6
Continuous
 62
     7
370
    25
100
AcDbSpline
210
0.0
220
0.0
230
1.0
 70
     8
 71
     3
 72
    18
 73
    14
 74
     0
 42
0.000000001
 43
0.00000001
 40
0.0
 40
0.0
 40
0.0
 40
0.0
 40
0.125
 40
0.125
 40
0.25
 40
0.25
 40
0.5
 40
0.5
 40
0.75
 40
0.75
 40
0.875
 40
0.875
 40
1.0
 40
1.0
 40
1.0
 40
1.0
 10
414.2168818868129
 20
188.7046396330494
 30
0.0
 10
413.8847220473656
 20
190.2365786627445
 30
0.0
 10
413.5850092144025
 20
191.7813777353692
 30
0.0
 10
413.0621996222286
 20
194.8896744008341
 30
0.0
 10
412.8405631981331
 20
196.4444470672697
 30
0.0
 10
412.3042402401081
 20
201.1107837755592
 30
0.0
 10
412.1194976192594
 20
204.224387839682
 30
0.0
 10
412.119234780384
 20
210.4573924835634
 30
0.0
 10
412.3037538923363
 20
213.5767936807733
 30
0.0
 10
412.8425882881817
 20
218.2600095555624
 30
0.0
 10
413.0663014241478
 20
219.8253450777736
 30
0.0
 10
413.5880538809903
 20
222.9230615097211
 30
0.0
 10
413.8862670051955
 20
224.4590466454702
 30
0.0
 10
414.216881886814
 20
225.9838602466328
 30
0.0
  0
LINE
  5
8F
330
1F
100
AcDbEntity
  8
0
  6
Continuous
 62
     7
370
    25
100
AcDbLine
 10
419.6408939463
 20
204.9236922931
 30
0.0
 11
422.3788747155
 21
203.1328269085
 31
0.0
  0
SPLINE
  5
90
330
1F
100
AcDbEntity
  8
0
  6
Continuous
 62
     7
370
    25
100
AcDbSpline
210
0.0
220
0.0
230
1.0
 70
     8
 71
     3
 72
    19
 73
    15
 74
     0
 42
0.000000001
 43
0.00000001
 40
0.0
 40
0.0
 40
0.0
 40
0.0
 40
0.0978059775289525
 40
0.1996122522918966
 40
0.3052960258330041
 40
0.4158173591641854
 40
0.474240566618493
 40
0.5372869128296534
 40
0.6033858352934854
 40
0.6743111580696056
 40
0.749530467357482
 40
0.8286083142695116
 40
0.9120427387714447
 40
0.9999999999999999
 40
0.9999999999999999
 40
0.9999999999999999
 40
0.9999999999999999
 10
417.8981054847622
 20
205.5943653699976
 30
0.0
 10
417.9598737006155
 20
205.5921908871957
 30
0.0
 10
418.0859364730353
 20
205.5877529845169
 30
0.0
 10
418.2774143692849
 20
205.5612680926249
 30
0.0
 10
418.4725696220141
 20
205.5126915650287
 30
0.0
 10
418.6380078845982
 20
205.4601211451506
 30
0.0
 10
418.775020739819
 20
205.4079554193704
 30
0.0
 10
418.8832161722472
 20
205.3595861581035
 30
0.0
 10
418.9974740229563
 20
205.3055034303456
 30
0.0
 10
419.1156324209787
 20
205.2421109418688
 30
0.0
 10
419.2410674076704
 20
205.17490978827
 30
0.0
 10
419.3691337425371
 20
205.0964112148766
 30
0.0
 10
419.5045088035757
 20
205.0144967473552
 30
0.0
 10
419.5946394163824
 20
204.954488296681
 30
0.0
 10
419.6408939463007
 20
204.9236922930746
 30
0.0
  0
SPLINE
  5
91
330
1F
100
AcDbEntity
  8
0
  6
Continuous
 62
     7
370
    25
100
AcDbSpline
210
0.0
220
0.0
230
1.0
 70
     8
 71
     3
 72
    19
 73
    15
 74
     0
 42
0.000000001
 43
0.00000001
 40
0.0
 40
0.0
 40
0.0
 40
0.0
 40
0.0843261511037433
 40
0.1670353409858406
 40
0.2495407139852792
 40
0.3327066655796642
 40
0.4158726171740492
 40
0.4977774155681174
 40
0.5803136056784763
 40
0.6645325781316563
 40
0.7495711764063215
 40
0.8324741628544073
 40
0.9156738488962568
 40
1.0
 40
1.0
 40
1.0
 40
1.0
 10
416.0711824078391
 20
203.77705767769
 30
0.0
 10
416.0738021824997
 20
203.8577948943769
 30
0.0
 10
416.0789914974158
 20
204.0177211846562
 30
0.0
 10
416.1252189162271
 20
204.2529771756496
 30
0.0
 10
416.2001450118838
 20
204.4790289245229
 30
0.0
 10
416.303370868074
 20
204.6942874753446
 30
0.0
 10
416.4337506817999
 20
204.893706311272
 30
0.0
 10
416.5907334953525
 20
205.0720600449662
 30
0.0
 10
416.7708498083501
 20
205.2287281463324
 30
0.0
 10
416.9746521517148
 20
205.3584216156921
 30
0.0
 10
417.1922407166661
 20
205.4641221452277
 30
0.0
 10
417.4211911516447
 20
205.5386742572154
 30
0.0
 10
417.6568957382945
 20
205.5868873026369
 30
0.0
 10
417.817342614198
 20
205.5918615317607
 30
0.0
 10
417.8981054847622
 20
205.5943653699976
 30
0.0
  0
SPLINE
  5
92
330
1F
100
AcDbEntity
  8
0
  6
Continuous
 62
     7
370
    25
100
AcDbSpline
210
0.0
220
0.0
230
1.0
 70
     8
 71
     3
 72
    19
 73
    15
 74
     0
 42
0.000000001
 43
0.00000001
 40
0.0
 40
0.0
 40
0.0
 40
0.0
 40
0.0859901205637197
 40
0.1691084375726416
 40
0.2505285789581879
 40
0.332255696176845
 40
0.4135763652356403
 40
0.4941261456201217
 40
0.5763059341204171
 40
0.6607126719045474
 40
0.7461272722239105
 40
0.8300149859609744
 40
0.914419725928851
 40
1.0
 40
1.0
 40
1.0
 40
1.0
 10
417.9089227924545
 20
201.90205767769
 30
0.0
 10
417.82500749931
 20
201.9051888697025
 30
0.0
 10
417.6599794237697
 20
201.9113466816175
 30
0.0
 10
417.4186124272027
 20
201.9561729369506
 30
0.0
 10
417.1905128463193
 20
202.0335330381353
 30
0.0
 10
416.9747842874274
 20
202.1370315768567
 30
0.0
 10
416.7777033855645
 20
202.2713127926673
 30
0.0
 10
416.5995950974434
 20
202.4304434160893
 30
0.0
 10
416.4443475598378
 20
202.6159276763872
 30
0.0
 10
416.3111671644067
 20
202.8233732653319
 30
0.0
 10
416.2053555079359
 20
203.0478938165199
 30
0.0
 10
416.1271267905717
 20
203.2833109586234
 30
0.0
 10
416.0803831438521
 20
203.5276124729502
 30
0.0
 10
416.074263426844
 20
203.6935268150082
 30
0.0
 10
416.0711824078391
 20
203.77705767769
 30
0.0
  0
SPLINE
  5
93
330
1F
100
AcDbEntity
  8
0
  6
Continuous
 62
     7
370
    25
100
AcDbSpline
210
0.0
220
0.0
230
1.0
 70
     8
 71
     3
 72
    23
 73
    19
 74
     0
 42
0.000000001
 43
0.00000001
 40
0.0
 40
0.0
 40
0.0
 40
0.0
 40
0.0652308037420294
 40
0.1284048960032225
 40
0.1900670715964781
 40
0.2509433657682799
 40
0.311545832852143
 40
0.372862802156829
 40
0.4350236738562383
 40
0.4990717247070431
 40
0.563091075049662
 40
0.625510106330375
 40
0.6866800359296492
 40
0.7472825030135125
 40
0.8085634952159589
 40
0.8707421035159856
 40
0.9343409515059125
 40
1.0
 40
1.0
 40
1.0
 40
1.0
 10
419.6865670232237
 20
203.682105754613
 30
0.0
 10
419.6849279746024
 20
203.6211243323242
 30
0.0
 10
419.6817015561667
 20
203.5010842172568
 30
0.0
 10
419.6568720978379
 20
203.3248439849586
 30
0.0
 10
419.6177433345402
 20
203.1554915232903
 30
0.0
 10
419.5607051814861
 20
202.9937287594238
 30
0.0
 10
419.4878440025794
 20
202.838975076236
 30
0.0
 10
419.4005202249556
 20
202.6903423971928
 30
0.0
 10
419.2942247729156
 20
202.5506246655821
 30
0.0
 10
419.1754848487146
 20
202.418022644076
 30
0.0
 10
419.0439700181515
 20
202.2976333342595
 30
0.0
 10
418.9044248695126
 20
202.1910458104466
 30
0.0
 10
418.7569947878014
 20
202.1015141674739
 30
0.0
 10
418.6017544462014
 20
202.0288731589917
 30
0.0
 10
418.4389431440976
 20
201.9724647956811
 30
0.0
 10
418.2687691906889
 20
201.9313431184635
 30
0.0
 10
418.0911152396145
 20
201.907035245058
 30
0.0
 10
417.9702955105867
 20
201.9037344038322
 30
0.0
 10
417.9089227924545
 20
201.90205767769
 30
0.0
  0
SPLINE
  5
94
330
1F
100
AcDbEntity
  8
0
  6
Continuous
 62
     7
370
    25
100
AcDbSpline
210
0.0
220
0.0
230
1.0
 70
     8
 71
     3
 72
     9
 73
     5
 74
     0
 42
0.000000001
 43
0.00000001
 40
0.0
 40
0.0
 40
0.0
 40
0.0
 40
0.5126593363417812
 40
1.0
 40
1.0
 40
1.0
 40
1.0
 10
419.6288747155314
 20
204.3034999853822
 30
0.0
 10
419.6456984766518
 20
204.1979509391251
 30
0.0
 10
419.6785151249168
 20
203.9920655903664
 30
0.0
 10
419.6839287456855
 20
203.7836669071818
 30
0.0
 10
419.6865670232237
 20
203.682105754613
 30
0.0
  0
LINE
  5
95
330
1F
100
AcDbEntity
  8
0
  6
Continuous
 62
     7
370
    25
100
AcDbLine
 10
422.0531535617
 20
202.7181634469
 30
0.0
 11
419.6288747155
 21
204.3034999854
 31
0.0
  0
LINE
  5
96
330
1F
100
AcDbEntity
  8
0
  6
Continuous
 62
     7
370
    25
100
AcDbLine
 10
422.3788747155
 20
203.1328269085
 30
0.0
 11
422.0531535617
 21
202.7181634469
 31
0.0
  0
LINE
  5
97
330
1F
100
AcDbEntity
  8
0
  6
Continuous
 62
     7
370
    25
100
AcDbLine
 10
421.6096439463
 20
208.3427890061
 30
0.0
 11
422.2250285617
 21
207.9906255445
 31
0.0
  0
LINE
  5
98
330
1F
100
AcDbEntity
  8
0
  6
Continuous
 62
     7
370
    25
100
AcDbLine
 10
421.6096439463
 20
207.419712083
 30
0.0
 11
421.6096439463
 21
208.3427890061
 31
0.0
  0
LINE
  5
99
330
1F
100
AcDbEntity
  8
0
  6
Continuous
 62
     7
370
    25
100
AcDbLine
 10
416.2250285617
 20
207.419712083
 30
0.0
 11
421.6096439463
 21
207.419712083
 31
0.0
  0
LINE
  5
9A
330
1F
100
AcDbEntity
  8
0
  6
Continuous
 62
     7
370
    25
100
AcDbLine
 10
416.2250285617
 20
206.8812505445
 30
0.0
 11
416.2250285617
 21
207.419712083
 31
0.0
  0
LINE
  5
9B
330
1F
100
AcDbEntity
  8
0
  6
Continuous
 62
     7
370
    25
100
AcDbLine
 10
422.2250285617
 20
206.8812505445
 30
0.0
 11
416.2250285617
 21
206.8812505445
 31
0.0
  0
LINE
  5
9C
330
1F
100
AcDbEntity
  8
0
  6
Continuous
 62
     7
370
    25
100
AcDbLine
 10
422.2250285617
 20
207.9906255445
 30
0.0
 11
422.2250285617
 21
206.8812505445
 31
0.0
  0
SPLINE
  5
9D
330
1F
100
AcDbEntity
  8
0
  6
Continuous
 62
     7
370
    25
100
AcDbSpline
210
0.0
220
0.0
230
1.0
 70
     8
 71
     3
 72
    19
 73
    15
 74
     0
 42
0.000000001
 43
0.00000001
 40
0.0
 40
0.0
 40
0.0
 40
0.0
 40
0.1227280999764555
 40
0.2397165235883931
 40
0.3518621792202464
 40
0.4632019818032244
 40
0.5202611541541645
 40
0.5794324380306666
 40
0.640596344158637
 40
0.7052982290880201
 40
0.7732361059084535
 40
0.8446489293403158
 40
0.9200459817773698
 40
1.0
 40
1.0
 40
1.0
 40
1.0
 10
421.7634901001468
 20
210.9132893151616
 30
0.0
 10
421.7611095347556
 20
210.9816087179026
 30
0.0
 10
421.7564597368704
 20
211.1150524013122
 30
0.0
 10
421.7155901093498
 20
211.3073893757411
 30
0.0
 10
421.6508363976234
 20
211.4860080518574
 30
0.0
 10
421.5726464827706
 20
211.6220794521705
 30
0.0
 10
421.4957285533195
 20
211.722729871337
 30
0.0
 10
421.4295560587312
 20
211.7960326792765
 30
0.0
 10
421.3545300032305
 20
211.8667040949662
 30
0.0
 10
421.2685925065514
 20
211.9319709079628
 30
0.0
 10
421.1746986113807
 20
211.9957440439102
 30
0.0
 10
421.0723311851046
 20
212.0574145646873
 30
0.0
 10
420.9600307745852
 20
212.1150016117389
 30
0.0
 10
420.8810578890772
 20
212.1500557901801
 30
0.0
 10
420.8404131770699
 20
212.1680970074692
 30
0.0
  0
SPLINE
  5
9E
330
1F
100
AcDbEntity
  8
0
  6
Continuous
 62
     7
370
    25
100
AcDbSpline
210
0.0
220
0.0
230
1.0
 70
     8
 71
     3
 72
    23
 73
    19
 74
     0
 42
0.000000001
 43
0.00000001
 40
0.0
 40
0.0
 40
0.0
 40
0.0
 40
0.0552698294993248
 40
0.1099567044850939
 40
0.1632335040550556
 40
0.2180575651623569
 40
0.2732775387226747
 40
0.330881045495497
 40
0.3904799376860887
 40
0.4536559730386418
 40
0.5189026226022312
 40
0.5833461108214767
 40
0.6485466930814432
 40
0.7150552190344911
 40
0.7825206438000537
 40
0.8523352944264511
 40
0.9249348997257085
 40
1.0
 40
1.0
 40
1.0
 40
1.0
 10
420.822384330916
 20
209.7065585459308
 30
0.0
 10
420.8537176836296
 20
209.7072688820168
 30
0.0
 10
420.916053902794
 20
209.7086820619706
 30
0.0
 10
421.0071243438155
 20
209.726507180322
 30
0.0
 10
421.0954158056956
 20
209.7532867203768
 30
0.0
 10
421.1805276742421
 20
209.7901264680647
 30
0.0
 10
421.2619659205798
 20
209.8393459491848
 30
0.0
 10
421.3398304534878
 20
209.8984257230285
 30
0.0
 10
421.415426201901
 20
209.9673943045697
 30
0.0
 10
421.4851365727155
 20
210.0480541860071
 30
0.0
 10
421.550891303485
 20
210.1353771102191
 30
0.0
 10
421.607733822193
 20
210.2301847309548
 30
0.0
 10
421.6559135030628
 20
210.3303859504095
 30
0.0
 10
421.6957201901431
 20
210.4360729107347
 30
0.0
 10
421.7256451756184
 20
210.5476689904697
 30
0.0
 10
421.7471366526331
 20
210.6646277552728
 30
0.0
 10
421.7605722250079
 20
210.7871783615869
 30
0.0
 10
421.7625067086826
 20
210.8707870046166
 30
0.0
 10
421.7634901001468
 20
210.9132893151616
 30
0.0
  0
SPLINE
  5
9F
330
1F
100
AcDbEntity
  8
0
  6
Continuous
 62
     7
370
    25
100
AcDbSpline
210
0.0
220
0.0
230
1.0
 70
     8
 71
     3
 72
    19
 73
    15
 74
     0
 42
0.000000001
 43
0.00000001
 40
0.0
 40
0.0
 40
0.0
 40
0.0
 40
0.1101423815503174
 40
0.2157418685830274
 40
0.3179605426392306
 40
0.4180517606815226
 40
0.5115631470355316
 40
0.5965727584443461
 40
0.6733290469034968
 40
0.7440491927238595
 40
0.8107168223002833
 40
0.8740854521098849
 40
0.9367096168966699
 40
1.0
 40
1.0
 40
1.0
 40
1.0
 10
419.8404131770699
 20
211.2450200843923
 30
0.0
 10
419.8416783329443
 20
211.1707915662637
 30
0.0
 10
419.8441564625121
 20
211.0253961337533
 30
0.0
 10
419.8739214509545
 20
210.8129770158388
 30
0.0
 10
419.915558754234
 20
210.6096108173123
 30
0.0
 10
419.9778634407999
 20
210.4199396010131
 30
0.0
 10
420.0526468475999
 20
210.2476247286201
 30
0.0
 10
420.1369706000903
 20
210.097306987208
 30
0.0
 10
420.2325056282536
 20
209.9725488484453
 30
0.0
 10
420.3379981264465
 20
209.8730386152396
 30
0.0
 10
420.4524612840125
 20
209.8000016374319
 30
0.0
 10
420.5705129934558
 20
209.7451801516102
 30
0.0
 10
420.6948999262638
 20
209.713041575399
 30
0.0
 10
420.7797398989354
 20
209.7087271649861
 30
0.0
 10
420.822384330916
 20
209.7065585459308
 30
0.0
  0
LINE
  5
A0
330
1F
100
AcDbEntity
  8
0
  6
Continuous
 62
     7
370
    25
100
AcDbLine
 10
419.2250285617
 20
211.2450200844
 30
0.0
 11
419.8404131771
 21
211.2450200844
 31
0.0
  0
SPLINE
  5
A1
330
1F
100
AcDbEntity
  8
0
  6
Continuous
 62
     7
370
    25
100
AcDbSpline
210
0.0
220
0.0
230
1.0
 70
     8
 71
     3
 72
    23
 73
    19
 74
     0
 42
0.000000001
 43
0.00000001
 40
0.0
 40
0.0
 40
0.0
 40
0.0
 40
0.0669051223273616
 40
0.1334773340846825
 40
0.2010229080576287
 40
0.2712178684297488
 40
0.3428591616573978
 40
0.4138109980627169
 40
0.4855518488903453
 40
0.5598002749200529
 40
0.5998999649035781
 40
0.6436094423977958
 40
0.6919106424505659
 40
0.7447030291556902
 40
0.8015038302285953
 40
0.8628660266331954
 40
0.9293326711591618
 40
1.0
 40
1.0
 40
1.0
 40
1.0
 10
417.9557977924545
 20
209.3988662382385
 30
0.0
 10
418.0117030079847
 20
209.4014895656986
 30
0.0
 10
418.1232352624791
 20
209.4067231673067
 30
0.0
 10
418.2873215863193
 20
209.4466814298069
 30
0.0
 10
418.4454225558072
 20
209.512402475606
 30
0.0
 10
418.5948180206235
 20
209.604423157179
 30
0.0
 10
418.7333462926848
 20
209.7163864918503
 30
0.0
 10
418.8564639685109
 20
209.8472086809161
 30
0.0
 10
418.9590754516792
 20
209.9972106308714
 30
0.0
 10
419.0297093486221
 20
210.1361580756103
 30
0.0
 10
419.0767838704849
 20
210.2595300826302
 30
0.0
 10
419.1097916439447
 20
210.3648995785586
 30
0.0
 10
419.1361774731606
 20
210.4829682917872
 30
0.0
 10
419.1617005160552
 20
210.6123188331347
 30
0.0
 10
419.1830974155276
 20
210.7534967379146
 30
0.0
 10
419.2010181574847
 20
210.9066291985147
 30
0.0
 10
419.2153350408609
 20
211.0717778212912
 30
0.0
 10
419.2217320701982
 20
211.186105304525
 30
0.0
 10
419.2250285616852
 20
211.2450200843923
 30
0.0
  0
SPLINE
  5
A2
330
1F
100
AcDbEntity
  8
0
  6
Continuous
 62
     7
370
    25
100
AcDbSpline
210
0.0
220
0.0
230
1.0
 70
     8
 71
     3
 72
    23
 73
    19
 74
     0
 42
0.000000001
 43
0.00000001
 40
0.0
 40
0.0
 40
0.0
 40
0.0
 40
0.0760618905628339
 40
0.1487324608035361
 40
0.2183745247439722
 40
0.2857225935927383
 40
0.3510576941824569
 40
0.414934915729319
 40
0.4784859417740854
 40
0.542169035281216
 40
0.6047501165431387
 40
0.6641185017301124
 40
0.7214996756099116
 40
0.7776159163852547
 40
0.8326661086975489
 40
0.8878580281135741
 40
0.9434676608977686
 40
1.0
 40
1.0
 40
1.0
 40
1.0
 10
416.6865670232237
 20
210.9265104690077
 30
0.0
 10
416.6876211436607
 20
210.8703608472645
 30
0.0
 10
416.6896823851764
 20
210.7605651091721
 30
0.0
 10
416.7086933012684
 20
210.6003673977174
 30
0.0
 10
416.736259721772
 20
210.4479166892577
 30
0.0
 10
416.7793789632201
 20
210.3047687428111
 30
0.0
 10
416.8311076165176
 20
210.168975666105
 30
0.0
 10
416.8988299176084
 20
210.0435687529287
 30
0.0
 10
416.9753113081514
 20
209.9248611949723
 30
0.0
 10
417.0642738750153
 20
209.8163305750751
 30
0.0
 10
417.1604327803142
 20
209.7184849143916
 30
0.0
 10
417.2624488093626
 20
209.6339354529805
 30
0.0
 10
417.3671588013744
 20
209.5607059495263
 30
0.0
 10
417.477005428809
 20
209.5018416496023
 30
0.0
 10
417.5909111845566
 20
209.4552772255351
 30
0.0
 10
417.7093024188699
 20
209.4235972440034
 30
0.0
 10
417.8311822034774
 20
209.4015646096325
 30
0.0
 10
417.914032032795
 20
209.3997706157087
 30
0.0
 10
417.9557977924545
 20
209.3988662382385
 30
0.0
  0
SPLINE
  5
A3
330
1F
100
AcDbEntity
  8
0
  6
Continuous
 62
     7
370
    25
100
AcDbSpline
210
0.0
220
0.0
230
1.0
 70
     8
 71
     3
 72
    15
 73
    11
 74
     0
 42
0.000000001
 43
0.00000001
 40
0.0
 40
0.0
 40
0.0
 40
0.0
 40
0.1182713048357255
 40
0.2361775330837631
 40
0.355662932948509
 40
0.4759041646706831
 40
0.600127341711083
 40
0.7286081161551199
 40
0.8613134756739423
 40
1.0
 40
1.0
 40
1.0
 40
1.0
 10
417.011086253993
 20
211.9289143151616
 30
0.0
 10
416.9851862530464
 20
211.8953201839756
 30
0.0
 10
416.9334661985587
 20
211.8282356190372
 30
0.0
 10
416.8674634067797
 20
211.7189186514399
 30
0.0
 10
416.8102730776343
 20
211.603950275293
 30
0.0
 10
416.7665867421207
 20
211.4808394052
 30
0.0
 10
416.7295964664821
 20
211.3522426558502
 30
0.0
 10
416.7053898622549
 20
211.2160814583099
 30
0.0
 10
416.6887815685238
 20
211.0735570861184
 30
0.0
 10
416.6873159716797
 20
210.9762409201474
 30
0.0
 10
416.6865670232237
 20
210.9265104690077
 30
0.0
  0
SPLINE
  5
A4
330
1F
100
AcDbEntity
  8
0
  6
Continuous
 62
     7
370
    25
100
AcDbSpline
210
0.0
220
0.0
230
1.0
 70
     8
 71
     3
 72
    15
 73
    11
 74
     0
 42
0.000000001
 43
0.00000001
 40
0.0
 40
0.0
 40
0.0
 40
0.0
 40
0.1497703860319679
 40
0.2913164099952444
 40
0.4259663731047425
 40
0.5521595739695284
 40
0.6715274135235927
 40
0.7861216286916589
 40
0.8953250730704446
 40
1.0
 40
1.0
 40
1.0
 40
1.0
 10
417.8404131770699
 20
212.3988662382385
 30
0.0
 10
417.7942148686093
 20
212.3848377386266
 30
0.0
 10
417.7043551458355
 20
212.3575510883559
 30
0.0
 10
417.5750289075357
 20
212.3111037202957
 30
0.0
 10
417.4564722448646
 20
212.2581866824606
 30
0.0
 10
417.3478154643309
 20
212.201418867656
 30
0.0
 10
417.247988488678
 20
212.1417986744741
 30
0.0
 10
417.1596309989053
 20
212.0750873742403
 30
0.0
 10
417.0788620808314
 20
212.0062259825592
 30
0.0
 10
417.033357031791
 20
211.9543185196712
 30
0.0
 10
417.011086253993
 20
211.9289143151616
 30
0.0
  0
LINE
  5
A5
330
1F
100
AcDbEntity
  8
0
  6
Continuous
 62
     7
370
    25
100
AcDbLine
 10
417.8404131771
 20
212.9373277767
 30
0.0
 11
417.8404131771
 21
212.3988662382
 31
0.0
  0
SPLINE
  5
A6
330
1F
100
AcDbEntity
  8
0
  6
Continuous
 62
     7
370
    25
100
AcDbSpline
210
0.0
220
0.0
230
1.0
 70
     8
 71
     3
 72
    23
 73
    19
 74
     0
 42
0.000000001
 43
0.00000001
 40
0.0
 40
0.0
 40
0.0
 40
0.0
 40
0.0655411703374033
 40
0.1289631677825934
 40
0.1903771361885613
 40
0.2500923616690528
 40
0.308548432459201
 40
0.3663979630552961
 40
0.42454218926668
 40
0.4831699964229059
 40
0.54224339983112
 40
0.60173935201733
 40
0.6625060022496069
 40
0.7248555134488469
 40
0.7891278292811811
 40
0.8563463998785099
 40
0.9262952349869054
 40
1.0
 40
1.0
 40
1.0
 40
1.0
 10
416.0711824078391
 20
210.9361258536231
 30
0.0
 10
416.0726707734251
 20
211.0002732255371
 30
0.0
 10
416.075599380586
 20
211.1264938628001
 30
0.0
 10
416.0956198397802
 20
211.312054145748
 30
0.0
 10
416.132185563045
 20
211.4891770589444
 30
0.0
 10
416.1813912293869
 20
211.6581020838415
 30
0.0
 10
416.2437770729534
 20
211.8189792890876
 30
0.0
 10
416.3214662695614
 20
211.9713177551065
 30
0.0
 10
416.412857415936
 20
212.1160547154267
 30
0.0
 10
416.5190292807472
 20
212.2518243459602
 30
0.0
 10
416.6377972917588
 20
212.3786104620281
 30
0.0
 10
416.7712698802749
 20
212.4930437035655
 30
0.0
 10
416.9169797155681
 20
212.5970319200376
 30
0.0
 10
417.0766192404802
 20
212.6877907292573
 30
0.0
 10
417.2481253958135
 20
212.7694540765988
 30
0.0
 10
417.433694250182
 20
212.8366214308513
 30
0.0
 10
417.6316668593061
 20
212.8957395485135
 30
0.0
 10
417.7696286996075
 20
212.9232254872211
 30
0.0
 10
417.8404131770699
 20
212.9373277767
 30
0.0
  0
SPLINE
  5
A7
330
1F
100
AcDbEntity
  8
0
  6
Continuous
 62
     7
370
    25
100
AcDbSpline
210
0.0
220
0.0
230
1.0
 70
     8
 71
     3
 72
    19
 73
    15
 74
     0
 42
0.000000001
 43
0.00000001
 40
0.0
 40
0.0
 40
0.0
 40
0.0
 40
0.079641704194991
 40
0.158908613257856
 40
0.2395997983184508
 40
0.3224093988203483
 40
0.405827748173513
 40
0.4876442139503136
 40
0.5697199979738973
 40
0.6530646649976933
 40
0.7374573001733064
 40
0.8224924079539123
 40
0.9097550737466982
 40
1.0
 40
1.0
 40
1.0
 40
1.0
 10
418.0074804847621
 20
208.860404699777
 30
0.0
 10
417.9234671607489
 20
208.863487782623
 30
0.0
 10
417.7558358807672
 20
208.869639439278
 30
0.0
 10
417.5081148165965
 20
208.9244019580902
 30
0.0
 10
417.2663821203474
 20
209.009788375291
 30
0.0
 10
417.0342194846475
 20
209.1289241500928
 30
0.0
 10
416.817453923209
 20
209.2763263996513
 30
0.0
 10
416.6243875870628
 20
209.4526629818089
 30
0.0
 10
416.4573151620734
 20
209.6536471823792
 30
0.0
 10
416.3181723370472
 20
209.8779635998627
 30
0.0
 10
416.2068640807379
 20
210.1208859164558
 30
0.0
 10
416.129628298162
 20
210.3807355929346
 30
0.0
 10
416.0793193588511
 20
210.6537341042807
 30
0.0
 10
416.0739249349633
 20
210.8409468325038
 30
0.0
 10
416.0711824078391
 20
210.9361258536231
 30
0.0
  0
SPLINE
  5
A8
330
1F
100
AcDbEntity
  8
0
  6
Continuous
 62
     7
370
    25
100
AcDbSpline
210
0.0
220
0.0
230
1.0
 70
     8
 71
     3
 72
    15
 73
    11
 74
     0
 42
0.000000001
 43
0.00000001
 40
0.0
 40
0.0
 40
0.0
 40
0.0
 40
0.1281455049994643
 40
0.2541925386280419
 40
0.3781411397135888
 40
0.5013808330744057
 40
0.6239569784447038
 40
0.7470758858273289
 40
0.8728647202442611
 40
1.0
 40
1.0
 40
1.0
 40
1.0
 10
419.0735862539929
 20
209.2185777767
 30
0.0
 10
419.0340628922929
 20
209.1896951519498
 30
0.0
 10
418.9556633913063
 20
209.1324028754277
 30
0.0
 10
418.829539405044
 20
209.061885080772
 30
0.0
 10
418.7024350081019
 20
208.9971802510876
 30
0.0
 10
418.5693526195266
 20
208.9495593694472
 30
0.0
 10
418.4345670810445
 20
208.908464435695
 30
0.0
 10
418.2951920955809
 20
208.8814253376456
 30
0.0
 10
418.1525518434706
 20
208.8640673182628
 30
0.0
 10
418.0560089202346
 20
208.8616298978204
 30
0.0
 10
418.0074804847621
 20
208.860404699777
 30
0.0
  0
SPLINE
  5
A9
330
1F
100
AcDbEntity
  8
0
  6
Continuous
 62
     7
370
    25
100
AcDbSpline
210
0.0
220
0.0
230
1.0
 70
     8
 71
     3
 72
    11
 73
     7
 74
     0
 42
0.000000001
 43
0.00000001
 40
0.0
 40
0.0
 40
0.0
 40
0.0
 40
0.253879600326656
 40
0.5030089172783634
 40
0.7502910806899733
 40
1.0
 40
1.0
 40
1.0
 40
1.0
 10
419.5856054847622
 20
209.8688181613154
 30
0.0
 10
419.5547857621196
 20
209.8049922963326
 30
0.0
 10
419.493722977645
 20
209.6785347975888
 30
0.0
 10
419.3739702504726
 20
209.5061624612466
 30
0.0
 10
419.2357022264374
 20
209.3496861034918
 30
0.0
 10
419.1278005357283
 20
209.2624225851996
 30
0.0
 10
419.0735862539929
 20
209.2185777767
 30
0.0
  0
SPLINE
  5
AA
330
1F
100
AcDbEntity
  8
0
  6
Continuous
 62
     7
370
    25
100
AcDbSpline
210
0.0
220
0.0
230
1.0
 70
     8
 71
     3
 72
    15
 73
    11
 74
     0
 42
0.000000001
 43
0.00000001
 40
0.0
 40
0.0
 40
0.0
 40
0.0
 40
0.1280675485958904
 40
0.2506083188676685
 40
0.370630165914503
 40
0.4900722467299488
 40
0.6103747641546199
 40
0.7343130699115256
 40
0.8632165042449895
 40
1.0
 40
1.0
 40
1.0
 40
1.0
 10
420.8199804847621
 20
209.1680970074693
 30
0.0
 10
420.7565402652669
 20
209.1700917349785
 30
0.0
 10
420.632397600473
 20
209.173995107169
 30
0.0
 10
420.4511607482361
 20
209.2071386024187
 30
0.0
 10
420.2803465763238
 20
209.2629150530637
 30
0.0
 10
420.1192360126835
 20
209.3401775031972
 30
0.0
 10
419.9688505729868
 20
209.4401915893234
 30
0.0
 10
419.8288519029402
 20
209.5613447839925
 30
0.0
 10
419.6986190604346
 20
209.704492204179
 30
0.0
 10
419.6240142496195
 20
209.8129703836476
 30
0.0
 10
419.5856054847622
 20
209.8688181613154
 30
0.0
  0
SPLINE
  5
AB
330
1F
100
AcDbEntity
  8
0
  6
Continuous
 62
     7
370
    25
100
AcDbSpline
210
0.0
220
0.0
230
1.0
 70
     8
 71
     3
 72
    19
 73
    15
 74
     0
 42
0.000000001
 43
0.00000001
 40
0.0
 40
0.0
 40
0.0
 40
0.0
 40
0.0902542493426766
 40
0.1785397915286845
 40
0.2660930338538198
 40
0.3546309779571733
 40
0.4418861533505626
 40
0.5257469151636484
 40
0.6081136336036366
 40
0.6901972728278825
 40
0.770821484330335
 40
0.8483261812554109
 40
0.9240117400247433
 40
1.0
 40
1.0
 40
1.0
 40
1.0
 10
422.3788747155314
 20
210.9205008536231
 30
0.0
 10
422.3765103208258
 20
210.8421875814944
 30
0.0
 10
422.3718331057261
 20
210.6872692770199
 30
0.0
 10
422.3291226431905
 20
210.4596754822476
 30
0.0
 10
422.2615367020119
 20
210.2402009352154
 30
0.0
 10
422.168153169777
 20
210.0312479389588
 30
0.0
 10
422.052974918642
 20
209.8371591973652
 30
0.0
 10
421.9158925125367
 20
209.664468591513
 30
0.0
 10
421.7595508528441
 20
209.5155168587063
 30
0.0
 10
421.5868664568694
 20
209.3905550684318
 30
0.0
 10
421.4023141550633
 20
209.2927122129111
 30
0.0
 10
421.2123710285251
 20
209.2205641440888
 30
0.0
 10
421.0174876490012
 20
209.1766412623768
 30
0.0
 10
420.8859037418437
 20
209.1709488792736
 30
0.0
 10
420.8199804847621
 20
209.1680970074693
 30
0.0
  0
SPLINE
  5
AC
330
1F
100
AcDbEntity
  8
0
  6
Continuous
 62
     7
370
    25
100
AcDbSpline
210
0.0
220
0.0
230
1.0
 70
     8
 71
     3
 72
    23
 73
    19
 74
     0
 42
0.000000001
 43
0.00000001
 40
0.0
 40
0.0
 40
0.0
 40
0.0
 40
0.0726253460834354
 40
0.1419766113262345
 40
0.2089849284189386
 40
0.2739568703644447
 40
0.3368893473968406
 40
0.39874495349459
 40
0.4601158852788613
 40
0.5208249225900293
 40
0.5809944586324856
 40
0.6401519276014648
 40
0.6986224507562546
 40
0.7572710809271642
 40
0.81642669400466
 40
0.8762540482034705
 40
0.9371652930625374
 40
1.0
 40
1.0
 40
1.0
 40
1.0
 10
420.8404131770699
 20
212.7065585459308
 30
0.0
 10
420.9008117210277
 20
212.6919707447634
 30
0.0
 10
421.0188859342688
 20
212.6634527866655
 30
0.0
 10
421.1875840957213
 20
212.6039712321474
 30
0.0
 10
421.3472244181054
 20
212.5391725089566
 30
0.0
 10
421.4948176872975
 20
212.461362615417
 30
0.0
 10
421.6333300919821
 20
212.3764904653151
 30
0.0
 10
421.7596200196418
 20
212.2792515141108
 30
0.0
 10
421.876899389014
 20
212.174131989712
 30
0.0
 10
421.9809792248263
 20
212.0578606480518
 30
0.0
 10
422.0752267606093
 20
211.9359257995247
 30
0.0
 10
422.1555840017676
 20
211.8066093085235
 30
0.0
 10
422.2247111209639
 20
211.6725129193739
 30
0.0
 10
422.2816600898931
 20
211.5327075486049
 30
0.0
 10
422.3245609876064
 20
211.3867769685615
 30
0.0
 10
422.3556869400477
 20
211.2360404714401
 30
0.0
 10
422.3759002787011
 20
211.0801030426721
 30
0.0
 10
422.3778730154206
 20
210.9742500302179
 30
0.0
 10
422.3788747155314
 20
210.9205008536231
 30
0.0
  0
LINE
  5
AD
330
1F
100
AcDbEntity
  8
0
  6
Continuous
 62
     7
370
    25
100
AcDbLine
 10
420.8404131771
 20
212.1680970075
 30
0.0
 11
420.8404131771
 21
212.7065585459
 31
0.0
  0
SPLINE
  5
AE
330
1F
100
AcDbEntity
  8
0
  6
Continuous
 62
     7
370
    25
100
AcDbSpline
210
0.0
220
0.0
230
1.0
 70
    24
 71
     3
 72
    12
 73
     8
 74
     0
 42
0.000000001
 43
0.00000001
 40
0.0
 40
0.0
 40
0.0
 40
0.0
 40
0.1857446029903463
 40
0.3717194996732928
 40
0.6015059651990584
 40
0.8314342786305932
 40
1.0
 40
1.0
 40
1.0
 40
1.0
 10
424.7331752365578
 20
161.3442499398388
 30
0.0
 10
424.9689213358852
 20
161.3442499398388
 30
0.0
 10
425.4407058221156
 20
161.3442499398388
 30
0.0
 10
426.0418092602441
 20
161.3442499398388
 30
0.0
 10
426.5127052921793
 20
161.3442499398388
 30
0.0
 10
426.7956911733016
 20
161.3442499398388
 30
0.0
 10
426.8039605357932
 20
161.3442499398388
 30
0.0
 10
426.8074585330829
 20
161.3442499398388
 30
0.0
  0
SPLINE
  5
AF
330
1F
100
AcDbEntity
  8
0
  6
Continuous
 62
     7
370
    25
100
AcDbSpline
210
0.0
220
0.0
230
1.0
 70
     8
 71
     3
 72
    10
 73
     6
 74
     0
 42
0.000000001
 43
0.00000001
 40
0.0
 40
0.0
 40
0.0
 40
0.0
 40
0.5
 40
0.5
 40
1.0
 40
1.0
 40
1.0
 40
1.0
 10
424.7331752365632
 20
161.6371431586522
 30
0.0
 10
424.7049998376451
 20
161.5452571398748
 30
0.0
 10
424.6901005586325
 20
161.4707771603716
 30
0.0
 10
424.6900571667663
 20
161.3701872218861
 30
0.0
 10
424.7049923139402
 20
161.3442499398387
 30
0.0
 10
424.7331752365576
 20
161.3442499398387
 30
0.0
  0
SPLINE
  5
B0
330
1F
100
AcDbEntity
  8
0
  6
Continuous
 62
     7
370
    25
100
AcDbSpline
210
0.0
220
0.0
230
1.0
 70
     8
 71
     3
 72
    16
 73
    12
 74
     0
 42
0.000000001
 43
0.00000001
 40
0.0
 40
0.0
 40
0.0
 40
0.0
 40
0.2500000000000002
 40
0.2500000000000002
 40
0.5000000000000003
 40
0.5000000000000003
 40
0.6250000000000004
 40
0.6250000000000004
 40
0.7500000000000004
 40
0.7500000000000004
 40
1.0
 40
1.0
 40
1.0
 40
1.0
 10
424.7331752365576
 20
187.9975328518629
 30
0.0
 10
425.3997748065721
 20
185.8236086854186
 30
0.0
 10
425.926163921317
 20
183.6430498709997
 30
0.0
 10
426.6406993733989
 20
179.2659268611526
 30
0.0
 10
426.8280815511312
 20
177.0693265062957
 30
0.0
 10
426.8319547564028
 20
173.7613090861012
 30
0.0
 10
426.7873479036779
 20
172.6564647593344
 30
0.0
 10
426.6066395220016
 20
170.4424466500042
 30
0.0
 10
426.4701172565143
 20
169.3309519029653
 30
0.0
 10
425.931458489873
 20
166.010156987267
 30
0.0
 10
425.4012250129292
 20
163.8157967590595
 30
0.0
 10
424.7331752365578
 20
161.6371431586529
 30
0.0
  0
SPLINE
  5
B1
330
1F
100
AcDbEntity
  8
0
  6
Continuous
 62
     7
370
    25
100
AcDbSpline
210
0.0
220
0.0
230
1.0
 70
     8
 71
     3
 72
    10
 73
     6
 74
     0
 42
0.000000001
 43
0.00000001
 40
0.0
 40
0.0
 40
0.0
 40
0.0
 40
0.5
 40
0.5
 40
1.0
 40
1.0
 40
1.0
 40
1.0
 10
424.7331752365576
 20
188.7046396330495
 30
0.0
 10
424.7049998376394
 20
188.574693179102
 30
0.0
 10
424.6901005586325
 20
188.4435779272408
 30
0.0
 10
424.6900571667663
 20
188.2008740565167
 30
0.0
 10
424.7049923139402
 20
188.089443407037
 30
0.0
 10
424.7331752365575
 20
187.9975328518629
 30
0.0
  0
SPLINE
  5
B2
330
1F
100
AcDbEntity
  8
0
  6
Continuous
 62
     7
370
    25
100
AcDbSpline
210
0.0
220
0.0
230
1.0
 70
     8
 71
     3
 72
    10
 73
     6
 74
     0
 42
0.000000001
 43
0.00000001
 40
0.0
 40
0.0
 40
0.0
 40
0.0
 40
0.5
 40
0.5
 40
1.0
 40
1.0
 40
1.0
 40
1.0
 10
424.7331752365632
 20
226.6909670278146
 30
0.0
 10
424.7049998376451
 20
226.5990810090372
 30
0.0
 10
424.6901005586325
 20
226.4881360211249
 30
0.0
 10
424.6900571667663
 20
226.245490853991
 30
0.0
 10
424.7049923139402
 20
226.1138414002805
 30
0.0
 10
424.7331752365576
 20
225.9838602466278
 30
0.0
  0
SPLINE
  5
B3
330
1F
100
AcDbEntity
  8
0
  6
Continuous
 62
     7
370
    25
100
AcDbSpline
210
0.0
220
0.0
230
1.0
 70
     8
 71
     3
 72
    16
 73
    12
 74
     0
 42
0.000000001
 43
0.00000001
 40
0.0
 40
0.0
 40
0.0
 40
0.0
 40
0.2499999999999999
 40
0.2499999999999999
 40
0.4999999999999999
 40
0.4999999999999999
 40
0.625
 40
0.625
 40
0.75
 40
0.75
 40
1.0
 40
1.0
 40
1.0
 40
1.0
 10
424.7331752365576
 20
253.0513567210253
 30
0.0
 10
425.3997748065721
 20
250.877432554581
 30
0.0
 10
425.9261639213169
 20
248.6968737401621
 30
0.0
 10
426.6406993733989
 20
244.319750730315
 30
0.0
 10
426.8280815511312
 20
242.123150375458
 30
0.0
 10
426.8319547564028
 20
238.8151329552635
 30
0.0
 10
426.7873479036778
 20
237.7102886284968
 30
0.0
 10
426.6066395220016
 20
235.4962705191666
 30
0.0
 10
426.4701172565143
 20
234.3847757721277
 30
0.0
 10
425.931458489873
 20
231.0639808564293
 30
0.0
 10
425.4012250129292
 20
228.8696206282219
 30
0.0
 10
424.7331752365578
 20
226.6909670278152
 30
0.0
  0
SPLINE
  5
B4
330
1F
100
AcDbEntity
  8
0
  6
Continuous
 62
     7
370
    25
100
AcDbSpline
210
0.0
220
0.0
230
1.0
 70
     8
 71
     3
 72
    10
 73
     6
 74
     0
 42
0.000000001
 43
0.00000001
 40
0.0
 40
0.0
 40
0.0
 40
0.0
 40
0.5
 40
0.5
 40
1.0
 40
1.0
 40
1.0
 40
1.0
 10
424.7331752365603
 20
253.3442499398388
 30
0.0
 10
424.7049998376422
 20
253.3442499398388
 30
0.0
 10
424.6901005586325
 20
253.3184652851165
 30
0.0
 10
424.6900571667663
 20
253.2180170696365
 30
0.0
 10
424.7049923139402
 20
253.1432672761995
 30
0.0
 10
424.7331752365575
 20
253.0513567210253
 30
0.0
  0
SPLINE
  5
B5
330
1F
100
AcDbEntity
  8
0
  6
Continuous
 62
     7
370
    25
100
AcDbSpline
210
0.0
220
0.0
230
1.0
 70
    24
 71
     3
 72
    12
 73
     8
 74
     0
 42
0.000000001
 43
0.00000001
 40
0.0
 40
0.0
 40
0.0
 40
0.0
 40
0.1568264363686721
 40
0.3926286678101152
 40
0.6282775081939403
 40
0.8140168191946797
 40
1.0
 40
1.0
 40
1.0
 40
1.0
 10
426.8027747641565
 20
253.3442499398388
 30
0.0
 10
426.8026215806075
 20
253.3442499398388
 30
0.0
 10
426.8022380722261
 20
253.3442499398388
 30
0.0
 10
426.5236068228457
 20
253.3442499398388
 30
0.0
 10
426.0480440255104
 20
253.3442499398387
 30
0.0
 10
425.4409248810561
 20
253.3442499398388
 30
0.0
 10
424.9691949447334
 20
253.3442499398388
 30
0.0
 10
424.7331752365578
 20
253.3442499398388
 30
0.0
  0
LINE
  5
B6
330
1F
100
AcDbEntity
  8
0
  6
Continuous
 62
     7
370
    25
100
AcDbLine
 10
426.9750285617
 20
253.0942499398
 30
0.0
 11
426.9750285617
 21
161.5942499398
 31
0.0
  0
SPLINE
  5
B7
330
1F
100
AcDbEntity
  8
0
  6
Continuous
 62
     7
370
    25
100
AcDbSpline
210
0.0
220
0.0
230
1.0
 70
    24
 71
     3
 72
    12
 73
     8
 74
     0
 42
0.000000001
 43
0.00000001
 40
0.0
 40
0.0
 40
0.0
 40
0.0
 40
0.156826436368624
 40
0.3926286678099948
 40
0.6282775081937476
 40
0.8140168191945829
 40
1.0
 40
1.0
 40
1.0
 40
1.0
 10
412.147282359214
 20
253.3442499398388
 30
0.0
 10
412.1474355427629
 20
253.3442499398388
 30
0.0
 10
412.1478190511443
 20
253.3442499398388
 30
0.0
 10
412.4264503005248
 20
253.3442499398387
 30
0.0
 10
412.9020130978602
 20
253.3442499398388
 30
0.0
 10
413.5091322423148
 20
253.3442499398387
 30
0.0
 10
413.9808621786381
 20
253.3442499398388
 30
0.0
 10
414.216881886814
 20
253.3442499398388
 30
0.0
  0
SPLINE
  5
B8
330
1F
100
AcDbEntity
  8
0
  6
Continuous
 62
     7
370
    25
100
AcDbSpline
210
0.0
220
0.0
230
1.0
 70
     8
 71
     3
 72
    10
 73
     6
 74
     0
 42
0.000000001
 43
0.00000001
 40
0.0
 40
0.0
 40
0.0
 40
0.0
 40
0.5
 40
0.5
 40
1.0
 40
1.0
 40
1.0
 40
1.0
 10
414.2168818868129
 20
253.0513567210253
 30
0.0
 10
414.2450572857309
 20
253.1432427398022
 30
0.0
 10
414.2599565647378
 20
253.2177227193052
 30
0.0
 10
414.2599999566044
 20
253.3183126577904
 30
0.0
 10
414.24506480943
 20
253.3442499398388
 30
0.0
 10
414.2168818868129
 20
253.3442499398388
 30
0.0
  0
SPLINE
  5
B9
330
1F
100
AcDbEntity
  8
0
  6
Continuous
 62
     7
370
    25
100
AcDbSpline
210
0.0
220
0.0
230
1.0
 70
     8
 71
     3
 72
    16
 73
    12
 74
     0
 42
0.000000001
 43
0.00000001
 40
0.0
 40
0.0
 40
0.0
 40
0.0
 40
0.25
 40
0.25
 40
0.5
 40
0.5
 40
0.625
 40
0.625
 40
0.75
 40
0.75
 40
1.0
 40
1.0
 40
1.0
 40
1.0
 10
414.2168818868129
 20
253.0513567210253
 30
0.0
 10
413.5502823167984
 20
250.8774325545809
 30
0.0
 10
413.0238932020535
 20
248.6968737401619
 30
0.0
 10
412.3093577499715
 20
244.3197507303146
 30
0.0
 10
412.1219755722393
 20
242.1231503754575
 30
0.0
 10
412.1181023669678
 20
238.8151329552629
 30
0.0
 10
412.1627092196927
 20
237.710288628496
 30
0.0
 10
412.343417601369
 20
235.4962705191658
 30
0.0
 10
412.4799398668564
 20
234.3847757721268
 30
0.0
 10
413.0185986334977
 20
231.0639808564283
 30
0.0
 10
413.5488321104417
 20
228.8696206282208
 30
0.0
 10
414.2168818868131
 20
226.690967027814
 30
0.0
  0
SPLINE
  5
BA
330
1F
100
AcDbEntity
  8
0
  6
Continuous
 62
     7
370
    25
100
AcDbSpline
210
0.0
220
0.0
230
1.0
 70
     8
 71
     3
 72
    10
 73
     6
 74
     0
 42
0.000000001
 43
0.00000001
 40
0.0
 40
0.0
 40
0.0
 40
0.0
 40
0.5
 40
0.5
 40
1.0
 40
1.0
 40
1.0
 40
1.0
 10
414.2168818868102
 20
225.983860246628
 30
0.0
 10
414.2450572857281
 20
226.1138067005745
 30
0.0
 10
414.2599565647381
 20
226.2449219524395
 30
0.0
 10
414.2599999566041
 20
226.4876258231616
 30
0.0
 10
414.2450648094299
 20
226.5990564726417
 30
0.0
 10
414.2168818868128
 20
226.6909670278151
 30
0.0
  0
SPLINE
  5
BB
330
1F
100
AcDbEntity
  8
0
  6
Continuous
 62
     7
370
    25
100
AcDbSpline
210
0.0
220
0.0
230
1.0
 70
     8
 71
     3
 72
    10
 73
     6
 74
     0
 42
0.000000001
 43
0.00000001
 40
0.0
 40
0.0
 40
0.0
 40
0.0
 40
0.5
 40
0.5
 40
1.0
 40
1.0
 40
1.0
 40
1.0
 10
414.2168818868129
 20
187.9975328518629
 30
0.0
 10
414.245057285731
 20
188.0894188706403
 30
0.0
 10
414.259956564738
 20
188.200363858553
 30
0.0
 10
414.2599999566042
 20
188.4430090256863
 30
0.0
 10
414.2450648094302
 20
188.574658479397
 30
0.0
 10
414.2168818868129
 20
188.7046396330495
 30
0.0
  0
SPLINE
  5
BC
330
1F
100
AcDbEntity
  8
0
  6
Continuous
 62
     7
370
    25
100
AcDbSpline
210
0.0
220
0.0
230
1.0
 70
     8
 71
     3
 72
    16
 73
    12
 74
     0
 42
0.000000001
 43
0.00000001
 40
0.0
 40
0.0
 40
0.0
 40
0.0
 40
0.2499999999999997
 40
0.2499999999999997
 40
0.4999999999999993
 40
0.4999999999999993
 40
0.6249999999999994
 40
0.6249999999999994
 40
0.7499999999999997
 40
0.7499999999999997
 40
1.0
 40
1.0
 40
1.0
 40
1.0
 10
414.2168818868129
 20
187.9975328518629
 30
0.0
 10
413.5502823167984
 20
185.8236086854185
 30
0.0
 10
413.0238932020535
 20
183.6430498709995
 30
0.0
 10
412.3093577499715
 20
179.2659268611522
 30
0.0
 10
412.1219755722393
 20
177.0693265062951
 30
0.0
 10
412.1181023669678
 20
173.7613090861005
 30
0.0
 10
412.1627092196927
 20
172.6564647593337
 30
0.0
 10
412.343417601369
 20
170.4424466500034
 30
0.0
 10
412.4799398668563
 20
169.3309519029644
 30
0.0
 10
413.0185986334977
 20
166.0101569872659
 30
0.0
 10
413.5488321104417
 20
163.8157967590583
 30
0.0
 10
414.216881886813
 20
161.6371431586516
 30
0.0
  0
SPLINE
  5
BD
330
1F
100
AcDbEntity
  8
0
  6
Continuous
 62
     7
370
    25
100
AcDbSpline
210
0.0
220
0.0
230
1.0
 70
     8
 71
     3
 72
    10
 73
     6
 74
     0
 42
0.000000001
 43
0.00000001
 40
0.0
 40
0.0
 40
0.0
 40
0.0
 40
0.5
 40
0.5
 40
1.0
 40
1.0
 40
1.0
 40
1.0
 10
414.2168818868102
 20
161.3442499398388
 30
0.0
 10
414.2450572857281
 20
161.3442499398388
 30
0.0
 10
414.2599565647381
 20
161.3700345945618
 30
0.0
 10
414.2599999566041
 20
161.4704828100416
 30
0.0
 10
414.2450648094299
 20
161.5452326034791
 30
0.0
 10
414.2168818868128
 20
161.6371431586526
 30
0.0
  0
SPLINE
  5
BE
330
1F
100
AcDbEntity
  8
0
  6
Continuous
 62
     7
370
    25
100
AcDbSpline
210
0.0
220
0.0
230
1.0
 70
    24
 71
     3
 72
    12
 73
     8
 74
     0
 42
0.000000001
 43
0.00000001
 40
0.0
 40
0.0
 40
0.0
 40
0.0
 40
0.1857446029904423
 40
0.3717194996734852
 40
0.6015059651991804
 40
0.8314342786306448
 40
1.0
 40
1.0
 40
1.0
 40
1.0
 10
414.216881886814
 20
161.3442499398388
 30
0.0
 10
413.9811357874864
 20
161.3442499398388
 30
0.0
 10
413.5093513012554
 20
161.3442499398388
 30
0.0
 10
412.9082478631266
 20
161.3442499398388
 30
0.0
 10
412.4373518311912
 20
161.3442499398388
 30
0.0
 10
412.154365950069
 20
161.3442499398388
 30
0.0
 10
412.1460965875773
 20
161.3442499398388
 30
0.0
 10
412.1425985902876
 20
161.3442499398388
 30
0.0
  0
LINE
  5
BF
330
1F
100
AcDbEntity
  8
0
  6
Continuous
 62
     7
370
    25
100
AcDbLine
 10
411.9750285617
 20
253.0942499398
 30
0.0
 11
411.9750285617
 21
161.5942499398
 31
0.0
  0
LINE
  5
C0
330
1F
100
AcDbEntity
  8
0
  6
Continuous
 62
     7
370
    25
100
AcDbLine
 10
414.2168818868
 20
226.6909670278
 30
0.0
 11
424.7331752366
 21
226.6909670278
 31
0.0
  0
SPLINE
  5
C1
330
1F
100
AcDbEntity
  8
0
  6
Continuous
 62
     7
370
    25
100
AcDbSpline
210
0.0
220
0.0
230
1.0
 70
     8
 71
     3
 72
    23
 73
    19
 74
     0
 42
0.000000001
 43
0.00000001
 40
0.0
 40
0.0
 40
0.0
 40
0.0
 40
0.0679503475997537
 40
0.1332598223836998
 40
0.1978002967596472
 40
0.260845829551682
 40
0.323319292750367
 40
0.386281722459572
 40
0.4500615162333129
 40
0.5152075844858153
 40
0.5796407692199316
 40
0.6418172023841521
 40
0.7016924412115348
 40
0.7607690981778944
 40
0.8192540511346832
 40
0.8787376269055537
 40
0.9381582970160911
 40
1.0
 40
1.0
 40
1.0
 40
1.0
 10
416.6865670232237
 20
203.7482115238438
 30
0.0
 10
416.6878853793882
 20
203.7036991677502
 30
0.0
 10
416.6904708541434
 20
203.6164044168559
 30
0.0
 10
416.7060374701362
 20
203.4875366645171
 30
0.0
 10
416.7335714345787
 20
203.3639700004382
 30
0.0
 10
416.7726987834596
 20
203.245618485065
 30
0.0
 10
416.8203749508038
 20
203.131496047222
 30
0.0
 10
416.881208390915
 20
203.0232218303242
 30
0.0
 10
416.9523173969454
 20
202.9193340545998
 30
0.0
 10
417.0336716098182
 20
202.8220940037793
 30
0.0
 10
417.1211027036926
 20
202.7314872607259
 30
0.0
 10
417.2171371095668
 20
202.6556870564426
 30
0.0
 10
417.314397598947
 20
202.5872779292614
 30
0.0
 10
417.4187912870025
 20
202.535460406693
 30
0.0
 10
417.526536884918
 20
202.4920197280745
 30
0.0
 10
417.6392767278938
 20
202.4628167298053
 30
0.0
 10
417.7564296071557
 20
202.4436984671734
 30
0.0
 10
417.835928046721
 20
202.4415929786893
 30
0.0
 10
417.8764708693776
 20
202.4405192161515
 30
0.0
  0
SPLINE
  5
C2
330
1F
100
AcDbEntity
  8
0
  6
Continuous
 62
     7
370
    25
100
AcDbSpline
210
0.0
220
0.0
230
1.0
 70
     8
 71
     3
 72
    23
 73
    19
 74
     0
 42
0.000000001
 43
0.00000001
 40
0.0
 40
0.0
 40
0.0
 40
0.0
 40
0.0705921865358071
 40
0.1385012886049299
 40
0.2037899961427012
 40
0.266787572669601
 40
0.3290979656467183
 40
0.3911745246039658
 40
0.4531677986176573
 40
0.5157967602265844
 40
0.5779688050530403
 40
0.6389663383752914
 40
0.698381066162843
 40
0.7573204555574266
 40
0.8164122397216688
 40
0.876279358230831
 40
0.936823465650193
 40
1.0
 40
1.0
 40
1.0
 40
1.0
 10
419.0711824078391
 20
203.7950865238438
 30
0.0
 10
419.0698309500207
 20
203.840791795195
 30
0.0
 10
419.0671794009112
 20
203.9304651611698
 30
0.0
 10
419.0522034324354
 20
204.0618629860308
 30
0.0
 10
419.0238280779539
 20
204.1858867207736
 30
0.0
 10
418.9871239037288
 20
204.3039529187101
 30
0.0
 10
418.9371486021415
 20
204.4148310201001
 30
0.0
 10
418.8771640719642
 20
204.5197858146135
 30
0.0
 10
418.805846386873
 20
204.6177758464012
 30
0.0
 10
418.7239907215288
 20
204.7070802405299
 30
0.0
 10
418.6356797044093
 20
204.7890837302673
 30
0.0
 10
418.5405240094547
 20
204.8596201225672
 30
0.0
 10
418.4414308095315
 20
204.9205311670005
 30
0.0
 10
418.3374687487961
 20
204.9700387698124
 30
0.0
 10
418.2287045148974
 20
205.0085942830038
 30
0.0
 10
418.1156311914731
 20
205.0364824147746
 30
0.0
 10
417.9974924684528
 20
205.052003211574
 30
0.0
 10
417.9173795945377
 20
205.0545853116091
 30
0.0
 10
417.8764708693776
 20
205.0559038315361
 30
0.0
  0
SPLINE
  5
C3
330
1F
100
AcDbEntity
  8
0
  6
Continuous
 62
     7
370
    25
100
AcDbSpline
210
0.0
220
0.0
230
1.0
 70
     8
 71
     3
 72
    23
 73
    19
 74
     0
 42
0.000000001
 43
0.00000001
 40
0.0
 40
0.0
 40
0.0
 40
0.0
 40
0.0611415679303346
 40
0.1200010135310724
 40
0.1782359705414084
 40
0.2364955434070171
 40
0.2948872487049731
 40
0.3546771928192959
 40
0.4166948132897784
 40
0.4806333779628394
 40
0.5458046334786408
 40
0.6097347883178744
 40
0.6729516883751546
 40
0.7360010960706835
 40
0.799827438516525
 40
0.8647672769393869
 40
0.9310835057306723
 40
1.0
 40
1.0
 40
1.0
 40
1.0
 10
417.8764708693776
 20
202.4405192161515
 30
0.0
 10
417.9174377111782
 20
202.4414515803236
 30
0.0
 10
417.9978422984933
 20
202.4432815079723
 30
0.0
 10
418.1155247529055
 20
202.4643798081971
 30
0.0
 10
418.2296239878396
 20
202.4928765739643
 30
0.0
 10
418.3375697339387
 20
202.5389299593137
 30
0.0
 10
418.4423471252602
 20
202.5937833003683
 30
0.0
 10
418.5409615457045
 20
202.6636628535498
 30
0.0
 10
418.6362067594804
 20
202.7437814717017
 30
0.0
 10
418.724576414401
 20
202.8365666055612
 30
0.0
 10
418.8054064930591
 20
202.9375085249594
 30
0.0
 10
418.876752583202
 20
203.0448528999723
 30
0.0
 10
418.9369672817844
 20
203.1571513961885
 30
0.0
 10
418.9872079076592
 20
203.2742955343299
 30
0.0
 10
419.0234641818809
 20
203.3976261259335
 30
0.0
 10
419.0520125895565
 20
203.5251524393392
 30
0.0
 10
419.0672046223976
 20
203.658505421921
 30
0.0
 10
419.0698395908979
 20
203.7489796082697
 30
0.0
 10
419.0711824078391
 20
203.7950865238438
 30
0.0
  0
SPLINE
  5
C4
330
1F
100
AcDbEntity
  8
0
  6
Continuous
 62
     7
370
    25
100
AcDbSpline
210
0.0
220
0.0
230
1.0
 70
     8
 71
     3
 72
    23
 73
    19
 74
     0
 42
0.000000001
 43
0.00000001
 40
0.0
 40
0.0
 40
0.0
 40
0.0
 40
0.0618526459466918
 40
0.1212838306153701
 40
0.1807779320756125
 40
0.2392732340142805
 40
0.2986414352139417
 40
0.3581858222417117
 40
0.4207600867589709
 40
0.4852046730216432
 40
0.5503622689482871
 40
0.613649924530912
 40
0.6766234955168249
 40
0.7391080134690126
 40
0.8021647022429448
 40
0.8667165971324778
 40
0.9320376285055445
 40
1.0
 40
1.0
 40
1.0
 40
1.0
 10
417.8764708693776
 20
205.0559038315361
 30
0.0
 10
417.8359295899499
 20
205.0548273023063
 30
0.0
 10
417.7564341764268
 20
205.0527163887509
 30
0.0
 10
417.6392592747728
 20
205.0336376077381
 30
0.0
 10
417.5266020337689
 20
205.0042865211251
 30
0.0
 10
417.4183800549653
 20
204.9613243074379
 30
0.0
 10
417.3151836723117
 20
204.9074371296072
 30
0.0
 10
417.2162798517508
 20
204.8411230154796
 30
0.0
 10
417.1216003275905
 20
204.7635048231275
 30
0.0
 10
417.0335325813864
 20
204.6732752145461
 30
0.0
 10
416.9527547044288
 20
204.5759713296079
 30
0.0
 10
416.8808299311407
 20
204.4730660263874
 30
0.0
 10
416.8204323544448
 20
204.3648865037984
 30
0.0
 10
416.7726833094366
 20
204.2508154791141
 30
0.0
 10
416.7335757032674
 20
204.1324500358086
 30
0.0
 10
416.7060363068121
 20
204.0088872038632
 30
0.0
 10
416.6904711602291
 20
203.8800184148967
 30
0.0
 10
416.6878854827559
 20
203.7927238070143
 30
0.0
 10
416.6865670232237
 20
203.7482115238438
 30
0.0
  0
LINE
  5
C5
330
1F
100
AcDbEntity
  8
0
  6
Continuous
 62
     7
370
    25
100
AcDbLine
 10
424.7331752366
 20
187.9975328519
 30
0.0
 11
414.2168818868
 21
187.9975328519
 31
0.0
  0
LINE
  5
C6
330
1F
100
AcDbEntity
  8
0
  6
Continuous
 62
     7
370
    25
100
AcDbLine
 10
424.7331752366
 20
253.051356721
 30
0.0
 11
414.2168818868
 21
253.051356721
 31
0.0
  0
LINE
  5
C7
330
1F
100
AcDbEntity
  8
0
  6
Continuous
 62
     7
370
    25
100
AcDbLine
 10
414.2168818868
 20
161.6371431587
 30
0.0
 11
424.7331752366
 21
161.6371431587
 31
0.0
  0
LINE
  5
C8
330
1F
100
AcDbEntity
  8
0
  6
Continuous
 62
     7
370
    25
100
AcDbLine
 10
378.9740527139
 20
207.3442499398
 30
0.0
 11
378.9740527139
 21
163.9847804351
 31
0.0
  0
LINE
  5
C9
330
1F
100
AcDbEntity
  8
0
  6
Continuous
 62
     7
370
    25
100
AcDbLine
 10
378.9740527139
 20
250.7037194446
 30
0.0
 11
378.9740527139
 21
207.3442499398
 31
0.0
  0
LINE
  5
CA
330
1F
100
AcDbEntity
  8
0
  6
Continuous
 62
     7
370
    25
100
AcDbLine
 10
376.9750285617
 20
207.3442499398
 30
0.0
 11
376.9750285617
 21
248.5757259923
 31
0.0
  0
LINE
  5
CB
330
1F
100
AcDbEntity
  8
0
  6
Continuous
 62
     7
370
    25
100
AcDbLine
 10
376.9750285617
 20
166.1127738874
 30
0.0
 11
376.9750285617
 21
207.3442499398
 31
0.0
  0
LINE
  5
CC
330
1F
100
AcDbEntity
  8
0
  6
Continuous
 62
     7
370
    25
100
AcDbLine
 10
445.9750285617
 20
246.3442499398
 30
0.0
 11
445.9750285617
 21
168.3442499398
 31
0.0
  0
LINE
  5
CD
330
1F
100
AcDbEntity
  8
0
  6
Continuous
 62
     7
370
    25
100
AcDbLine
 10
493.9750285617
 20
246.3442499398
 30
0.0
 11
493.9750285617
 21
168.3442499398
 31
0.0
  0
LINE
  5
CE
330
1F
100
AcDbEntity
  8
0
  6
Continuous
 62
     7
370
    25
100
AcDbLine
 10
481.9750285617
 20
246.3442499398
 30
0.0
 11
481.9750285617
 21
168.3442499398
 31
0.0
  0
LINE
  5
CF
330
1F
100
AcDbEntity
  8
0
  6
Continuous
 62
     7
370
    25
100
AcDbLine
 10
469.9750285617
 20
246.3442499398
 30
0.0
 11
469.9750285617
 21
168.3442499398
 31
0.0
  0
LINE
  5
D0
330
1F
100
AcDbEntity
  8
0
  6
Continuous
 62
     7
370
    25
100
AcDbLine
 10
457.9750285617
 20
246.3442499398
 30
0.0
 11
457.9750285617
 21
168.3442499398
 31
0.0
  0
LINE
  5
D1
330
1F
100
AcDbEntity
  8
0
  6
Continuous
 62
     7
370
    25
100
AcDbLine
 10
506.9750285617
 20
243.9552032309
 30
0.0
 11
506.9750285617
 21
170.7332966487
 31
0.0
  0
LINE
  5
D2
330
1F
100
AcDbEntity
  8
0
  6
Continuous
 62
     7
370
    25
100
AcDbLine
 10
424.7331752366
 20
161.3442499398
 30
0.0
 11
414.2168818868
 21
161.3442499398
 31
0.0
  0
LINE
  5
D3
330
1F
100
AcDbEntity
  8
0
  6
Continuous
 62
     7
370
    25
100
AcDbLine
 10
414.2168818868
 20
253.3442499398
 30
0.0
 11
424.7331752366
 21
253.3442499398
 31
0.0
  0
LINE
  5
D4
330
1F
100
AcDbEntity
  8
0
  6
Continuous
 62
     8
370
    25
100
AcDbLine
 10
505.59007331
 20
169.2377149205
 30
0.0
 11
505.59007331
 21
245.4507849592
 31
0.0
  0
LINE
  5
D5
330
1F
100
AcDbEntity
  8
0
  6
Continuous
 62
     7
370
    18
100
AcDbLine
 10
378.1669034456
 20
249.84449603
 30
0.0
 11
410.9750285617
 21
250.8697499398
 31
0.0
  0
LINE
  5
D6
330
1F
100
AcDbEntity
  8
0
  6
Continuous
 62
     7
370
    18
100
AcDbLine
 10
378.1669034456
 20
164.8440038497
 30
0.0
 11
410.9750285617
 21
163.8187499398
 31
0.0
  0
LINE
  5
D7
330
1F
100
AcDbEntity
  8
0
  6
Continuous
 62
     7
370
    18
100
AcDbLine
 10
410.9750285617
 20
162.9847499398
 30
0.0
 11
410.9750285617
 21
251.7037499398
 31
0.0
  0
LINE
  5
D8
330
1F
100
AcDbEntity
  8
0
  6
CENTERX2
 62
     7
370
    18
100
AcDbLine
 10
510.9750285617
 20
207.3442499398
 30
0.0
 11
370.9348655468
 21
207.3442499398
 31
0.0
  0
CIRCLE
  5
D9
330
1F
100
AcDbEntity
  8
0
  6
Continuous
 62
     7
370
    25
100
AcDbCircle
 10
596.3939092203
 20
207.3442499398
 30
0.0
 40
36.61095329110708
  0
CIRCLE
  5
DA
330
1F
100
AcDbEntity
  8
0
  6
Continuous
 62
     7
370
    25
100
AcDbCircle
 10
596.3939092203
 20
207.3442499398
 30
0.0
 40
38.10653501935951
  0
CIRCLE
  5
DB
330
1F
100
AcDbEntity
  8
0
  6
Continuous
 62
     7
370
    25
100
AcDbCircle
 10
596.3939092203
 20
207.3442499398
 30
0.0
 40
33.5
  0
CIRCLE
  5
DC
330
1F
100
AcDbEntity
  8
0
  6
Continuous
 62
     7
370
    25
100
AcDbCircle
 10
596.3939092203
 20
207.3442499398
 30
0.0
 40
35.5
  0
CIRCLE
  5
DD
330
1F
100
AcDbEntity
  8
0
  6
Continuous
 62
     7
370
    25
100
AcDbCircle
 10
596.3939092203
 20
207.3442499398
 30
0.0
 40
39.0
  0
SPLINE
  5
DE
330
1F
100
AcDbEntity
  8
0
  6
Continuous
 62
     7
370
    25
100
AcDbSpline
210
0.0
220
0.0
230
1.0
 70
     8
 71
     3
 72
    10
 73
     6
 74
     0
 42
0.000000001
 43
0.00000001
 40
0.0
 40
0.0
 40
0.0
 40
0.0
 40
0.5
 40
0.5
 40
1.0
 40
1.0
 40
1.0
 40
1.0
 10
615.0335195271123
 20
161.3442499398388
 30
0.0
 10
615.1634659810597
 20
161.3442499398388
 30
0.0
 10
615.2945812329209
 20
161.370034594561
 30
0.0
 10
615.537285103645
 20
161.470482810041
 30
0.0
 10
615.6487157531247
 20
161.5452326034781
 30
0.0
 10
615.7406263082988
 20
161.6371431586522
 30
0.0
  0
SPLINE
  5
DF
330
1F
100
AcDbEntity
  8
0
  6
Continuous
 62
     7
370
    25
100
AcDbSpline
210
0.0
220
0.0
230
1.0
 70
    24
 71
     3
 72
    18
 73
    14
 74
     0
 42
0.000000001
 43
0.00000001
 40
0.0
 40
0.0
 40
0.0
 40
0.0
 40
0.125
 40
0.125
 40
0.2499999999999999
 40
0.2499999999999999
 40
0.5
 40
0.5
 40
0.75
 40
0.75
 40
0.875
 40
0.875
 40
1.0
 40
1.0
 40
1.0
 40
1.0
 10
615.0335195271123
 20
161.3442499398388
 30
0.0
 10
613.5015804974173
 20
161.3442499398387
 30
0.0
 10
611.9567814247929
 20
161.3442499398388
 30
0.0
 10
608.8484847593285
 20
161.3442499398388
 30
0.0
 10
607.2937120928932
 20
161.3442499398388
 30
0.0
 10
602.6273753846044
 20
161.3442499398388
 30
0.0
 10
599.513771320482
 20
161.3442499398388
 30
0.0
 10
593.2807666766016
 20
161.3442499398388
 30
0.0
 10
590.1613654793922
 20
161.3442499398388
 30
0.0
 10
585.4781496046039
 20
161.3442499398387
 30
0.0
 10
583.912814082393
 20
161.3442499398387
 30
0.0
 10
580.8150976504459
 20
161.3442499398387
 30
0.0
 10
579.279112514697
 20
161.3442499398387
 30
0.0
 10
577.7542989135346
 20
161.3442499398387
 30
0.0
  0
SPLINE
  5
E0
330
1F
100
AcDbEntity
  8
0
  6
Continuous
 62
     7
370
    25
100
AcDbSpline
210
0.0
220
0.0
230
1.0
 70
     8
 71
     3
 72
    10
 73
     6
 74
     0
 42
0.000000001
 43
0.00000001
 40
0.0
 40
0.0
 40
0.0
 40
0.0
 40
0.5
 40
0.5
 40
1.0
 40
1.0
 40
1.0
 40
1.0
 10
577.0471921323472
 20
161.6371431586522
 30
0.0
 10
577.1390781511245
 20
161.5452571398748
 30
0.0
 10
577.2500231390368
 20
161.4707771603716
 30
0.0
 10
577.4926683061707
 20
161.3701872218861
 30
0.0
 10
577.6243177598813
 20
161.3442499398386
 30
0.0
 10
577.7542989135341
 20
161.3442499398387
 30
0.0
  0
SPLINE
  5
E1
330
1F
100
AcDbEntity
  8
0
  6
Continuous
 62
     7
370
    25
100
AcDbSpline
210
0.0
220
0.0
230
1.0
 70
    24
 71
     3
 72
    16
 73
    12
 74
     0
 42
0.000000001
 43
0.00000001
 40
0.0
 40
0.0
 40
0.0
 40
0.0
 40
0.2500000000000002
 40
0.2500000000000002
 40
0.5000000000000003
 40
0.5000000000000003
 40
0.6250000000000004
 40
0.6250000000000004
 40
0.7500000000000004
 40
0.7500000000000004
 40
1.0
 40
1.0
 40
1.0
 40
1.0
 10
550.6868024391364
 20
187.9975328518629
 30
0.0
 10
552.8607266055807
 20
185.8236086854186
 30
0.0
 10
555.0412854199997
 20
183.6430498709997
 30
0.0
 10
559.4184084298467
 20
179.2659268611526
 30
0.0
 10
561.6150087847037
 20
177.0693265062956
 30
0.0
 10
564.9230262048982
 20
173.7613090861011
 30
0.0
 10
566.027870531665
 20
172.6564647593343
 30
0.0
 10
568.2418886409952
 20
170.4424466500042
 30
0.0
 10
569.3533833880341
 20
169.3309519029653
 30
0.0
 10
572.6741783037323
 20
166.0101569872669
 30
0.0
 10
574.8685385319399
 20
163.8157967590595
 30
0.0
 10
577.0471921323466
 20
161.6371431586528
 30
0.0
  0
SPLINE
  5
E2
330
1F
100
AcDbEntity
  8
0
  6
Continuous
 62
     7
370
    25
100
AcDbSpline
210
0.0
220
0.0
230
1.0
 70
     8
 71
     3
 72
    10
 73
     6
 74
     0
 42
0.000000001
 43
0.00000001
 40
0.0
 40
0.0
 40
0.0
 40
0.0
 40
0.5
 40
0.5
 40
1.0
 40
1.0
 40
1.0
 40
1.0
 10
550.3939092203229
 20
188.7046396330495
 30
0.0
 10
550.3939092203229
 20
188.574693179102
 30
0.0
 10
550.4196938750451
 20
188.4435779272407
 30
0.0
 10
550.5201420905253
 20
188.2008740565167
 30
0.0
 10
550.5948918839623
 20
188.0894434070369
 30
0.0
 10
550.6868024391364
 20
187.9975328518628
 30
0.0
  0
SPLINE
  5
E3
330
1F
100
AcDbEntity
  8
0
  6
Continuous
 62
     7
370
    25
100
AcDbSpline
210
0.0
220
0.0
230
1.0
 70
    24
 71
     3
 72
    18
 73
    14
 74
     0
 42
0.000000001
 43
0.00000001
 40
0.0
 40
0.0
 40
0.0
 40
0.0
 40
0.125
 40
0.125
 40
0.2499999999999999
 40
0.2499999999999999
 40
0.5
 40
0.5
 40
0.75
 40
0.75
 40
0.875
 40
0.875
 40
1.0
 40
1.0
 40
1.0
 40
1.0
 10
550.3939092203229
 20
188.7046396330495
 30
0.0
 10
550.3939092203229
 20
190.2365786627443
 30
0.0
 10
550.3939092203229
 20
191.7813777353688
 30
0.0
 10
550.3939092203229
 20
194.8896744008332
 30
0.0
 10
550.3939092203229
 20
196.4444470672686
 30
0.0
 10
550.3939092203229
 20
201.1107837755573
 30
0.0
 10
550.3939092203229
 20
204.2243878396797
 30
0.0
 10
550.3939092203229
 20
210.4573924835601
 30
0.0
 10
550.3939092203229
 20
213.5767936807694
 30
0.0
 10
550.3939092203229
 20
218.2600095555578
 30
0.0
 10
550.3939092203229
 20
219.8253450777688
 30
0.0
 10
550.3939092203229
 20
222.9230615097159
 30
0.0
 10
550.3939092203229
 20
224.4590466454647
 30
0.0
 10
550.3939092203229
 20
225.9838602466272
 30
0.0
  0
SPLINE
  5
E4
330
1F
100
AcDbEntity
  8
0
  6
Continuous
 62
     7
370
    25
100
AcDbSpline
210
0.0
220
0.0
230
1.0
 70
     8
 71
     3
 72
    10
 73
     6
 74
     0
 42
0.000000001
 43
0.00000001
 40
0.0
 40
0.0
 40
0.0
 40
0.0
 40
0.5
 40
0.5
 40
1.0
 40
1.0
 40
1.0
 40
1.0
 10
550.6868024391364
 20
226.6909670278145
 30
0.0
 10
550.594916420359
 20
226.5990810090372
 30
0.0
 10
550.5204364408557
 20
226.4881360211248
 30
0.0
 10
550.4198465023703
 20
226.245490853991
 30
0.0
 10
550.3939092203228
 20
226.1138414002804
 30
0.0
 10
550.3939092203229
 20
225.9838602466277
 30
0.0
  0
SPLINE
  5
E5
330
1F
100
AcDbEntity
  8
0
  6
Continuous
 62
     7
370
    25
100
AcDbSpline
210
0.0
220
0.0
230
1.0
 70
    24
 71
     3
 72
    16
 73
    12
 74
     0
 42
0.000000001
 43
0.00000001
 40
0.0
 40
0.0
 40
0.0
 40
0.0
 40
0.2499999999999999
 40
0.2499999999999999
 40
0.4999999999999999
 40
0.4999999999999999
 40
0.625
 40
0.625
 40
0.75
 40
0.75
 40
1.0
 40
1.0
 40
1.0
 40
1.0
 10
577.0471921323472
 20
253.0513567210253
 30
0.0
 10
574.8732679659028
 20
250.8774325545809
 30
0.0
 10
572.6927091514839
 20
248.696873740162
 30
0.0
 10
568.3155861416368
 20
244.319750730315
 30
0.0
 10
566.1189857867798
 20
242.123150375458
 30
0.0
 10
562.8109683665853
 20
238.8151329552635
 30
0.0
 10
561.7061240398185
 20
237.7102886284967
 30
0.0
 10
559.4921059304884
 20
235.4962705191666
 30
0.0
 10
558.3806111834496
 20
234.3847757721276
 30
0.0
 10
555.0598162677511
 20
231.0639808564293
 30
0.0
 10
552.8654560395436
 20
228.8696206282218
 30
0.0
 10
550.6868024391371
 20
226.6909670278152
 30
0.0
  0
SPLINE
  5
E6
330
1F
100
AcDbEntity
  8
0
  6
Continuous
 62
     7
370
    25
100
AcDbSpline
210
0.0
220
0.0
230
1.0
 70
     8
 71
     3
 72
    10
 73
     6
 74
     0
 42
0.000000001
 43
0.00000001
 40
0.0
 40
0.0
 40
0.0
 40
0.0
 40
0.5
 40
0.5
 40
1.0
 40
1.0
 40
1.0
 40
1.0
 10
577.7542989135337
 20
253.3442499398387
 30
0.0
 10
577.6243524595864
 20
253.3442499398387
 30
0.0
 10
577.4932372077251
 20
253.3184652851165
 30
0.0
 10
577.2505333370009
 20
253.2180170696365
 30
0.0
 10
577.1391026875212
 20
253.1432672761994
 30
0.0
 10
577.0471921323472
 20
253.0513567210253
 30
0.0
  0
SPLINE
  5
E7
330
1F
100
AcDbEntity
  8
0
  6
Continuous
 62
     7
370
    25
100
AcDbSpline
210
0.0
220
0.0
230
1.0
 70
    24
 71
     3
 72
    18
 73
    14
 74
     0
 42
0.000000001
 43
0.00000001
 40
0.0
 40
0.0
 40
0.0
 40
0.0
 40
0.125
 40
0.125
 40
0.25
 40
0.25
 40
0.5
 40
0.5
 40
0.75
 40
0.75
 40
0.875
 40
0.875
 40
1.0
 40
1.0
 40
1.0
 40
1.0
 10
615.0335195271123
 20
253.3442499398387
 30
0.0
 10
613.5015804974174
 20
253.3442499398387
 30
0.0
 10
611.9567814247929
 20
253.3442499398387
 30
0.0
 10
608.8484847593285
 20
253.3442499398387
 30
0.0
 10
607.2937120928932
 20
253.3442499398387
 30
0.0
 10
602.6273753846044
 20
253.3442499398387
 30
0.0
 10
599.513771320482
 20
253.3442499398387
 30
0.0
 10
593.2807666766016
 20
253.3442499398387
 30
0.0
 10
590.1613654793922
 20
253.3442499398387
 30
0.0
 10
585.4781496046039
 20
253.3442499398387
 30
0.0
 10
583.912814082393
 20
253.3442499398387
 30
0.0
 10
580.8150976504459
 20
253.3442499398387
 30
0.0
 10
579.279112514697
 20
253.3442499398387
 30
0.0
 10
577.7542989135345
 20
253.3442499398387
 30
0.0
  0
SPLINE
  5
E8
330
1F
100
AcDbEntity
  8
0
  6
Continuous
 62
     7
370
    25
100
AcDbSpline
210
0.0
220
0.0
230
1.0
 70
     8
 71
     3
 72
    10
 73
     6
 74
     0
 42
0.000000001
 43
0.00000001
 40
0.0
 40
0.0
 40
0.0
 40
0.0
 40
0.5
 40
0.5
 40
1.0
 40
1.0
 40
1.0
 40
1.0
 10
615.7406263082988
 20
253.0513567210253
 30
0.0
 10
615.6487402895216
 20
253.1432427398026
 30
0.0
 10
615.5377953016093
 20
253.2177227193058
 30
0.0
 10
615.2951501344758
 20
253.3183126577913
 30
0.0
 10
615.1635006807649
 20
253.3442499398388
 30
0.0
 10
615.0335195271123
 20
253.3442499398388
 30
0.0
  0
SPLINE
  5
E9
330
1F
100
AcDbEntity
  8
0
  6
Continuous
 62
     7
370
    25
100
AcDbSpline
210
0.0
220
0.0
230
1.0
 70
    24
 71
     3
 72
    16
 73
    12
 74
     0
 42
0.000000001
 43
0.00000001
 40
0.0
 40
0.0
 40
0.0
 40
0.0
 40
0.2500000000000003
 40
0.2500000000000003
 40
0.5000000000000006
 40
0.5000000000000006
 40
0.6250000000000004
 40
0.6250000000000004
 40
0.7500000000000003
 40
0.7500000000000003
 40
1.0
 40
1.0
 40
1.0
 40
1.0
 10
642.1010160015095
 20
226.6909670278146
 30
0.0
 10
639.9270918350652
 20
228.8648911942589
 30
0.0
 10
637.7465330206462
 20
231.0454500086778
 30
0.0
 10
633.3694100107991
 20
235.4225730185249
 30
0.0
 10
631.1728096559423
 20
237.6191733733819
 30
0.0
 10
627.8647922357477
 20
240.9271907935764
 30
0.0
 10
626.759947908981
 20
242.0320351203432
 30
0.0
 10
624.5459297996507
 20
244.2460532296733
 30
0.0
 10
623.4344350526119
 20
245.3575479767122
 30
0.0
 10
620.1136401369135
 20
248.6783428924106
 30
0.0
 10
617.9192799087061
 20
250.872703120618
 30
0.0
 10
615.7406263082994
 20
253.0513567210247
 30
0.0
  0
SPLINE
  5
EA
330
1F
100
AcDbEntity
  8
0
  6
Continuous
 62
     7
370
    25
100
AcDbSpline
210
0.0
220
0.0
230
1.0
 70
     8
 71
     3
 72
    10
 73
     6
 74
     0
 42
0.000000001
 43
0.00000001
 40
0.0
 40
0.0
 40
0.0
 40
0.0
 40
0.5
 40
0.5
 40
1.0
 40
1.0
 40
1.0
 40
1.0
 10
642.3939092203229
 20
225.983860246628
 30
0.0
 10
642.3939092203229
 20
226.1138067005754
 30
0.0
 10
642.3681245656006
 20
226.2449219524367
 30
0.0
 10
642.2676763501207
 20
226.4876258231608
 30
0.0
 10
642.1929265566836
 20
226.5990564726405
 30
0.0
 10
642.1010160015095
 20
226.6909670278146
 30
0.0
  0
SPLINE
  5
EB
330
1F
100
AcDbEntity
  8
0
  6
Continuous
 62
     7
370
    25
100
AcDbSpline
210
0.0
220
0.0
230
1.0
 70
    24
 71
     3
 72
    18
 73
    14
 74
     0
 42
0.000000001
 43
0.00000001
 40
0.0
 40
0.0
 40
0.0
 40
0.0
 40
0.1250000000000001
 40
0.1250000000000001
 40
0.2500000000000002
 40
0.2500000000000002
 40
0.5000000000000002
 40
0.5000000000000002
 40
0.7500000000000002
 40
0.7500000000000002
 40
0.8750000000000001
 40
0.8750000000000001
 40
1.0
 40
1.0
 40
1.0
 40
1.0
 10
642.3939092203229
 20
188.7046396330495
 30
0.0
 10
642.3939092203229
 20
190.2365786627443
 30
0.0
 10
642.3939092203229
 20
191.7813777353688
 30
0.0
 10
642.3939092203229
 20
194.8896744008332
 30
0.0
 10
642.3939092203229
 20
196.4444470672686
 30
0.0
 10
642.3939092203229
 20
201.1107837755573
 30
0.0
 10
642.3939092203229
 20
204.2243878396797
 30
0.0
 10
642.3939092203229
 20
210.4573924835601
 30
0.0
 10
642.3939092203229
 20
213.5767936807695
 30
0.0
 10
642.3939092203229
 20
218.2600095555578
 30
0.0
 10
642.3939092203229
 20
219.8253450777688
 30
0.0
 10
642.3939092203229
 20
222.9230615097159
 30
0.0
 10
642.3939092203229
 20
224.4590466454647
 30
0.0
 10
642.3939092203229
 20
225.9838602466272
 30
0.0
  0
SPLINE
  5
EC
330
1F
100
AcDbEntity
  8
0
  6
Continuous
 62
     7
370
    25
100
AcDbSpline
210
0.0
220
0.0
230
1.0
 70
     8
 71
     3
 72
    10
 73
     6
 74
     0
 42
0.000000001
 43
0.00000001
 40
0.0
 40
0.0
 40
0.0
 40
0.0
 40
0.5
 40
0.5
 40
1.0
 40
1.0
 40
1.0
 40
1.0
 10
642.1010160015095
 20
187.9975328518629
 30
0.0
 10
642.1929020202867
 20
188.0894188706402
 30
0.0
 10
642.2673819997899
 20
188.2003638585524
 30
0.0
 10
642.3679719382754
 20
188.4430090256859
 30
0.0
 10
642.393909220323
 20
188.5746584793968
 30
0.0
 10
642.393909220323
 20
188.7046396330495
 30
0.0
  0
SPLINE
  5
ED
330
1F
100
AcDbEntity
  8
0
  6
Continuous
 62
     7
370
    25
100
AcDbSpline
210
0.0
220
0.0
230
1.0
 70
    24
 71
     3
 72
    16
 73
    12
 74
     0
 42
0.000000001
 43
0.00000001
 40
0.0
 40
0.0
 40
0.0
 40
0.0
 40
0.2500000000000001
 40
0.2500000000000001
 40
0.5000000000000001
 40
0.5000000000000001
 40
0.6249999999999999
 40
0.6249999999999999
 40
0.7499999999999997
 40
0.7499999999999997
 40
1.0
 40
1.0
 40
1.0
 40
1.0
 10
615.7406263082987
 20
161.6371431586522
 30
0.0
 10
617.9145504747431
 20
163.8110673250965
 30
0.0
 10
620.095109289162
 20
165.9916261395155
 30
0.0
 10
624.4722322990092
 20
170.3687491493626
 30
0.0
 10
626.668832653866
 20
172.5653495042195
 30
0.0
 10
629.9768500740606
 20
175.873366924414
 30
0.0
 10
631.0816944008272
 20
176.9782112511808
 30
0.0
 10
633.2957125101575
 20
179.1922293605109
 30
0.0
 10
634.4072072571964
 20
180.3037241075499
 30
0.0
 10
637.7280021728947
 20
183.6245190232482
 30
0.0
 10
639.9223624011022
 20
185.8188792514556
 30
0.0
 10
642.1010160015088
 20
187.9975328518623
 30
0.0
  0
CIRCLE
  5
EE
330
1F
100
AcDbEntity
  8
0
  6
Continuous
 62
     7
370
    25
100
AcDbCircle
 10
596.3939092203
 20
207.3442499398
 30
0.0
 40
45.75
  0
INSERT
  5
FA
330
1F
100
AcDbEntity
  8
0
  6
Continuous
 62
     7
370
    18
100
AcDbBlockReference
  2
SW_CENTERMARKSYMBOL_0
 10
596.3939092203
 20
207.3442499398
 30
0.0
  0
INSERT
  5
106
330
1F
100
AcDbEntity
  8
0
  6
Continuous
 62
     7
370
    18
100
AcDbBlockReference
  2
SW_CENTERMARKSYMBOL_1
 10
596.3939092203
 20
207.3442499398
 30
0.0
  0
LINE
  5
107
330
1F
100
AcDbEntity
  8
0
  6
Continuous
 62
     7
370
    25
100
AcDbLine
 10
426.8306909944
 20
288.8426477718
 30
0.0
 11
426.9750285617
 21
289.0926477718
 31
0.0
  0
LINE
  5
108
330
1F
100
AcDbEntity
  8
0
  6
Continuous
 62
     7
370
    25
100
AcDbLine
 10
426.9750285617
 20
380.5926477718
 30
0.0
 11
426.8306909944
 21
380.8426477718
 31
0.0
  0
LINE
  5
109
330
1F
100
AcDbEntity
  8
0
  6
Continuous
 62
     7
370
    25
100
AcDbLine
 10
412.119366129
 20
380.8426477718
 30
0.0
 11
411.9750285617
 21
380.5926477718
 31
0.0
  0
LINE
  5
10A
330
1F
100
AcDbEntity
  8
0
  6
Continuous
 62
     7
370
    25
100
AcDbLine
 10
411.9750285617
 20
289.0926477718
 30
0.0
 11
412.119366129
 21
288.8426477718
 31
0.0
  0
LINE
  5
10B
330
1F
100
AcDbEntity
  8
0
  6
Continuous
 62
     7
370
    25
100
AcDbLine
 10
411.9750285617
 20
379.2333977718
 30
0.0
 11
378.9740527139
 21
378.2021172765
 31
0.0
  0
LINE
  5
10C
330
1F
100
AcDbEntity
  8
0
  6
Continuous
 62
     7
370
    25
100
AcDbLine
 10
378.9740527139
 20
291.483178267
 30
0.0
 11
411.9750285617
 21
290.4518977718
 31
0.0
  0
LINE
  5
10D
330
1F
100
AcDbEntity
  8
0
  6
Continuous
 62
     7
370
    25
100
AcDbLine
 10
378.9740527139
 20
378.2021172765
 30
0.0
 11
376.9750285617
 21
376.0741238242
 31
0.0
  0
LINE
  5
10E
330
1F
100
AcDbEntity
  8
0
  6
Continuous
 62
     7
370
    25
100
AcDbLine
 10
376.9750285617
 20
293.6111717193
 30
0.0
 11
378.9740527139
 21
291.483178267
 31
0.0
  0
LINE
  5
10F
330
1F
100
AcDbEntity
  8
0
  6
Continuous
 62
     7
370
    25
100
AcDbLine
 10
481.9750285617
 20
295.8426477718
 30
0.0
 11
493.9750285617
 21
296.8426477718
 31
0.0
  0
LINE
  5
110
330
1F
100
AcDbEntity
  8
0
  6
Continuous
 62
     7
370
    25
100
AcDbLine
 10
493.9750285617
 20
372.8426477718
 30
0.0
 11
481.9750285617
 21
373.8426477718
 31
0.0
  0
LINE
  5
111
330
1F
100
AcDbEntity
  8
0
  6
Continuous
 62
     7
370
    25
100
AcDbLine
 10
469.9750285617
 20
295.8426477718
 30
0.0
 11
481.9750285617
 21
296.8426477718
 31
0.0
  0
LINE
  5
112
330
1F
100
AcDbEntity
  8
0
  6
Continuous
 62
     7
370
    25
100
AcDbLine
 10
481.9750285617
 20
372.8426477718
 30
0.0
 11
469.9750285617
 21
373.8426477718
 31
0.0
  0
LINE
  5
113
330
1F
100
AcDbEntity
  8
0
  6
Continuous
 62
     7
370
    25
100
AcDbLine
 10
493.9750285617
 20
295.8426477718
 30
0.0
 11
505.59007331
 21
296.7361127524
 31
0.0
  0
LINE
  5
114
330
1F
100
AcDbEntity
  8
0
  6
Continuous
 62
     7
370
    25
100
AcDbLine
 10
505.59007331
 20
372.9491827911
 30
0.0
 11
493.9750285617
 21
373.8426477718
 31
0.0
  0
LINE
  5
115
330
1F
100
AcDbEntity
  8
0
  6
Continuous
 62
     7
370
    25
100
AcDbLine
 10
445.9750285617
 20
373.8426477718
 30
0.0
 11
426.9750285617
 21
373.8426477718
 31
0.0
  0
LINE
  5
116
330
1F
100
AcDbEntity
  8
0
  6
Continuous
 62
     7
370
    25
100
AcDbLine
 10
426.9750285617
 20
295.8426477718
 30
0.0
 11
445.9750285617
 21
295.8426477718
 31
0.0
  0
LINE
  5
117
330
1F
100
AcDbEntity
  8
0
  6
Continuous
 62
     7
370
    25
100
AcDbLine
 10
445.9750285617
 20
295.8426477718
 30
0.0
 11
457.9750285617
 21
296.8426477718
 31
0.0
  0
LINE
  5
118
330
1F
100
AcDbEntity
  8
0
  6
Continuous
 62
     7
370
    25
100
AcDbLine
 10
457.9750285617
 20
372.8426477718
 30
0.0
 11
445.9750285617
 21
373.8426477718
 31
0.0
  0
LINE
  5
119
330
1F
100
AcDbEntity
  8
0
  6
Continuous
 62
     7
370
    25
100
AcDbLine
 10
457.9750285617
 20
295.8426477718
 30
0.0
 11
469.9750285617
 21
296.8426477718
 31
0.0
  0
LINE
  5
11A
330
1F
100
AcDbEntity
  8
0
  6
Continuous
 62
     7
370
    25
100
AcDbLine
 10
469.9750285617
 20
372.8426477718
 30
0.0
 11
457.9750285617
 21
373.8426477718
 31
0.0
  0
ARC
  5
11B
330
1F
100
AcDbEntity
  8
0
  6
Continuous
 62
     7
370
    25
100
AcDbCircle
 10
505.4750285617
 20
371.4536010629
 30
0.0
 40
1.500000000000005
100
AcDbArc
 50
0.0
 51
85.601294645
  0
ARC
  5
11C
330
1F
100
AcDbEntity
  8
0
  6
Continuous
 62
     7
370
    25
100
AcDbCircle
 10
505.4750285617
 20
298.2316944807
 30
0.0
 40
1.500000000000005
100
AcDbArc
 50
274.398705355
 51
0.0
  0
SPLINE
  5
11D
330
1F
100
AcDbEntity
  8
0
  6
Continuous
 62
     7
370
    25
100
AcDbSpline
210
0.0
220
0.0
230
1.0
 70
    24
 71
     3
 72
    13
 73
     9
 74
     0
 42
0.000000001
 43
0.00000001
 40
0.0
 40
0.0
 40
0.0
 40
0.0
 40
0.1857388685043823
 40
0.3717080235915164
 40
0.543560182604275
 40
0.7154083046243797
 40
0.8883046423274827
 40
1.0
 40
1.0
 40
1.0
 40
1.0
 10
424.7331752365578
 20
288.842647771789
 30
0.0
 10
424.969064917289
 20
288.842647771789
 30
0.0
 10
425.4411367443453
 20
288.842647771789
 30
0.0
 10
425.9822474477809
 20
288.842647771789
 30
0.0
 10
426.3958832563022
 20
288.842647771789
 30
0.0
 10
426.6705400913161
 20
288.842647771789
 30
0.0
 10
426.8176119881062
 20
288.842647771789
 30
0.0
 10
426.8160954480135
 20
288.842647771789
 30
0.0
 10
426.8155002427043
 20
288.842647771789
 30
0.0
  0
SPLINE
  5
11E
330
1F
100
AcDbEntity
  8
0
  6
Continuous
 62
     7
370
    25
100
AcDbSpline
210
0.0
220
0.0
230
1.0
 70
     8
 71
     3
 72
    10
 73
     6
 74
     0
 42
0.000000001
 43
0.00000001
 40
0.0
 40
0.0
 40
0.0
 40
0.0
 40
0.5
 40
0.5
 40
1.0
 40
1.0
 40
1.0
 40
1.0
 10
424.7331752365632
 20
289.1355409906024
 30
0.0
 10
424.7049998376451
 20
289.043654971825
 30
0.0
 10
424.6901005586325
 20
288.9691749923218
 30
0.0
 10
424.6900571667663
 20
288.8685850538363
 30
0.0
 10
424.7049923139402
 20
288.8426477717888
 30
0.0
 10
424.7331752365576
 20
288.8426477717889
 30
0.0
  0
SPLINE
  5
11F
330
1F
100
AcDbEntity
  8
0
  6
Continuous
 62
     7
370
    25
100
AcDbSpline
210
0.0
220
0.0
230
1.0
 70
     8
 71
     3
 72
    16
 73
    12
 74
     0
 42
0.000000001
 43
0.00000001
 40
0.0
 40
0.0
 40
0.0
 40
0.0
 40
0.2499999999999999
 40
0.2499999999999999
 40
0.4999999999999999
 40
0.4999999999999999
 40
0.625
 40
0.625
 40
0.75
 40
0.75
 40
1.0
 40
1.0
 40
1.0
 40
1.0
 10
424.7331752365576
 20
315.4959306838131
 30
0.0
 10
425.3997748065721
 20
313.3220065173688
 30
0.0
 10
425.9261639213169
 20
311.1414477029499
 30
0.0
 10
426.6406993733989
 20
306.7643246931028
 30
0.0
 10
426.8280815511312
 20
304.5677243382459
 30
0.0
 10
426.8319547564028
 20
301.2597069180513
 30
0.0
 10
426.7873479036778
 20
300.1548625912846
 30
0.0
 10
426.6066395220016
 20
297.9408444819544
 30
0.0
 10
426.4701172565143
 20
296.8293497349155
 30
0.0
 10
425.931458489873
 20
293.5085548192171
 30
0.0
 10
425.4012250129292
 20
291.3141945910097
 30
0.0
 10
424.7331752365578
 20
289.135540990603
 30
0.0
  0
SPLINE
  5
120
330
1F
100
AcDbEntity
  8
0
  6
Continuous
 62
     7
370
    25
100
AcDbSpline
210
0.0
220
0.0
230
1.0
 70
     8
 71
     3
 72
    10
 73
     6
 74
     0
 42
0.000000001
 43
0.00000001
 40
0.0
 40
0.0
 40
0.0
 40
0.0
 40
0.5
 40
0.5
 40
1.0
 40
1.0
 40
1.0
 40
1.0
 10
424.7331752365603
 20
316.2030374649997
 30
0.0
 10
424.7049998376422
 20
316.0730910110523
 30
0.0
 10
424.6901005586325
 20
315.9419757591911
 30
0.0
 10
424.6900571667663
 20
315.6992718884669
 30
0.0
 10
424.7049923139402
 20
315.5878412389872
 30
0.0
 10
424.7331752365575
 20
315.4959306838131
 30
0.0
  0
SPLINE
  5
121
330
1F
100
AcDbEntity
  8
0
  6
Continuous
 62
     7
370
    25
100
AcDbSpline
210
0.0
220
0.0
230
1.0
 70
     8
 71
     3
 72
    18
 73
    14
 74
     0
 42
0.000000001
 43
0.00000001
 40
0.0
 40
0.0
 40
0.0
 40
0.0
 40
0.125
 40
0.125
 40
0.25
 40
0.25
 40
0.5
 40
0.5
 40
0.75
 40
0.75
 40
0.875
 40
0.875
 40
1.0
 40
1.0
 40
1.0
 40
1.0
 10
424.7331752365575
 20
353.4822580785782
 30
0.0
 10
425.0653350760048
 20
351.9503190488834
 30
0.0
 10
425.3650479089679
 20
350.4055199762589
 30
0.0
 10
425.8878575011417
 20
347.2972233107945
 30
0.0
 10
426.1094939252373
 20
345.7424506443592
 30
0.0
 10
426.6458168832622
 20
341.0761139360704
 30
0.0
 10
426.830559504111
 20
337.962509871948
 30
0.0
 10
426.8308223429866
 20
331.7295052280676
 30
0.0
 10
426.6463032310345
 20
328.6101040308583
 30
0.0
 10
426.1074688351894
 20
323.9268881560698
 30
0.0
 10
425.8837556992235
 20
322.3615526338589
 30
0.0
 10
425.3620032423811
 20
319.2638362019118
 30
0.0
 10
425.0637901181761
 20
317.727851066163
 30
0.0
 10
424.7331752365578
 20
316.2030374650005
 30
0.0
  0
SPLINE
  5
122
330
1F
100
AcDbEntity
  8
0
  6
Continuous
 62
     7
370
    25
100
AcDbSpline
210
0.0
220
0.0
230
1.0
 70
     8
 71
     3
 72
    10
 73
     6
 74
     0
 42
0.000000001
 43
0.00000001
 40
0.0
 40
0.0
 40
0.0
 40
0.0
 40
0.5
 40
0.5
 40
1.0
 40
1.0
 40
1.0
 40
1.0
 10
424.7331752365632
 20
354.1893648597648
 30
0.0
 10
424.7049998376451
 20
354.0974788409875
 30
0.0
 10
424.6901005586325
 20
353.9865338530753
 30
0.0
 10
424.6900571667662
 20
353.7438886859418
 30
0.0
 10
424.7049923139402
 20
353.6122392322309
 30
0.0
 10
424.7331752365575
 20
353.4822580785782
 30
0.0
  0
SPLINE
  5
123
330
1F
100
AcDbEntity
  8
0
  6
Continuous
 62
     7
370
    25
100
AcDbSpline
210
0.0
220
0.0
230
1.0
 70
     8
 71
     3
 72
    16
 73
    12
 74
     0
 42
0.000000001
 43
0.00000001
 40
0.0
 40
0.0
 40
0.0
 40
0.0
 40
0.2500000000000003
 40
0.2500000000000003
 40
0.5000000000000006
 40
0.5000000000000006
 40
0.6250000000000004
 40
0.6250000000000004
 40
0.7500000000000003
 40
0.7500000000000003
 40
1.0
 40
1.0
 40
1.0
 40
1.0
 10
424.7331752365576
 20
380.5497545529755
 30
0.0
 10
425.3997748065721
 20
378.3758303865312
 30
0.0
 10
425.9261639213169
 20
376.1952715721122
 30
0.0
 10
426.6406993733989
 20
371.8181485622652
 30
0.0
 10
426.8280815511312
 20
369.6215482074082
 30
0.0
 10
426.8319547564028
 20
366.3135307872137
 30
0.0
 10
426.7873479036778
 20
365.208686460447
 30
0.0
 10
426.6066395220016
 20
362.9946683511168
 30
0.0
 10
426.4701172565143
 20
361.8831736040779
 30
0.0
 10
425.931458489873
 20
358.5623786883795
 30
0.0
 10
425.4012250129292
 20
356.3680184601721
 30
0.0
 10
424.7331752365578
 20
354.1893648597654
 30
0.0
  0
SPLINE
  5
124
330
1F
100
AcDbEntity
  8
0
  6
Continuous
 62
     7
370
    25
100
AcDbSpline
210
0.0
220
0.0
230
1.0
 70
     8
 71
     3
 72
    10
 73
     6
 74
     0
 42
0.000000001
 43
0.00000001
 40
0.0
 40
0.0
 40
0.0
 40
0.0
 40
0.5
 40
0.5
 40
1.0
 40
1.0
 40
1.0
 40
1.0
 10
424.7331752365603
 20
380.842647771789
 30
0.0
 10
424.7049998376422
 20
380.842647771789
 30
0.0
 10
424.6901005586325
 20
380.8168631170668
 30
0.0
 10
424.6900571667663
 20
380.7164149015867
 30
0.0
 10
424.7049923139402
 20
380.6416651081497
 30
0.0
 10
424.7331752365575
 20
380.5497545529756
 30
0.0
  0
SPLINE
  5
125
330
1F
100
AcDbEntity
  8
0
  6
Continuous
 62
     7
370
    25
100
AcDbSpline
210
0.0
220
0.0
230
1.0
 70
    24
 71
     3
 72
    13
 73
     9
 74
     0
 42
0.000000001
 43
0.00000001
 40
0.0
 40
0.0
 40
0.0
 40
0.0
 40
0.0973871203982381
 40
0.2735755507657571
 40
0.4509304119217672
 40
0.6282898138683416
 40
0.81402297606847
 40
1.0
 40
1.0
 40
1.0
 40
1.0
 10
426.813624157362
 20
380.842647771789
 30
0.0
 10
426.8161407659625
 20
380.842647771789
 30
0.0
 10
426.8232103104888
 20
380.842647771789
 30
0.0
 10
426.6834908104451
 20
380.842647771789
 30
0.0
 10
426.4082684556853
 20
380.842647771789
 30
0.0
 10
425.9878872719721
 20
380.842647771789
 30
0.0
 10
425.4414090484759
 20
380.842647771789
 30
0.0
 10
424.9693564044445
 20
380.842647771789
 30
0.0
 10
424.7331752365578
 20
380.842647771789
 30
0.0
  0
LINE
  5
126
330
1F
100
AcDbEntity
  8
0
  6
Continuous
 62
     7
370
    25
100
AcDbLine
 10
426.9750285617
 20
380.5926477718
 30
0.0
 11
426.9750285617
 21
289.0926477718
 31
0.0
  0
SPLINE
  5
127
330
1F
100
AcDbEntity
  8
0
  6
Continuous
 62
     7
370
    25
100
AcDbSpline
210
0.0
220
0.0
230
1.0
 70
     8
 71
     3
 72
    10
 73
     6
 74
     0
 42
0.000000001
 43
0.00000001
 40
0.0
 40
0.0
 40
0.0
 40
0.0
 40
0.5
 40
0.5
 40
1.0
 40
1.0
 40
1.0
 40
1.0
 10
414.2168818868129
 20
380.5497545529755
 30
0.0
 10
414.2450572857309
 20
380.6416405717524
 30
0.0
 10
414.2599565647378
 20
380.7161205512554
 30
0.0
 10
414.2599999566044
 20
380.8167104897406
 30
0.0
 10
414.24506480943
 20
380.8426477717891
 30
0.0
 10
414.2168818868129
 20
380.842647771789
 30
0.0
  0
SPLINE
  5
128
330
1F
100
AcDbEntity
  8
0
  6
Continuous
 62
     7
370
    25
100
AcDbSpline
210
0.0
220
0.0
230
1.0
 70
     8
 71
     3
 72
    16
 73
    12
 74
     0
 42
0.000000001
 43
0.00000001
 40
0.0
 40
0.0
 40
0.0
 40
0.0
 40
0.2499999999999999
 40
0.2499999999999999
 40
0.4999999999999999
 40
0.4999999999999999
 40
0.625
 40
0.625
 40
0.75
 40
0.75
 40
1.0
 40
1.0
 40
1.0
 40
1.0
 10
414.2168818868129
 20
380.5497545529755
 30
0.0
 10
413.5502823167984
 20
378.3758303865311
 30
0.0
 10
413.0238932020535
 20
376.1952715721121
 30
0.0
 10
412.3093577499715
 20
371.8181485622648
 30
0.0
 10
412.1219755722394
 20
369.6215482074077
 30
0.0
 10
412.1181023669678
 20
366.3135307872131
 30
0.0
 10
412.1627092196927
 20
365.2086864604462
 30
0.0
 10
412.343417601369
 20
362.9946683511159
 30
0.0
 10
412.4799398668564
 20
361.8831736040769
 30
0.0
 10
413.0185986334977
 20
358.5623786883785
 30
0.0
 10
413.5488321104417
 20
356.368018460171
 30
0.0
 10
414.2168818868131
 20
354.1893648597642
 30
0.0
  0
SPLINE
  5
129
330
1F
100
AcDbEntity
  8
0
  6
Continuous
 62
     7
370
    25
100
AcDbSpline
210
0.0
220
0.0
230
1.0
 70
     8
 71
     3
 72
    10
 73
     6
 74
     0
 42
0.000000001
 43
0.00000001
 40
0.0
 40
0.0
 40
0.0
 40
0.0
 40
0.5
 40
0.5
 40
1.0
 40
1.0
 40
1.0
 40
1.0
 10
414.2168818868129
 20
353.4822580785782
 30
0.0
 10
414.245057285731
 20
353.6122045325256
 30
0.0
 10
414.259956564738
 20
353.7433197843867
 30
0.0
 10
414.2599999566043
 20
353.9860236551106
 30
0.0
 10
414.2450648094301
 20
354.0974543045914
 30
0.0
 10
414.2168818868128
 20
354.1893648597652
 30
0.0
  0
SPLINE
  5
12A
330
1F
100
AcDbEntity
  8
0
  6
Continuous
 62
     7
370
    25
100
AcDbSpline
210
0.0
220
0.0
230
1.0
 70
     8
 71
     3
 72
    18
 73
    14
 74
     0
 42
0.000000001
 43
0.00000001
 40
0.0
 40
0.0
 40
0.0
 40
0.0
 40
0.125
 40
0.125
 40
0.2499999999999999
 40
0.2499999999999999
 40
0.5
 40
0.5
 40
0.75
 40
0.75
 40
0.875
 40
0.875
 40
1.0
 40
1.0
 40
1.0
 40
1.0
 10
414.2168818868129
 20
353.4822580785783
 30
0.0
 10
413.8847220473657
 20
351.9503190488832
 30
0.0
 10
413.5850092144025
 20
350.4055199762585
 30
0.0
 10
413.0621996222286
 20
347.2972233107936
 30
0.0
 10
412.8405631981331
 20
345.742450644358
 30
0.0
 10
412.3042402401081
 20
341.0761139360685
 30
0.0
 10
412.1194976192594
 20
337.9625098719457
 30
0.0
 10
412.1192347803841
 20
331.7295052280643
 30
0.0
 10
412.3037538923363
 20
328.6101040308545
 30
0.0
 10
412.8425882881817
 20
323.9268881560653
 30
0.0
 10
413.0663014241478
 20
322.3615526338542
 30
0.0
 10
413.5880538809903
 20
319.2638362019066
 30
0.0
 10
413.8862670051955
 20
317.7278510661575
 30
0.0
 10
414.216881886814
 20
316.2030374649949
 30
0.0
  0
SPLINE
  5
12B
330
1F
100
AcDbEntity
  8
0
  6
Continuous
 62
     7
370
    25
100
AcDbSpline
210
0.0
220
0.0
230
1.0
 70
     8
 71
     3
 72
    10
 73
     6
 74
     0
 42
0.000000001
 43
0.00000001
 40
0.0
 40
0.0
 40
0.0
 40
0.0
 40
0.5
 40
0.5
 40
1.0
 40
1.0
 40
1.0
 40
1.0
 10
414.2168818868129
 20
315.4959306838131
 30
0.0
 10
414.2450572857309
 20
315.58781670259
 30
0.0
 10
414.2599565647378
 20
315.6987616905019
 30
0.0
 10
414.2599999566044
 20
315.9414068576334
 30
0.0
 10
414.24506480943
 20
316.0730563113484
 30
0.0
 10
414.2168818868129
 20
316.203037465
 30
0.0
  0
SPLINE
  5
12C
330
1F
100
AcDbEntity
  8
0
  6
Continuous
 62
     7
370
    25
100
AcDbSpline
210
0.0
220
0.0
230
1.0
 70
     8
 71
     3
 72
    16
 73
    12
 74
     0
 42
0.000000001
 43
0.00000001
 40
0.0
 40
0.0
 40
0.0
 40
0.0
 40
0.25
 40
0.25
 40
0.5
 40
0.5
 40
0.625
 40
0.625
 40
0.75
 40
0.75
 40
1.0
 40
1.0
 40
1.0
 40
1.0
 10
414.2168818868129
 20
315.4959306838131
 30
0.0
 10
413.5502823167984
 20
313.3220065173687
 30
0.0
 10
413.0238932020535
 20
311.1414477029497
 30
0.0
 10
412.3093577499715
 20
306.7643246931024
 30
0.0
 10
412.1219755722393
 20
304.5677243382453
 30
0.0
 10
412.1181023669678
 20
301.2597069180507
 30
0.0
 10
412.1627092196927
 20
300.1548625912838
 30
0.0
 10
412.343417601369
 20
297.9408444819535
 30
0.0
 10
412.4799398668564
 20
296.8293497349146
 30
0.0
 10
413.0185986334977
 20
293.5085548192161
 30
0.0
 10
413.5488321104417
 20
291.3141945910086
 30
0.0
 10
414.2168818868131
 20
289.1355409906018
 30
0.0
  0
SPLINE
  5
12D
330
1F
100
AcDbEntity
  8
0
  6
Continuous
 62
     7
370
    25
100
AcDbSpline
210
0.0
220
0.0
230
1.0
 70
     8
 71
     3
 72
    10
 73
     6
 74
     0
 42
0.000000001
 43
0.00000001
 40
0.0
 40
0.0
 40
0.0
 40
0.0
 40
0.5
 40
0.5
 40
1.0
 40
1.0
 40
1.0
 40
1.0
 10
414.2168818868102
 20
288.842647771789
 30
0.0
 10
414.2450572857281
 20
288.842647771789
 30
0.0
 10
414.2599565647381
 20
288.8684324265121
 30
0.0
 10
414.2599999566041
 20
288.9688806419919
 30
0.0
 10
414.2450648094299
 20
289.0436304354293
 30
0.0
 10
414.2168818868128
 20
289.1355409906028
 30
0.0
  0
SPLINE
  5
12E
330
1F
100
AcDbEntity
  8
0
  6
Continuous
 62
     7
370
    25
100
AcDbSpline
210
0.0
220
0.0
230
1.0
 70
    24
 71
     3
 72
    13
 73
     9
 74
     0
 42
0.000000001
 43
0.00000001
 40
0.0
 40
0.0
 40
0.0
 40
0.0
 40
0.1857388685044783
 40
0.3717080235917088
 40
0.5435601826044147
 40
0.7154083046244668
 40
0.8883046423275169
 40
1.0
 40
1.0
 40
1.0
 40
1.0
 10
414.216881886814
 20
288.842647771789
 30
0.0
 10
413.9809922060825
 20
288.842647771789
 30
0.0
 10
413.5089203790257
 20
288.842647771789
 30
0.0
 10
412.9678096755897
 20
288.842647771789
 30
0.0
 10
412.5541738670683
 20
288.842647771789
 30
0.0
 10
412.2795170320545
 20
288.842647771789
 30
0.0
 10
412.1324451352643
 20
288.842647771789
 30
0.0
 10
412.133961675357
 20
288.842647771789
 30
0.0
 10
412.1345568806663
 20
288.842647771789
 30
0.0
  0
SPLINE
  5
12F
330
1F
100
AcDbEntity
  8
0
  6
Continuous
 62
     7
370
    25
100
AcDbSpline
210
0.0
220
0.0
230
1.0
 70
    24
 71
     3
 72
    13
 73
     9
 74
     0
 42
0.000000001
 43
0.00000001
 40
0.0
 40
0.0
 40
0.0
 40
0.0
 40
0.0973871203982082
 40
0.2735755507656731
 40
0.4509304119216287
 40
0.6282898138681485
 40
0.8140229760683733
 40
1.0
 40
1.0
 40
1.0
 40
1.0
 10
412.1364329660086
 20
380.842647771789
 30
0.0
 10
412.1339163574081
 20
380.842647771789
 30
0.0
 10
412.1268468128818
 20
380.842647771789
 30
0.0
 10
412.2665663129254
 20
380.842647771789
 30
0.0
 10
412.5417886676852
 20
380.842647771789
 30
0.0
 10
412.9621698513986
 20
380.842647771789
 30
0.0
 10
413.5086480748951
 20
380.842647771789
 30
0.0
 10
413.9807007189269
 20
380.842647771789
 30
0.0
 10
414.216881886814
 20
380.842647771789
 30
0.0
  0
LINE
  5
130
330
1F
100
AcDbEntity
  8
0
  6
Continuous
 62
     7
370
    25
100
AcDbLine
 10
411.9750285617
 20
380.5926477718
 30
0.0
 11
411.9750285617
 21
289.0926477718
 31
0.0
  0
LINE
  5
131
330
1F
100
AcDbEntity
  8
0
  6
Continuous
 62
     7
370
    25
100
AcDbLine
 10
424.7331752366
 20
353.4822580786
 30
0.0
 11
414.2168818868
 21
353.4822580786
 31
0.0
  0
LINE
  5
132
330
1F
100
AcDbEntity
  8
0
  6
Continuous
 62
     7
370
    25
100
AcDbLine
 10
414.2168818868
 20
354.1893648598
 30
0.0
 11
424.7331752366
 21
354.1893648598
 31
0.0
  0
LINE
  5
133
330
1F
100
AcDbEntity
  8
0
  6
Continuous
 62
     7
370
    25
100
AcDbLine
 10
414.2168818868
 20
316.203037465
 30
0.0
 11
424.7331752366
 21
316.203037465
 31
0.0
  0
LINE
  5
134
330
1F
100
AcDbEntity
  8
0
  6
Continuous
 62
     7
370
    25
100
AcDbLine
 10
424.7331752366
 20
315.4959306838
 30
0.0
 11
414.2168818868
 21
315.4959306838
 31
0.0
  0
LINE
  5
135
330
1F
100
AcDbEntity
  8
0
  6
Continuous
 62
     7
370
    25
100
AcDbLine
 10
424.7331752366
 20
380.549754553
 30
0.0
 11
414.2168818868
 21
380.549754553
 31
0.0
  0
LINE
  5
136
330
1F
100
AcDbEntity
  8
0
  6
Continuous
 62
     7
370
    25
100
AcDbLine
 10
414.2168818868
 20
289.1355409906
 30
0.0
 11
424.7331752366
 21
289.1355409906
 31
0.0
  0
LINE
  5
137
330
1F
100
AcDbEntity
  8
0
  6
Continuous
 62
     7
370
    25
100
AcDbLine
 10
378.9740527139
 20
378.2021172765
 30
0.0
 11
378.9740527139
 21
291.483178267
 31
0.0
  0
LINE
  5
138
330
1F
100
AcDbEntity
  8
0
  6
Continuous
 62
     7
370
    25
100
AcDbLine
 10
376.9750285617
 20
293.6111717193
 30
0.0
 11
376.9750285617
 21
376.0741238242
 31
0.0
  0
LINE
  5
139
330
1F
100
AcDbEntity
  8
0
  6
Continuous
 62
     7
370
    25
100
AcDbLine
 10
481.9750285617
 20
373.8426477718
 30
0.0
 11
481.9750285617
 21
295.8426477718
 31
0.0
  0
LINE
  5
13A
330
1F
100
AcDbEntity
  8
0
  6
Continuous
 62
     7
370
    25
100
AcDbLine
 10
469.9750285617
 20
373.8426477718
 30
0.0
 11
469.9750285617
 21
295.8426477718
 31
0.0
  0
LINE
  5
13B
330
1F
100
AcDbEntity
  8
0
  6
Continuous
 62
     7
370
    25
100
AcDbLine
 10
493.9750285617
 20
373.8426477718
 30
0.0
 11
493.9750285617
 21
295.8426477718
 31
0.0
  0
LINE
  5
13C
330
1F
100
AcDbEntity
  8
0
  6
Continuous
 62
     7
370
    25
100
AcDbLine
 10
445.9750285617
 20
373.8426477718
 30
0.0
 11
445.9750285617
 21
295.8426477718
 31
0.0
  0
LINE
  5
13D
330
1F
100
AcDbEntity
  8
0
  6
Continuous
 62
     7
370
    25
100
AcDbLine
 10
457.9750285617
 20
373.8426477718
 30
0.0
 11
457.9750285617
 21
295.8426477718
 31
0.0
  0
LINE
  5
13E
330
1F
100
AcDbEntity
  8
0
  6
Continuous
 62
     7
370
    25
100
AcDbLine
 10
506.9750285617
 20
371.4536010629
 30
0.0
 11
506.9750285617
 21
298.2316944836
 31
0.0
  0
LINE
  5
13F
330
1F
100
AcDbEntity
  8
0
  6
Continuous
 62
     7
370
    25
100
AcDbLine
 10
424.7331752366
 20
288.8426477718
 30
0.0
 11
414.2168818868
 21
288.8426477718
 31
0.0
  0
LINE
  5
140
330
1F
100
AcDbEntity
  8
0
  6
Continuous
 62
     7
370
    25
100
AcDbLine
 10
414.2168818868
 20
380.8426477718
 30
0.0
 11
424.7331752366
 21
380.8426477718
 31
0.0
  0
LINE
  5
141
330
1F
100
AcDbEntity
  8
0
  6
Continuous
 62
     8
370
    25
100
AcDbLine
 10
505.59007331
 20
296.7361127524
 30
0.0
 11
505.59007331
 21
372.9491827911
 31
0.0
  0
LINE
  5
142
330
1F
100
AcDbEntity
  8
0
  6
Continuous
 62
     7
370
    18
100
AcDbLine
 10
378.1669034456
 20
377.3428938619
 30
0.0
 11
410.9750285617
 21
378.3681477718
 31
0.0
  0
LINE
  5
143
330
1F
100
AcDbEntity
  8
0
  6
Continuous
 62
     7
370
    18
100
AcDbLine
 10
378.1669034456
 20
292.3424016817
 30
0.0
 11
410.9750285617
 21
291.3171477718
 31
0.0
  0
LINE
  5
144
330
1F
100
AcDbEntity
  8
0
  6
Continuous
 62
     7
370
    18
100
AcDbLine
 10
410.9750285617
 20
290.4831477718
 30
0.0
 11
410.9750285617
 21
379.2021477718
 31
0.0
  0
LINE
  5
145
330
1F
100
AcDbEntity
  8
0
  6
CENTERX2
 62
     7
370
    18
100
AcDbLine
 10
510.9750285617
 20
334.8426477718
 30
0.0
 11
372.8043435209
 21
334.8426477718
 31
0.0
  0
ENDSEC
  0
SECTION
  2
OBJECTS
  0
DICTIONARY
  5
C
330
0
100
AcDbDictionary
281
     1
  3
ACAD_GROUP
350
D
  3
ACAD_LAYOUT
350
1A
  3
ACAD_MLINESTYLE
350
17
  3
ACAD_PLOTSETTINGS
350
19
  3
ACAD_PLOTSTYLENAME
350
E
  3
ACAD_SCALELIST
350
47
  0
DICTIONARY
  5
D
102
{ACAD_REACTORS
330
C
102
}
330
C
100
AcDbDictionary
281
     1
  0
DICTIONARY
  5
1A
102
{ACAD_REACTORS
330
C
102
}
330
C
100
AcDbDictionary
281
     1
  3
Layout1
350
1E
  3
Layout2
350
26
  3
Model
350
22
  0
DICTIONARY
  5
17
102
{ACAD_REACTORS
330
C
102
}
330
C
100
AcDbDictionary
281
     1
  3
Standard
350
18
  0
DICTIONARY
  5
19
102
{ACAD_REACTORS
330
C
102
}
330
C
100
AcDbDictionary
281
     1
  0
ACDBDICTIONARYWDFLT
  5
E
102
{ACAD_REACTORS
330
C
102
}
330
C
100
AcDbDictionary
281
     1
  3
Normal
350
F
100
AcDbDictionaryWithDefault
340
F
  0
DICTIONARY
  5
47
102
{ACAD_REACTORS
330
C
102
}
330
C
100
AcDbDictionary
281
     1
  3
A0
350
48
  3
A1
350
49
  3
A2
350
4A
  3
A3
350
4B
  3
A4
350
4C
  3
A5
350
4D
  3
A6
350
4E
  3
A7
350
4F
  3
A8
350
50
  3
A9
350
51
  3
B0
350
52
  3
B1
350
53
  3
B2
350
54
  3
B3
350
55
  3
B4
350
56
  3
B5
350
57
  3
B6
350
58
  3
B7
350
59
  3
B8
350
5A
  3
B9
350
5B
  3
C0
350
5C
  3
C1
350
5D
  3
C2
350
5E
  3
C3
350
5F
  3
C4
350
60
  3
C5
350
61
  3
C6
350
62
  3
C7
350
63
  3
C8
350
64
  3
C9
350
65
  3
D0
350
66
  3
D1
350
67
  3
D2
350
68
  0
LAYOUT
  5
1E
102
{ACAD_REACTORS
330
1A
102
}
330
1A
100
AcDbPlotSettings
  1

  2
none_device
  4

  6

 40
0.0
 41
0.0
 42
0.0
 43
0.0
 44
0.0
 45
0.0
 46
0.0
 47
0.0
 48
0.0
 49
0.0
140
0.0
141
0.0
142
1.0
143
1.0
 70
   688
 72
     1
 73
     0
 74
     5
  7

 75
    16
147
1.0
148
0.0
149
0.0
100
AcDbLayout
  1
Layout1
 70
     1
 71
     1
 10
0.0
 20
0.0
 11
420.0
 21
297.0
 12
0.0
 22
0.0
 32
0.0
 14
1.0000000000E+20
 24
1.0000000000E+20
 34
1.0000000000E+20
 15
-1.0000000000E+20
 25
-1.0000000000E+20
 35
-1.0000000000E+20
146
0.0
 13
0.0
 23
0.0
 33
0.0
 16
1.0
 26
0.0
 36
0.0
 17
0.0
 27
1.0
 37
0.0
 76
     0
330
1B
  0
LAYOUT
  5
26
102
{ACAD_REACTORS
330
1A
102
}
330
1A
100
AcDbPlotSettings
  1

  2
none_device
  4

  6

 40
0.0
 41
0.0
 42
0.0
 43
0.0
 44
0.0
 45
0.0
 46
0.0
 47
0.0
 48
0.0
 49
0.0
140
0.0
141
0.0
142
1.0
143
1.0
 70
   688
 72
     1
 73
     0
 74
     5
  7

 75
    16
147
1.0
148
0.0
149
0.0
100
AcDbLayout
  1
Layout2
 70
     1
 71
     2
 10
0.0
 20
0.0
 11
0.0
 21
0.0
 12
0.0
 22
0.0
 32
0.0
 14
0.0
 24
0.0
 34
0.0
 15
0.0
 25
0.0
 35
0.0
146
0.0
 13
0.0
 23
0.0
 33
0.0
 16
1.0
 26
0.0
 36
0.0
 17
0.0
 27
1.0
 37
0.0
 76
     0
330
23
  0
LAYOUT
  5
22
102
{ACAD_REACTORS
330
1A
102
}
330
1A
100
AcDbPlotSettings
  1

  2
none_device
  4
Letter_(8.50_x_11.00_Inches)
  6

 40
6.35
 41
6.35
 42
6.35000508
 43
6.35000508
 44
215.9
 45
279.4
 46
0.0
 47
0.0
 48
0.0
 49
0.0
140
0.0
141
0.0
142
1.0
143
1.0
 70
  1712
 72
     1
 73
     0
 74
     0
  7

 75
     0
147
1.0
148
0.0
149
0.0
100
AcDbLayout
  1
Model
 70
     1
 71
     0
 10
0.0
 20
0.0
 11
863.6
 21
558.8
 12
0.0
 22
0.0
 32
0.0
 14
0.0
 24
0.0
 34
0.0
 15
863.6
 25
558.8
 35
0.0
146
0.0
 13
0.0
 23
0.0
 33
0.0
 16
1.0
 26
0.0
 36
0.0
 17
0.0
 27
1.0
 37
0.0
 76
     0
330
1F
331
29
  0
MLINESTYLE
  5
18
102
{ACAD_REACTORS
330
17
102
}
330
17
100
AcDbMlineStyle
  2
Standard
 70
     0
  3

 62
   256
 51
90.0
 52
90.0
 71
     2
 49
0.5
 62
   256
  6
BYLAYER
 49
-0.5
 62
   256
  6
BYLAYER
  0
ACDBPLACEHOLDER
  5
F
102
{ACAD_REACTORS
330
E
102
}
330
E
  0
SCALE
  5
48
102
{ACAD_REACTORS
330
47
102
}
330
47
100
AcDbScale
 70
     0
300
1:1
140
1.0
141
1.0
290
     1
  0
SCALE
  5
49
102
{ACAD_REACTORS
330
47
102
}
330
47
100
AcDbScale
 70
     0
300
1:2
140
1.0
141
2.0
290
     0
  0
SCALE
  5
4A
102
{ACAD_REACTORS
330
47
102
}
330
47
100
AcDbScale
 70
     0
300
1:4
140
1.0
141
4.0
290
     0
  0
SCALE
  5
4B
102
{ACAD_REACTORS
330
47
102
}
330
47
100
AcDbScale
 70
     0
300
1:5
140
1.0
141
5.0
290
     0
  0
SCALE
  5
4C
102
{ACAD_REACTORS
330
47
102
}
330
47
100
AcDbScale
 70
     0
300
1:8
140
1.0
141
8.0
290
     0
  0
SCALE
  5
4D
102
{ACAD_REACTORS
330
47
102
}
330
47
100
AcDbScale
 70
     0
300
1:10
140
1.0
141
10.0
290
     0
  0
SCALE
  5
4E
102
{ACAD_REACTORS
330
47
102
}
330
47
100
AcDbScale
 70
     0
300
1:16
140
1.0
141
16.0
290
     0
  0
SCALE
  5
4F
102
{ACAD_REACTORS
330
47
102
}
330
47
100
AcDbScale
 70
     0
300
1:20
140
1.0
141
20.0
290
     0
  0
SCALE
  5
50
102
{ACAD_REACTORS
330
47
102
}
330
47
100
AcDbScale
 70
     0
300
1:30
140
1.0
141
30.0
290
     0
  0
SCALE
  5
51
102
{ACAD_REACTORS
330
47
102
}
330
47
100
AcDbScale
 70
     0
300
1:40
140
1.0
141
40.0
290
     0
  0
SCALE
  5
52
102
{ACAD_REACTORS
330
47
102
}
330
47
100
AcDbScale
 70
     0
300
1:50
140
1.0
141
50.0
290
     0
  0
SCALE
  5
53
102
{ACAD_REACTORS
330
47
102
}
330
47
100
AcDbScale
 70
     0
300
1:100
140
1.0
141
100.0
290
     0
  0
SCALE
  5
54
102
{ACAD_REACTORS
330
47
102
}
330
47
100
AcDbScale
 70
     0
300
2:1
140
2.0
141
1.0
290
     0
  0
SCALE
  5
55
102
{ACAD_REACTORS
330
47
102
}
330
47
100
AcDbScale
 70
     0
300
4:1
140
4.0
141
1.0
290
     0
  0
SCALE
  5
56
102
{ACAD_REACTORS
330
47
102
}
330
47
100
AcDbScale
 70
     0
300
8:1
140
8.0
141
1.0
290
     0
  0
SCALE
  5
57
102
{ACAD_REACTORS
330
47
102
}
330
47
100
AcDbScale
 70
     0
300
10:1
140
10.0
141
1.0
290
     0
  0
SCALE
  5
58
102
{ACAD_REACTORS
330
47
102
}
330
47
100
AcDbScale
 70
     0
300
100:1
140
100.0
141
1.0
290
     0
  0
SCALE
  5
59
102
{ACAD_REACTORS
330
47
102
}
330
47
100
AcDbScale
 70
     0
300
1/128" = 1'-0"
140
0.0078125
141
12.0
290
     0
  0
SCALE
  5
5A
102
{ACAD_REACTORS
330
47
102
}
330
47
100
AcDbScale
 70
     0
300
1/64" = 1'-0"
140
0.015625
141
12.0
290
     0
  0
SCALE
  5
5B
102
{ACAD_REACTORS
330
47
102
}
330
47
100
AcDbScale
 70
     0
300
1/32" = 1'-0"
140
0.03125
141
12.0
290
     0
  0
SCALE
  5
5C
102
{ACAD_REACTORS
330
47
102
}
330
47
100
AcDbScale
 70
     0
300
1/16" = 1'-0"
140
0.0625
141
12.0
290
     0
  0
SCALE
  5
5D
102
{ACAD_REACTORS
330
47
102
}
330
47
100
AcDbScale
 70
     0
300
3/32" = 1'-0"
140
0.09375
141
12.0
290
     0
  0
SCALE
  5
5E
102
{ACAD_REACTORS
330
47
102
}
330
47
100
AcDbScale
 70
     0
300
1/8" = 1'-0"
140
0.125
141
12.0
290
     0
  0
SCALE
  5
5F
102
{ACAD_REACTORS
330
47
102
}
330
47
100
AcDbScale
 70
     0
300
3/16" = 1'-0"
140
0.1875
141
12.0
290
     0
  0
SCALE
  5
60
102
{ACAD_REACTORS
330
47
102
}
330
47
100
AcDbScale
 70
     0
300
1/4" = 1'-0"
140
0.25
141
12.0
290
     0
  0
SCALE
  5
61
102
{ACAD_REACTORS
330
47
102
}
330
47
100
AcDbScale
 70
     0
300
3/8" = 1'-0"
140
0.375
141
12.0
290
     0
  0
SCALE
  5
62
102
{ACAD_REACTORS
330
47
102
}
330
47
100
AcDbScale
 70
     0
300
1/2" = 1'-0"
140
0.5
141
12.0
290
     0
  0
SCALE
  5
63
102
{ACAD_REACTORS
330
47
102
}
330
47
100
AcDbScale
 70
     0
300
3/4" = 1'-0"
140
0.75
141
12.0
290
     0
  0
SCALE
  5
64
102
{ACAD_REACTORS
330
47
102
}
330
47
100
AcDbScale
 70
     0
300
1" = 1'-0"
140
1.0
141
12.0
290
     0
  0
SCALE
  5
65
102
{ACAD_REACTORS
330
47
102
}
330
47
100
AcDbScale
 70
     0
300
1-1/2" = 1'-0"
140
1.5
141
12.0
290
     0
  0
SCALE
  5
66
102
{ACAD_REACTORS
330
47
102
}
330
47
100
AcDbScale
 70
     0
300
3" = 1'-0"
140
3.0
141
12.0
290
     0
  0
SCALE
  5
67
102
{ACAD_REACTORS
330
47
102
}
330
47
100
AcDbScale
 70
     0
300
6" = 1'-0"
140
6.0
141
12.0
290
     0
  0
SCALE
  5
68
102
{ACAD_REACTORS
330
47
102
}
330
47
100
AcDbScale
 70
     0
300
1'-0" = 1'-0"
140
12.0
141
12.0
290
     0
  0
ENDSEC
  0
EOF
