  0
SECTION
  2
HEADER
  9
$ACADVER
  1
AC1015
  9
$ACADMAINTVER
 70
     6
  9
$DWGCODEPAGE
  3
DOS932
  9
$INSBASE
 10
0.0
 20
0.0
 30
0.0
  9
$EXTMIN
 10
0.0
 20
0.0
 30
0.0
  9
$EXTMAX
 10
863.6
 20
558.8
 30
0.0
  9
$LIMMIN
 10
0.0
 20
0.0
  9
$LIMMAX
 10
863.6
 20
558.8
  9
$ORTHOMODE
 70
     0
  9
$REGENMODE
 70
     1
  9
$FILLMODE
 70
     1
  9
$QTEXTMODE
 70
     0
  9
$MIRRTEXT
 70
     1
  9
$LTSCALE
 40
2.0
  9
$ATTMODE
 70
     1
  9
$TEXTSIZE
 40
7.0
  9
$TRACEWID
 40
1.0
  9
$TEXTSTYLE
  7
Standard
  9
$CLAYER
  8
0
  9
$CELTYPE
  6
ByLayer
  9
$CECOLOR
 62
   256
  9
$CELTSCALE
 40
1.0
  9
$DISPSILH
 70
     0
  9
$DIMSCALE
 40
1.0
  9
$DIMASZ
 40
6.604
  9
$DIMEXO
 40
2.0
  9
$DIMDLI
 40
3.75
  9
$DIMRND
 40
0.0
  9
$DIMDLE
 40
0.0
  9
$DIMEXE
 40
2.0
  9
$DIMTP
 40
0.0
  9
$DIMTM
 40
0.0
  9
$DIMTXT
 40
7.0
  9
$DIMCEN
 40
2.5
  9
$DIMTSZ
 40
0.0
  9
$DIMTOL
 70
     0
  9
$DIMLIM
 70
     0
  9
$DIMTIH
 70
     1
  9
$DIMTOH
 70
     1
  9
$DIMSE1
 70
     0
  9
$DIMSE2
 70
     0
  9
$DIMTAD
 70
     1
  9
$DIMZIN
 70
     1
  9
$DIMBLK
  1

  9
$DIMASO
 70
     1
  9
$DIMSHO
 70
     1
  9
$DIMPOST
  1

  9
$DIMAPOST
  1

  9
$DIMALT
 70
     0
  9
$DIMALTD
 70
     3
  9
$DIMALTF
 40
0.0393700787
  9
$DIMLFAC
 40
1.0
  9
$DIMTOFL
 70
     1
  9
$DIMTVP
 40
0.0
  9
$DIMTIX
 70
     0
  9
$DIMSOXD
 70
     0
  9
$DIMSAH
 70
     0
  9
$DIMBLK1
  1

  9
$DIMBLK2
  1

  9
$DIMSTYLE
  2
ISO-25
  9
$DIMCLRD
 70
     0
  9
$DIMCLRE
 70
     0
  9
$DIMCLRT
 70
     0
  9
$DIMTFAC
 40
1.0
  9
$DIMGAP
 40
3.048
  9
$DIMJUST
 70
     0
  9
$DIMSD1
 70
     0
  9
$DIMSD2
 70
     0
  9
$DIMTOLJ
 70
     0
  9
$DIMTZIN
 70
     1
  9
$DIMALTZ
 70
     0
  9
$DIMALTTZ
 70
     0
  9
$DIMUPT
 70
     0
  9
$DIMDEC
 70
     2
  9
$DIMTDEC
 70
     2
  9
$DIMALTU
 70
     2
  9
$DIMALTTD
 70
     3
  9
$DIMTXSTY
  7
Standard
  9
$DIMAUNIT
 70
     0
  9
$DIMADEC
 70
     2
  9
$DIMALTRND
 40
0.0
  9
$DIMAZIN
 70
     0
  9
$DIMDSEP
 70
    44
  9
$DIMATFIT
 70
     3
  9
$DIMFRAC
 70
     0
  9
$DIMLDRBLK
  1

  9
$DIMLUNIT
 70
     2
  9
$DIMLWD
 70
    -2
  9
$DIMLWE
 70
    -2
  9
$DIMTMOVE
 70
     0
  9
$LUNITS
 70
     2
  9
$LUPREC
 70
     2
  9
$SKETCHINC
 40
1.0
  9
$FILLETRAD
 40
10.0
  9
$AUNITS
 70
     0
  9
$AUPREC
 70
     2
  9
$MENU
  1
.
  9
$ELEVATION
 40
0.0
  9
$PELEVATION
 40
0.0
  9
$THICKNESS
 40
0.0
  9
$LIMCHECK
 70
     0
  9
$CHAMFERA
 40
0.0
  9
$CHAMFERB
 40
0.0
  9
$CHAMFERC
 40
0.0
  9
$CHAMFERD
 40
0.0
  9
$SKPOLY
 70
     0
  9
$TDCREATE
 40
2460084.758867049
  9
$TDUCREATE
 40
2460084.383867049
  9
$TDUPDATE
 40
2460084.758867546
  9
$TDUUPDATE
 40
2460084.383867546
  9
$TDINDWG
 40
0.0000000116
  9
$TDUSRTIMER
 40
0.0000000116
  9
$USRTIMER
 70
     1
  9
$ANGBASE
 50
0.0
  9
$ANGDIR
 70
     0
  9
$PDMODE
 70
     0
  9
$PDSIZE
 40
-1.0
  9
$PLINEWID
 40
0.0
  9
$SPLFRAME
 70
     0
  9
$SPLINETYPE
 70
     6
  9
$SPLINESEGS
 70
     8
  9
$HANDSEED
  5
146
  9
$SURFTAB1
 70
     6
  9
$SURFTAB2
 70
     6
  9
$SURFTYPE
 70
     6
  9
$SURFU
 70
     6
  9
$SURFV
 70
     6
  9
$UCSBASE
  2

  9
$UCSNAME
  2

  9
$UCSORG
 10
0.0
 20
0.0
 30
0.0
  9
$UCSXDIR
 10
1.0
 20
0.0
 30
0.0
  9
$UCSYDIR
 10
0.0
 20
1.0
 30
0.0
  9
$UCSORTHOREF
  2

  9
$UCSORTHOVIEW
 70
     0
  9
$UCSORGTOP
 10
0.0
 20
0.0
 30
0.0
  9
$UCSORGBOTTOM
 10
0.0
 20
0.0
 30
0.0
  9
$UCSORGLEFT
 10
0.0
 20
0.0
 30
0.0
  9
$UCSORGRIGHT
 10
0.0
 20
0.0
 30
0.0
  9
$UCSORGFRONT
 10
0.0
 20
0.0
 30
0.0
  9
$UCSORGBACK
 10
0.0
 20
0.0
 30
0.0
  9
$PUCSBASE
  2

  9
$PUCSNAME
  2

  9
$PUCSORG
 10
0.0
 20
0.0
 30
0.0
  9
$PUCSXDIR
 10
1.0
 20
0.0
 30
0.0
  9
$PUCSYDIR
 10
0.0
 20
1.0
 30
0.0
  9
$PUCSORTHOREF
  2

  9
$PUCSORTHOVIEW
 70
     0
  9
$PUCSORGTOP
 10
0.0
 20
0.0
 30
0.0
  9
$PUCSORGBOTTOM
 10
0.0
 20
0.0
 30
0.0
  9
$PUCSORGLEFT
 10
0.0
 20
0.0
 30
0.0
  9
$PUCSORGRIGHT
 10
0.0
 20
0.0
 30
0.0
  9
$PUCSORGFRONT
 10
0.0
 20
0.0
 30
0.0
  9
$PUCSORGBACK
 10
0.0
 20
0.0
 30
0.0
  9
$USERI1
 70
     0
  9
$USERI2
 70
     0
  9
$USERI3
 70
     0
  9
$USERI4
 70
     0
  9
$USERI5
 70
     0
  9
$USERR1
 40
0.0
  9
$USERR2
 40
0.0
  9
$USERR3
 40
0.0
  9
$USERR4
 40
0.0
  9
$USERR5
 40
0.0
  9
$WORLDVIEW
 70
     1
  9
$SHADEDGE
 70
     3
  9
$SHADEDIF
 70
    70
  9
$TILEMODE
 70
     1
  9
$MAXACTVP
 70
    64
  9
$PINSBASE
 10
0.0
 20
0.0
 30
0.0
  9
$PLIMCHECK
 70
     0
  9
$PEXTMIN
 10
1.0000000000E+20
 20
1.0000000000E+20
 30
1.0000000000E+20
  9
$PEXTMAX
 10
-1.0000000000E+20
 20
-1.0000000000E+20
 30
-1.0000000000E+20
  9
$PLIMMIN
 10
0.0
 20
0.0
  9
$PLIMMAX
 10
420.0
 20
297.0
  9
$UNITMODE
 70
     0
  9
$VISRETAIN
 70
     1
  9
$PLINEGEN
 70
     0
  9
$PSLTSCALE
 70
     1
  9
$TREEDEPTH
 70
  3020
  9
$CMLSTYLE
  2
Standard
  9
$CMLJUST
 70
     0
  9
$CMLSCALE
 40
20.0
  9
$PROXYGRAPHICS
 70
     1
  9
$MEASUREMENT
 70
     1
  9
$CELWEIGHT
370
    -1
  9
$ENDCAPS
280
     0
  9
$JOINSTYLE
280
     0
  9
$LWDISPLAY
290
     1
  9
$INSUNITS
 70
     4
  9
$HYPERLINKBASE
  1

  9
$STYLESHEET
  1

  9
$XEDIT
290
     1
  9
$CEPSNTYPE
380
     0
  9
$PSTYLEMODE
290
     1
  9
$FINGERPRINTGUID
  2
{4D7AB8E9-2C12-4CA2-A41E-0C5B41DBC89D}
  9
$VERSIONGUID
  2
{FAEB1C32-E019-11D5-929B-00C0DF256EC4}
  9
$EXTNAMES
290
     1
  9
$PSVPSCALE
 40
0.0
  9
$OLESTARTUP
290
     0
  0
ENDSEC
  0
SECTION
  2
CLASSES
  0
CLASS
  1
ACDBDICTIONARYWDFLT
  2
AcDbDictionaryWithDefault
  3
ObjectDBX Classes
 90
        0
280
     0
281
     0
  0
CLASS
  1
VISUALSTYLE
  2
AcDbVisualStyle
  3
ObjectDBX Classes
 90
     4095
280
     0
281
     0
  0
CLASS
  1
MATERIAL
  2
AcDbMaterial
  3
ObjectDBX Classes
 90
     1153
280
     0
281
     0
  0
CLASS
  1
SCALE
  2
AcDbScale
  3
ObjectDBX Classes
 90
     1153
280
     0
281
     0
  0
CLASS
  1
TABLESTYLE
  2
AcDbTableStyle
  3
ObjectDBX Classes
 90
     4095
280
     0
281
     0
  0
CLASS
  1
MLEADERSTYLE
  2
AcDbMLeaderStyle
  3
ACDB_MLEADERSTYLE_CLASS
 90
     4095
280
     0
281
     0
  0
CLASS
  1
SUN
  2
AcDbSun
  3
SCENEOE
 90
     1153
280
     0
281
     0
  0
CLASS
  1
ACDBPLACEHOLDER
  2
AcDbPlaceHolder
  3
ObjectDBX Classes
 90
        0
280
     0
281
     0
  0
CLASS
  1
LAYOUT
  2
AcDbLayout
  3
ObjectDBX Classes
 90
        0
280
     0
281
     0
  0
ENDSEC
  0
SECTION
  2
TABLES
  0
TABLE
  2
VPORT
  5
8
330
0
100
AcDbSymbolTable
 70
     1
  0
VPORT
  5
29
330
8
100
AcDbSymbolTableRecord
100
AcDbViewportTableRecord
  2
*Active
 70
     0
 10
0.0
 20
0.0
 11
1.0
 21
1.0
 12
431.8
 22
279.4
 13
0.0
 23
0.0
 14
10.0
 24
10.0
 15
10.0
 25
10.0
 16
0.0
 26
0.0
 36
1.0
 17
0.0
 27
0.0
 37
0.0
 40
558.8
 41
1.5454545455
 42
50.0
 43
0.0
 44
0.0
 50
0.0
 51
0.0
 71
     0
 72
  2000
 73
     1
 74
     3
 75
     0
 76
     0
 77
     0
 78
     0
281
     0
 65
     1
110
0.0
120
0.0
130
0.0
111
1.0
121
0.0
131
0.0
112
0.0
122
1.0
132
0.0
 79
     0
146
0.0
  0
ENDTAB
  0
TABLE
  2
LTYPE
  5
5
330
0
100
AcDbSymbolTable
 70
     6
  0
LTYPE
  5
14
330
5
100
AcDbSymbolTableRecord
100
AcDbLinetypeTableRecord
  2
ByBlock
 70
     0
  3

 72
    65
 73
     0
 40
0.0
  0
LTYPE
  5
15
330
5
100
AcDbSymbolTableRecord
100
AcDbLinetypeTableRecord
  2
ByLayer
 70
     0
  3

 72
    65
 73
     0
 40
0.0
  0
LTYPE
  5
16
330
5
100
AcDbSymbolTableRecord
100
AcDbLinetypeTableRecord
  2
Continuous
 70
     0
  3
Solid line
 72
    65
 73
     0
 40
0.0
  0
LTYPE
  5
6E
330
5
100
AcDbSymbolTableRecord
100
AcDbLinetypeTableRecord
  2
HIDDEN
 70
     0
  3
Hidden __ __ __ __ __ __ __ __ __ __ __ __ __ __
 72
    65
 73
     2
 40
1.905
 49
1.27
 74
     0
 49
-0.635
 74
     0
  0
LTYPE
  5
6F
330
5
100
AcDbSymbolTableRecord
100
AcDbLinetypeTableRecord
  2
PHANTOM
 70
     0
  3
Phantom ______  __  __  ______  __  __  ______
 72
    65
 73
     6
 40
12.7
 49
6.35
 74
     0
 49
-1.27
 74
     0
 49
1.27
 74
     0
 49
-1.27
 74
     0
 49
1.27
 74
     0
 49
-1.27
 74
     0
  0
LTYPE
  5
70
330
5
100
AcDbSymbolTableRecord
100
AcDbLinetypeTableRecord
  2
CENTER
 70
     0
  3
Center ____ _ ____ _ ____ _ ____ _ ____ _ ____
 72
    65
 73
     4
 40
10.16
 49
6.35
 74
     0
 49
-1.27
 74
     0
 49
1.27
 74
     0
 49
-1.27
 74
     0
  0
LTYPE
  5
71
330
5
100
AcDbSymbolTableRecord
100
AcDbLinetypeTableRecord
  2
CENTERX2
 70
     0
  3
Center (2x) ________  __  ________  __  _____
 72
    65
 73
     4
 40
20.32
 49
12.7
 74
     0
 49
-2.54
 74
     0
 49
2.54
 74
     0
 49
-2.54
 74
     0
  0
LTYPE
  5
72
330
5
100
AcDbSymbolTableRecord
100
AcDbLinetypeTableRecord
  2
DOT2
 70
     0
  3
Dot (.5x) ........................................
 72
    65
 73
     2
 40
0.635
 49
0.0
 74
     0
 49
-0.635
 74
     0
  0
ENDTAB
  0
TABLE
  2
LAYER
  5
2
330
0
100
AcDbSymbolTable
 70
     1
  0
LAYER
  5
10
330
2
100
AcDbSymbolTableRecord
100
AcDbLayerTableRecord
  2
0
 70
     0
 62
     7
  6
Continuous
370
    -3
390
F
  0
ENDTAB
  0
TABLE
  2
STYLE
  5
3
330
0
100
AcDbSymbolTable
 70
     2
  0
STYLE
  5
11
330
3
100
AcDbSymbolTableRecord
100
AcDbTextStyleTableRecord
  2
Standard
 70
     0
 40
0.0
 41
1.0
 50
0.0
 71
     0
 42
7.0
  3
txt
  4
bigfont
  0
STYLE
  5
73
330
3
100
AcDbSymbolTableRecord
100
AcDbTextStyleTableRecord
  2
SLDTEXTSTYLE0
 70
     0
 40
0.0
 41
0.7
 50
0.0
 71
     0
 42
7.0
  3
TXT
  4
bigfont
  0
ENDTAB
  0
TABLE
  2
VIEW
  5
6
330
0
100
AcDbSymbolTable
 70
     0
  0
ENDTAB
  0
TABLE
  2
UCS
  5
7
330
0
100
AcDbSymbolTable
 70
     0
  0
ENDTAB
  0
TABLE
  2
APPID
  5
9
330
0
100
AcDbSymbolTable
 70
     1
  0
APPID
  5
12
330
9
100
AcDbSymbolTableRecord
100
AcDbRegAppTableRecord
  2
ACAD
 70
     0
  0
ENDTAB
  0
TABLE
  2
DIMSTYLE
  5
A
330
0
100
AcDbSymbolTable
 70
     1
100
AcDbDimStyleTable
  0
DIMSTYLE
105
27
330
A
100
AcDbSymbolTableRecord
100
AcDbDimStyleTableRecord
  2
ISO-25
 70
     0
 41
2.5
 42
0.625
 43
3.75
 44
1.25
 73
     0
 74
     0
 77
     1
 78
     8
140
2.5
141
2.5
143
0.0393700787
147
0.625
171
     3
172
     1
178
     0
271
     2
272
     2
274
     3
278
    44
283
     0
284
     8
340
11
  0
ENDTAB
  0
TABLE
  2
BLOCK_RECORD
  5
1
330
0
100
AcDbSymbolTable
 70
     3
  0
BLOCK_RECORD
  5
1F
330
1
100
AcDbSymbolTableRecord
100
AcDbBlockTableRecord
  2
*Model_Space
340
22
  0
BLOCK_RECORD
  5
1B
330
1
100
AcDbSymbolTableRecord
100
AcDbBlockTableRecord
  2
*Paper_Space
340
1E
  0
BLOCK_RECORD
  5
23
330
1
100
AcDbSymbolTableRecord
100
AcDbBlockTableRecord
  2
*Paper_Space0
340
26
  0
BLOCK_RECORD
  5
EF
330
1
100
AcDbSymbolTableRecord
100
AcDbBlockTableRecord
  2
SW_CENTERMARKSYMBOL_0
340
0
102
{BLKREFS
331
FA
102
}
  0
BLOCK_RECORD
  5
FB
330
1
100
AcDbSymbolTableRecord
100
AcDbBlockTableRecord
  2
SW_CENTERMARKSYMBOL_1
340
0
102
{BLKREFS
331
106
102
}
  0
ENDTAB
  0
ENDSEC
  0
SECTION
  2
BLOCKS
  0
BLOCK
  5
20
330
1F
100
AcDbEntity
  8
0
100
AcDbBlockBegin
  2
*Model_Space
 70
     0
 10
0.0
 20
0.0
 30
0.0
  3
*Model_Space
  1

  0
ENDBLK
  5
21
330
1F
100
AcDbEntity
  8
0
100
AcDbBlockEnd
  0
BLOCK
  5
1C
330
1B
100
AcDbEntity
 67
     1
  8
0
100
AcDbBlockBegin
  2
*Paper_Space
 70
     0
 10
0.0
 20
0.0
 30
0.0
  3
*Paper_Space
  1

  0
ENDBLK
  5
1D
330
1B
100
AcDbEntity
 67
     1
  8
0
100
AcDbBlockEnd
  0
BLOCK
  5
24
330
23
100
AcDbEntity
  8
0
100
AcDbBlockBegin
  2
*Paper_Space0
 70
     0
 10
0.0
 20
0.0
 30
0.0
  3
*Paper_Space0
  1

  0
ENDBLK
  5
25
330
23
100
AcDbEntity
  8
0
100
AcDbBlockEnd
  0
BLOCK
  5
F0
330
EF
100
AcDbEntity
  8
0
100
AcDbBlockBegin
  2
SW_CENTERMARKSYMBOL_0
 70
     0
 10
0.0
 20
0.0
 30
0.0
  3
SW_CENTERMARKSYMBOL_0
  1

  0
LINE
  5
F2
330
EF
100
AcDbEntity
  8
0
  6
Continuous
 62
     0
370
    18
100
AcDbLine
 10
0.0
 20
0.0
 30
0.0
 11
0.0
 21
2.5
 31
0.0
  0
LINE
  5
F3
330
EF
100
AcDbEntity
  8
0
  6
Continuous
 62
     0
370
    18
100
AcDbLine
 10
0.0
 20
0.0
 30
0.0
 11
-2.5
 21
0.0
 31
0.0
  0
LINE
  5
F4
330
EF
100
AcDbEntity
  8
0
  6
Continuous
 62
     0
370
    18
100
AcDbLine
 10
0.0
 20
0.0
 30
0.0
 11
0.0
 21
-2.5
 31
0.0
  0
LINE
  5
F5
330
EF
100
AcDbEntity
  8
0
  6
Continuous
 62
     0
370
    18
100
AcDbLine
 10
0.0
 20
0.0
 30
0.0
 11
2.5
 21
0.0
 31
0.0
  0
LINE
  5
F6
330
EF
100
AcDbEntity
  8
0
  6
Continuous
 62
     0
370
    18
100
AcDbLine
 10
0.0
 20
5.0
 30
0.0
 11
0.0
 21
29.0
 31
0.0
  0
LINE
  5
F7
330
EF
100
AcDbEntity
  8
0
  6
Continuous
 62
     0
370
    18
100
AcDbLine
 10
-5.0
 20
0.0
 30
0.0
 11
-29.0
 21
0.0
 31
0.0
  0
LINE
  5
F8
330
EF
100
AcDbEntity
  8
0
  6
Continuous
 62
     0
370
    18
100
AcDbLine
 10
0.0
 20
-5.0
 30
0.0
 11
0.0
 21
-29.0
 31
0.0
  0
LINE
  5
F9
330
EF
100
AcDbEntity
  8
0
  6
Continuous
 62
     0
370
    18
100
AcDbLine
 10
5.0
 20
0.0
 30
0.0
 11
29.0
 21
0.0
 31
0.0
  0
ENDBLK
  5
F1
330
EF
100
AcDbEntity
  8
0
100
AcDbBlockEnd
  0
BLOCK
  5
FC
330
FB
100
AcDbEntity
  8
0
100
AcDbBlockBegin
  2
SW_CENTERMARKSYMBOL_1
 70
     0
 10
0.0
 20
0.0
 30
0.0
  3
SW_CENTERMARKSYMBOL_1
  1

  0
LINE
  5
FE
330
FB
100
AcDbEntity
  8
0
  6
Continuous
 62
     0
370
    18
100
AcDbLine
 10
0.0
 20
0.0
 30
0.0
 11
0.0
 21
2.5
 31
0.0
  0
LINE
  5
FF
330
FB
100
AcDbEntity
  8
0
  6
Continuous
 62
     0
370
    18
100
AcDbLine
 10
0.0
 20
0.0
 30
0.0
 11
-2.5
 21
0.0
 31
0.0
  0
LINE
  5
100
330
FB
100
AcDbEntity
  8
0
  6
Continuous
 62
     0
370
    18
100
AcDbLine
 10
0.0
 20
0.0
 30
0.0
 11
0.0
 21
-2.5
 31
0.0
  0
LINE
  5
101
330
FB
100
AcDbEntity
  8
0
  6
Continuous
 62
     0
370
    18
100
AcDbLine
 10
0.0
 20
0.0
 30
0.0
 11
2.5
 21
0.0
 31
0.0
  0
LINE
  5
102
330
FB
100
AcDbEntity
  8
0
  6
Continuous
 62
     0
370
    18
100
AcDbLine
 10
0.0
 20
5.0
 30
0.0
 11
0.0
 21
42.25
 31
0.0
  0
LINE
  5
103
330
FB
100
AcDbEntity
  8
0
  6
Continuous
 62
     0
370
    18
100
AcDbLine
 10
-5.0
 20
0.0
 30
0.0
 11
-42.25
 21
0.0
 31
0.0
  0
LINE
  5
104
330
FB
100
AcDbEntity
  8
0
  6
Continuous
 62
     0
370
    18
100
AcDbLine
 10
0.0
 20
-5.0
 30
0.0
 11
0.0
 21
-42.25
 31
0.0
  0
LINE
  5
105
330
FB
100
AcDbEntity
  8
0
  6
Continuous
 62
     0
370
    18
100
AcDbLine
 10
5.0
 20
0.0
 30
0.0
 11
42.25
 21
0.0
 31
0.0
  0
ENDBLK
  5
FD
330
FB
100
AcDbEntity
  8
0
100
AcDbBlockEnd
  0
ENDSEC
  0
SECTION
  2
ENTITIES
  0
MTEXT
  5
74
330
1F
100
AcDbEntity
  8
0
  6
Continuous
 62
     7
370
     0
100
AcDbMText
 10
492.970454265
 20
281.9624543621
 30
0.0
 40
8.4666666667
 41
0.0
 71
     1
 72
     1
  1
メガニップル　HN-8064
  7
SLDTEXTSTYLE0
 73
     1
 44
1.0
  0
LINE
  5
75
330
1F
100
AcDbEntity
  8
0
  6
Continuous
 62
     7
370
    25
100
AcDbLine
 10
391.4413082109
 20
250.2490548893
 30
0.0
 11
391.2969706436
 21
249.9990548893
 31
0.0
  0
LINE
  5
76
330
1F
100
AcDbEntity
  8
0
  6
Continuous
 62
     7
370
    25
100
AcDbLine
 10
391.2969706436
 20
170.4990548893
 30
0.0
 11
391.4413082109
 21
170.2490548893
 31
0.0
  0
LINE
  5
77
330
1F
100
AcDbEntity
  8
0
  6
Continuous
 62
     7
370
    25
100
AcDbLine
 10
406.1526330763
 20
170.2490548893
 30
0.0
 11
406.2969706436
 21
170.4990548893
 31
0.0
  0
LINE
  5
78
330
1F
100
AcDbEntity
  8
0
  6
Continuous
 62
     7
370
    25
100
AcDbLine
 10
406.2969706436
 20
249.9990548893
 30
0.0
 11
406.1526330763
 21
250.2490548893
 31
0.0
  0
LINE
  5
79
330
1F
100
AcDbEntity
  8
0
  6
Continuous
 62
     7
370
    25
100
AcDbLine
 10
391.2969706436
 20
248.2641798893
 30
0.0
 11
362.2959947958
 21
247.3578993941
 31
0.0
  0
LINE
  5
7A
330
1F
100
AcDbEntity
  8
0
  6
Continuous
 62
     7
370
    25
100
AcDbLine
 10
362.2959947958
 20
173.1402103846
 30
0.0
 11
391.2969706436
 21
172.2339298893
 31
0.0
  0
LINE
  5
7B
330
1F
100
AcDbEntity
  8
0
  6
Continuous
 62
     7
370
    25
100
AcDbLine
 10
362.2959947958
 20
247.3578993941
 30
0.0
 11
360.2969706436
 21
245.2299059418
 31
0.0
  0
LINE
  5
7C
330
1F
100
AcDbEntity
  8
0
  6
Continuous
 62
     7
370
    25
100
AcDbLine
 10
360.2969706436
 20
175.2682038369
 30
0.0
 11
362.2959947958
 21
173.1402103846
 31
0.0
  0
LINE
  5
7D
330
1F
100
AcDbEntity
  8
0
  6
Continuous
 62
     7
370
    25
100
AcDbLine
 10
457.2969706436
 20
178.2490548893
 30
0.0
 11
468.2969706436
 21
179.4990548893
 31
0.0
  0
LINE
  5
7E
330
1F
100
AcDbEntity
  8
0
  6
Continuous
 62
     7
370
    25
100
AcDbLine
 10
468.2969706436
 20
240.9990548893
 30
0.0
 11
457.2969706436
 21
242.2490548893
 31
0.0
  0
LINE
  5
7F
330
1F
100
AcDbEntity
  8
0
  6
Continuous
 62
     7
370
    25
100
AcDbLine
 10
446.2969706436
 20
178.2490548893
 30
0.0
 11
457.2969706436
 21
179.4990548893
 31
0.0
  0
LINE
  5
80
330
1F
100
AcDbEntity
  8
0
  6
Continuous
 62
     7
370
    25
100
AcDbLine
 10
457.2969706436
 20
240.9990548893
 30
0.0
 11
446.2969706436
 21
242.2490548893
 31
0.0
  0
LINE
  5
81
330
1F
100
AcDbEntity
  8
0
  6
Continuous
 62
     7
370
    25
100
AcDbLine
 10
424.2969706436
 20
242.2490548893
 30
0.0
 11
406.2969706436
 21
242.2490548893
 31
0.0
  0
LINE
  5
82
330
1F
100
AcDbEntity
  8
0
  6
Continuous
 62
     7
370
    25
100
AcDbLine
 10
406.2969706436
 20
178.2490548893
 30
0.0
 11
424.2969706436
 21
178.2490548893
 31
0.0
  0
LINE
  5
83
330
1F
100
AcDbEntity
  8
0
  6
Continuous
 62
     7
370
    25
100
AcDbLine
 10
435.2969706436
 20
178.2490548893
 30
0.0
 11
446.2969706436
 21
179.4990548893
 31
0.0
  0
LINE
  5
84
330
1F
100
AcDbEntity
  8
0
  6
Continuous
 62
     7
370
    25
100
AcDbLine
 10
446.2969706436
 20
240.9990548893
 30
0.0
 11
435.2969706436
 21
242.2490548893
 31
0.0
  0
LINE
  5
85
330
1F
100
AcDbEntity
  8
0
  6
Continuous
 62
     7
370
    25
100
AcDbLine
 10
424.2969706436
 20
178.2490548893
 30
0.0
 11
435.2969706436
 21
179.4990548893
 31
0.0
  0
LINE
  5
86
330
1F
100
AcDbEntity
  8
0
  6
Continuous
 62
     7
370
    25
100
AcDbLine
 10
435.2969706436
 20
240.9990548893
 30
0.0
 11
424.2969706436
 21
242.2490548893
 31
0.0
  0
LINE
  5
87
330
1F
100
AcDbEntity
  8
0
  6
Continuous
 62
     7
370
    25
100
AcDbLine
 10
468.2969706436
 20
178.2490548893
 30
0.0
 11
478.95237977
 21
179.35899334
 31
0.0
  0
LINE
  5
88
330
1F
100
AcDbEntity
  8
0
  6
Continuous
 62
     7
370
    25
100
AcDbLine
 10
478.95237977
 20
241.1391164387
 30
0.0
 11
468.2969706436
 21
242.2490548893
 31
0.0
  0
ARC
  5
89
330
1F
100
AcDbEntity
  8
0
  6
Continuous
 62
     7
370
    25
100
AcDbCircle
 10
478.7969706436
 20
239.6471888253
 30
0.0
 40
1.500000000000008
100
AcDbArc
 50
0.0
 51
84.053136946
  0
ARC
  5
8A
330
1F
100
AcDbEntity
  8
0
  6
Continuous
 62
     7
370
    25
100
AcDbCircle
 10
478.7969706436
 20
180.8509209533
 30
0.0
 40
1.500000000000008
100
AcDbArc
 50
275.946863054
 51
0.0
  0
SPLINE
  5
8B
330
1F
100
AcDbEntity
  8
0
  6
Continuous
 62
     7
370
    25
100
AcDbSpline
210
0.0
220
0.0
230
1.0
 70
    24
 71
     3
 72
    12
 73
     8
 74
     0
 42
0.000000001
 43
0.00000001
 40
0.0
 40
0.0
 40
0.0
 40
0.0
 40
0.147247621506684
 40
0.3841572949460853
 40
0.6209114185896872
 40
0.8103264631760964
 40
1.0
 40
1.0
 40
1.0
 40
1.0
 10
391.4670611857621
 20
250.2490548893456
 30
0.0
 10
391.4655369517907
 20
250.2490548893456
 30
0.0
 10
391.461560346985
 20
250.2490548893456
 30
0.0
 10
391.6942777044285
 20
250.2490548893456
 30
0.0
 10
392.1020944853197
 20
250.2490548893456
 30
0.0
 10
392.6303608802174
 20
250.2490548893456
 30
0.0
 10
393.045717382961
 20
250.2490548893456
 30
0.0
 10
393.2535372456039
 20
250.2490548893456
 30
0.0
  0
SPLINE
  5
8C
330
1F
100
AcDbEntity
  8
0
  6
Continuous
 62
     7
370
    25
100
AcDbSpline
210
0.0
220
0.0
230
1.0
 70
     8
 71
     3
 72
    10
 73
     6
 74
     0
 42
0.000000001
 43
0.00000001
 40
0.0
 40
0.0
 40
0.0
 40
0.0
 40
0.5
 40
0.5
 40
1.0
 40
1.0
 40
1.0
 40
1.0
 10
393.2535372456026
 20
249.9561616705322
 30
0.0
 10
393.2816342602472
 20
250.0480553578394
 30
0.0
 10
393.2964837522086
 20
250.1225290152698
 30
0.0
 10
393.2965270249483
 20
250.2231161783121
 30
0.0
 10
393.2816417244014
 20
250.2490548893457
 30
0.0
 10
393.2535372456026
 20
250.2490548893457
 30
0.0
  0
SPLINE
  5
8D
330
1F
100
AcDbEntity
  8
0
  6
Continuous
 62
     7
370
    25
100
AcDbSpline
210
0.0
220
0.0
230
1.0
 70
     8
 71
     3
 72
    16
 73
    12
 74
     0
 42
0.000000001
 43
0.00000001
 40
0.0
 40
0.0
 40
0.0
 40
0.0
 40
0.2500000000000001
 40
0.2500000000000001
 40
0.5000000000000002
 40
0.5000000000000002
 40
0.625
 40
0.625
 40
0.7499999999999999
 40
0.7499999999999999
 40
1.0
 40
1.0
 40
1.0
 40
1.0
 10
393.2535372456026
 20
249.9561616705322
 30
0.0
 10
392.6774673501436
 20
248.0720758518059
 30
0.0
 10
392.2226865627434
 20
246.1822506893471
 30
0.0
 10
391.6054100876711
 20
242.3887695705348
 30
0.0
 10
391.4435673473191
 20
240.4850827170202
 30
0.0
 10
391.4402141853301
 20
237.6182236229002
 30
0.0
 10
391.4787389155534
 20
236.6607280626688
 30
0.0
 10
391.6348181032931
 20
234.74199729256
 30
0.0
 10
391.75273243855
 20
233.7787622878111
 30
0.0
 10
392.2180662085586
 20
230.9006602949239
 30
0.0
 10
392.6761818681723
 20
228.9987807004419
 30
0.0
 10
393.2535372456028
 20
227.1104906030822
 30
0.0
  0
SPLINE
  5
8E
330
1F
100
AcDbEntity
  8
0
  6
Continuous
 62
     7
370
    25
100
AcDbSpline
210
0.0
220
0.0
230
1.0
 70
     8
 71
     3
 72
    10
 73
     6
 74
     0
 42
0.000000001
 43
0.00000001
 40
0.0
 40
0.0
 40
0.0
 40
0.0
 40
0.5
 40
0.5
 40
1.0
 40
1.0
 40
1.0
 40
1.0
 10
393.2535372456001
 20
226.4033838218963
 30
0.0
 10
393.2816342602446
 20
226.5333411207824
 30
0.0
 10
393.296483752209
 20
226.6644488025775
 30
0.0
 10
393.2965270249479
 20
226.9071459244392
 30
0.0
 10
393.2816417244013
 20
227.0185725036222
 30
0.0
 10
393.2535372456024
 20
227.1104906030834
 30
0.0
  0
SPLINE
  5
8F
330
1F
100
AcDbEntity
  8
0
  6
Continuous
 62
     7
370
    25
100
AcDbSpline
210
0.0
220
0.0
230
1.0
 70
     8
 71
     3
 72
    18
 73
    14
 74
     0
 42
0.000000001
 43
0.00000001
 40
0.0
 40
0.0
 40
0.0
 40
0.0
 40
0.125
 40
0.125
 40
0.2500000000000001
 40
0.2500000000000001
 40
0.5000000000000001
 40
0.5000000000000001
 40
0.7500000000000002
 40
0.7500000000000002
 40
0.8750000000000001
 40
0.8750000000000001
 40
1.0
 40
1.0
 40
1.0
 40
1.0
 10
393.2535372456026
 20
194.0947259567949
 30
0.0
 10
392.9663703719727
 20
195.4229607069508
 30
0.0
 10
392.7071611593908
 20
196.7631796304262
 30
0.0
 10
392.2556626950667
 20
199.4560137175812
 30
0.0
 10
392.0642550376805
 20
200.8030495043747
 30
0.0
 10
391.6010581589829
 20
204.8461572576493
 30
0.0
 10
391.4414579472951
 20
207.5442505696591
 30
0.0
 10
391.4411586872146
 20
212.9461829386741
 30
0.0
 10
391.600498298099
 20
215.6500226922159
 30
0.0
 10
392.0661214214913
 20
219.7098652946942
 30
0.0
 10
392.2594239099396
 20
221.0665564562063
 30
0.0
 10
392.7101739467101
 20
223.7508406319953
 30
0.0
 10
392.9678337976672
 20
225.0819178638273
 30
0.0
 10
393.2535372456039
 20
226.4033838219021
 30
0.0
  0
SPLINE
  5
90
330
1F
100
AcDbEntity
  8
0
  6
Continuous
 62
     7
370
    25
100
AcDbSpline
210
0.0
220
0.0
230
1.0
 70
     8
 71
     3
 72
    10
 73
     6
 74
     0
 42
0.000000001
 43
0.00000001
 40
0.0
 40
0.0
 40
0.0
 40
0.0
 40
0.5
 40
0.5
 40
1.0
 40
1.0
 40
1.0
 40
1.0
 10
393.2535372456026
 20
193.3876191756084
 30
0.0
 10
393.2816342602474
 20
193.4795128629163
 30
0.0
 10
393.2964837522089
 20
193.590453467205
 30
0.0
 10
393.296527024948
 20
193.8330918654516
 30
0.0
 10
393.2816417244016
 20
193.9647341339081
 30
0.0
 10
393.2535372456026
 20
194.0947259567949
 30
0.0
  0
SPLINE
  5
91
330
1F
100
AcDbEntity
  8
0
  6
Continuous
 62
     7
370
    25
100
AcDbSpline
210
0.0
220
0.0
230
1.0
 70
     8
 71
     3
 72
    16
 73
    12
 74
     0
 42
0.000000001
 43
0.00000001
 40
0.0
 40
0.0
 40
0.0
 40
0.0
 40
0.2500000000000001
 40
0.2500000000000001
 40
0.5000000000000001
 40
0.5000000000000001
 40
0.6250000000000002
 40
0.6250000000000002
 40
0.7500000000000004
 40
0.7500000000000004
 40
1.0
 40
1.0
 40
1.0
 40
1.0
 10
393.2535372456026
 20
193.3876191756084
 30
0.0
 10
392.6774673501436
 20
191.5035333568821
 30
0.0
 10
392.2226865627434
 20
189.6137081944233
 30
0.0
 10
391.6054100876711
 20
185.820227075611
 30
0.0
 10
391.4435673473191
 20
183.9165402220964
 30
0.0
 10
391.4402141853301
 20
181.0496811279764
 30
0.0
 10
391.4787389155534
 20
180.092185567745
 30
0.0
 10
391.6348181032931
 20
178.1734547976362
 30
0.0
 10
391.75273243855
 20
177.2102197928873
 30
0.0
 10
392.2180662085586
 20
174.3321178
 30
0.0
 10
392.6761818681723
 20
172.4302382055182
 30
0.0
 10
393.2535372456028
 20
170.5419481081584
 30
0.0
  0
SPLINE
  5
92
330
1F
100
AcDbEntity
  8
0
  6
Continuous
 62
     7
370
    25
100
AcDbSpline
210
0.0
220
0.0
230
1.0
 70
     8
 71
     3
 72
    10
 73
     6
 74
     0
 42
0.000000001
 43
0.00000001
 40
0.0
 40
0.0
 40
0.0
 40
0.0
 40
0.5
 40
0.5
 40
1.0
 40
1.0
 40
1.0
 40
1.0
 10
393.2535372456001
 20
170.2490548893456
 30
0.0
 10
393.2816342602446
 20
170.2490548893457
 30
0.0
 10
393.296483752209
 20
170.2748409147591
 30
0.0
 10
393.2965270249479
 20
170.3752863064477
 30
0.0
 10
393.2816417244013
 20
170.4500300086982
 30
0.0
 10
393.2535372456024
 20
170.5419481081595
 30
0.0
  0
SPLINE
  5
93
330
1F
100
AcDbEntity
  8
0
  6
Continuous
 62
     7
370
    25
100
AcDbSpline
210
0.0
220
0.0
230
1.0
 70
    24
 71
     3
 72
    12
 73
     8
 74
     0
 42
0.000000001
 43
0.00000001
 40
0.0
 40
0.0
 40
0.0
 40
0.0
 40
0.1894207334317985
 40
0.3790854222475445
 40
0.6099407771843137
 40
0.8409399610726528
 40
1.0
 40
1.0
 40
1.0
 40
1.0
 10
393.2535372456039
 20
170.2490548893456
 30
0.0
 10
393.0459672668261
 20
170.2490548893456
 30
0.0
 10
392.6305599794333
 20
170.2490548893456
 30
0.0
 10
392.1074962593476
 20
170.2490548893457
 30
0.0
 10
391.7035309529255
 20
170.2490548893456
 30
0.0
 10
391.4672081718187
 20
170.2490548893456
 30
0.0
 10
391.4646077662925
 20
170.2490548893457
 30
0.0
 10
391.4635473616667
 20
170.2490548893456
 30
0.0
  0
LINE
  5
94
330
1F
100
AcDbEntity
  8
0
  6
Continuous
 62
     7
370
    25
100
AcDbLine
 10
391.2969706436
 20
249.9990548893
 30
0.0
 11
391.2969706436
 21
170.4990548893
 31
0.0
  0
LINE
  5
95
330
1F
100
AcDbEntity
  8
0
  6
Continuous
 62
     7
370
    25
100
AcDbLine
 10
404.3404040417
 20
226.4033838219
 30
0.0
 11
393.2535372456
 21
226.4033838219
 31
0.0
  0
SPLINE
  5
96
330
1F
100
AcDbEntity
  8
0
  6
Continuous
 62
     7
370
    25
100
AcDbSpline
210
0.0
220
0.0
230
1.0
 70
     8
 71
     3
 72
    18
 73
    14
 74
     0
 42
0.000000001
 43
0.00000001
 40
0.0
 40
0.0
 40
0.0
 40
0.0
 40
0.1250000000000001
 40
0.1250000000000001
 40
0.2500000000000001
 40
0.2500000000000001
 40
0.5
 40
0.5
 40
0.75
 40
0.75
 40
0.875
 40
0.875
 40
1.0
 40
1.0
 40
1.0
 40
1.0
 10
404.3404040416846
 20
194.0947259567949
 30
0.0
 10
404.6275709153144
 20
195.4229607069506
 30
0.0
 10
404.8867801278964
 20
196.7631796304257
 30
0.0
 10
405.3382785922203
 20
199.4560137175801
 30
0.0
 10
405.5296862496064
 20
200.8030495043734
 30
0.0
 10
405.9928831283041
 20
204.8461572576471
 30
0.0
 10
406.1524833399919
 20
207.5442505696563
 30
0.0
 10
406.1527826000727
 20
212.9461829386702
 30
0.0
 10
405.9934429891885
 20
215.6500226922115
 30
0.0
 10
405.5278198657966
 20
219.7098652946889
 30
0.0
 10
405.3345173773484
 20
221.0665564562007
 30
0.0
 10
404.8837673405782
 20
223.7508406319892
 30
0.0
 10
404.6261074896212
 20
225.081917863821
 30
0.0
 10
404.3404040416847
 20
226.4033838218956
 30
0.0
  0
LINE
  5
97
330
1F
100
AcDbEntity
  8
0
  6
Continuous
 62
     7
370
    25
100
AcDbLine
 10
393.2535372456
 20
194.0947259568
 30
0.0
 11
404.3404040417
 21
194.0947259568
 31
0.0
  0
LINE
  5
98
330
1F
100
AcDbEntity
  8
0
  6
Continuous
 62
     7
370
    25
100
AcDbLine
 10
398.9628360283
 20
207.8284972426
 30
0.0
 11
401.7008167975
 21
206.037631858
 31
0.0
  0
SPLINE
  5
99
330
1F
100
AcDbEntity
  8
0
  6
Continuous
 62
     7
370
    25
100
AcDbSpline
210
0.0
220
0.0
230
1.0
 70
     8
 71
     3
 72
    19
 73
    15
 74
     0
 42
0.000000001
 43
0.00000001
 40
0.0
 40
0.0
 40
0.0
 40
0.0
 40
0.0978059775289525
 40
0.1996122522918966
 40
0.3052960258330041
 40
0.4158173591641854
 40
0.474240566618493
 40
0.5372869128296534
 40
0.6033858352934854
 40
0.6743111580696056
 40
0.749530467357482
 40
0.8286083142695116
 40
0.9120427387714447
 40
0.9999999999999999
 40
0.9999999999999999
 40
0.9999999999999999
 40
0.9999999999999999
 10
397.2200475667206
 20
208.4991703195045
 30
0.0
 10
397.2818157825738
 20
208.4969958367025
 30
0.0
 10
397.4078785549937
 20
208.4925579340238
 30
0.0
 10
397.5993564512432
 20
208.4660730421318
 30
0.0
 10
397.7945117039724
 20
208.4174965145356
 30
0.0
 10
397.9599499665566
 20
208.3649260946574
 30
0.0
 10
398.0969628217773
 20
208.3127603688773
 30
0.0
 10
398.2051582542056
 20
208.2643911076104
 30
0.0
 10
398.3194161049147
 20
208.2103083798525
 30
0.0
 10
398.437574502937
 20
208.1469158913756
 30
0.0
 10
398.5630094896287
 20
208.0797147377768
 30
0.0
 10
398.6910758244955
 20
208.0012161643834
 30
0.0
 10
398.826450885534
 20
207.9193016968621
 30
0.0
 10
398.9165814983408
 20
207.8592932461879
 30
0.0
 10
398.962836028259
 20
207.8284972425814
 30
0.0
  0
SPLINE
  5
9A
330
1F
100
AcDbEntity
  8
0
  6
Continuous
 62
     7
370
    25
100
AcDbSpline
210
0.0
220
0.0
230
1.0
 70
     8
 71
     3
 72
    19
 73
    15
 74
     0
 42
0.000000001
 43
0.00000001
 40
0.0
 40
0.0
 40
0.0
 40
0.0
 40
0.0843261511037433
 40
0.1670353409858406
 40
0.2495407139852792
 40
0.3327066655796642
 40
0.4158726171740492
 40
0.4977774155681174
 40
0.5803136056784763
 40
0.6645325781316563
 40
0.7495711764063215
 40
0.8324741628544073
 40
0.9156738488962568
 40
1.0
 40
1.0
 40
1.0
 40
1.0
 10
395.3931244897974
 20
206.6818626271968
 30
0.0
 10
395.3957442644581
 20
206.7625998438838
 30
0.0
 10
395.4009335793741
 20
206.9225261341631
 30
0.0
 10
395.4471609981855
 20
207.1577821251564
 30
0.0
 10
395.5220870938421
 20
207.3838338740298
 30
0.0
 10
395.6253129500323
 20
207.5990924248515
 30
0.0
 10
395.7556927637582
 20
207.7985112607789
 30
0.0
 10
395.9126755773108
 20
207.9768649944731
 30
0.0
 10
396.0927918903084
 20
208.1335330958393
 30
0.0
 10
396.2965942336732
 20
208.263226565199
 30
0.0
 10
396.5141827986245
 20
208.3689270947346
 30
0.0
 10
396.743133233603
 20
208.4434792067223
 30
0.0
 10
396.9788378202529
 20
208.4916922521438
 30
0.0
 10
397.1392846961563
 20
208.4966664812676
 30
0.0
 10
397.2200475667206
 20
208.4991703195045
 30
0.0
  0
SPLINE
  5
9B
330
1F
100
AcDbEntity
  8
0
  6
Continuous
 62
     7
370
    25
100
AcDbSpline
210
0.0
220
0.0
230
1.0
 70
     8
 71
     3
 72
    19
 73
    15
 74
     0
 42
0.000000001
 43
0.00000001
 40
0.0
 40
0.0
 40
0.0
 40
0.0
 40
0.0859901205637197
 40
0.1691084375726416
 40
0.2505285789581879
 40
0.332255696176845
 40
0.4135763652356403
 40
0.4941261456201217
 40
0.5763059341204171
 40
0.6607126719045474
 40
0.7461272722239105
 40
0.8300149859609744
 40
0.914419725928851
 40
1.0
 40
1.0
 40
1.0
 40
1.0
 10
397.2308648744128
 20
204.8068626271968
 30
0.0
 10
397.1469495812684
 20
204.8099938192094
 30
0.0
 10
396.9819215057281
 20
204.8161516311244
 30
0.0
 10
396.740554509161
 20
204.8609778864575
 30
0.0
 10
396.5124549282776
 20
204.9383379876422
 30
0.0
 10
396.2967263693857
 20
205.0418365263635
 30
0.0
 10
396.0996454675229
 20
205.1761177421742
 30
0.0
 10
395.9215371794017
 20
205.3352483655962
 30
0.0
 10
395.766289641796
 20
205.5207326258941
 30
0.0
 10
395.633109246365
 20
205.7281782148387
 30
0.0
 10
395.5272975898943
 20
205.9526987660268
 30
0.0
 10
395.44906887253
 20
206.1881159081302
 30
0.0
 10
395.4023252258105
 20
206.4324174224571
 30
0.0
 10
395.3962055088023
 20
206.598331764515
 30
0.0
 10
395.3931244897974
 20
206.6818626271968
 30
0.0
  0
SPLINE
  5
9C
330
1F
100
AcDbEntity
  8
0
  6
Continuous
 62
     7
370
    25
100
AcDbSpline
210
0.0
220
0.0
230
1.0
 70
     8
 71
     3
 72
    23
 73
    19
 74
     0
 42
0.000000001
 43
0.00000001
 40
0.0
 40
0.0
 40
0.0
 40
0.0
 40
0.0652308037420294
 40
0.1284048960032225
 40
0.1900670715964781
 40
0.2509433657682799
 40
0.311545832852143
 40
0.372862802156829
 40
0.4350236738562383
 40
0.4990717247070431
 40
0.563091075049662
 40
0.625510106330375
 40
0.6866800359296492
 40
0.7472825030135125
 40
0.8085634952159589
 40
0.8707421035159856
 40
0.9343409515059125
 40
1.0
 40
1.0
 40
1.0
 40
1.0
 10
399.008509105182
 20
206.5869107041199
 30
0.0
 10
399.0068700565607
 20
206.5259292818311
 30
0.0
 10
399.0036436381251
 20
206.4058891667637
 30
0.0
 10
398.9788141797962
 20
206.2296489344654
 30
0.0
 10
398.9396854164985
 20
206.0602964727971
 30
0.0
 10
398.8826472634445
 20
205.8985337089307
 30
0.0
 10
398.8097860845377
 20
205.7437800257429
 30
0.0
 10
398.722462306914
 20
205.5951473466997
 30
0.0
 10
398.6161668548739
 20
205.455429615089
 30
0.0
 10
398.497426930673
 20
205.3228275935829
 30
0.0
 10
398.3659121001099
 20
205.2024382837664
 30
0.0
 10
398.2263669514709
 20
205.0958507599535
 30
0.0
 10
398.0789368697597
 20
205.0063191169808
 30
0.0
 10
397.9236965281597
 20
204.9336781084986
 30
0.0
 10
397.760885226056
 20
204.877269745188
 30
0.0
 10
397.5907112726472
 20
204.8361480679704
 30
0.0
 10
397.4130573215728
 20
204.8118401945649
 30
0.0
 10
397.292237592545
 20
204.808539353339
 30
0.0
 10
397.2308648744128
 20
204.8068626271968
 30
0.0
  0
SPLINE
  5
9D
330
1F
100
AcDbEntity
  8
0
  6
Continuous
 62
     7
370
    25
100
AcDbSpline
210
0.0
220
0.0
230
1.0
 70
     8
 71
     3
 72
     9
 73
     5
 74
     0
 42
0.000000001
 43
0.00000001
 40
0.0
 40
0.0
 40
0.0
 40
0.0
 40
0.5126593363417812
 40
1.0
 40
1.0
 40
1.0
 40
1.0
 10
398.9508167974897
 20
207.2083049348892
 30
0.0
 10
398.9676405586102
 20
207.102755888632
 30
0.0
 10
399.0004572068751
 20
206.8968705398733
 30
0.0
 10
399.0058708276438
 20
206.6884718566886
 30
0.0
 10
399.008509105182
 20
206.5869107041199
 30
0.0
  0
LINE
  5
9E
330
1F
100
AcDbEntity
  8
0
  6
Continuous
 62
     7
370
    25
100
AcDbLine
 10
401.3750956436
 20
205.6229683964
 30
0.0
 11
398.9508167975
 21
207.2083049349
 31
0.0
  0
LINE
  5
9F
330
1F
100
AcDbEntity
  8
0
  6
Continuous
 62
     7
370
    25
100
AcDbLine
 10
401.7008167975
 20
206.037631858
 30
0.0
 11
401.3750956436
 21
205.6229683964
 31
0.0
  0
LINE
  5
A0
330
1F
100
AcDbEntity
  8
0
  6
Continuous
 62
     7
370
    25
100
AcDbLine
 10
400.9315860283
 20
211.2475939556
 30
0.0
 11
401.5469706436
 21
210.895430494
 31
0.0
  0
LINE
  5
A1
330
1F
100
AcDbEntity
  8
0
  6
Continuous
 62
     7
370
    25
100
AcDbLine
 10
400.9315860283
 20
210.3245170325
 30
0.0
 11
400.9315860283
 21
211.2475939556
 31
0.0
  0
LINE
  5
A2
330
1F
100
AcDbEntity
  8
0
  6
Continuous
 62
     7
370
    25
100
AcDbLine
 10
395.5469706436
 20
210.3245170325
 30
0.0
 11
400.9315860283
 21
210.3245170325
 31
0.0
  0
LINE
  5
A3
330
1F
100
AcDbEntity
  8
0
  6
Continuous
 62
     7
370
    25
100
AcDbLine
 10
395.5469706436
 20
209.786055494
 30
0.0
 11
395.5469706436
 21
210.3245170325
 31
0.0
  0
LINE
  5
A4
330
1F
100
AcDbEntity
  8
0
  6
Continuous
 62
     7
370
    25
100
AcDbLine
 10
401.5469706436
 20
209.786055494
 30
0.0
 11
395.5469706436
 21
209.786055494
 31
0.0
  0
LINE
  5
A5
330
1F
100
AcDbEntity
  8
0
  6
Continuous
 62
     7
370
    25
100
AcDbLine
 10
401.5469706436
 20
210.895430494
 30
0.0
 11
401.5469706436
 21
209.786055494
 31
0.0
  0
SPLINE
  5
A6
330
1F
100
AcDbEntity
  8
0
  6
Continuous
 62
     7
370
    25
100
AcDbSpline
210
0.0
220
0.0
230
1.0
 70
     8
 71
     3
 72
    19
 73
    15
 74
     0
 42
0.000000001
 43
0.00000001
 40
0.0
 40
0.0
 40
0.0
 40
0.0
 40
0.1227280999764555
 40
0.2397165235883931
 40
0.3518621792202464
 40
0.4632019818032244
 40
0.5202611541541645
 40
0.5794324380306666
 40
0.640596344158637
 40
0.7052982290880201
 40
0.7732361059084535
 40
0.8446489293403158
 40
0.9200459817773698
 40
1.0
 40
1.0
 40
1.0
 40
1.0
 10
401.0854321821051
 20
213.8180942646684
 30
0.0
 10
401.083051616714
 20
213.8864136674095
 30
0.0
 10
401.0784018188287
 20
214.0198573508191
 30
0.0
 10
401.0375321913081
 20
214.212194325248
 30
0.0
 10
400.9727784795818
 20
214.3908130013642
 30
0.0
 10
400.8945885647289
 20
214.5268844016773
 30
0.0
 10
400.8176706352778
 20
214.6275348208439
 30
0.0
 10
400.7514981406895
 20
214.7008376287834
 30
0.0
 10
400.6764720851888
 20
214.7715090444731
 30
0.0
 10
400.5905345885098
 20
214.8367758574697
 30
0.0
 10
400.496640693339
 20
214.9005489934171
 30
0.0
 10
400.3942732670629
 20
214.9622195141942
 30
0.0
 10
400.2819728565435
 20
215.0198065612458
 30
0.0
 10
400.2029999710355
 20
215.054860739687
 30
0.0
 10
400.1623552590282
 20
215.0729019569762
 30
0.0
  0
SPLINE
  5
A7
330
1F
100
AcDbEntity
  8
0
  6
Continuous
 62
     7
370
    25
100
AcDbSpline
210
0.0
220
0.0
230
1.0
 70
     8
 71
     3
 72
    23
 73
    19
 74
     0
 42
0.000000001
 43
0.00000001
 40
0.0
 40
0.0
 40
0.0
 40
0.0
 40
0.0552698294993248
 40
0.1099567044850939
 40
0.1632335040550556
 40
0.2180575651623569
 40
0.2732775387226747
 40
0.330881045495497
 40
0.3904799376860887
 40
0.4536559730386418
 40
0.5189026226022312
 40
0.5833461108214767
 40
0.6485466930814432
 40
0.7150552190344911
 40
0.7825206438000537
 40
0.8523352944264511
 40
0.9249348997257085
 40
1.0
 40
1.0
 40
1.0
 40
1.0
 10
400.1443264128744
 20
212.6113634954377
 30
0.0
 10
400.1756597655879
 20
212.6120738315237
 30
0.0
 10
400.2379959847523
 20
212.6134870114775
 30
0.0
 10
400.3290664257739
 20
212.6313121298289
 30
0.0
 10
400.4173578876538
 20
212.6580916698837
 30
0.0
 10
400.5024697562005
 20
212.6949314175716
 30
0.0
 10
400.5839080025382
 20
212.7441508986917
 30
0.0
 10
400.6617725354461
 20
212.8032306725353
 30
0.0
 10
400.7373682838594
 20
212.8721992540766
 30
0.0
 10
400.8070786546738
 20
212.952859135514
 30
0.0
 10
400.8728333854433
 20
213.0401820597259
 30
0.0
 10
400.9296759041513
 20
213.1349896804617
 30
0.0
 10
400.9778555850212
 20
213.2351908999164
 30
0.0
 10
401.0176622721015
 20
213.3408778602416
 30
0.0
 10
401.0475872575767
 20
213.4524739399766
 30
0.0
 10
401.0690787345915
 20
213.5694327047796
 30
0.0
 10
401.0825143069662
 20
213.6919833110938
 30
0.0
 10
401.0844487906409
 20
213.7755919541235
 30
0.0
 10
401.0854321821051
 20
213.8180942646684
 30
0.0
  0
SPLINE
  5
A8
330
1F
100
AcDbEntity
  8
0
  6
Continuous
 62
     7
370
    25
100
AcDbSpline
210
0.0
220
0.0
230
1.0
 70
     8
 71
     3
 72
    19
 73
    15
 74
     0
 42
0.000000001
 43
0.00000001
 40
0.0
 40
0.0
 40
0.0
 40
0.0
 40
0.1101423815503174
 40
0.2157418685830274
 40
0.3179605426392306
 40
0.4180517606815226
 40
0.5115631470355316
 40
0.5965727584443461
 40
0.6733290469034968
 40
0.7440491927238595
 40
0.8107168223002833
 40
0.8740854521098849
 40
0.9367096168966699
 40
1.0
 40
1.0
 40
1.0
 40
1.0
 10
399.1623552590282
 20
214.1498250338992
 30
0.0
 10
399.1636204149026
 20
214.0755965157705
 30
0.0
 10
399.1660985444705
 20
213.9302010832602
 30
0.0
 10
399.1958635329128
 20
213.7177819653457
 30
0.0
 10
399.2375008361923
 20
213.5144157668192
 30
0.0
 10
399.2998055227582
 20
213.32474455052
 30
0.0
 10
399.3745889295582
 20
213.1524296781269
 30
0.0
 10
399.4589126820487
 20
213.0021119367149
 30
0.0
 10
399.5544477102119
 20
212.8773537979523
 30
0.0
 10
399.6599402084048
 20
212.7778435647465
 30
0.0
 10
399.7744033659708
 20
212.7048065869388
 30
0.0
 10
399.8924550754141
 20
212.6499851011171
 30
0.0
 10
400.0168420082221
 20
212.6178465249058
 30
0.0
 10
400.1016819808937
 20
212.613532114493
 30
0.0
 10
400.1443264128744
 20
212.6113634954377
 30
0.0
  0
LINE
  5
A9
330
1F
100
AcDbEntity
  8
0
  6
Continuous
 62
     7
370
    25
100
AcDbLine
 10
398.5469706436
 20
214.1498250339
 30
0.0
 11
399.162355259
 21
214.1498250339
 31
0.0
  0
SPLINE
  5
AA
330
1F
100
AcDbEntity
  8
0
  6
Continuous
 62
     7
370
    25
100
AcDbSpline
210
0.0
220
0.0
230
1.0
 70
     8
 71
     3
 72
    23
 73
    19
 74
     0
 42
0.000000001
 43
0.00000001
 40
0.0
 40
0.0
 40
0.0
 40
0.0
 40
0.0669051223273616
 40
0.1334773340846825
 40
0.2010229080576287
 40
0.2712178684297488
 40
0.3428591616573978
 40
0.4138109980627169
 40
0.4855518488903453
 40
0.5598002749200529
 40
0.5998999649035781
 40
0.6436094423977958
 40
0.6919106424505659
 40
0.7447030291556902
 40
0.8015038302285953
 40
0.8628660266331954
 40
0.9293326711591618
 40
1.0
 40
1.0
 40
1.0
 40
1.0
 10
397.2777398744128
 20
212.3036711877454
 30
0.0
 10
397.333645089943
 20
212.3062945152055
 30
0.0
 10
397.4451773444374
 20
212.3115281168135
 30
0.0
 10
397.6092636682776
 20
212.3514863793138
 30
0.0
 10
397.7673646377656
 20
212.4172074251128
 30
0.0
 10
397.9167601025818
 20
212.5092281066859
 30
0.0
 10
398.0552883746431
 20
212.6211914413572
 30
0.0
 10
398.1784060504693
 20
212.752013630423
 30
0.0
 10
398.2810175336375
 20
212.9020155803783
 30
0.0
 10
398.3516514305805
 20
213.0409630251171
 30
0.0
 10
398.3987259524432
 20
213.1643350321371
 30
0.0
 10
398.4317337259031
 20
213.2697045280655
 30
0.0
 10
398.458119555119
 20
213.3877732412941
 30
0.0
 10
398.4836425980135
 20
213.5171237826416
 30
0.0
 10
398.5050394974859
 20
213.6583016874215
 30
0.0
 10
398.5229602394431
 20
213.8114341480216
 30
0.0
 10
398.5372771228191
 20
213.976582770798
 30
0.0
 10
398.5436741521565
 20
214.0909102540319
 30
0.0
 10
398.5469706436436
 20
214.1498250338992
 30
0.0
  0
SPLINE
  5
AB
330
1F
100
AcDbEntity
  8
0
  6
Continuous
 62
     7
370
    25
100
AcDbSpline
210
0.0
220
0.0
230
1.0
 70
     8
 71
     3
 72
    23
 73
    19
 74
     0
 42
0.000000001
 43
0.00000001
 40
0.0
 40
0.0
 40
0.0
 40
0.0
 40
0.0760618905628339
 40
0.1487324608035361
 40
0.2183745247439722
 40
0.2857225935927383
 40
0.3510576941824569
 40
0.414934915729319
 40
0.4784859417740854
 40
0.542169035281216
 40
0.6047501165431387
 40
0.6641185017301124
 40
0.7214996756099116
 40
0.7776159163852547
 40
0.8326661086975489
 40
0.8878580281135741
 40
0.9434676608977686
 40
1.0
 40
1.0
 40
1.0
 40
1.0
 10
396.008509105182
 20
213.8313154185146
 30
0.0
 10
396.0095632256191
 20
213.7751657967714
 30
0.0
 10
396.0116244671347
 20
213.6653700586791
 30
0.0
 10
396.0306353832268
 20
213.5051723472243
 30
0.0
 10
396.0582018037303
 20
213.3527216387646
 30
0.0
 10
396.1013210451784
 20
213.209573692318
 30
0.0
 10
396.1530496984759
 20
213.0737806156119
 30
0.0
 10
396.2207719995668
 20
212.9483737024356
 30
0.0
 10
396.2972533901098
 20
212.8296661444792
 30
0.0
 10
396.3862159569737
 20
212.721135524582
 30
0.0
 10
396.4823748622725
 20
212.6232898638985
 30
0.0
 10
396.584390891321
 20
212.5387404024873
 30
0.0
 10
396.6891008833327
 20
212.4655108990332
 30
0.0
 10
396.7989475107673
 20
212.4066465991091
 30
0.0
 10
396.912853266515
 20
212.360082175042
 30
0.0
 10
397.0312445008282
 20
212.3284021935103
 30
0.0
 10
397.1531242854357
 20
212.3063695591394
 30
0.0
 10
397.2359741147534
 20
212.3045755652156
 30
0.0
 10
397.2777398744128
 20
212.3036711877454
 30
0.0
  0
SPLINE
  5
AC
330
1F
100
AcDbEntity
  8
0
  6
Continuous
 62
     7
370
    25
100
AcDbSpline
210
0.0
220
0.0
230
1.0
 70
     8
 71
     3
 72
    15
 73
    11
 74
     0
 42
0.000000001
 43
0.00000001
 40
0.0
 40
0.0
 40
0.0
 40
0.0
 40
0.1182713048357255
 40
0.2361775330837631
 40
0.355662932948509
 40
0.4759041646706831
 40
0.600127341711083
 40
0.7286081161551199
 40
0.8613134756739423
 40
1.0
 40
1.0
 40
1.0
 40
1.0
 10
396.3330283359513
 20
214.8337192646685
 30
0.0
 10
396.3071283350047
 20
214.8001251334825
 30
0.0
 10
396.255408280517
 20
214.7330405685441
 30
0.0
 10
396.189405488738
 20
214.6237236009468
 30
0.0
 10
396.1322151595927
 20
214.5087552247998
 30
0.0
 10
396.088528824079
 20
214.3856443547069
 30
0.0
 10
396.0515385484404
 20
214.2570476053571
 30
0.0
 10
396.0273319442133
 20
214.1208864078168
 30
0.0
 10
396.0107236504821
 20
213.9783620356252
 30
0.0
 10
396.009258053638
 20
213.8810458696543
 30
0.0
 10
396.008509105182
 20
213.8313154185146
 30
0.0
  0
SPLINE
  5
AD
330
1F
100
AcDbEntity
  8
0
  6
Continuous
 62
     7
370
    25
100
AcDbSpline
210
0.0
220
0.0
230
1.0
 70
     8
 71
     3
 72
    15
 73
    11
 74
     0
 42
0.000000001
 43
0.00000001
 40
0.0
 40
0.0
 40
0.0
 40
0.0
 40
0.1497703860319679
 40
0.2913164099952444
 40
0.4259663731047425
 40
0.5521595739695284
 40
0.6715274135235927
 40
0.7861216286916589
 40
0.8953250730704446
 40
1.0
 40
1.0
 40
1.0
 40
1.0
 10
397.1623552590282
 20
215.3036711877454
 30
0.0
 10
397.1161569505677
 20
215.2896426881335
 30
0.0
 10
397.0262972277937
 20
215.2623560378628
 30
0.0
 10
396.896970989494
 20
215.2159086698026
 30
0.0
 10
396.7784143268229
 20
215.1629916319675
 30
0.0
 10
396.6697575462892
 20
215.1062238171629
 30
0.0
 10
396.5699305706364
 20
215.046603623981
 30
0.0
 10
396.4815730808636
 20
214.9798923237472
 30
0.0
 10
396.4008041627897
 20
214.9110309320661
 30
0.0
 10
396.3552991137493
 20
214.8591234691781
 30
0.0
 10
396.3330283359513
 20
214.8337192646685
 30
0.0
  0
LINE
  5
AE
330
1F
100
AcDbEntity
  8
0
  6
Continuous
 62
     7
370
    25
100
AcDbLine
 10
397.162355259
 20
215.8421327262
 30
0.0
 11
397.162355259
 21
215.3036711877
 31
0.0
  0
SPLINE
  5
AF
330
1F
100
AcDbEntity
  8
0
  6
Continuous
 62
     7
370
    25
100
AcDbSpline
210
0.0
220
0.0
230
1.0
 70
     8
 71
     3
 72
    23
 73
    19
 74
     0
 42
0.000000001
 43
0.00000001
 40
0.0
 40
0.0
 40
0.0
 40
0.0
 40
0.0655411703374033
 40
0.1289631677825934
 40
0.1903771361885613
 40
0.2500923616690528
 40
0.308548432459201
 40
0.3663979630552961
 40
0.42454218926668
 40
0.4831699964229059
 40
0.54224339983112
 40
0.60173935201733
 40
0.6625060022496069
 40
0.7248555134488469
 40
0.7891278292811811
 40
0.8563463998785099
 40
0.9262952349869054
 40
1.0
 40
1.0
 40
1.0
 40
1.0
 10
395.3931244897974
 20
213.84093080313
 30
0.0
 10
395.3946128553834
 20
213.9050781750439
 30
0.0
 10
395.3975414625444
 20
214.0312988123069
 30
0.0
 10
395.4175619217385
 20
214.2168590952549
 30
0.0
 10
395.4541276450033
 20
214.3939820084512
 30
0.0
 10
395.5033333113452
 20
214.5629070333484
 30
0.0
 10
395.5657191549118
 20
214.7237842385945
 30
0.0
 10
395.6434083515197
 20
214.8761227046134
 30
0.0
 10
395.7347994978943
 20
215.0208596649336
 30
0.0
 10
395.8409713627055
 20
215.1566292954671
 30
0.0
 10
395.9597393737171
 20
215.283415411535
 30
0.0
 10
396.0932119622332
 20
215.3978486530723
 30
0.0
 10
396.2389217975264
 20
215.5018368695445
 30
0.0
 10
396.3985613224385
 20
215.5925956787642
 30
0.0
 10
396.5700674777718
 20
215.6742590261057
 30
0.0
 10
396.7556363321404
 20
215.7414263803582
 30
0.0
 10
396.9536089412643
 20
215.8005444980204
 30
0.0
 10
397.0915707815658
 20
215.828030436728
 30
0.0
 10
397.1623552590282
 20
215.8421327262069
 30
0.0
  0
SPLINE
  5
B0
330
1F
100
AcDbEntity
  8
0
  6
Continuous
 62
     7
370
    25
100
AcDbSpline
210
0.0
220
0.0
230
1.0
 70
     8
 71
     3
 72
    19
 73
    15
 74
     0
 42
0.000000001
 43
0.00000001
 40
0.0
 40
0.0
 40
0.0
 40
0.0
 40
0.079641704194991
 40
0.158908613257856
 40
0.2395997983184508
 40
0.3224093988203483
 40
0.405827748173513
 40
0.4876442139503136
 40
0.5697199979738973
 40
0.6530646649976933
 40
0.7374573001733064
 40
0.8224924079539123
 40
0.9097550737466982
 40
1.0
 40
1.0
 40
1.0
 40
1.0
 10
397.3294225667205
 20
211.7652096492838
 30
0.0
 10
397.2454092427072
 20
211.7682927321299
 30
0.0
 10
397.0777779627255
 20
211.7744443887848
 30
0.0
 10
396.8300568985548
 20
211.829206907597
 30
0.0
 10
396.5883242023058
 20
211.9145933247979
 30
0.0
 10
396.3561615666058
 20
212.0337290995996
 30
0.0
 10
396.1393960051673
 20
212.1811313491582
 30
0.0
 10
395.9463296690211
 20
212.3574679313158
 30
0.0
 10
395.7792572440317
 20
212.5584521318861
 30
0.0
 10
395.6401144190056
 20
212.7827685493695
 30
0.0
 10
395.5288061626962
 20
213.0256908659627
 30
0.0
 10
395.4515703801204
 20
213.2855405424415
 30
0.0
 10
395.4012614408094
 20
213.5585390537875
 30
0.0
 10
395.3958670169217
 20
213.7457517820107
 30
0.0
 10
395.3931244897974
 20
213.84093080313
 30
0.0
  0
SPLINE
  5
B1
330
1F
100
AcDbEntity
  8
0
  6
Continuous
 62
     7
370
    25
100
AcDbSpline
210
0.0
220
0.0
230
1.0
 70
     8
 71
     3
 72
    15
 73
    11
 74
     0
 42
0.000000001
 43
0.00000001
 40
0.0
 40
0.0
 40
0.0
 40
0.0
 40
0.1281455049994643
 40
0.2541925386280419
 40
0.3781411397135888
 40
0.5013808330744057
 40
0.6239569784447038
 40
0.7470758858273289
 40
0.8728647202442611
 40
1.0
 40
1.0
 40
1.0
 40
1.0
 10
398.3955283359513
 20
212.1233827262069
 30
0.0
 10
398.3560049742513
 20
212.0945001014567
 30
0.0
 10
398.2776054732647
 20
212.0372078249345
 30
0.0
 10
398.1514814870023
 20
211.9666900302788
 30
0.0
 10
398.0243770900602
 20
211.9019852005945
 30
0.0
 10
397.8912947014849
 20
211.8543643189541
 30
0.0
 10
397.7565091630029
 20
211.8132693852018
 30
0.0
 10
397.6171341775392
 20
211.7862302871524
 30
0.0
 10
397.4744939254289
 20
211.7688722677697
 30
0.0
 10
397.3779510021929
 20
211.7664348473273
 30
0.0
 10
397.3294225667205
 20
211.7652096492838
 30
0.0
  0
SPLINE
  5
B2
330
1F
100
AcDbEntity
  8
0
  6
Continuous
 62
     7
370
    25
100
AcDbSpline
210
0.0
220
0.0
230
1.0
 70
     8
 71
     3
 72
    11
 73
     7
 74
     0
 42
0.000000001
 43
0.00000001
 40
0.0
 40
0.0
 40
0.0
 40
0.0
 40
0.253879600326656
 40
0.5030089172783634
 40
0.7502910806899733
 40
1.0
 40
1.0
 40
1.0
 40
1.0
 10
398.9075475667206
 20
212.7736231108223
 30
0.0
 10
398.8767278440779
 20
212.7097972458394
 30
0.0
 10
398.8156650596033
 20
212.5833397470956
 30
0.0
 10
398.6959123324309
 20
212.4109674107535
 30
0.0
 10
398.5576443083957
 20
212.2544910529987
 30
0.0
 10
398.4497426176867
 20
212.1672275347065
 30
0.0
 10
398.3955283359513
 20
212.1233827262069
 30
0.0
  0
SPLINE
  5
B3
330
1F
100
AcDbEntity
  8
0
  6
Continuous
 62
     7
370
    25
100
AcDbSpline
210
0.0
220
0.0
230
1.0
 70
     8
 71
     3
 72
    15
 73
    11
 74
     0
 42
0.000000001
 43
0.00000001
 40
0.0
 40
0.0
 40
0.0
 40
0.0
 40
0.1280675485958904
 40
0.2506083188676685
 40
0.370630165914503
 40
0.4900722467299488
 40
0.6103747641546199
 40
0.7343130699115256
 40
0.8632165042449895
 40
1.0
 40
1.0
 40
1.0
 40
1.0
 10
400.1419225667205
 20
212.0729019569762
 30
0.0
 10
400.0784823472252
 20
212.0748966844854
 30
0.0
 10
399.9543396824313
 20
212.0788000566759
 30
0.0
 10
399.7731028301944
 20
212.1119435519256
 30
0.0
 10
399.6022886582821
 20
212.1677200025705
 30
0.0
 10
399.4411780946419
 20
212.2449824527041
 30
0.0
 10
399.2907926549451
 20
212.3449965388302
 30
0.0
 10
399.1507939848985
 20
212.4661497334994
 30
0.0
 10
399.0205611423929
 20
212.6092971536859
 30
0.0
 10
398.9459563315778
 20
212.7177753331544
 30
0.0
 10
398.9075475667206
 20
212.7736231108223
 30
0.0
  0
SPLINE
  5
B4
330
1F
100
AcDbEntity
  8
0
  6
Continuous
 62
     7
370
    25
100
AcDbSpline
210
0.0
220
0.0
230
1.0
 70
     8
 71
     3
 72
    19
 73
    15
 74
     0
 42
0.000000001
 43
0.00000001
 40
0.0
 40
0.0
 40
0.0
 40
0.0
 40
0.0902542493426766
 40
0.1785397915286845
 40
0.2660930338538198
 40
0.3546309779571733
 40
0.4418861533505626
 40
0.5257469151636484
 40
0.6081136336036366
 40
0.6901972728278825
 40
0.770821484330335
 40
0.8483261812554109
 40
0.9240117400247433
 40
1.0
 40
1.0
 40
1.0
 40
1.0
 10
401.7008167974898
 20
213.82530580313
 30
0.0
 10
401.6984524027841
 20
213.7469925310013
 30
0.0
 10
401.6937751876844
 20
213.5920742265268
 30
0.0
 10
401.6510647251488
 20
213.3644804317545
 30
0.0
 10
401.5834787839702
 20
213.1450058847223
 30
0.0
 10
401.4900952517353
 20
212.9360528884657
 30
0.0
 10
401.3749170006004
 20
212.7419641468721
 30
0.0
 10
401.237834594495
 20
212.5692735410199
 30
0.0
 10
401.0814929348024
 20
212.4203218082131
 30
0.0
 10
400.9088085388278
 20
212.2953600179387
 30
0.0
 10
400.7242562370216
 20
212.1975171624181
 30
0.0
 10
400.5343131104834
 20
212.1253690935957
 30
0.0
 10
400.3394297309595
 20
212.0814462118837
 30
0.0
 10
400.207845823802
 20
212.0757538287804
 30
0.0
 10
400.1419225667205
 20
212.0729019569762
 30
0.0
  0
SPLINE
  5
B5
330
1F
100
AcDbEntity
  8
0
  6
Continuous
 62
     7
370
    25
100
AcDbSpline
210
0.0
220
0.0
230
1.0
 70
     8
 71
     3
 72
    23
 73
    19
 74
     0
 42
0.000000001
 43
0.00000001
 40
0.0
 40
0.0
 40
0.0
 40
0.0
 40
0.0726253460834354
 40
0.1419766113262345
 40
0.2089849284189386
 40
0.2739568703644447
 40
0.3368893473968406
 40
0.39874495349459
 40
0.4601158852788613
 40
0.5208249225900293
 40
0.5809944586324856
 40
0.6401519276014648
 40
0.6986224507562546
 40
0.7572710809271642
 40
0.81642669400466
 40
0.8762540482034705
 40
0.9371652930625374
 40
1.0
 40
1.0
 40
1.0
 40
1.0
 10
400.1623552590282
 20
215.6113634954377
 30
0.0
 10
400.222753802986
 20
215.5967756942702
 30
0.0
 10
400.3408280162271
 20
215.5682577361724
 30
0.0
 10
400.5095261776797
 20
215.5087761816543
 30
0.0
 10
400.6691665000637
 20
215.4439774584635
 30
0.0
 10
400.8167597692558
 20
215.3661675649239
 30
0.0
 10
400.9552721739404
 20
215.281295414822
 30
0.0
 10
401.0815621016001
 20
215.1840564636176
 30
0.0
 10
401.1988414709724
 20
215.0789369392189
 30
0.0
 10
401.3029213067847
 20
214.9626655975587
 30
0.0
 10
401.3971688425676
 20
214.8407307490316
 30
0.0
 10
401.4775260837259
 20
214.7114142580304
 30
0.0
 10
401.5466532029222
 20
214.5773178688808
 30
0.0
 10
401.6036021718514
 20
214.4375124981118
 30
0.0
 10
401.6465030695647
 20
214.2915819180683
 30
0.0
 10
401.6776290220061
 20
214.1408454209469
 30
0.0
 10
401.6978423606594
 20
213.984907992179
 30
0.0
 10
401.6998150973789
 20
213.8790549797248
 30
0.0
 10
401.7008167974898
 20
213.82530580313
 30
0.0
  0
LINE
  5
B6
330
1F
100
AcDbEntity
  8
0
  6
Continuous
 62
     7
370
    25
100
AcDbLine
 10
400.162355259
 20
215.072901957
 30
0.0
 11
400.162355259
 21
215.6113634954
 31
0.0
  0
SPLINE
  5
B7
330
1F
100
AcDbEntity
  8
0
  6
Continuous
 62
     7
370
    25
100
AcDbSpline
210
0.0
220
0.0
230
1.0
 70
    24
 71
     3
 72
    12
 73
     8
 74
     0
 42
0.000000001
 43
0.00000001
 40
0.0
 40
0.0
 40
0.0
 40
0.0
 40
0.1894207334316711
 40
0.379085422247289
 40
0.6099407771841532
 40
0.8409399610725874
 40
1.0
 40
1.0
 40
1.0
 40
1.0
 10
404.3404040416847
 20
170.2490548893456
 30
0.0
 10
404.5479740204622
 20
170.2490548893456
 30
0.0
 10
404.9633813078545
 20
170.2490548893456
 30
0.0
 10
405.4864450279397
 20
170.2490548893457
 30
0.0
 10
405.8904103343616
 20
170.2490548893456
 30
0.0
 10
406.1267331154685
 20
170.2490548893456
 30
0.0
 10
406.1293335209946
 20
170.2490548893457
 30
0.0
 10
406.1303939256205
 20
170.2490548893456
 30
0.0
  0
SPLINE
  5
B8
330
1F
100
AcDbEntity
  8
0
  6
Continuous
 62
     7
370
    25
100
AcDbSpline
210
0.0
220
0.0
230
1.0
 70
     8
 71
     3
 72
    10
 73
     6
 74
     0
 42
0.000000001
 43
0.00000001
 40
0.0
 40
0.0
 40
0.0
 40
0.0
 40
0.5
 40
0.5
 40
1.0
 40
1.0
 40
1.0
 40
1.0
 10
404.3404040416909
 20
170.5419481081591
 30
0.0
 10
404.3123070270461
 20
170.4500544208513
 30
0.0
 10
404.2974575350783
 20
170.3755807634206
 30
0.0
 10
404.2974142623391
 20
170.274993600378
 30
0.0
 10
404.3122995628855
 20
170.2490548893456
 30
0.0
 10
404.3404040416846
 20
170.2490548893456
 30
0.0
  0
SPLINE
  5
B9
330
1F
100
AcDbEntity
  8
0
  6
Continuous
 62
     7
370
    25
100
AcDbSpline
210
0.0
220
0.0
230
1.0
 70
     8
 71
     3
 72
    16
 73
    12
 74
     0
 42
0.000000001
 43
0.00000001
 40
0.0
 40
0.0
 40
0.0
 40
0.0
 40
0.2499999999999999
 40
0.2499999999999999
 40
0.4999999999999998
 40
0.4999999999999998
 40
0.6249999999999998
 40
0.6249999999999998
 40
0.7499999999999997
 40
0.7499999999999997
 40
1.0
 40
1.0
 40
1.0
 40
1.0
 10
404.3404040416846
 20
193.3876191756084
 30
0.0
 10
404.9164739371435
 20
191.5035333568822
 30
0.0
 10
405.3712547245437
 20
189.6137081944235
 30
0.0
 10
405.988531199616
 20
185.8202270756114
 30
0.0
 10
406.150373939968
 20
183.916540222097
 30
0.0
 10
406.1537271019571
 20
181.0496811279772
 30
0.0
 10
406.1152023717338
 20
180.0921855677458
 30
0.0
 10
405.9591231839942
 20
178.1734547976371
 30
0.0
 10
405.8412088487373
 20
177.2102197928883
 30
0.0
 10
405.3758750787289
 20
174.3321178000012
 30
0.0
 10
404.9177594191152
 20
172.4302382055194
 30
0.0
 10
404.3404040416848
 20
170.5419481081598
 30
0.0
  0
SPLINE
  5
BA
330
1F
100
AcDbEntity
  8
0
  6
Continuous
 62
     7
370
    25
100
AcDbSpline
210
0.0
220
0.0
230
1.0
 70
     8
 71
     3
 72
    10
 73
     6
 74
     0
 42
0.000000001
 43
0.00000001
 40
0.0
 40
0.0
 40
0.0
 40
0.0
 40
0.5
 40
0.5
 40
1.0
 40
1.0
 40
1.0
 40
1.0
 10
404.3404040416846
 20
194.0947259567949
 30
0.0
 10
404.3123070270398
 20
193.9647686579076
 30
0.0
 10
404.2974575350783
 20
193.833660976117
 30
0.0
 10
404.2974142623391
 20
193.5909638542531
 30
0.0
 10
404.3122995628856
 20
193.4795372750704
 30
0.0
 10
404.3404040416846
 20
193.3876191756083
 30
0.0
  0
SPLINE
  5
BB
330
1F
100
AcDbEntity
  8
0
  6
Continuous
 62
     7
370
    25
100
AcDbSpline
210
0.0
220
0.0
230
1.0
 70
     8
 71
     3
 72
    10
 73
     6
 74
     0
 42
0.000000001
 43
0.00000001
 40
0.0
 40
0.0
 40
0.0
 40
0.0
 40
0.5
 40
0.5
 40
1.0
 40
1.0
 40
1.0
 40
1.0
 10
404.3404040416909
 20
227.1104906030829
 30
0.0
 10
404.3123070270461
 20
227.0185969157751
 30
0.0
 10
404.2974575350783
 20
226.9076563114868
 30
0.0
 10
404.2974142623391
 20
226.6650179132395
 30
0.0
 10
404.3122995628855
 20
226.5333756447832
 30
0.0
 10
404.3404040416846
 20
226.4033838218961
 30
0.0
  0
SPLINE
  5
BC
330
1F
100
AcDbEntity
  8
0
  6
Continuous
 62
     7
370
    25
100
AcDbSpline
210
0.0
220
0.0
230
1.0
 70
     8
 71
     3
 72
    16
 73
    12
 74
     0
 42
0.000000001
 43
0.00000001
 40
0.0
 40
0.0
 40
0.0
 40
0.0
 40
0.2499999999999997
 40
0.2499999999999997
 40
0.4999999999999993
 40
0.4999999999999993
 40
0.6249999999999993
 40
0.6249999999999993
 40
0.7499999999999994
 40
0.7499999999999994
 40
1.0
 40
1.0
 40
1.0
 40
1.0
 10
404.3404040416846
 20
249.9561616705322
 30
0.0
 10
404.9164739371435
 20
248.072075851806
 30
0.0
 10
405.3712547245437
 20
246.1822506893473
 30
0.0
 10
405.988531199616
 20
242.3887695705353
 30
0.0
 10
406.150373939968
 20
240.4850827170208
 30
0.0
 10
406.1537271019571
 20
237.618223622901
 30
0.0
 10
406.1152023717338
 20
236.6607280626696
 30
0.0
 10
405.9591231839942
 20
234.7419972925609
 30
0.0
 10
405.8412088487373
 20
233.7787622878121
 30
0.0
 10
405.3758750787289
 20
230.900660294925
 30
0.0
 10
404.9177594191152
 20
228.9987807004432
 30
0.0
 10
404.3404040416848
 20
227.1104906030836
 30
0.0
  0
SPLINE
  5
BD
330
1F
100
AcDbEntity
  8
0
  6
Continuous
 62
     7
370
    25
100
AcDbSpline
210
0.0
220
0.0
230
1.0
 70
     8
 71
     3
 72
    10
 73
     6
 74
     0
 42
0.000000001
 43
0.00000001
 40
0.0
 40
0.0
 40
0.0
 40
0.0
 40
0.5
 40
0.5
 40
1.0
 40
1.0
 40
1.0
 40
1.0
 10
404.3404040416871
 20
250.2490548893456
 30
0.0
 10
404.3123070270423
 20
250.2490548893456
 30
0.0
 10
404.2974575350783
 20
250.2232688639333
 30
0.0
 10
404.2974142623391
 20
250.1228234722444
 30
0.0
 10
404.3122995628855
 20
250.0480797699943
 30
0.0
 10
404.3404040416845
 20
249.9561616705323
 30
0.0
  0
SPLINE
  5
BE
330
1F
100
AcDbEntity
  8
0
  6
Continuous
 62
     7
370
    25
100
AcDbSpline
210
0.0
220
0.0
230
1.0
 70
    24
 71
     3
 72
    12
 73
     8
 74
     0
 42
0.000000001
 43
0.00000001
 40
0.0
 40
0.0
 40
0.0
 40
0.0
 40
0.1472476215067446
 40
0.3841572949462435
 40
0.6209114185899429
 40
0.8103264631762245
 40
1.0
 40
1.0
 40
1.0
 40
1.0
 10
406.126880101525
 20
250.2490548893456
 30
0.0
 10
406.1284043354964
 20
250.2490548893457
 30
0.0
 10
406.1323809403022
 20
250.2490548893456
 30
0.0
 10
405.8996635828586
 20
250.2490548893456
 30
0.0
 10
405.4918468019676
 20
250.2490548893456
 30
0.0
 10
404.9635804070704
 20
250.2490548893456
 30
0.0
 10
404.5482239043274
 20
250.2490548893456
 30
0.0
 10
404.3404040416847
 20
250.2490548893456
 30
0.0
  0
LINE
  5
BF
330
1F
100
AcDbEntity
  8
0
  6
Continuous
 62
     7
370
    25
100
AcDbLine
 10
406.2969706436
 20
249.9990548893
 30
0.0
 11
406.2969706436
 21
170.4990548893
 31
0.0
  0
LINE
  5
C0
330
1F
100
AcDbEntity
  8
0
  6
Continuous
 62
     7
370
    25
100
AcDbLine
 10
393.2535372456
 20
227.1104906031
 30
0.0
 11
404.3404040417
 21
227.1104906031
 31
0.0
  0
SPLINE
  5
C1
330
1F
100
AcDbEntity
  8
0
  6
Continuous
 62
     7
370
    25
100
AcDbSpline
210
0.0
220
0.0
230
1.0
 70
     8
 71
     3
 72
    23
 73
    19
 74
     0
 42
0.000000001
 43
0.00000001
 40
0.0
 40
0.0
 40
0.0
 40
0.0
 40
0.0679503475997537
 40
0.1332598223836998
 40
0.1978002967596472
 40
0.260845829551682
 40
0.323319292750367
 40
0.386281722459572
 40
0.4500615162333129
 40
0.5152075844858153
 40
0.5796407692199316
 40
0.6418172023841521
 40
0.7016924412115348
 40
0.7607690981778944
 40
0.8192540511346832
 40
0.8787376269055537
 40
0.9381582970160911
 40
1.0
 40
1.0
 40
1.0
 40
1.0
 10
396.008509105182
 20
206.6530164733507
 30
0.0
 10
396.0098274613466
 20
206.6085041172572
 30
0.0
 10
396.0124129361017
 20
206.5212093663628
 30
0.0
 10
396.0279795520946
 20
206.392341614024
 30
0.0
 10
396.0555135165371
 20
206.2687749499451
 30
0.0
 10
396.0946408654179
 20
206.1504234345719
 30
0.0
 10
396.1423170327622
 20
206.0363009967288
 30
0.0
 10
396.2031504728733
 20
205.9280267798311
 30
0.0
 10
396.2742594789037
 20
205.8241390041067
 30
0.0
 10
396.3556136917765
 20
205.7268989532862
 30
0.0
 10
396.443044785651
 20
205.6362922102328
 30
0.0
 10
396.5390791915252
 20
205.5604920059495
 30
0.0
 10
396.6363396809054
 20
205.4920828787683
 30
0.0
 10
396.7407333689609
 20
205.4402653561999
 30
0.0
 10
396.8484789668764
 20
205.3968246775813
 30
0.0
 10
396.9612188098521
 20
205.3676216793122
 30
0.0
 10
397.078371689114
 20
205.3485034166803
 30
0.0
 10
397.1578701286793
 20
205.3463979281962
 30
0.0
 10
397.1984129513359
 20
205.3453241656584
 30
0.0
  0
SPLINE
  5
C2
330
1F
100
AcDbEntity
  8
0
  6
Continuous
 62
     7
370
    25
100
AcDbSpline
210
0.0
220
0.0
230
1.0
 70
     8
 71
     3
 72
    23
 73
    19
 74
     0
 42
0.000000001
 43
0.00000001
 40
0.0
 40
0.0
 40
0.0
 40
0.0
 40
0.0618526459466918
 40
0.1212838306153701
 40
0.1807779320756125
 40
0.2392732340142805
 40
0.2986414352139417
 40
0.3581858222417117
 40
0.4207600867589709
 40
0.4852046730216432
 40
0.5503622689482871
 40
0.613649924530912
 40
0.6766234955168249
 40
0.7391080134690126
 40
0.8021647022429448
 40
0.8667165971324778
 40
0.9320376285055445
 40
1.0
 40
1.0
 40
1.0
 40
1.0
 10
397.1984129513359
 20
207.960708781043
 30
0.0
 10
397.1578716719083
 20
207.9596322518131
 30
0.0
 10
397.0783762583852
 20
207.9575213382577
 30
0.0
 10
396.9612013567311
 20
207.938442557245
 30
0.0
 10
396.8485441157272
 20
207.9090914706319
 30
0.0
 10
396.7403221369237
 20
207.8661292569448
 30
0.0
 10
396.63712575427
 20
207.8122420791141
 30
0.0
 10
396.5382219337091
 20
207.7459279649865
 30
0.0
 10
396.4435424095488
 20
207.6683097726343
 30
0.0
 10
396.3554746633448
 20
207.578080164053
 30
0.0
 10
396.2746967863871
 20
207.4807762791148
 30
0.0
 10
396.202772013099
 20
207.3778709758943
 30
0.0
 10
396.1423744364031
 20
207.2696914533053
 30
0.0
 10
396.0946253913949
 20
207.1556204286209
 30
0.0
 10
396.0555177852257
 20
207.0372549853155
 30
0.0
 10
396.0279783887705
 20
206.9136921533701
 30
0.0
 10
396.0124132421874
 20
206.7848233644036
 30
0.0
 10
396.0098275647143
 20
206.6975287565212
 30
0.0
 10
396.008509105182
 20
206.6530164733507
 30
0.0
  0
SPLINE
  5
C3
330
1F
100
AcDbEntity
  8
0
  6
Continuous
 62
     7
370
    25
100
AcDbSpline
210
0.0
220
0.0
230
1.0
 70
     8
 71
     3
 72
    23
 73
    19
 74
     0
 42
0.000000001
 43
0.00000001
 40
0.0
 40
0.0
 40
0.0
 40
0.0
 40
0.0611415679303346
 40
0.1200010135310724
 40
0.1782359705414084
 40
0.2364955434070171
 40
0.2948872487049731
 40
0.3546771928192959
 40
0.4166948132897784
 40
0.4806333779628394
 40
0.5458046334786408
 40
0.6097347883178744
 40
0.6729516883751546
 40
0.7360010960706835
 40
0.799827438516525
 40
0.8647672769393869
 40
0.9310835057306723
 40
1.0
 40
1.0
 40
1.0
 40
1.0
 10
397.1984129513359
 20
205.3453241656584
 30
0.0
 10
397.2393797931365
 20
205.3462565298305
 30
0.0
 10
397.3197843804516
 20
205.3480864574792
 30
0.0
 10
397.4374668348638
 20
205.369184757704
 30
0.0
 10
397.5515660697979
 20
205.3976815234712
 30
0.0
 10
397.659511815897
 20
205.4437349088206
 30
0.0
 10
397.7642892072185
 20
205.4985882498752
 30
0.0
 10
397.8629036276628
 20
205.5684678030567
 30
0.0
 10
397.9581488414387
 20
205.6485864212086
 30
0.0
 10
398.0465184963593
 20
205.741371555068
 30
0.0
 10
398.1273485750175
 20
205.8423134744663
 30
0.0
 10
398.1986946651604
 20
205.9496578494792
 30
0.0
 10
398.2589093637428
 20
206.0619563456954
 30
0.0
 10
398.3091499896175
 20
206.1791004838368
 30
0.0
 10
398.3454062638392
 20
206.3024310754404
 30
0.0
 10
398.3739546715148
 20
206.4299573888461
 30
0.0
 10
398.389146704356
 20
206.5633103714279
 30
0.0
 10
398.3917816728562
 20
206.6537845577765
 30
0.0
 10
398.3931244897974
 20
206.6998914733507
 30
0.0
  0
SPLINE
  5
C4
330
1F
100
AcDbEntity
  8
0
  6
Continuous
 62
     7
370
    25
100
AcDbSpline
210
0.0
220
0.0
230
1.0
 70
     8
 71
     3
 72
    23
 73
    19
 74
     0
 42
0.000000001
 43
0.00000001
 40
0.0
 40
0.0
 40
0.0
 40
0.0
 40
0.0705921865358071
 40
0.1385012886049299
 40
0.2037899961427012
 40
0.266787572669601
 40
0.3290979656467183
 40
0.3911745246039658
 40
0.4531677986176573
 40
0.5157967602265844
 40
0.5779688050530403
 40
0.6389663383752914
 40
0.698381066162843
 40
0.7573204555574266
 40
0.8164122397216688
 40
0.876279358230831
 40
0.936823465650193
 40
1.0
 40
1.0
 40
1.0
 40
1.0
 10
398.3931244897974
 20
206.6998914733507
 30
0.0
 10
398.391773031979
 20
206.7455967447019
 30
0.0
 10
398.3891214828696
 20
206.8352701106767
 30
0.0
 10
398.3741455143938
 20
206.9666679355376
 30
0.0
 10
398.3457701599122
 20
207.0906916702804
 30
0.0
 10
398.3090659856871
 20
207.208757868217
 30
0.0
 10
398.2590906840998
 20
207.319635969607
 30
0.0
 10
398.1991061539226
 20
207.4245907641204
 30
0.0
 10
398.1277884688314
 20
207.5225807959081
 30
0.0
 10
398.0459328034872
 20
207.6118851900368
 30
0.0
 10
397.9576217863676
 20
207.6938886797742
 30
0.0
 10
397.862466091413
 20
207.7644250720741
 30
0.0
 10
397.7633728914898
 20
207.8253361165074
 30
0.0
 10
397.6594108307544
 20
207.8748437193192
 30
0.0
 10
397.5506465968558
 20
207.9133992325107
 30
0.0
 10
397.4375732734314
 20
207.9412873642814
 30
0.0
 10
397.3194345504112
 20
207.9568081610808
 30
0.0
 10
397.239321676496
 20
207.9593902611159
 30
0.0
 10
397.1984129513359
 20
207.960708781043
 30
0.0
  0
LINE
  5
C5
330
1F
100
AcDbEntity
  8
0
  6
Continuous
 62
     7
370
    25
100
AcDbLine
 10
404.3404040417
 20
193.3876191756
 30
0.0
 11
393.2535372456
 21
193.3876191756
 31
0.0
  0
LINE
  5
C6
330
1F
100
AcDbEntity
  8
0
  6
Continuous
 62
     7
370
    25
100
AcDbLine
 10
404.3404040417
 20
249.9561616705
 30
0.0
 11
393.2535372456
 21
249.9561616705
 31
0.0
  0
LINE
  5
C7
330
1F
100
AcDbEntity
  8
0
  6
Continuous
 62
     7
370
    25
100
AcDbLine
 10
393.2535372456
 20
170.5419481082
 30
0.0
 11
404.3404040417
 21
170.5419481082
 31
0.0
  0
LINE
  5
C8
330
1F
100
AcDbEntity
  8
0
  6
Continuous
 62
     7
370
    25
100
AcDbLine
 10
362.2959947958
 20
210.2490548893
 30
0.0
 11
362.2959947958
 21
173.1402103846
 31
0.0
  0
LINE
  5
C9
330
1F
100
AcDbEntity
  8
0
  6
Continuous
 62
     7
370
    25
100
AcDbLine
 10
362.2959947958
 20
247.3578993941
 30
0.0
 11
362.2959947958
 21
210.2490548893
 31
0.0
  0
LINE
  5
CA
330
1F
100
AcDbEntity
  8
0
  6
Continuous
 62
     7
370
    25
100
AcDbLine
 10
360.2969706436
 20
210.2490548893
 30
0.0
 11
360.2969706436
 21
245.2299059418
 31
0.0
  0
LINE
  5
CB
330
1F
100
AcDbEntity
  8
0
  6
Continuous
 62
     7
370
    25
100
AcDbLine
 10
360.2969706436
 20
175.2682038369
 30
0.0
 11
360.2969706436
 21
210.2490548893
 31
0.0
  0
LINE
  5
CC
330
1F
100
AcDbEntity
  8
0
  6
Continuous
 62
     7
370
    25
100
AcDbLine
 10
457.2969706436
 20
242.2490548893
 30
0.0
 11
457.2969706436
 21
178.2490548893
 31
0.0
  0
LINE
  5
CD
330
1F
100
AcDbEntity
  8
0
  6
Continuous
 62
     7
370
    25
100
AcDbLine
 10
446.2969706436
 20
242.2490548893
 30
0.0
 11
446.2969706436
 21
178.2490548893
 31
0.0
  0
LINE
  5
CE
330
1F
100
AcDbEntity
  8
0
  6
Continuous
 62
     7
370
    25
100
AcDbLine
 10
424.2969706436
 20
242.2490548893
 30
0.0
 11
424.2969706436
 21
178.2490548893
 31
0.0
  0
LINE
  5
CF
330
1F
100
AcDbEntity
  8
0
  6
Continuous
 62
     7
370
    25
100
AcDbLine
 10
435.2969706436
 20
242.2490548893
 30
0.0
 11
435.2969706436
 21
178.2490548893
 31
0.0
  0
LINE
  5
D0
330
1F
100
AcDbEntity
  8
0
  6
Continuous
 62
     7
370
    25
100
AcDbLine
 10
468.2969706436
 20
242.2490548893
 30
0.0
 11
468.2969706436
 21
178.2490548893
 31
0.0
  0
LINE
  5
D1
330
1F
100
AcDbEntity
  8
0
  6
Continuous
 62
     7
370
    25
100
AcDbLine
 10
480.2969706436
 20
239.6471888253
 30
0.0
 11
480.2969706436
 21
180.8509209533
 31
0.0
  0
LINE
  5
D2
330
1F
100
AcDbEntity
  8
0
  6
Continuous
 62
     7
370
    25
100
AcDbLine
 10
404.3404040417
 20
170.2490548893
 30
0.0
 11
393.2535372456
 21
170.2490548893
 31
0.0
  0
LINE
  5
D3
330
1F
100
AcDbEntity
  8
0
  6
Continuous
 62
     7
370
    25
100
AcDbLine
 10
393.2535372456
 20
250.2490548893
 30
0.0
 11
404.3404040417
 21
250.2490548893
 31
0.0
  0
LINE
  5
D4
330
1F
100
AcDbEntity
  8
0
  6
Continuous
 62
     8
370
    25
100
AcDbLine
 10
478.95237977
 20
179.35899334
 30
0.0
 11
478.95237977
 21
241.1391164387
 31
0.0
  0
LINE
  5
D5
330
1F
100
AcDbEntity
  8
0
  6
Continuous
 62
     7
370
    18
100
AcDbLine
 10
361.3322116263
 20
246.3319366653
 30
0.0
 11
390.2969706436
 21
247.2370853846
 31
0.0
  0
LINE
  5
D6
330
1F
100
AcDbEntity
  8
0
  6
Continuous
 62
     7
370
    18
100
AcDbLine
 10
361.3322116263
 20
174.1661731134
 30
0.0
 11
390.2969706436
 21
173.2610243941
 31
0.0
  0
LINE
  5
D7
330
1F
100
AcDbEntity
  8
0
  6
Continuous
 62
     7
370
    18
100
AcDbLine
 10
390.2969706436
 20
172.2651798893
 30
0.0
 11
390.2969706436
 21
248.2329298893
 31
0.0
  0
LINE
  5
D8
330
1F
100
AcDbEntity
  8
0
  6
CENTERX2
 62
     7
370
    18
100
AcDbLine
 10
484.2969706436
 20
210.2490548893
 30
0.0
 11
355.532912256
 21
210.2490548893
 31
0.0
  0
CIRCLE
  5
D9
330
1F
100
AcDbEntity
  8
0
  6
Continuous
 62
     7
370
    25
100
AcDbCircle
 10
568.5198671596
 20
210.2490548893
 30
0.0
 40
29.3981339359982
  0
CIRCLE
  5
DA
330
1F
100
AcDbEntity
  8
0
  6
Continuous
 62
     7
370
    25
100
AcDbCircle
 10
568.5198671596
 20
210.2490548893
 30
0.0
 40
30.8900615493344
  0
CIRCLE
  5
DB
330
1F
100
AcDbEntity
  8
0
  6
Continuous
 62
     7
370
    25
100
AcDbCircle
 10
568.5198671596
 20
210.2490548893
 30
0.0
 40
26.5
  0
CIRCLE
  5
DC
330
1F
100
AcDbEntity
  8
0
  6
Continuous
 62
     7
370
    25
100
AcDbCircle
 10
568.5198671596
 20
210.2490548893
 30
0.0
 40
28.5
  0
CIRCLE
  5
DD
330
1F
100
AcDbEntity
  8
0
  6
Continuous
 62
     7
370
    25
100
AcDbCircle
 10
568.5198671596
 20
210.2490548893
 30
0.0
 40
31.99999999999989
  0
SPLINE
  5
DE
330
1F
100
AcDbEntity
  8
0
  6
Continuous
 62
     7
370
    25
100
AcDbSpline
210
0.0
220
0.0
230
1.0
 70
     8
 71
     3
 72
    10
 73
     6
 74
     0
 42
0.000000001
 43
0.00000001
 40
0.0
 40
0.0
 40
0.0
 40
0.0
 40
0.5
 40
0.5
 40
1.0
 40
1.0
 40
1.0
 40
1.0
 10
584.6741960921817
 20
170.2490548893456
 30
0.0
 10
584.8041533910689
 20
170.2490548893456
 30
0.0
 10
584.9352610728596
 20
170.274840914758
 30
0.0
 10
585.1779581947235
 20
170.3752863064469
 30
0.0
 10
585.2893847739061
 20
170.450030008697
 30
0.0
 10
585.3813028733682
 20
170.541948108159
 30
0.0
  0
SPLINE
  5
DF
330
1F
100
AcDbEntity
  8
0
  6
Continuous
 62
     7
370
    25
100
AcDbSpline
210
0.0
220
0.0
230
1.0
 70
    24
 71
     3
 72
    18
 73
    14
 74
     0
 42
0.000000001
 43
0.00000001
 40
0.0
 40
0.0
 40
0.0
 40
0.0
 40
0.1250000000000001
 40
0.1250000000000001
 40
0.2500000000000001
 40
0.2500000000000001
 40
0.5
 40
0.5
 40
0.7499999999999999
 40
0.7499999999999999
 40
0.8749999999999999
 40
0.8749999999999999
 40
1.0
 40
1.0
 40
1.0
 40
1.0
 10
584.6741960921817
 20
170.2490548893456
 30
0.0
 10
583.3459613420259
 20
170.2490548893456
 30
0.0
 10
582.0057424185509
 20
170.2490548893456
 30
0.0
 10
579.3129083313964
 20
170.2490548893456
 30
0.0
 10
577.9658725446031
 20
170.2490548893456
 30
0.0
 10
573.9227647913295
 20
170.2490548893457
 30
0.0
 10
571.2246714793203
 20
170.2490548893457
 30
0.0
 10
565.8227391103063
 20
170.2490548893456
 30
0.0
 10
563.118899356765
 20
170.2490548893457
 30
0.0
 10
559.0590567542877
 20
170.2490548893457
 30
0.0
 10
557.7023655927759
 20
170.2490548893456
 30
0.0
 10
555.0180814169873
 20
170.2490548893456
 30
0.0
 10
553.6870041851556
 20
170.2490548893456
 30
0.0
 10
552.3655382270811
 20
170.2490548893456
 30
0.0
  0
SPLINE
  5
E0
330
1F
100
AcDbEntity
  8
0
  6
Continuous
 62
     7
370
    25
100
AcDbSpline
210
0.0
220
0.0
230
1.0
 70
     8
 71
     3
 72
    10
 73
     6
 74
     0
 42
0.000000001
 43
0.00000001
 40
0.0
 40
0.0
 40
0.0
 40
0.0
 40
0.5
 40
0.5
 40
1.0
 40
1.0
 40
1.0
 40
1.0
 10
551.6584314458937
 20
170.5419481081591
 30
0.0
 10
551.7503251332015
 20
170.4500544208513
 30
0.0
 10
551.8612657374898
 20
170.3755807634206
 30
0.0
 10
552.103904135737
 20
170.274993600378
 30
0.0
 10
552.2355464041933
 20
170.2490548893456
 30
0.0
 10
552.3655382270806
 20
170.2490548893456
 30
0.0
  0
SPLINE
  5
E1
330
1F
100
AcDbEntity
  8
0
  6
Continuous
 62
     7
370
    25
100
AcDbSpline
210
0.0
220
0.0
230
1.0
 70
    24
 71
     3
 72
    16
 73
    12
 74
     0
 42
0.000000001
 43
0.00000001
 40
0.0
 40
0.0
 40
0.0
 40
0.0
 40
0.2499999999999999
 40
0.2499999999999999
 40
0.4999999999999998
 40
0.4999999999999998
 40
0.6249999999999998
 40
0.6249999999999998
 40
0.7499999999999997
 40
0.7499999999999997
 40
1.0
 40
1.0
 40
1.0
 40
1.0
 10
528.8127603784444
 20
193.3876191756084
 30
0.0
 10
530.6968461971707
 20
191.5035333568822
 30
0.0
 10
532.5866713596292
 20
189.6137081944235
 30
0.0
 10
536.3801524784412
 20
185.8202270756114
 30
0.0
 10
538.2838393319557
 20
183.916540222097
 30
0.0
 10
541.1506984260757
 20
181.0496811279772
 30
0.0
 10
542.1081939863069
 20
180.0921855677458
 30
0.0
 10
544.0269247564157
 20
178.1734547976371
 30
0.0
 10
544.9901597611645
 20
177.2102197928883
 30
0.0
 10
547.8682617540516
 20
174.3321178000012
 30
0.0
 10
549.7701413485335
 20
172.4302382055194
 30
0.0
 10
551.658431445893
 20
170.5419481081598
 30
0.0
  0
SPLINE
  5
E2
330
1F
100
AcDbEntity
  8
0
  6
Continuous
 62
     7
370
    25
100
AcDbSpline
210
0.0
220
0.0
230
1.0
 70
     8
 71
     3
 72
    10
 73
     6
 74
     0
 42
0.000000001
 43
0.00000001
 40
0.0
 40
0.0
 40
0.0
 40
0.0
 40
0.5
 40
0.5
 40
1.0
 40
1.0
 40
1.0
 40
1.0
 10
528.519867159631
 20
194.0947259567949
 30
0.0
 10
528.519867159631
 20
193.9647686579076
 30
0.0
 10
528.5456531850433
 20
193.833660976117
 30
0.0
 10
528.6460985767322
 20
193.5909638542531
 30
0.0
 10
528.7208422789823
 20
193.4795372750704
 30
0.0
 10
528.8127603784444
 20
193.3876191756083
 30
0.0
  0
SPLINE
  5
E3
330
1F
100
AcDbEntity
  8
0
  6
Continuous
 62
     7
370
    25
100
AcDbSpline
210
0.0
220
0.0
230
1.0
 70
    24
 71
     3
 72
    18
 73
    14
 74
     0
 42
0.000000001
 43
0.00000001
 40
0.0
 40
0.0
 40
0.0
 40
0.0
 40
0.1250000000000001
 40
0.1250000000000001
 40
0.2500000000000001
 40
0.2500000000000001
 40
0.5
 40
0.5
 40
0.75
 40
0.75
 40
0.875
 40
0.875
 40
1.0
 40
1.0
 40
1.0
 40
1.0
 10
528.519867159631
 20
194.0947259567949
 30
0.0
 10
528.519867159631
 20
195.4229607069506
 30
0.0
 10
528.519867159631
 20
196.7631796304257
 30
0.0
 10
528.519867159631
 20
199.4560137175801
 30
0.0
 10
528.519867159631
 20
200.8030495043734
 30
0.0
 10
528.519867159631
 20
204.8461572576471
 30
0.0
 10
528.519867159631
 20
207.5442505696563
 30
0.0
 10
528.519867159631
 20
212.9461829386702
 30
0.0
 10
528.519867159631
 20
215.6500226922115
 30
0.0
 10
528.519867159631
 20
219.7098652946889
 30
0.0
 10
528.519867159631
 20
221.0665564562007
 30
0.0
 10
528.519867159631
 20
223.7508406319892
 30
0.0
 10
528.519867159631
 20
225.081917863821
 30
0.0
 10
528.519867159631
 20
226.4033838218956
 30
0.0
  0
SPLINE
  5
E4
330
1F
100
AcDbEntity
  8
0
  6
Continuous
 62
     7
370
    25
100
AcDbSpline
210
0.0
220
0.0
230
1.0
 70
     8
 71
     3
 72
    10
 73
     6
 74
     0
 42
0.000000001
 43
0.00000001
 40
0.0
 40
0.0
 40
0.0
 40
0.0
 40
0.5
 40
0.5
 40
1.0
 40
1.0
 40
1.0
 40
1.0
 10
528.8127603784444
 20
227.1104906030829
 30
0.0
 10
528.7208666911366
 20
227.0185969157751
 30
0.0
 10
528.646393033706
 20
226.9076563114868
 30
0.0
 10
528.5458058706633
 20
226.6650179132395
 30
0.0
 10
528.5198671596308
 20
226.5333756447832
 30
0.0
 10
528.519867159631
 20
226.4033838218961
 30
0.0
  0
SPLINE
  5
E5
330
1F
100
AcDbEntity
  8
0
  6
Continuous
 62
     7
370
    25
100
AcDbSpline
210
0.0
220
0.0
230
1.0
 70
    24
 71
     3
 72
    16
 73
    12
 74
     0
 42
0.000000001
 43
0.00000001
 40
0.0
 40
0.0
 40
0.0
 40
0.0
 40
0.2499999999999997
 40
0.2499999999999997
 40
0.4999999999999993
 40
0.4999999999999993
 40
0.6249999999999993
 40
0.6249999999999993
 40
0.7499999999999994
 40
0.7499999999999994
 40
1.0
 40
1.0
 40
1.0
 40
1.0
 10
551.6584314458937
 20
249.9561616705322
 30
0.0
 10
549.7743456271676
 20
248.072075851806
 30
0.0
 10
547.8845204647088
 20
246.1822506893473
 30
0.0
 10
544.0910393458968
 20
242.3887695705353
 30
0.0
 10
542.1873524923823
 20
240.4850827170208
 30
0.0
 10
539.3204933982624
 20
237.618223622901
 30
0.0
 10
538.3629978380312
 20
236.6607280626696
 30
0.0
 10
536.4442670679225
 20
234.7419972925609
 30
0.0
 10
535.4810320631736
 20
233.7787622878121
 30
0.0
 10
532.6029300702864
 20
230.900660294925
 30
0.0
 10
530.7010504758048
 20
228.9987807004432
 30
0.0
 10
528.8127603784452
 20
227.1104906030836
 30
0.0
  0
SPLINE
  5
E6
330
1F
100
AcDbEntity
  8
0
  6
Continuous
 62
     7
370
    25
100
AcDbSpline
210
0.0
220
0.0
230
1.0
 70
     8
 71
     3
 72
    10
 73
     6
 74
     0
 42
0.000000001
 43
0.00000001
 40
0.0
 40
0.0
 40
0.0
 40
0.0
 40
0.5
 40
0.5
 40
1.0
 40
1.0
 40
1.0
 40
1.0
 10
552.3655382270803
 20
250.2490548893456
 30
0.0
 10
552.2355809281931
 20
250.2490548893456
 30
0.0
 10
552.1044732464024
 20
250.2232688639333
 30
0.0
 10
551.8617761245384
 20
250.1228234722444
 30
0.0
 10
551.7503495453558
 20
250.0480797699943
 30
0.0
 10
551.6584314458937
 20
249.9561616705323
 30
0.0
  0
SPLINE
  5
E7
330
1F
100
AcDbEntity
  8
0
  6
Continuous
 62
     7
370
    25
100
AcDbSpline
210
0.0
220
0.0
230
1.0
 70
    24
 71
     3
 72
    18
 73
    14
 74
     0
 42
0.000000001
 43
0.00000001
 40
0.0
 40
0.0
 40
0.0
 40
0.0
 40
0.125
 40
0.125
 40
0.2499999999999999
 40
0.2499999999999999
 40
0.4999999999999999
 40
0.4999999999999999
 40
0.7499999999999998
 40
0.7499999999999998
 40
0.8749999999999999
 40
0.8749999999999999
 40
1.0
 40
1.0
 40
1.0
 40
1.0
 10
584.6741960921817
 20
250.2490548893456
 30
0.0
 10
583.3459613420259
 20
250.2490548893456
 30
0.0
 10
582.0057424185509
 20
250.2490548893456
 30
0.0
 10
579.3129083313964
 20
250.2490548893456
 30
0.0
 10
577.9658725446031
 20
250.2490548893456
 30
0.0
 10
573.9227647913295
 20
250.2490548893457
 30
0.0
 10
571.2246714793203
 20
250.2490548893456
 30
0.0
 10
565.8227391103063
 20
250.2490548893457
 30
0.0
 10
563.118899356765
 20
250.2490548893456
 30
0.0
 10
559.0590567542877
 20
250.2490548893456
 30
0.0
 10
557.7023655927759
 20
250.2490548893456
 30
0.0
 10
555.0180814169873
 20
250.2490548893456
 30
0.0
 10
553.6870041851556
 20
250.2490548893456
 30
0.0
 10
552.3655382270811
 20
250.2490548893456
 30
0.0
  0
SPLINE
  5
E8
330
1F
100
AcDbEntity
  8
0
  6
Continuous
 62
     7
370
    25
100
AcDbSpline
210
0.0
220
0.0
230
1.0
 70
     8
 71
     3
 72
    10
 73
     6
 74
     0
 42
0.000000001
 43
0.00000001
 40
0.0
 40
0.0
 40
0.0
 40
0.0
 40
0.5
 40
0.5
 40
1.0
 40
1.0
 40
1.0
 40
1.0
 10
585.3813028733682
 20
249.9561616705322
 30
0.0
 10
585.2894091860604
 20
250.0480553578399
 30
0.0
 10
585.1784685817722
 20
250.1225290152705
 30
0.0
 10
584.9358301835254
 20
250.2231161783131
 30
0.0
 10
584.8041879150687
 20
250.2490548893457
 30
0.0
 10
584.6741960921817
 20
250.2490548893457
 30
0.0
  0
SPLINE
  5
E9
330
1F
100
AcDbEntity
  8
0
  6
Continuous
 62
     7
370
    25
100
AcDbSpline
210
0.0
220
0.0
230
1.0
 70
    24
 71
     3
 72
    16
 73
    12
 74
     0
 42
0.000000001
 43
0.00000001
 40
0.0
 40
0.0
 40
0.0
 40
0.0
 40
0.2499999999999999
 40
0.2499999999999999
 40
0.4999999999999998
 40
0.4999999999999998
 40
0.6249999999999998
 40
0.6249999999999998
 40
0.7499999999999999
 40
0.7499999999999999
 40
1.0
 40
1.0
 40
1.0
 40
1.0
 10
608.2269739408175
 20
227.1104906030829
 30
0.0
 10
606.3428881220914
 20
228.9945764218091
 30
0.0
 10
604.4530629596327
 20
230.8844015842677
 30
0.0
 10
600.6595818408206
 20
234.6778827030798
 30
0.0
 10
598.7558949873061
 20
236.5815695565943
 30
0.0
 10
595.8890358931864
 20
239.4484286507141
 30
0.0
 10
594.9315403329549
 20
240.4059242109454
 30
0.0
 10
593.0128095628462
 20
242.3246549810542
 30
0.0
 10
592.0495745580973
 20
243.287889985803
 30
0.0
 10
589.1714725652103
 20
246.1659919786901
 30
0.0
 10
587.2695929707286
 20
248.0678715731719
 30
0.0
 10
585.3813028733689
 20
249.9561616705315
 30
0.0
  0
SPLINE
  5
EA
330
1F
100
AcDbEntity
  8
0
  6
Continuous
 62
     7
370
    25
100
AcDbSpline
210
0.0
220
0.0
230
1.0
 70
     8
 71
     3
 72
    10
 73
     6
 74
     0
 42
0.000000001
 43
0.00000001
 40
0.0
 40
0.0
 40
0.0
 40
0.0
 40
0.5
 40
0.5
 40
1.0
 40
1.0
 40
1.0
 40
1.0
 10
608.519867159631
 20
226.4033838218964
 30
0.0
 10
608.519867159631
 20
226.5333411207835
 30
0.0
 10
608.4940811342185
 20
226.6644488025742
 30
0.0
 10
608.3936357425296
 20
226.9071459244382
 30
0.0
 10
608.3188920402797
 20
227.0185725036209
 30
0.0
 10
608.2269739408175
 20
227.110490603083
 30
0.0
  0
SPLINE
  5
EB
330
1F
100
AcDbEntity
  8
0
  6
Continuous
 62
     7
370
    25
100
AcDbSpline
210
0.0
220
0.0
230
1.0
 70
    24
 71
     3
 72
    18
 73
    14
 74
     0
 42
0.000000001
 43
0.00000001
 40
0.0
 40
0.0
 40
0.0
 40
0.0
 40
0.1250000000000001
 40
0.1250000000000001
 40
0.2500000000000002
 40
0.2500000000000002
 40
0.5000000000000001
 40
0.5000000000000001
 40
0.7500000000000001
 40
0.7500000000000001
 40
0.8750000000000001
 40
0.8750000000000001
 40
1.0
 40
1.0
 40
1.0
 40
1.0
 10
608.519867159631
 20
194.0947259567949
 30
0.0
 10
608.519867159631
 20
195.4229607069506
 30
0.0
 10
608.519867159631
 20
196.7631796304258
 30
0.0
 10
608.519867159631
 20
199.4560137175802
 30
0.0
 10
608.519867159631
 20
200.8030495043734
 30
0.0
 10
608.519867159631
 20
204.8461572576471
 30
0.0
 10
608.519867159631
 20
207.5442505696563
 30
0.0
 10
608.519867159631
 20
212.9461829386701
 30
0.0
 10
608.519867159631
 20
215.6500226922113
 30
0.0
 10
608.519867159631
 20
219.7098652946886
 30
0.0
 10
608.519867159631
 20
221.0665564562005
 30
0.0
 10
608.519867159631
 20
223.7508406319891
 30
0.0
 10
608.519867159631
 20
225.0819178638209
 30
0.0
 10
608.519867159631
 20
226.4033838218956
 30
0.0
  0
SPLINE
  5
EC
330
1F
100
AcDbEntity
  8
0
  6
Continuous
 62
     7
370
    25
100
AcDbSpline
210
0.0
220
0.0
230
1.0
 70
     8
 71
     3
 72
    10
 73
     6
 74
     0
 42
0.000000001
 43
0.00000001
 40
0.0
 40
0.0
 40
0.0
 40
0.0
 40
0.5
 40
0.5
 40
1.0
 40
1.0
 40
1.0
 40
1.0
 10
608.2269739408175
 20
193.3876191756084
 30
0.0
 10
608.3188676281253
 20
193.4795128629161
 30
0.0
 10
608.3933412855558
 20
193.5904534672043
 30
0.0
 10
608.4939284485984
 20
193.8330918654513
 30
0.0
 10
608.5198671596311
 20
193.9647341339079
 30
0.0
 10
608.5198671596311
 20
194.0947259567949
 30
0.0
  0
SPLINE
  5
ED
330
1F
100
AcDbEntity
  8
0
  6
Continuous
 62
     7
370
    25
100
AcDbSpline
210
0.0
220
0.0
230
1.0
 70
    24
 71
     3
 72
    16
 73
    12
 74
     0
 42
0.000000001
 43
0.00000001
 40
0.0
 40
0.0
 40
0.0
 40
0.0
 40
0.2499999999999999
 40
0.2499999999999999
 40
0.4999999999999998
 40
0.4999999999999998
 40
0.6249999999999998
 40
0.6249999999999998
 40
0.7499999999999997
 40
0.7499999999999997
 40
1.0
 40
1.0
 40
1.0
 40
1.0
 10
585.3813028733682
 20
170.5419481081591
 30
0.0
 10
587.2653886920943
 20
172.4260339268853
 30
0.0
 10
589.155213854553
 20
174.3158590893439
 30
0.0
 10
592.9486949733651
 20
178.109340208156
 30
0.0
 10
594.8523818268797
 20
180.0130270616705
 30
0.0
 10
597.7192409209994
 20
182.8798861557903
 30
0.0
 10
598.6767364812308
 20
183.8373817160216
 30
0.0
 10
600.5954672513395
 20
185.7561124861303
 30
0.0
 10
601.5587022560883
 20
186.7193474908792
 30
0.0
 10
604.4368042489754
 20
189.5974494837663
 30
0.0
 10
606.3386838434571
 20
191.4993290782481
 30
0.0
 10
608.2269739408168
 20
193.3876191756077
 30
0.0
  0
CIRCLE
  5
EE
330
1F
100
AcDbEntity
  8
0
  6
Continuous
 62
     7
370
    25
100
AcDbCircle
 10
568.5198671596
 20
210.2490548893
 30
0.0
 40
39.75
  0
INSERT
  5
FA
330
1F
100
AcDbEntity
  8
0
  6
Continuous
 62
     7
370
    18
100
AcDbBlockReference
  2
SW_CENTERMARKSYMBOL_0
 10
568.5198671596
 20
210.2490548893
 30
0.0
  0
INSERT
  5
106
330
1F
100
AcDbEntity
  8
0
  6
Continuous
 62
     7
370
    18
100
AcDbBlockReference
  2
SW_CENTERMARKSYMBOL_1
 10
568.5198671596
 20
210.2490548893
 30
0.0
  0
LINE
  5
107
330
1F
100
AcDbEntity
  8
0
  6
Continuous
 62
     7
370
    25
100
AcDbLine
 10
391.4413082109
 20
367.4252636216
 30
0.0
 11
391.2969706436
 21
367.1752636216
 31
0.0
  0
LINE
  5
108
330
1F
100
AcDbEntity
  8
0
  6
Continuous
 62
     7
370
    25
100
AcDbLine
 10
391.2969706436
 20
287.6752636216
 30
0.0
 11
391.4413082109
 21
287.4252636216
 31
0.0
  0
LINE
  5
109
330
1F
100
AcDbEntity
  8
0
  6
Continuous
 62
     7
370
    25
100
AcDbLine
 10
406.1526330763
 20
287.4252636216
 30
0.0
 11
406.2969706436
 21
287.6752636216
 31
0.0
  0
LINE
  5
10A
330
1F
100
AcDbEntity
  8
0
  6
Continuous
 62
     7
370
    25
100
AcDbLine
 10
406.2969706436
 20
367.1752636216
 30
0.0
 11
406.1526330763
 21
367.4252636216
 31
0.0
  0
LINE
  5
10B
330
1F
100
AcDbEntity
  8
0
  6
Continuous
 62
     7
370
    25
100
AcDbLine
 10
391.2969706436
 20
365.4403886216
 30
0.0
 11
362.2959947958
 21
364.5341081263
 31
0.0
  0
LINE
  5
10C
330
1F
100
AcDbEntity
  8
0
  6
Continuous
 62
     7
370
    25
100
AcDbLine
 10
362.2959947958
 20
290.3164191168
 30
0.0
 11
391.2969706436
 21
289.4101386216
 31
0.0
  0
LINE
  5
10D
330
1F
100
AcDbEntity
  8
0
  6
Continuous
 62
     7
370
    25
100
AcDbLine
 10
362.2959947958
 20
364.5341081263
 30
0.0
 11
360.2969706436
 21
362.406114674
 31
0.0
  0
LINE
  5
10E
330
1F
100
AcDbEntity
  8
0
  6
Continuous
 62
     7
370
    25
100
AcDbLine
 10
360.2969706436
 20
292.4444125691
 30
0.0
 11
362.2959947958
 21
290.3164191168
 31
0.0
  0
LINE
  5
10F
330
1F
100
AcDbEntity
  8
0
  6
Continuous
 62
     7
370
    25
100
AcDbLine
 10
446.2969706436
 20
295.4252636216
 30
0.0
 11
457.2969706436
 21
296.6752636216
 31
0.0
  0
LINE
  5
110
330
1F
100
AcDbEntity
  8
0
  6
Continuous
 62
     7
370
    25
100
AcDbLine
 10
457.2969706436
 20
358.1752636216
 30
0.0
 11
446.2969706436
 21
359.4252636216
 31
0.0
  0
LINE
  5
111
330
1F
100
AcDbEntity
  8
0
  6
Continuous
 62
     7
370
    25
100
AcDbLine
 10
424.2969706436
 20
359.4252636216
 30
0.0
 11
406.2969706436
 21
359.4252636216
 31
0.0
  0
LINE
  5
112
330
1F
100
AcDbEntity
  8
0
  6
Continuous
 62
     7
370
    25
100
AcDbLine
 10
406.2969706436
 20
295.4252636216
 30
0.0
 11
424.2969706436
 21
295.4252636216
 31
0.0
  0
LINE
  5
113
330
1F
100
AcDbEntity
  8
0
  6
Continuous
 62
     7
370
    25
100
AcDbLine
 10
457.2969706436
 20
295.4252636216
 30
0.0
 11
468.2969706436
 21
296.6752636216
 31
0.0
  0
LINE
  5
114
330
1F
100
AcDbEntity
  8
0
  6
Continuous
 62
     7
370
    25
100
AcDbLine
 10
468.2969706436
 20
358.1752636216
 30
0.0
 11
457.2969706436
 21
359.4252636216
 31
0.0
  0
LINE
  5
115
330
1F
100
AcDbEntity
  8
0
  6
Continuous
 62
     7
370
    25
100
AcDbLine
 10
468.2969706436
 20
295.4252636216
 30
0.0
 11
478.95237977
 21
296.5352020722
 31
0.0
  0
LINE
  5
116
330
1F
100
AcDbEntity
  8
0
  6
Continuous
 62
     7
370
    25
100
AcDbLine
 10
478.95237977
 20
358.3153251709
 30
0.0
 11
468.2969706436
 21
359.4252636216
 31
0.0
  0
LINE
  5
117
330
1F
100
AcDbEntity
  8
0
  6
Continuous
 62
     7
370
    25
100
AcDbLine
 10
424.2969706436
 20
295.4252636216
 30
0.0
 11
435.2969706436
 21
296.6752636216
 31
0.0
  0
LINE
  5
118
330
1F
100
AcDbEntity
  8
0
  6
Continuous
 62
     7
370
    25
100
AcDbLine
 10
435.2969706436
 20
358.1752636216
 30
0.0
 11
424.2969706436
 21
359.4252636216
 31
0.0
  0
LINE
  5
119
330
1F
100
AcDbEntity
  8
0
  6
Continuous
 62
     7
370
    25
100
AcDbLine
 10
435.2969706436
 20
295.4252636216
 30
0.0
 11
446.2969706436
 21
296.6752636216
 31
0.0
  0
LINE
  5
11A
330
1F
100
AcDbEntity
  8
0
  6
Continuous
 62
     7
370
    25
100
AcDbLine
 10
446.2969706436
 20
358.1752636216
 30
0.0
 11
435.2969706436
 21
359.4252636216
 31
0.0
  0
ARC
  5
11B
330
1F
100
AcDbEntity
  8
0
  6
Continuous
 62
     7
370
    25
100
AcDbCircle
 10
478.7969706436
 20
356.8233975576
 30
0.0
 40
1.5
100
AcDbArc
 50
0.0
 51
84.053136946
  0
ARC
  5
11C
330
1F
100
AcDbEntity
  8
0
  6
Continuous
 62
     7
370
    25
100
AcDbCircle
 10
478.7969706436
 20
298.0271296856
 30
0.0
 40
1.5
100
AcDbArc
 50
275.946863054
 51
0.0
  0
SPLINE
  5
11D
330
1F
100
AcDbEntity
  8
0
  6
Continuous
 62
     7
370
    25
100
AcDbSpline
210
0.0
220
0.0
230
1.0
 70
     8
 71
     3
 72
    10
 73
     6
 74
     0
 42
0.000000001
 43
0.00000001
 40
0.0
 40
0.0
 40
0.0
 40
0.0
 40
0.5
 40
0.5
 40
1.0
 40
1.0
 40
1.0
 40
1.0
 10
393.2535372456026
 20
367.1323704027654
 30
0.0
 10
393.2816342602472
 20
367.2242640900727
 30
0.0
 10
393.2964837522086
 20
367.2987377475031
 30
0.0
 10
393.2965270249483
 20
367.3993249105453
 30
0.0
 10
393.2816417244014
 20
367.425263621579
 30
0.0
 10
393.2535372456026
 20
367.4252636215789
 30
0.0
  0
SPLINE
  5
11E
330
1F
100
AcDbEntity
  8
0
  6
Continuous
 62
     7
370
    25
100
AcDbSpline
210
0.0
220
0.0
230
1.0
 70
     8
 71
     3
 72
    16
 73
    12
 74
     0
 42
0.000000001
 43
0.00000001
 40
0.0
 40
0.0
 40
0.0
 40
0.0
 40
0.2500000000000001
 40
0.2500000000000001
 40
0.5000000000000002
 40
0.5000000000000002
 40
0.625
 40
0.625
 40
0.7499999999999999
 40
0.7499999999999999
 40
1.0
 40
1.0
 40
1.0
 40
1.0
 10
393.2535372456026
 20
367.1323704027654
 30
0.0
 10
392.6774673501436
 20
365.2482845840392
 30
0.0
 10
392.2226865627434
 20
363.3584594215804
 30
0.0
 10
391.6054100876711
 20
359.5649783027681
 30
0.0
 10
391.4435673473191
 20
357.6612914492534
 30
0.0
 10
391.4402141853301
 20
354.7944323551336
 30
0.0
 10
391.4787389155534
 20
353.8369367949022
 30
0.0
 10
391.6348181032931
 20
351.9182060247933
 30
0.0
 10
391.7527324385501
 20
350.9549710200444
 30
0.0
 10
392.2180662085586
 20
348.0768690271571
 30
0.0
 10
392.6761818681723
 20
346.1749894326752
 30
0.0
 10
393.2535372456028
 20
344.2866993353155
 30
0.0
  0
SPLINE
  5
11F
330
1F
100
AcDbEntity
  8
0
  6
Continuous
 62
     7
370
    25
100
AcDbSpline
210
0.0
220
0.0
230
1.0
 70
     8
 71
     3
 72
    10
 73
     6
 74
     0
 42
0.000000001
 43
0.00000001
 40
0.0
 40
0.0
 40
0.0
 40
0.0
 40
0.5
 40
0.5
 40
1.0
 40
1.0
 40
1.0
 40
1.0
 10
393.2535372456026
 20
343.5795925541296
 30
0.0
 10
393.2816342602474
 20
343.7095498530168
 30
0.0
 10
393.2964837522089
 20
343.8406575348072
 30
0.0
 10
393.2965270249481
 20
344.083354656671
 30
0.0
 10
393.2816417244015
 20
344.1947812358549
 30
0.0
 10
393.2535372456024
 20
344.2866993353167
 30
0.0
  0
SPLINE
  5
120
330
1F
100
AcDbEntity
  8
0
  6
Continuous
 62
     7
370
    25
100
AcDbSpline
210
0.0
220
0.0
230
1.0
 70
     8
 71
     3
 72
    18
 73
    14
 74
     0
 42
0.000000001
 43
0.00000001
 40
0.0
 40
0.0
 40
0.0
 40
0.0
 40
0.1249999999999999
 40
0.1249999999999999
 40
0.2499999999999999
 40
0.2499999999999999
 40
0.5
 40
0.5
 40
0.75
 40
0.75
 40
0.875
 40
0.875
 40
1.0
 40
1.0
 40
1.0
 40
1.0
 10
393.2535372456026
 20
343.5795925541297
 30
0.0
 10
392.9663703719727
 20
342.2513578039737
 30
0.0
 10
392.7071611593908
 20
340.9111388804984
 30
0.0
 10
392.2556626950667
 20
338.2183047933434
 30
0.0
 10
392.0642550376806
 20
336.8712690065498
 30
0.0
 10
391.6010581589829
 20
332.8281612532753
 30
0.0
 10
391.4414579472951
 20
330.1300679412655
 30
0.0
 10
391.4411586872146
 20
324.7281355722504
 30
0.0
 10
391.600498298099
 20
322.0242958187086
 30
0.0
 10
392.0661214214913
 20
317.9644532162304
 30
0.0
 10
392.2594239099396
 20
316.6077620547183
 30
0.0
 10
392.7101739467101
 20
313.9234778789293
 30
0.0
 10
392.9678337976672
 20
312.5924006470972
 30
0.0
 10
393.2535372456039
 20
311.2709346890225
 30
0.0
  0
SPLINE
  5
121
330
1F
100
AcDbEntity
  8
0
  6
Continuous
 62
     7
370
    25
100
AcDbSpline
210
0.0
220
0.0
230
1.0
 70
     8
 71
     3
 72
    10
 73
     6
 74
     0
 42
0.000000001
 43
0.00000001
 40
0.0
 40
0.0
 40
0.0
 40
0.0
 40
0.5
 40
0.5
 40
1.0
 40
1.0
 40
1.0
 40
1.0
 10
393.2535372456026
 20
310.5638279078416
 30
0.0
 10
393.2816342602472
 20
310.6557215951489
 30
0.0
 10
393.2964837522086
 20
310.7666621994366
 30
0.0
 10
393.2965270249483
 20
311.0093005976812
 30
0.0
 10
393.2816417244014
 20
311.1409428661426
 30
0.0
 10
393.2535372456026
 20
311.2709346890285
 30
0.0
  0
SPLINE
  5
122
330
1F
100
AcDbEntity
  8
0
  6
Continuous
 62
     7
370
    25
100
AcDbSpline
210
0.0
220
0.0
230
1.0
 70
     8
 71
     3
 72
    16
 73
    12
 74
     0
 42
0.000000001
 43
0.00000001
 40
0.0
 40
0.0
 40
0.0
 40
0.0
 40
0.2500000000000001
 40
0.2500000000000001
 40
0.5000000000000002
 40
0.5000000000000002
 40
0.625
 40
0.625
 40
0.7499999999999999
 40
0.7499999999999999
 40
1.0
 40
1.0
 40
1.0
 40
1.0
 10
393.2535372456026
 20
310.5638279078416
 30
0.0
 10
392.6774673501436
 20
308.6797420891154
 30
0.0
 10
392.2226865627434
 20
306.7899169266566
 30
0.0
 10
391.6054100876711
 20
302.9964358078443
 30
0.0
 10
391.4435673473191
 20
301.0927489543297
 30
0.0
 10
391.4402141853301
 20
298.2258898602097
 30
0.0
 10
391.4787389155534
 20
297.2683942999783
 30
0.0
 10
391.6348181032931
 20
295.3496635298695
 30
0.0
 10
391.75273243855
 20
294.3864285251206
 30
0.0
 10
392.2180662085586
 20
291.5083265322333
 30
0.0
 10
392.6761818681723
 20
289.6064469377515
 30
0.0
 10
393.2535372456028
 20
287.7181568403917
 30
0.0
  0
SPLINE
  5
123
330
1F
100
AcDbEntity
  8
0
  6
Continuous
 62
     7
370
    25
100
AcDbSpline
210
0.0
220
0.0
230
1.0
 70
     8
 71
     3
 72
    10
 73
     6
 74
     0
 42
0.000000001
 43
0.00000001
 40
0.0
 40
0.0
 40
0.0
 40
0.0
 40
0.5
 40
0.5
 40
1.0
 40
1.0
 40
1.0
 40
1.0
 10
393.2535372456001
 20
287.4252636215789
 30
0.0
 10
393.2816342602446
 20
287.4252636215789
 30
0.0
 10
393.296483752209
 20
287.4510496469924
 30
0.0
 10
393.2965270249479
 20
287.551495038681
 30
0.0
 10
393.2816417244013
 20
287.6262387409315
 30
0.0
 10
393.2535372456024
 20
287.7181568403928
 30
0.0
  0
SPLINE
  5
124
330
1F
100
AcDbEntity
  8
0
  6
Continuous
 62
     7
370
    25
100
AcDbSpline
210
0.0
220
0.0
230
1.0
 70
    24
 71
     3
 72
    12
 73
     8
 74
     0
 42
0.000000001
 43
0.00000001
 40
0.0
 40
0.0
 40
0.0
 40
0.0
 40
0.1894267064793256
 40
0.3790973760352999
 40
0.7243502683149782
 40
0.8980656918692919
 40
1.0
 40
1.0
 40
1.0
 40
1.0
 10
393.2535372456039
 20
287.4252636215789
 30
0.0
 10
393.0459563711556
 20
287.4252636215789
 30
0.0
 10
392.630527278389
 20
287.4252636215789
 30
0.0
 10
392.0095780780572
 20
287.4252636215789
 30
0.0
 10
391.6148182133903
 20
287.4252636215789
 30
0.0
 10
391.4496035723287
 20
287.4252636215789
 30
0.0
 10
391.4538028195959
 20
287.4252636215789
 30
0.0
 10
391.4553556865703
 20
287.4252636215789
 30
0.0
  0
SPLINE
  5
125
330
1F
100
AcDbEntity
  8
0
  6
Continuous
 62
     7
370
    25
100
AcDbSpline
210
0.0
220
0.0
230
1.0
 70
    24
 71
     3
 72
    13
 73
     9
 74
     0
 42
0.000000001
 43
0.00000001
 40
0.0
 40
0.0
 40
0.0
 40
0.0
 40
0.0875259678693715
 40
0.2645382654667366
 40
0.442728849653387
 40
0.6209239491477879
 40
0.8103327327273047
 40
1.0
 40
1.0
 40
1.0
 40
1.0
 10
391.4563597389462
 20
367.4252636215789
 30
0.0
 10
391.4534481338719
 20
367.4252636215789
 30
0.0
 10
391.4446481060078
 20
367.4252636215789
 30
0.0
 10
391.5594064775272
 20
367.4252636215789
 30
0.0
 10
391.792130043529
 20
367.4252636215789
 30
0.0
 10
392.154117222512
 20
367.4252636215789
 30
0.0
 10
392.6298997439596
 20
367.4252636215789
 30
0.0
 10
393.0455636010156
 20
367.4252636215789
 30
0.0
 10
393.2535372456039
 20
367.4252636215789
 30
0.0
  0
LINE
  5
126
330
1F
100
AcDbEntity
  8
0
  6
Continuous
 62
     7
370
    25
100
AcDbLine
 10
391.2969706436
 20
367.1752636216
 30
0.0
 11
391.2969706436
 21
287.6752636216
 31
0.0
  0
SPLINE
  5
127
330
1F
100
AcDbEntity
  8
0
  6
Continuous
 62
     7
370
    25
100
AcDbSpline
210
0.0
220
0.0
230
1.0
 70
    24
 71
     3
 72
    12
 73
     8
 74
     0
 42
0.000000001
 43
0.00000001
 40
0.0
 40
0.0
 40
0.0
 40
0.0
 40
0.1894267064791982
 40
0.3790973760350443
 40
0.7243502683148648
 40
0.89806569186925
 40
1.0
 40
1.0
 40
1.0
 40
1.0
 10
404.3404040416847
 20
287.4252636215789
 30
0.0
 10
404.5479849161327
 20
287.4252636215789
 30
0.0
 10
404.9634140088987
 20
287.4252636215789
 30
0.0
 10
405.5843632092301
 20
287.4252636215789
 30
0.0
 10
405.9791230738969
 20
287.4252636215789
 30
0.0
 10
406.1443377149585
 20
287.4252636215789
 30
0.0
 10
406.1401384676913
 20
287.4252636215789
 30
0.0
 10
406.1385856007169
 20
287.4252636215789
 30
0.0
  0
SPLINE
  5
128
330
1F
100
AcDbEntity
  8
0
  6
Continuous
 62
     7
370
    25
100
AcDbSpline
210
0.0
220
0.0
230
1.0
 70
     8
 71
     3
 72
    10
 73
     6
 74
     0
 42
0.000000001
 43
0.00000001
 40
0.0
 40
0.0
 40
0.0
 40
0.0
 40
0.5
 40
0.5
 40
1.0
 40
1.0
 40
1.0
 40
1.0
 10
404.3404040416909
 20
287.7181568403924
 30
0.0
 10
404.3123070270461
 20
287.6262631530846
 30
0.0
 10
404.2974575350783
 20
287.5517894956539
 30
0.0
 10
404.2974142623391
 20
287.4512023326113
 30
0.0
 10
404.3122995628855
 20
287.4252636215788
 30
0.0
 10
404.3404040416846
 20
287.4252636215789
 30
0.0
  0
SPLINE
  5
129
330
1F
100
AcDbEntity
  8
0
  6
Continuous
 62
     7
370
    25
100
AcDbSpline
210
0.0
220
0.0
230
1.0
 70
     8
 71
     3
 72
    16
 73
    12
 74
     0
 42
0.000000001
 43
0.00000001
 40
0.0
 40
0.0
 40
0.0
 40
0.0
 40
0.2499999999999997
 40
0.2499999999999997
 40
0.4999999999999993
 40
0.4999999999999993
 40
0.6249999999999993
 40
0.6249999999999993
 40
0.7499999999999994
 40
0.7499999999999994
 40
1.0
 40
1.0
 40
1.0
 40
1.0
 10
404.3404040416846
 20
310.5638279078416
 30
0.0
 10
404.9164739371435
 20
308.6797420891155
 30
0.0
 10
405.3712547245437
 20
306.7899169266569
 30
0.0
 10
405.988531199616
 20
302.9964358078448
 30
0.0
 10
406.150373939968
 20
301.0927489543303
 30
0.0
 10
406.1537271019571
 20
298.2258898602105
 30
0.0
 10
406.1152023717338
 20
297.2683942999791
 30
0.0
 10
405.9591231839942
 20
295.3496635298704
 30
0.0
 10
405.8412088487373
 20
294.3864285251216
 30
0.0
 10
405.3758750787289
 20
291.5083265322345
 30
0.0
 10
404.9177594191152
 20
289.6064469377527
 30
0.0
 10
404.3404040416848
 20
287.7181568403931
 30
0.0
  0
SPLINE
  5
12A
330
1F
100
AcDbEntity
  8
0
  6
Continuous
 62
     7
370
    25
100
AcDbSpline
210
0.0
220
0.0
230
1.0
 70
     8
 71
     3
 72
    10
 73
     6
 74
     0
 42
0.000000001
 43
0.00000001
 40
0.0
 40
0.0
 40
0.0
 40
0.0
 40
0.5
 40
0.5
 40
1.0
 40
1.0
 40
1.0
 40
1.0
 10
404.3404040416871
 20
311.2709346890282
 30
0.0
 10
404.3123070270423
 20
311.1409773901411
 30
0.0
 10
404.2974575350783
 20
311.0098697083504
 30
0.0
 10
404.2974142623391
 20
310.7671725864864
 30
0.0
 10
404.3122995628855
 20
310.6557460073037
 30
0.0
 10
404.3404040416845
 20
310.5638279078416
 30
0.0
  0
SPLINE
  5
12B
330
1F
100
AcDbEntity
  8
0
  6
Continuous
 62
     7
370
    25
100
AcDbSpline
210
0.0
220
0.0
230
1.0
 70
     8
 71
     3
 72
    18
 73
    14
 74
     0
 42
0.000000001
 43
0.00000001
 40
0.0
 40
0.0
 40
0.0
 40
0.0
 40
0.125
 40
0.125
 40
0.2499999999999999
 40
0.2499999999999999
 40
0.4999999999999999
 40
0.4999999999999999
 40
0.7499999999999998
 40
0.7499999999999998
 40
0.8749999999999999
 40
0.8749999999999999
 40
1.0
 40
1.0
 40
1.0
 40
1.0
 10
404.3404040416846
 20
343.5795925541296
 30
0.0
 10
404.6275709153144
 20
342.2513578039739
 30
0.0
 10
404.8867801278963
 20
340.9111388804989
 30
0.0
 10
405.3382785922203
 20
338.2183047933445
 30
0.0
 10
405.5296862496064
 20
336.8712690065512
 30
0.0
 10
405.9928831283041
 20
332.8281612532775
 30
0.0
 10
406.1524833399919
 20
330.1300679412682
 30
0.0
 10
406.1527826000727
 20
324.7281355722543
 30
0.0
 10
405.9934429891885
 20
322.0242958187131
 30
0.0
 10
405.5278198657966
 20
317.9644532162357
 30
0.0
 10
405.3345173773484
 20
316.6077620547239
 30
0.0
 10
404.8837673405782
 20
313.9234778789354
 30
0.0
 10
404.6261074896212
 20
312.5924006471036
 30
0.0
 10
404.3404040416847
 20
311.270934689029
 30
0.0
  0
SPLINE
  5
12C
330
1F
100
AcDbEntity
  8
0
  6
Continuous
 62
     7
370
    25
100
AcDbSpline
210
0.0
220
0.0
230
1.0
 70
     8
 71
     3
 72
    10
 73
     6
 74
     0
 42
0.000000001
 43
0.00000001
 40
0.0
 40
0.0
 40
0.0
 40
0.0
 40
0.5
 40
0.5
 40
1.0
 40
1.0
 40
1.0
 40
1.0
 10
404.3404040416909
 20
344.2866993353162
 30
0.0
 10
404.3123070270461
 20
344.1948056480085
 30
0.0
 10
404.2974575350784
 20
344.0838650437203
 30
0.0
 10
404.2974142623391
 20
343.8412266454733
 30
0.0
 10
404.3122995628855
 20
343.7095843770167
 30
0.0
 10
404.3404040416845
 20
343.5795925541296
 30
0.0
  0
SPLINE
  5
12D
330
1F
100
AcDbEntity
  8
0
  6
Continuous
 62
     7
370
    25
100
AcDbSpline
210
0.0
220
0.0
230
1.0
 70
     8
 71
     3
 72
    16
 73
    12
 74
     0
 42
0.000000001
 43
0.00000001
 40
0.0
 40
0.0
 40
0.0
 40
0.0
 40
0.2499999999999999
 40
0.2499999999999999
 40
0.4999999999999998
 40
0.4999999999999998
 40
0.6249999999999998
 40
0.6249999999999998
 40
0.7499999999999999
 40
0.7499999999999999
 40
1.0
 40
1.0
 40
1.0
 40
1.0
 10
404.3404040416846
 20
367.1323704027654
 30
0.0
 10
404.9164739371435
 20
365.2482845840393
 30
0.0
 10
405.3712547245437
 20
363.3584594215806
 30
0.0
 10
405.988531199616
 20
359.5649783027685
 30
0.0
 10
406.150373939968
 20
357.6612914492541
 30
0.0
 10
406.153727101957
 20
354.7944323551342
 30
0.0
 10
406.1152023717338
 20
353.8369367949029
 30
0.0
 10
405.9591231839941
 20
351.9182060247942
 30
0.0
 10
405.8412088487373
 20
350.9549710200454
 30
0.0
 10
405.3758750787288
 20
348.0768690271583
 30
0.0
 10
404.9177594191152
 20
346.1749894326765
 30
0.0
 10
404.3404040416848
 20
344.2866993353169
 30
0.0
  0
SPLINE
  5
12E
330
1F
100
AcDbEntity
  8
0
  6
Continuous
 62
     7
370
    25
100
AcDbSpline
210
0.0
220
0.0
230
1.0
 70
     8
 71
     3
 72
    10
 73
     6
 74
     0
 42
0.000000001
 43
0.00000001
 40
0.0
 40
0.0
 40
0.0
 40
0.0
 40
0.5
 40
0.5
 40
1.0
 40
1.0
 40
1.0
 40
1.0
 10
404.3404040416871
 20
367.4252636215789
 30
0.0
 10
404.3123070270423
 20
367.4252636215789
 30
0.0
 10
404.2974575350783
 20
367.3994775961665
 30
0.0
 10
404.2974142623391
 20
367.2990322044776
 30
0.0
 10
404.3122995628855
 20
367.2242885022276
 30
0.0
 10
404.3404040416845
 20
367.1323704027654
 30
0.0
  0
SPLINE
  5
12F
330
1F
100
AcDbEntity
  8
0
  6
Continuous
 62
     7
370
    25
100
AcDbSpline
210
0.0
220
0.0
230
1.0
 70
    24
 71
     3
 72
    13
 73
     9
 74
     0
 42
0.000000001
 43
0.00000001
 40
0.0
 40
0.0
 40
0.0
 40
0.0
 40
0.0875259678694076
 40
0.2645382654668456
 40
0.4427288496535695
 40
0.6209239491480438
 40
0.810332732727433
 40
1.0
 40
1.0
 40
1.0
 40
1.0
 10
406.137581548341
 20
367.4252636215789
 30
0.0
 10
406.1404931534153
 20
367.4252636215789
 30
0.0
 10
406.1492931812794
 20
367.4252636215789
 30
0.0
 10
406.03453480976
 20
367.4252636215789
 30
0.0
 10
405.8018112437582
 20
367.4252636215789
 30
0.0
 10
405.4398240647753
 20
367.4252636215789
 30
0.0
 10
404.9640415433281
 20
367.4252636215789
 30
0.0
 10
404.5483776862727
 20
367.4252636215789
 30
0.0
 10
404.3404040416847
 20
367.4252636215789
 30
0.0
  0
LINE
  5
130
330
1F
100
AcDbEntity
  8
0
  6
Continuous
 62
     7
370
    25
100
AcDbLine
 10
406.2969706436
 20
367.1752636216
 30
0.0
 11
406.2969706436
 21
287.6752636216
 31
0.0
  0
LINE
  5
131
330
1F
100
AcDbEntity
  8
0
  6
Continuous
 62
     7
370
    25
100
AcDbLine
 10
404.3404040417
 20
343.5795925541
 30
0.0
 11
393.2535372456
 21
343.5795925541
 31
0.0
  0
LINE
  5
132
330
1F
100
AcDbEntity
  8
0
  6
Continuous
 62
     7
370
    25
100
AcDbLine
 10
393.2535372456
 20
311.270934689
 30
0.0
 11
404.3404040417
 21
311.270934689
 31
0.0
  0
LINE
  5
133
330
1F
100
AcDbEntity
  8
0
  6
Continuous
 62
     7
370
    25
100
AcDbLine
 10
393.2535372456
 20
344.2866993353
 30
0.0
 11
404.3404040417
 21
344.2866993353
 31
0.0
  0
LINE
  5
134
330
1F
100
AcDbEntity
  8
0
  6
Continuous
 62
     7
370
    25
100
AcDbLine
 10
404.3404040417
 20
310.5638279078
 30
0.0
 11
393.2535372456
 21
310.5638279078
 31
0.0
  0
LINE
  5
135
330
1F
100
AcDbEntity
  8
0
  6
Continuous
 62
     7
370
    25
100
AcDbLine
 10
404.3404040417
 20
367.1323704028
 30
0.0
 11
393.2535372456
 21
367.1323704028
 31
0.0
  0
LINE
  5
136
330
1F
100
AcDbEntity
  8
0
  6
Continuous
 62
     7
370
    25
100
AcDbLine
 10
393.2535372456
 20
287.7181568404
 30
0.0
 11
404.3404040417
 21
287.7181568404
 31
0.0
  0
LINE
  5
137
330
1F
100
AcDbEntity
  8
0
  6
Continuous
 62
     7
370
    25
100
AcDbLine
 10
362.2959947958
 20
364.5341081263
 30
0.0
 11
362.2959947958
 21
290.3164191168
 31
0.0
  0
LINE
  5
138
330
1F
100
AcDbEntity
  8
0
  6
Continuous
 62
     7
370
    25
100
AcDbLine
 10
360.2969706436
 20
292.4444125691
 30
0.0
 11
360.2969706436
 21
362.406114674
 31
0.0
  0
LINE
  5
139
330
1F
100
AcDbEntity
  8
0
  6
Continuous
 62
     7
370
    25
100
AcDbLine
 10
446.2969706436
 20
359.4252636216
 30
0.0
 11
446.2969706436
 21
295.4252636216
 31
0.0
  0
LINE
  5
13A
330
1F
100
AcDbEntity
  8
0
  6
Continuous
 62
     7
370
    25
100
AcDbLine
 10
424.2969706436
 20
359.4252636216
 30
0.0
 11
424.2969706436
 21
295.4252636216
 31
0.0
  0
LINE
  5
13B
330
1F
100
AcDbEntity
  8
0
  6
Continuous
 62
     7
370
    25
100
AcDbLine
 10
457.2969706436
 20
359.4252636216
 30
0.0
 11
457.2969706436
 21
295.4252636216
 31
0.0
  0
LINE
  5
13C
330
1F
100
AcDbEntity
  8
0
  6
Continuous
 62
     7
370
    25
100
AcDbLine
 10
468.2969706436
 20
359.4252636216
 30
0.0
 11
468.2969706436
 21
295.4252636216
 31
0.0
  0
LINE
  5
13D
330
1F
100
AcDbEntity
  8
0
  6
Continuous
 62
     7
370
    25
100
AcDbLine
 10
435.2969706436
 20
359.4252636216
 30
0.0
 11
435.2969706436
 21
295.4252636216
 31
0.0
  0
LINE
  5
13E
330
1F
100
AcDbEntity
  8
0
  6
Continuous
 62
     7
370
    25
100
AcDbLine
 10
480.2969706436
 20
356.8233975576
 30
0.0
 11
480.2969706436
 21
298.0271296867
 31
0.0
  0
LINE
  5
13F
330
1F
100
AcDbEntity
  8
0
  6
Continuous
 62
     7
370
    25
100
AcDbLine
 10
404.3404040417
 20
287.4252636216
 30
0.0
 11
393.2535372456
 21
287.4252636216
 31
0.0
  0
LINE
  5
140
330
1F
100
AcDbEntity
  8
0
  6
Continuous
 62
     7
370
    25
100
AcDbLine
 10
393.2535372456
 20
367.4252636216
 30
0.0
 11
404.3404040417
 21
367.4252636216
 31
0.0
  0
LINE
  5
141
330
1F
100
AcDbEntity
  8
0
  6
Continuous
 62
     8
370
    25
100
AcDbLine
 10
478.95237977
 20
296.5352020722
 30
0.0
 11
478.95237977
 21
358.3153251709
 31
0.0
  0
LINE
  5
142
330
1F
100
AcDbEntity
  8
0
  6
Continuous
 62
     7
370
    18
100
AcDbLine
 10
361.3322116263
 20
363.5081453975
 30
0.0
 11
390.2969706436
 21
364.4132941168
 31
0.0
  0
LINE
  5
143
330
1F
100
AcDbEntity
  8
0
  6
Continuous
 62
     7
370
    18
100
AcDbLine
 10
361.3322116263
 20
291.3423818456
 30
0.0
 11
390.2969706436
 21
290.4372331263
 31
0.0
  0
LINE
  5
144
330
1F
100
AcDbEntity
  8
0
  6
Continuous
 62
     7
370
    18
100
AcDbLine
 10
390.2969706436
 20
289.4413886216
 30
0.0
 11
390.2969706436
 21
365.4091386216
 31
0.0
  0
LINE
  5
145
330
1F
100
AcDbEntity
  8
0
  6
CENTERX2
 62
     7
370
    18
100
AcDbLine
 10
484.2969706436
 20
327.4252636216
 30
0.0
 11
357.5359243711
 21
327.4252636216
 31
0.0
  0
ENDSEC
  0
SECTION
  2
OBJECTS
  0
DICTIONARY
  5
C
330
0
100
AcDbDictionary
281
     1
  3
ACAD_GROUP
350
D
  3
ACAD_LAYOUT
350
1A
  3
ACAD_MLINESTYLE
350
17
  3
ACAD_PLOTSETTINGS
350
19
  3
ACAD_PLOTSTYLENAME
350
E
  3
ACAD_SCALELIST
350
47
  0
DICTIONARY
  5
D
102
{ACAD_REACTORS
330
C
102
}
330
C
100
AcDbDictionary
281
     1
  0
DICTIONARY
  5
1A
102
{ACAD_REACTORS
330
C
102
}
330
C
100
AcDbDictionary
281
     1
  3
Layout1
350
1E
  3
Layout2
350
26
  3
Model
350
22
  0
DICTIONARY
  5
17
102
{ACAD_REACTORS
330
C
102
}
330
C
100
AcDbDictionary
281
     1
  3
Standard
350
18
  0
DICTIONARY
  5
19
102
{ACAD_REACTORS
330
C
102
}
330
C
100
AcDbDictionary
281
     1
  0
ACDBDICTIONARYWDFLT
  5
E
102
{ACAD_REACTORS
330
C
102
}
330
C
100
AcDbDictionary
281
     1
  3
Normal
350
F
100
AcDbDictionaryWithDefault
340
F
  0
DICTIONARY
  5
47
102
{ACAD_REACTORS
330
C
102
}
330
C
100
AcDbDictionary
281
     1
  3
A0
350
48
  3
A1
350
49
  3
A2
350
4A
  3
A3
350
4B
  3
A4
350
4C
  3
A5
350
4D
  3
A6
350
4E
  3
A7
350
4F
  3
A8
350
50
  3
A9
350
51
  3
B0
350
52
  3
B1
350
53
  3
B2
350
54
  3
B3
350
55
  3
B4
350
56
  3
B5
350
57
  3
B6
350
58
  3
B7
350
59
  3
B8
350
5A
  3
B9
350
5B
  3
C0
350
5C
  3
C1
350
5D
  3
C2
350
5E
  3
C3
350
5F
  3
C4
350
60
  3
C5
350
61
  3
C6
350
62
  3
C7
350
63
  3
C8
350
64
  3
C9
350
65
  3
D0
350
66
  3
D1
350
67
  3
D2
350
68
  0
LAYOUT
  5
1E
102
{ACAD_REACTORS
330
1A
102
}
330
1A
100
AcDbPlotSettings
  1

  2
none_device
  4

  6

 40
0.0
 41
0.0
 42
0.0
 43
0.0
 44
0.0
 45
0.0
 46
0.0
 47
0.0
 48
0.0
 49
0.0
140
0.0
141
0.0
142
1.0
143
1.0
 70
   688
 72
     1
 73
     0
 74
     5
  7

 75
    16
147
1.0
148
0.0
149
0.0
100
AcDbLayout
  1
Layout1
 70
     1
 71
     1
 10
0.0
 20
0.0
 11
420.0
 21
297.0
 12
0.0
 22
0.0
 32
0.0
 14
1.0000000000E+20
 24
1.0000000000E+20
 34
1.0000000000E+20
 15
-1.0000000000E+20
 25
-1.0000000000E+20
 35
-1.0000000000E+20
146
0.0
 13
0.0
 23
0.0
 33
0.0
 16
1.0
 26
0.0
 36
0.0
 17
0.0
 27
1.0
 37
0.0
 76
     0
330
1B
  0
LAYOUT
  5
26
102
{ACAD_REACTORS
330
1A
102
}
330
1A
100
AcDbPlotSettings
  1

  2
none_device
  4

  6

 40
0.0
 41
0.0
 42
0.0
 43
0.0
 44
0.0
 45
0.0
 46
0.0
 47
0.0
 48
0.0
 49
0.0
140
0.0
141
0.0
142
1.0
143
1.0
 70
   688
 72
     1
 73
     0
 74
     5
  7

 75
    16
147
1.0
148
0.0
149
0.0
100
AcDbLayout
  1
Layout2
 70
     1
 71
     2
 10
0.0
 20
0.0
 11
0.0
 21
0.0
 12
0.0
 22
0.0
 32
0.0
 14
0.0
 24
0.0
 34
0.0
 15
0.0
 25
0.0
 35
0.0
146
0.0
 13
0.0
 23
0.0
 33
0.0
 16
1.0
 26
0.0
 36
0.0
 17
0.0
 27
1.0
 37
0.0
 76
     0
330
23
  0
LAYOUT
  5
22
102
{ACAD_REACTORS
330
1A
102
}
330
1A
100
AcDbPlotSettings
  1

  2
none_device
  4
Letter_(8.50_x_11.00_Inches)
  6

 40
6.35
 41
6.35
 42
6.35000508
 43
6.35000508
 44
215.9
 45
279.4
 46
0.0
 47
0.0
 48
0.0
 49
0.0
140
0.0
141
0.0
142
1.0
143
1.0
 70
  1712
 72
     1
 73
     0
 74
     0
  7

 75
     0
147
1.0
148
0.0
149
0.0
100
AcDbLayout
  1
Model
 70
     1
 71
     0
 10
0.0
 20
0.0
 11
863.6
 21
558.8
 12
0.0
 22
0.0
 32
0.0
 14
0.0
 24
0.0
 34
0.0
 15
863.6
 25
558.8
 35
0.0
146
0.0
 13
0.0
 23
0.0
 33
0.0
 16
1.0
 26
0.0
 36
0.0
 17
0.0
 27
1.0
 37
0.0
 76
     0
330
1F
331
29
  0
MLINESTYLE
  5
18
102
{ACAD_REACTORS
330
17
102
}
330
17
100
AcDbMlineStyle
  2
Standard
 70
     0
  3

 62
   256
 51
90.0
 52
90.0
 71
     2
 49
0.5
 62
   256
  6
BYLAYER
 49
-0.5
 62
   256
  6
BYLAYER
  0
ACDBPLACEHOLDER
  5
F
102
{ACAD_REACTORS
330
E
102
}
330
E
  0
SCALE
  5
48
102
{ACAD_REACTORS
330
47
102
}
330
47
100
AcDbScale
 70
     0
300
1:1
140
1.0
141
1.0
290
     1
  0
SCALE
  5
49
102
{ACAD_REACTORS
330
47
102
}
330
47
100
AcDbScale
 70
     0
300
1:2
140
1.0
141
2.0
290
     0
  0
SCALE
  5
4A
102
{ACAD_REACTORS
330
47
102
}
330
47
100
AcDbScale
 70
     0
300
1:4
140
1.0
141
4.0
290
     0
  0
SCALE
  5
4B
102
{ACAD_REACTORS
330
47
102
}
330
47
100
AcDbScale
 70
     0
300
1:5
140
1.0
141
5.0
290
     0
  0
SCALE
  5
4C
102
{ACAD_REACTORS
330
47
102
}
330
47
100
AcDbScale
 70
     0
300
1:8
140
1.0
141
8.0
290
     0
  0
SCALE
  5
4D
102
{ACAD_REACTORS
330
47
102
}
330
47
100
AcDbScale
 70
     0
300
1:10
140
1.0
141
10.0
290
     0
  0
SCALE
  5
4E
102
{ACAD_REACTORS
330
47
102
}
330
47
100
AcDbScale
 70
     0
300
1:16
140
1.0
141
16.0
290
     0
  0
SCALE
  5
4F
102
{ACAD_REACTORS
330
47
102
}
330
47
100
AcDbScale
 70
     0
300
1:20
140
1.0
141
20.0
290
     0
  0
SCALE
  5
50
102
{ACAD_REACTORS
330
47
102
}
330
47
100
AcDbScale
 70
     0
300
1:30
140
1.0
141
30.0
290
     0
  0
SCALE
  5
51
102
{ACAD_REACTORS
330
47
102
}
330
47
100
AcDbScale
 70
     0
300
1:40
140
1.0
141
40.0
290
     0
  0
SCALE
  5
52
102
{ACAD_REACTORS
330
47
102
}
330
47
100
AcDbScale
 70
     0
300
1:50
140
1.0
141
50.0
290
     0
  0
SCALE
  5
53
102
{ACAD_REACTORS
330
47
102
}
330
47
100
AcDbScale
 70
     0
300
1:100
140
1.0
141
100.0
290
     0
  0
SCALE
  5
54
102
{ACAD_REACTORS
330
47
102
}
330
47
100
AcDbScale
 70
     0
300
2:1
140
2.0
141
1.0
290
     0
  0
SCALE
  5
55
102
{ACAD_REACTORS
330
47
102
}
330
47
100
AcDbScale
 70
     0
300
4:1
140
4.0
141
1.0
290
     0
  0
SCALE
  5
56
102
{ACAD_REACTORS
330
47
102
}
330
47
100
AcDbScale
 70
     0
300
8:1
140
8.0
141
1.0
290
     0
  0
SCALE
  5
57
102
{ACAD_REACTORS
330
47
102
}
330
47
100
AcDbScale
 70
     0
300
10:1
140
10.0
141
1.0
290
     0
  0
SCALE
  5
58
102
{ACAD_REACTORS
330
47
102
}
330
47
100
AcDbScale
 70
     0
300
100:1
140
100.0
141
1.0
290
     0
  0
SCALE
  5
59
102
{ACAD_REACTORS
330
47
102
}
330
47
100
AcDbScale
 70
     0
300
1/128" = 1'-0"
140
0.0078125
141
12.0
290
     0
  0
SCALE
  5
5A
102
{ACAD_REACTORS
330
47
102
}
330
47
100
AcDbScale
 70
     0
300
1/64" = 1'-0"
140
0.015625
141
12.0
290
     0
  0
SCALE
  5
5B
102
{ACAD_REACTORS
330
47
102
}
330
47
100
AcDbScale
 70
     0
300
1/32" = 1'-0"
140
0.03125
141
12.0
290
     0
  0
SCALE
  5
5C
102
{ACAD_REACTORS
330
47
102
}
330
47
100
AcDbScale
 70
     0
300
1/16" = 1'-0"
140
0.0625
141
12.0
290
     0
  0
SCALE
  5
5D
102
{ACAD_REACTORS
330
47
102
}
330
47
100
AcDbScale
 70
     0
300
3/32" = 1'-0"
140
0.09375
141
12.0
290
     0
  0
SCALE
  5
5E
102
{ACAD_REACTORS
330
47
102
}
330
47
100
AcDbScale
 70
     0
300
1/8" = 1'-0"
140
0.125
141
12.0
290
     0
  0
SCALE
  5
5F
102
{ACAD_REACTORS
330
47
102
}
330
47
100
AcDbScale
 70
     0
300
3/16" = 1'-0"
140
0.1875
141
12.0
290
     0
  0
SCALE
  5
60
102
{ACAD_REACTORS
330
47
102
}
330
47
100
AcDbScale
 70
     0
300
1/4" = 1'-0"
140
0.25
141
12.0
290
     0
  0
SCALE
  5
61
102
{ACAD_REACTORS
330
47
102
}
330
47
100
AcDbScale
 70
     0
300
3/8" = 1'-0"
140
0.375
141
12.0
290
     0
  0
SCALE
  5
62
102
{ACAD_REACTORS
330
47
102
}
330
47
100
AcDbScale
 70
     0
300
1/2" = 1'-0"
140
0.5
141
12.0
290
     0
  0
SCALE
  5
63
102
{ACAD_REACTORS
330
47
102
}
330
47
100
AcDbScale
 70
     0
300
3/4" = 1'-0"
140
0.75
141
12.0
290
     0
  0
SCALE
  5
64
102
{ACAD_REACTORS
330
47
102
}
330
47
100
AcDbScale
 70
     0
300
1" = 1'-0"
140
1.0
141
12.0
290
     0
  0
SCALE
  5
65
102
{ACAD_REACTORS
330
47
102
}
330
47
100
AcDbScale
 70
     0
300
1-1/2" = 1'-0"
140
1.5
141
12.0
290
     0
  0
SCALE
  5
66
102
{ACAD_REACTORS
330
47
102
}
330
47
100
AcDbScale
 70
     0
300
3" = 1'-0"
140
3.0
141
12.0
290
     0
  0
SCALE
  5
67
102
{ACAD_REACTORS
330
47
102
}
330
47
100
AcDbScale
 70
     0
300
6" = 1'-0"
140
6.0
141
12.0
290
     0
  0
SCALE
  5
68
102
{ACAD_REACTORS
330
47
102
}
330
47
100
AcDbScale
 70
     0
300
1'-0" = 1'-0"
140
12.0
141
12.0
290
     0
  0
ENDSEC
  0
EOF
