  0
SECTION
  2
HEADER
  9
$ACADVER
  1
AC1015
  9
$ACADMAINTVER
 70
     6
  9
$DWGCODEPAGE
  3
DOS932
  9
$INSBASE
 10
0.0
 20
0.0
 30
0.0
  9
$EXTMIN
 10
0.0
 20
0.0
 30
0.0
  9
$EXTMAX
 10
431.8
 20
279.4
 30
0.0
  9
$LIMMIN
 10
0.0
 20
0.0
  9
$LIMMAX
 10
431.8
 20
279.4
  9
$ORTHOMODE
 70
     0
  9
$REGENMODE
 70
     1
  9
$FILLMODE
 70
     1
  9
$QTEXTMODE
 70
     0
  9
$MIRRTEXT
 70
     1
  9
$LTSCALE
 40
1.0
  9
$ATTMODE
 70
     1
  9
$TEXTSIZE
 40
3.5
  9
$TRACEWID
 40
1.0
  9
$TEXTSTYLE
  7
Standard
  9
$CLAYER
  8
0
  9
$CELTYPE
  6
ByLayer
  9
$CECOLOR
 62
   256
  9
$CELTSCALE
 40
1.0
  9
$DISPSILH
 70
     0
  9
$DIMSCALE
 40
1.0
  9
$DIMASZ
 40
3.302
  9
$DIMEXO
 40
1.0
  9
$DIMDLI
 40
3.75
  9
$DIMRND
 40
0.0
  9
$DIMDLE
 40
0.0
  9
$DIMEXE
 40
1.0
  9
$DIMTP
 40
0.0
  9
$DIMTM
 40
0.0
  9
$DIMTXT
 40
3.5
  9
$DIMCEN
 40
2.5
  9
$DIMTSZ
 40
0.0
  9
$DIMTOL
 70
     0
  9
$DIMLIM
 70
     0
  9
$DIMTIH
 70
     1
  9
$DIMTOH
 70
     1
  9
$DIMSE1
 70
     0
  9
$DIMSE2
 70
     0
  9
$DIMTAD
 70
     1
  9
$DIMZIN
 70
     1
  9
$DIMBLK
  1

  9
$DIMASO
 70
     1
  9
$DIMSHO
 70
     1
  9
$DIMPOST
  1

  9
$DIMAPOST
  1

  9
$DIMALT
 70
     0
  9
$DIMALTD
 70
     3
  9
$DIMALTF
 40
0.0393700787
  9
$DIMLFAC
 40
1.0
  9
$DIMTOFL
 70
     1
  9
$DIMTVP
 40
0.0
  9
$DIMTIX
 70
     0
  9
$DIMSOXD
 70
     0
  9
$DIMSAH
 70
     0
  9
$DIMBLK1
  1

  9
$DIMBLK2
  1

  9
$DIMSTYLE
  2
ISO-25
  9
$DIMCLRD
 70
     0
  9
$DIMCLRE
 70
     0
  9
$DIMCLRT
 70
     0
  9
$DIMTFAC
 40
1.0
  9
$DIMGAP
 40
1.524
  9
$DIMJUST
 70
     0
  9
$DIMSD1
 70
     0
  9
$DIMSD2
 70
     0
  9
$DIMTOLJ
 70
     0
  9
$DIMTZIN
 70
     1
  9
$DIMALTZ
 70
     0
  9
$DIMALTTZ
 70
     0
  9
$DIMUPT
 70
     0
  9
$DIMDEC
 70
     2
  9
$DIMTDEC
 70
     2
  9
$DIMALTU
 70
     2
  9
$DIMALTTD
 70
     3
  9
$DIMTXSTY
  7
Standard
  9
$DIMAUNIT
 70
     0
  9
$DIMADEC
 70
     2
  9
$DIMALTRND
 40
0.0
  9
$DIMAZIN
 70
     0
  9
$DIMDSEP
 70
    44
  9
$DIMATFIT
 70
     3
  9
$DIMFRAC
 70
     0
  9
$DIMLDRBLK
  1

  9
$DIMLUNIT
 70
     2
  9
$DIMLWD
 70
    -2
  9
$DIMLWE
 70
    -2
  9
$DIMTMOVE
 70
     0
  9
$LUNITS
 70
     2
  9
$LUPREC
 70
     2
  9
$SKETCHINC
 40
1.0
  9
$FILLETRAD
 40
10.0
  9
$AUNITS
 70
     0
  9
$AUPREC
 70
     2
  9
$MENU
  1
.
  9
$ELEVATION
 40
0.0
  9
$PELEVATION
 40
0.0
  9
$THICKNESS
 40
0.0
  9
$LIMCHECK
 70
     0
  9
$CHAMFERA
 40
0.0
  9
$CHAMFERB
 40
0.0
  9
$CHAMFERC
 40
0.0
  9
$CHAMFERD
 40
0.0
  9
$SKPOLY
 70
     0
  9
$TDCREATE
 40
2460084.758137292
  9
$TDUCREATE
 40
2460084.383137292
  9
$TDUPDATE
 40
2460084.758137778
  9
$TDUUPDATE
 40
2460084.383137778
  9
$TDINDWG
 40
0.0000000116
  9
$TDUSRTIMER
 40
0.0000000116
  9
$USRTIMER
 70
     1
  9
$ANGBASE
 50
0.0
  9
$ANGDIR
 70
     0
  9
$PDMODE
 70
     0
  9
$PDSIZE
 40
-1.0
  9
$PLINEWID
 40
0.0
  9
$SPLFRAME
 70
     0
  9
$SPLINETYPE
 70
     6
  9
$SPLINESEGS
 70
     8
  9
$HANDSEED
  5
146
  9
$SURFTAB1
 70
     6
  9
$SURFTAB2
 70
     6
  9
$SURFTYPE
 70
     6
  9
$SURFU
 70
     6
  9
$SURFV
 70
     6
  9
$UCSBASE
  2

  9
$UCSNAME
  2

  9
$UCSORG
 10
0.0
 20
0.0
 30
0.0
  9
$UCSXDIR
 10
1.0
 20
0.0
 30
0.0
  9
$UCSYDIR
 10
0.0
 20
1.0
 30
0.0
  9
$UCSORTHOREF
  2

  9
$UCSORTHOVIEW
 70
     0
  9
$UCSORGTOP
 10
0.0
 20
0.0
 30
0.0
  9
$UCSORGBOTTOM
 10
0.0
 20
0.0
 30
0.0
  9
$UCSORGLEFT
 10
0.0
 20
0.0
 30
0.0
  9
$UCSORGRIGHT
 10
0.0
 20
0.0
 30
0.0
  9
$UCSORGFRONT
 10
0.0
 20
0.0
 30
0.0
  9
$UCSORGBACK
 10
0.0
 20
0.0
 30
0.0
  9
$PUCSBASE
  2

  9
$PUCSNAME
  2

  9
$PUCSORG
 10
0.0
 20
0.0
 30
0.0
  9
$PUCSXDIR
 10
1.0
 20
0.0
 30
0.0
  9
$PUCSYDIR
 10
0.0
 20
1.0
 30
0.0
  9
$PUCSORTHOREF
  2

  9
$PUCSORTHOVIEW
 70
     0
  9
$PUCSORGTOP
 10
0.0
 20
0.0
 30
0.0
  9
$PUCSORGBOTTOM
 10
0.0
 20
0.0
 30
0.0
  9
$PUCSORGLEFT
 10
0.0
 20
0.0
 30
0.0
  9
$PUCSORGRIGHT
 10
0.0
 20
0.0
 30
0.0
  9
$PUCSORGFRONT
 10
0.0
 20
0.0
 30
0.0
  9
$PUCSORGBACK
 10
0.0
 20
0.0
 30
0.0
  9
$USERI1
 70
     0
  9
$USERI2
 70
     0
  9
$USERI3
 70
     0
  9
$USERI4
 70
     0
  9
$USERI5
 70
     0
  9
$USERR1
 40
0.0
  9
$USERR2
 40
0.0
  9
$USERR3
 40
0.0
  9
$USERR4
 40
0.0
  9
$USERR5
 40
0.0
  9
$WORLDVIEW
 70
     1
  9
$SHADEDGE
 70
     3
  9
$SHADEDIF
 70
    70
  9
$TILEMODE
 70
     1
  9
$MAXACTVP
 70
    64
  9
$PINSBASE
 10
0.0
 20
0.0
 30
0.0
  9
$PLIMCHECK
 70
     0
  9
$PEXTMIN
 10
1.0000000000E+20
 20
1.0000000000E+20
 30
1.0000000000E+20
  9
$PEXTMAX
 10
-1.0000000000E+20
 20
-1.0000000000E+20
 30
-1.0000000000E+20
  9
$PLIMMIN
 10
0.0
 20
0.0
  9
$PLIMMAX
 10
420.0
 20
297.0
  9
$UNITMODE
 70
     0
  9
$VISRETAIN
 70
     1
  9
$PLINEGEN
 70
     0
  9
$PSLTSCALE
 70
     1
  9
$TREEDEPTH
 70
  3020
  9
$CMLSTYLE
  2
Standard
  9
$CMLJUST
 70
     0
  9
$CMLSCALE
 40
20.0
  9
$PROXYGRAPHICS
 70
     1
  9
$MEASUREMENT
 70
     1
  9
$CELWEIGHT
370
    -1
  9
$ENDCAPS
280
     0
  9
$JOINSTYLE
280
     0
  9
$LWDISPLAY
290
     1
  9
$INSUNITS
 70
     4
  9
$HYPERLINKBASE
  1

  9
$STYLESHEET
  1

  9
$XEDIT
290
     1
  9
$CEPSNTYPE
380
     0
  9
$PSTYLEMODE
290
     1
  9
$FINGERPRINTGUID
  2
{94A3E5F8-68FC-4A5B-A1A0-D9D9302C6C63}
  9
$VERSIONGUID
  2
{FAEB1C32-E019-11D5-929B-00C0DF256EC4}
  9
$EXTNAMES
290
     1
  9
$PSVPSCALE
 40
0.0
  9
$OLESTARTUP
290
     0
  0
ENDSEC
  0
SECTION
  2
CLASSES
  0
CLASS
  1
ACDBDICTIONARYWDFLT
  2
AcDbDictionaryWithDefault
  3
ObjectDBX Classes
 90
        0
280
     0
281
     0
  0
CLASS
  1
VISUALSTYLE
  2
AcDbVisualStyle
  3
ObjectDBX Classes
 90
     4095
280
     0
281
     0
  0
CLASS
  1
MATERIAL
  2
AcDbMaterial
  3
ObjectDBX Classes
 90
     1153
280
     0
281
     0
  0
CLASS
  1
SCALE
  2
AcDbScale
  3
ObjectDBX Classes
 90
     1153
280
     0
281
     0
  0
CLASS
  1
TABLESTYLE
  2
AcDbTableStyle
  3
ObjectDBX Classes
 90
     4095
280
     0
281
     0
  0
CLASS
  1
MLEADERSTYLE
  2
AcDbMLeaderStyle
  3
ACDB_MLEADERSTYLE_CLASS
 90
     4095
280
     0
281
     0
  0
CLASS
  1
SUN
  2
AcDbSun
  3
SCENEOE
 90
     1153
280
     0
281
     0
  0
CLASS
  1
ACDBPLACEHOLDER
  2
AcDbPlaceHolder
  3
ObjectDBX Classes
 90
        0
280
     0
281
     0
  0
CLASS
  1
LAYOUT
  2
AcDbLayout
  3
ObjectDBX Classes
 90
        0
280
     0
281
     0
  0
ENDSEC
  0
SECTION
  2
TABLES
  0
TABLE
  2
VPORT
  5
8
330
0
100
AcDbSymbolTable
 70
     1
  0
VPORT
  5
29
330
8
100
AcDbSymbolTableRecord
100
AcDbViewportTableRecord
  2
*Active
 70
     0
 10
0.0
 20
0.0
 11
1.0
 21
1.0
 12
215.9
 22
139.7
 13
0.0
 23
0.0
 14
10.0
 24
10.0
 15
10.0
 25
10.0
 16
0.0
 26
0.0
 36
1.0
 17
0.0
 27
0.0
 37
0.0
 40
279.4
 41
1.5454545455
 42
50.0
 43
0.0
 44
0.0
 50
0.0
 51
0.0
 71
     0
 72
  2000
 73
     1
 74
     3
 75
     0
 76
     0
 77
     0
 78
     0
281
     0
 65
     1
110
0.0
120
0.0
130
0.0
111
1.0
121
0.0
131
0.0
112
0.0
122
1.0
132
0.0
 79
     0
146
0.0
  0
ENDTAB
  0
TABLE
  2
LTYPE
  5
5
330
0
100
AcDbSymbolTable
 70
     6
  0
LTYPE
  5
14
330
5
100
AcDbSymbolTableRecord
100
AcDbLinetypeTableRecord
  2
ByBlock
 70
     0
  3

 72
    65
 73
     0
 40
0.0
  0
LTYPE
  5
15
330
5
100
AcDbSymbolTableRecord
100
AcDbLinetypeTableRecord
  2
ByLayer
 70
     0
  3

 72
    65
 73
     0
 40
0.0
  0
LTYPE
  5
16
330
5
100
AcDbSymbolTableRecord
100
AcDbLinetypeTableRecord
  2
Continuous
 70
     0
  3
Solid line
 72
    65
 73
     0
 40
0.0
  0
LTYPE
  5
6E
330
5
100
AcDbSymbolTableRecord
100
AcDbLinetypeTableRecord
  2
HIDDEN
 70
     0
  3
Hidden __ __ __ __ __ __ __ __ __ __ __ __ __ __
 72
    65
 73
     2
 40
1.905
 49
1.27
 74
     0
 49
-0.635
 74
     0
  0
LTYPE
  5
6F
330
5
100
AcDbSymbolTableRecord
100
AcDbLinetypeTableRecord
  2
PHANTOM
 70
     0
  3
Phantom ______  __  __  ______  __  __  ______
 72
    65
 73
     6
 40
12.7
 49
6.35
 74
     0
 49
-1.27
 74
     0
 49
1.27
 74
     0
 49
-1.27
 74
     0
 49
1.27
 74
     0
 49
-1.27
 74
     0
  0
LTYPE
  5
70
330
5
100
AcDbSymbolTableRecord
100
AcDbLinetypeTableRecord
  2
CENTER
 70
     0
  3
Center ____ _ ____ _ ____ _ ____ _ ____ _ ____
 72
    65
 73
     4
 40
10.16
 49
6.35
 74
     0
 49
-1.27
 74
     0
 49
1.27
 74
     0
 49
-1.27
 74
     0
  0
LTYPE
  5
71
330
5
100
AcDbSymbolTableRecord
100
AcDbLinetypeTableRecord
  2
CENTERX2
 70
     0
  3
Center (2x) ________  __  ________  __  _____
 72
    65
 73
     4
 40
20.32
 49
12.7
 74
     0
 49
-2.54
 74
     0
 49
2.54
 74
     0
 49
-2.54
 74
     0
  0
LTYPE
  5
72
330
5
100
AcDbSymbolTableRecord
100
AcDbLinetypeTableRecord
  2
DOT2
 70
     0
  3
Dot (.5x) ........................................
 72
    65
 73
     2
 40
0.635
 49
0.0
 74
     0
 49
-0.635
 74
     0
  0
ENDTAB
  0
TABLE
  2
LAYER
  5
2
330
0
100
AcDbSymbolTable
 70
     1
  0
LAYER
  5
10
330
2
100
AcDbSymbolTableRecord
100
AcDbLayerTableRecord
  2
0
 70
     0
 62
     7
  6
Continuous
370
    -3
390
F
  0
ENDTAB
  0
TABLE
  2
STYLE
  5
3
330
0
100
AcDbSymbolTable
 70
     2
  0
STYLE
  5
11
330
3
100
AcDbSymbolTableRecord
100
AcDbTextStyleTableRecord
  2
Standard
 70
     0
 40
0.0
 41
1.0
 50
0.0
 71
     0
 42
3.5
  3
txt
  4
bigfont
  0
STYLE
  5
73
330
3
100
AcDbSymbolTableRecord
100
AcDbTextStyleTableRecord
  2
SLDTEXTSTYLE0
 70
     0
 40
0.0
 41
0.7
 50
0.0
 71
     0
 42
3.5
  3
TXT
  4
bigfont
  0
ENDTAB
  0
TABLE
  2
VIEW
  5
6
330
0
100
AcDbSymbolTable
 70
     0
  0
ENDTAB
  0
TABLE
  2
UCS
  5
7
330
0
100
AcDbSymbolTable
 70
     0
  0
ENDTAB
  0
TABLE
  2
APPID
  5
9
330
0
100
AcDbSymbolTable
 70
     1
  0
APPID
  5
12
330
9
100
AcDbSymbolTableRecord
100
AcDbRegAppTableRecord
  2
ACAD
 70
     0
  0
ENDTAB
  0
TABLE
  2
DIMSTYLE
  5
A
330
0
100
AcDbSymbolTable
 70
     1
100
AcDbDimStyleTable
  0
DIMSTYLE
105
27
330
A
100
AcDbSymbolTableRecord
100
AcDbDimStyleTableRecord
  2
ISO-25
 70
     0
 41
2.5
 42
0.625
 43
3.75
 44
1.25
 73
     0
 74
     0
 77
     1
 78
     8
140
2.5
141
2.5
143
0.0393700787
147
0.625
171
     3
172
     1
178
     0
271
     2
272
     2
274
     3
278
    44
283
     0
284
     8
340
11
  0
ENDTAB
  0
TABLE
  2
BLOCK_RECORD
  5
1
330
0
100
AcDbSymbolTable
 70
     3
  0
BLOCK_RECORD
  5
1F
330
1
100
AcDbSymbolTableRecord
100
AcDbBlockTableRecord
  2
*Model_Space
340
22
  0
BLOCK_RECORD
  5
1B
330
1
100
AcDbSymbolTableRecord
100
AcDbBlockTableRecord
  2
*Paper_Space
340
1E
  0
BLOCK_RECORD
  5
23
330
1
100
AcDbSymbolTableRecord
100
AcDbBlockTableRecord
  2
*Paper_Space0
340
26
  0
BLOCK_RECORD
  5
EF
330
1
100
AcDbSymbolTableRecord
100
AcDbBlockTableRecord
  2
SW_CENTERMARKSYMBOL_0
340
0
102
{BLKREFS
331
FA
102
}
  0
BLOCK_RECORD
  5
FB
330
1
100
AcDbSymbolTableRecord
100
AcDbBlockTableRecord
  2
SW_CENTERMARKSYMBOL_1
340
0
102
{BLKREFS
331
106
102
}
  0
ENDTAB
  0
ENDSEC
  0
SECTION
  2
BLOCKS
  0
BLOCK
  5
20
330
1F
100
AcDbEntity
  8
0
100
AcDbBlockBegin
  2
*Model_Space
 70
     0
 10
0.0
 20
0.0
 30
0.0
  3
*Model_Space
  1

  0
ENDBLK
  5
21
330
1F
100
AcDbEntity
  8
0
100
AcDbBlockEnd
  0
BLOCK
  5
1C
330
1B
100
AcDbEntity
 67
     1
  8
0
100
AcDbBlockBegin
  2
*Paper_Space
 70
     0
 10
0.0
 20
0.0
 30
0.0
  3
*Paper_Space
  1

  0
ENDBLK
  5
1D
330
1B
100
AcDbEntity
 67
     1
  8
0
100
AcDbBlockEnd
  0
BLOCK
  5
24
330
23
100
AcDbEntity
  8
0
100
AcDbBlockBegin
  2
*Paper_Space0
 70
     0
 10
0.0
 20
0.0
 30
0.0
  3
*Paper_Space0
  1

  0
ENDBLK
  5
25
330
23
100
AcDbEntity
  8
0
100
AcDbBlockEnd
  0
BLOCK
  5
F0
330
EF
100
AcDbEntity
  8
0
100
AcDbBlockBegin
  2
SW_CENTERMARKSYMBOL_0
 70
     0
 10
0.0
 20
0.0
 30
0.0
  3
SW_CENTERMARKSYMBOL_0
  1

  0
LINE
  5
F2
330
EF
100
AcDbEntity
  8
0
  6
Continuous
 62
     0
370
    18
100
AcDbLine
 10
0.0
 20
0.0
 30
0.0
 11
0.0
 21
2.5
 31
0.0
  0
LINE
  5
F3
330
EF
100
AcDbEntity
  8
0
  6
Continuous
 62
     0
370
    18
100
AcDbLine
 10
0.0
 20
0.0
 30
0.0
 11
-2.5
 21
0.0
 31
0.0
  0
LINE
  5
F4
330
EF
100
AcDbEntity
  8
0
  6
Continuous
 62
     0
370
    18
100
AcDbLine
 10
0.0
 20
0.0
 30
0.0
 11
0.0
 21
-2.5
 31
0.0
  0
LINE
  5
F5
330
EF
100
AcDbEntity
  8
0
  6
Continuous
 62
     0
370
    18
100
AcDbLine
 10
0.0
 20
0.0
 30
0.0
 11
2.5
 21
0.0
 31
0.0
  0
LINE
  5
F6
330
EF
100
AcDbEntity
  8
0
  6
Continuous
 62
     0
370
    18
100
AcDbLine
 10
0.0
 20
5.0
 30
0.0
 11
0.0
 21
23.75
 31
0.0
  0
LINE
  5
F7
330
EF
100
AcDbEntity
  8
0
  6
Continuous
 62
     0
370
    18
100
AcDbLine
 10
-5.0
 20
0.0
 30
0.0
 11
-23.75
 21
0.0
 31
0.0
  0
LINE
  5
F8
330
EF
100
AcDbEntity
  8
0
  6
Continuous
 62
     0
370
    18
100
AcDbLine
 10
0.0
 20
-5.0
 30
0.0
 11
0.0
 21
-23.75
 31
0.0
  0
LINE
  5
F9
330
EF
100
AcDbEntity
  8
0
  6
Continuous
 62
     0
370
    18
100
AcDbLine
 10
5.0
 20
0.0
 30
0.0
 11
23.75
 21
0.0
 31
0.0
  0
ENDBLK
  5
F1
330
EF
100
AcDbEntity
  8
0
100
AcDbBlockEnd
  0
BLOCK
  5
FC
330
FB
100
AcDbEntity
  8
0
100
AcDbBlockBegin
  2
SW_CENTERMARKSYMBOL_1
 70
     0
 10
0.0
 20
0.0
 30
0.0
  3
SW_CENTERMARKSYMBOL_1
  1

  0
LINE
  5
FE
330
FB
100
AcDbEntity
  8
0
  6
Continuous
 62
     0
370
    18
100
AcDbLine
 10
0.0
 20
0.0
 30
0.0
 11
0.0
 21
2.5
 31
0.0
  0
LINE
  5
FF
330
FB
100
AcDbEntity
  8
0
  6
Continuous
 62
     0
370
    18
100
AcDbLine
 10
0.0
 20
0.0
 30
0.0
 11
-2.5
 21
0.0
 31
0.0
  0
LINE
  5
100
330
FB
100
AcDbEntity
  8
0
  6
Continuous
 62
     0
370
    18
100
AcDbLine
 10
0.0
 20
0.0
 30
0.0
 11
0.0
 21
-2.5
 31
0.0
  0
LINE
  5
101
330
FB
100
AcDbEntity
  8
0
  6
Continuous
 62
     0
370
    18
100
AcDbLine
 10
0.0
 20
0.0
 30
0.0
 11
2.5
 21
0.0
 31
0.0
  0
LINE
  5
102
330
FB
100
AcDbEntity
  8
0
  6
Continuous
 62
     0
370
    18
100
AcDbLine
 10
0.0
 20
5.0
 30
0.0
 11
0.0
 21
33.75
 31
0.0
  0
LINE
  5
103
330
FB
100
AcDbEntity
  8
0
  6
Continuous
 62
     0
370
    18
100
AcDbLine
 10
-5.0
 20
0.0
 30
0.0
 11
-33.75
 21
0.0
 31
0.0
  0
LINE
  5
104
330
FB
100
AcDbEntity
  8
0
  6
Continuous
 62
     0
370
    18
100
AcDbLine
 10
0.0
 20
-5.0
 30
0.0
 11
0.0
 21
-33.75
 31
0.0
  0
LINE
  5
105
330
FB
100
AcDbEntity
  8
0
  6
Continuous
 62
     0
370
    18
100
AcDbLine
 10
5.0
 20
0.0
 30
0.0
 11
33.75
 21
0.0
 31
0.0
  0
ENDBLK
  5
FD
330
FB
100
AcDbEntity
  8
0
100
AcDbBlockEnd
  0
ENDSEC
  0
SECTION
  2
ENTITIES
  0
MTEXT
  5
74
330
1F
100
AcDbEntity
  8
0
  6
Continuous
 62
     7
370
     0
100
AcDbMText
 10
233.2987307082
 20
138.9547914307
 30
0.0
 40
4.7625
 41
0.0
 71
     1
 72
     1
  1
メガニップル　HN-8052
  7
SLDTEXTSTYLE0
 73
     1
 44
1.0
  0
LINE
  5
75
330
1F
100
AcDbEntity
  8
0
  6
Continuous
 62
     7
370
    25
100
AcDbLine
 10
159.1732273768
 20
120.4481253693
 30
0.0
 11
159.0288898095
 21
120.1981253693
 31
0.0
  0
LINE
  5
76
330
1F
100
AcDbEntity
  8
0
  6
Continuous
 62
     7
370
    25
100
AcDbLine
 10
159.0288898095
 20
57.6981253693
 30
0.0
 11
159.1732273768
 21
57.4481253693
 31
0.0
  0
LINE
  5
77
330
1F
100
AcDbEntity
  8
0
  6
Continuous
 62
     7
370
    25
100
AcDbLine
 10
172.8845522422
 20
57.4481253693
 30
0.0
 11
173.0288898095
 21
57.6981253693
 31
0.0
  0
LINE
  5
78
330
1F
100
AcDbEntity
  8
0
  6
Continuous
 62
     7
370
    25
100
AcDbLine
 10
173.0288898095
 20
120.1981253693
 30
0.0
 11
172.8845522422
 21
120.4481253693
 31
0.0
  0
LINE
  5
79
330
1F
100
AcDbEntity
  8
0
  6
Continuous
 62
     7
370
    25
100
AcDbLine
 10
159.0288898095
 20
119.0401253693
 30
0.0
 11
136.0279139616
 21
118.3213448741
 31
0.0
  0
LINE
  5
7A
330
1F
100
AcDbEntity
  8
0
  6
Continuous
 62
     7
370
    25
100
AcDbLine
 10
136.0279139616
 20
59.5749058646
 30
0.0
 11
159.0288898095
 21
58.8561253693
 31
0.0
  0
LINE
  5
7B
330
1F
100
AcDbEntity
  8
0
  6
Continuous
 62
     7
370
    25
100
AcDbLine
 10
136.0279139616
 20
118.3213448741
 30
0.0
 11
134.0288898095
 21
116.1933514218
 31
0.0
  0
LINE
  5
7C
330
1F
100
AcDbEntity
  8
0
  6
Continuous
 62
     7
370
    25
100
AcDbLine
 10
134.0288898095
 20
61.7028993169
 30
0.0
 11
136.0279139616
 21
59.5749058646
 31
0.0
  0
LINE
  5
7D
330
1F
100
AcDbEntity
  8
0
  6
Continuous
 62
     7
370
    25
100
AcDbLine
 10
185.0288898095
 20
115.1981253693
 30
0.0
 11
173.0288898095
 21
115.1981253693
 31
0.0
  0
LINE
  5
7E
330
1F
100
AcDbEntity
  8
0
  6
Continuous
 62
     7
370
    25
100
AcDbLine
 10
173.0288898095
 20
62.6981253693
 30
0.0
 11
185.0288898095
 21
62.6981253693
 31
0.0
  0
LINE
  5
7F
330
1F
100
AcDbEntity
  8
0
  6
Continuous
 62
     7
370
    25
100
AcDbLine
 10
205.0288898095
 20
62.6981253693
 30
0.0
 11
215.0288898095
 21
63.9481253693
 31
0.0
  0
LINE
  5
80
330
1F
100
AcDbEntity
  8
0
  6
Continuous
 62
     7
370
    25
100
AcDbLine
 10
215.0288898095
 20
113.9481253693
 30
0.0
 11
205.0288898095
 21
115.1981253693
 31
0.0
  0
LINE
  5
81
330
1F
100
AcDbEntity
  8
0
  6
Continuous
 62
     7
370
    25
100
AcDbLine
 10
195.0288898095
 20
62.6981253693
 30
0.0
 11
205.0288898095
 21
63.9481253693
 31
0.0
  0
LINE
  5
82
330
1F
100
AcDbEntity
  8
0
  6
Continuous
 62
     7
370
    25
100
AcDbLine
 10
205.0288898095
 20
113.9481253693
 30
0.0
 11
195.0288898095
 21
115.1981253693
 31
0.0
  0
LINE
  5
83
330
1F
100
AcDbEntity
  8
0
  6
Continuous
 62
     7
370
    25
100
AcDbLine
 10
215.0288898095
 20
62.6981253693
 30
0.0
 11
225.0288898095
 21
63.9481253693
 31
0.0
  0
LINE
  5
84
330
1F
100
AcDbEntity
  8
0
  6
Continuous
 62
     7
370
    25
100
AcDbLine
 10
225.0288898095
 20
113.9481253693
 30
0.0
 11
215.0288898095
 21
115.1981253693
 31
0.0
  0
LINE
  5
85
330
1F
100
AcDbEntity
  8
0
  6
Continuous
 62
     7
370
    25
100
AcDbLine
 10
185.0288898095
 20
62.6981253693
 30
0.0
 11
195.0288898095
 21
63.9481253693
 31
0.0
  0
LINE
  5
86
330
1F
100
AcDbEntity
  8
0
  6
Continuous
 62
     7
370
    25
100
AcDbLine
 10
195.0288898095
 20
113.9481253693
 30
0.0
 11
185.0288898095
 21
115.1981253693
 31
0.0
  0
LINE
  5
87
330
1F
100
AcDbEntity
  8
0
  6
Continuous
 62
     7
370
    25
100
AcDbLine
 10
225.0288898095
 20
62.6981253693
 30
0.0
 11
235.1417994975
 21
63.8473196521
 31
0.0
  0
LINE
  5
88
330
1F
100
AcDbEntity
  8
0
  6
Continuous
 62
     7
370
    25
100
AcDbLine
 10
235.1417994975
 20
114.0489310866
 30
0.0
 11
225.0288898095
 21
115.1981253693
 31
0.0
  0
ARC
  5
89
330
1F
100
AcDbEntity
  8
0
  6
Continuous
 62
     7
370
    25
100
AcDbCircle
 10
235.0288898095
 20
113.0553258318
 30
0.0
 40
1.000000000000008
100
AcDbArc
 50
0.0
 51
83.5169263071
  0
ARC
  5
8A
330
1F
100
AcDbEntity
  8
0
  6
Continuous
 62
     7
370
    25
100
AcDbCircle
 10
235.0288898095
 20
64.8409249069
 30
0.0
 40
1.000000000000001
100
AcDbArc
 50
276.4830736929
 51
0.0
  0
LINE
  5
8B
330
1F
100
AcDbEntity
  8
0
  6
Continuous
 62
     7
370
    25
100
AcDbLine
 10
171.4763953932
 20
101.5816390217
 30
0.0
 11
160.5813842258
 21
101.5816390217
 31
0.0
  0
SPLINE
  5
8C
330
1F
100
AcDbEntity
  8
0
  6
Continuous
 62
     7
370
    25
100
AcDbSpline
210
0.0
220
0.0
230
1.0
 70
     8
 71
     3
 72
    10
 73
     6
 74
     0
 42
0.000000001
 43
0.00000001
 40
0.0
 40
0.0
 40
0.0
 40
0.0
 40
0.5
 40
0.5
 40
1.0
 40
1.0
 40
1.0
 40
1.0
 10
160.5813842257555
 20
101.5816390217227
 30
0.0
 10
160.6093186729773
 20
101.7116187386573
 30
0.0
 10
160.6240651923899
 20
101.8427107460731
 30
0.0
 10
160.6241082133684
 20
102.0853940293044
 30
0.0
 10
160.6093260138366
 20
102.196812110864
 30
0.0
 10
160.5813842257589
 20
102.2887458029096
 30
0.0
  0
LINE
  5
8D
330
1F
100
AcDbEntity
  8
0
  6
Continuous
 62
     7
370
    25
100
AcDbLine
 10
160.5813842258
 20
102.2887458029
 30
0.0
 11
171.4763953932
 21
102.2887458029
 31
0.0
  0
SPLINE
  5
8E
330
1F
100
AcDbEntity
  8
0
  6
Continuous
 62
     7
370
    25
100
AcDbSpline
210
0.0
220
0.0
230
1.0
 70
     8
 71
     3
 72
    10
 73
     6
 74
     0
 42
0.000000001
 43
0.00000001
 40
0.0
 40
0.0
 40
0.0
 40
0.0
 40
0.5
 40
0.5
 40
1.0
 40
1.0
 40
1.0
 40
1.0
 10
171.476395393192
 20
102.2887458029092
 30
0.0
 10
171.4484609459698
 20
102.1968362636469
 30
0.0
 10
171.4337144265577
 20
102.0859047501723
 30
0.0
 10
171.4336714055787
 20
101.8432802254148
 30
0.0
 10
171.4484536051104
 20
101.711652895854
 30
0.0
 10
171.4763953931885
 20
101.5816390217223
 30
0.0
  0
SPLINE
  5
8F
330
1F
100
AcDbEntity
  8
0
  6
Continuous
 62
     7
370
    25
100
AcDbSpline
210
0.0
220
0.0
230
1.0
 70
     8
 71
     3
 72
    18
 73
    14
 74
     0
 42
0.000000001
 43
0.00000001
 40
0.0
 40
0.0
 40
0.0
 40
0.0
 40
0.125
 40
0.125
 40
0.2500000000000001
 40
0.2500000000000001
 40
0.5
 40
0.5
 40
0.7499999999999999
 40
0.7499999999999999
 40
0.875
 40
0.875
 40
1.0
 40
1.0
 40
1.0
 40
1.0
 10
171.4763953931885
 20
76.31461171696392
 30
0.0
 10
171.6998345141678
 20
77.35427981801419
 30
0.0
 10
171.9015803020337
 20
78.4041818586265
 30
0.0
 10
172.2521092519992
 20
80.50854263351435
 30
0.0
 10
172.4007160688047
 20
81.56133084501126
 30
0.0
 10
172.7603738192882
 20
84.72166008423727
 30
0.0
 10
172.8843743316334
 20
86.83118595773023
 30
0.0
 10
172.8847297665301
 20
91.05588429771721
 30
0.0
 10
172.7610473748924
 20
93.17105761501595
 30
0.0
 10
172.3991092491011
 20
96.34784003730876
 30
0.0
 10
172.2489000492413
 20
97.40880508144448
 30
0.0
 10
171.8987115420857
 20
99.5074281765625
 30
0.0
 10
171.6984883598879
 20
100.5482346119085
 30
0.0
 10
171.4763953931887
 20
101.5816390217216
 30
0.0
  0
LINE
  5
90
330
1F
100
AcDbEntity
  8
0
  6
Continuous
 62
     7
370
    25
100
AcDbLine
 10
160.5813842258
 20
76.314611717
 30
0.0
 11
171.4763953932
 21
76.314611717
 31
0.0
  0
SPLINE
  5
91
330
1F
100
AcDbEntity
  8
0
  6
Continuous
 62
     7
370
    25
100
AcDbSpline
210
0.0
220
0.0
230
1.0
 70
     8
 71
     3
 72
    18
 73
    14
 74
     0
 42
0.000000001
 43
0.00000001
 40
0.0
 40
0.0
 40
0.0
 40
0.0
 40
0.125
 40
0.125
 40
0.2499999999999999
 40
0.2499999999999999
 40
0.5
 40
0.5
 40
0.75
 40
0.75
 40
0.875
 40
0.875
 40
1.0
 40
1.0
 40
1.0
 40
1.0
 10
160.5813842257589
 20
76.31461171696385
 30
0.0
 10
160.3579451047795
 20
77.35427981801452
 30
0.0
 10
160.1561993169135
 20
78.40418185862721
 30
0.0
 10
159.8056703669479
 20
80.50854263351584
 30
0.0
 10
159.6570635501425
 20
81.56133084501313
 30
0.0
 10
159.2974057996589
 20
84.72166008424031
 30
0.0
 10
159.1734052873138
 20
86.83118595773406
 30
0.0
 10
159.1730498524174
 20
91.0558842977226
 30
0.0
 10
159.2967322440554
 20
93.17105761502215
 30
0.0
 10
159.6586703698473
 20
96.34784003731613
 30
0.0
 10
159.8088795697072
 20
97.40880508145221
 30
0.0
 10
160.1590680768632
 20
99.50742817657093
 30
0.0
 10
160.3592912590612
 20
100.5482346119173
 30
0.0
 10
160.5813842257606
 20
101.5816390217307
 30
0.0
  0
LINE
  5
92
330
1F
100
AcDbEntity
  8
0
  6
Continuous
 62
     7
370
    25
100
AcDbLine
 10
166.1254442967
 20
86.8132050964
 30
0.0
 11
168.4070949377
 21
85.3208172758
 31
0.0
  0
SPLINE
  5
93
330
1F
100
AcDbEntity
  8
0
  6
Continuous
 62
     7
370
    25
100
AcDbSpline
210
0.0
220
0.0
230
1.0
 70
     8
 71
     3
 72
    19
 73
    15
 74
     0
 42
0.000000001
 43
0.00000001
 40
0.0
 40
0.0
 40
0.0
 40
0.0
 40
0.0978059775289526
 40
0.1996122522918969
 40
0.3052960258330044
 40
0.4158173591641856
 40
0.4742405666184932
 40
0.5372869128296536
 40
0.6033858352934856
 40
0.6743111580696058
 40
0.7495304673574821
 40
0.828608314269512
 40
0.9120427387714451
 40
1.0
 40
1.0
 40
1.0
 40
1.0
 10
164.6731205787044
 20
87.37209932712679
 30
0.0
 10
164.7245940919155
 20
87.37028725812513
 30
0.0
 10
164.8296464022654
 20
87.3665890058928
 30
0.0
 10
164.9892113158067
 20
87.3445182626495
 30
0.0
 10
165.1518406930811
 20
87.30403782298603
 30
0.0
 10
165.2897059119011
 20
87.26022913975422
 30
0.0
 10
165.4038832912518
 20
87.21675770160411
 30
0.0
 10
165.4940461516087
 20
87.17644998388168
 30
0.0
 10
165.5892610271996
 20
87.13138104408345
 30
0.0
 10
165.6877263588849
 20
87.07855397035271
 30
0.0
 10
165.7922555144613
 20
87.02255300902038
 30
0.0
 10
165.8989774601836
 20
86.95713753119257
 30
0.0
 10
166.011790011049
 20
86.88887547492477
 30
0.0
 10
166.0868988550547
 20
86.83886843269627
 30
0.0
 10
166.1254442966532
 20
86.81320509635756
 30
0.0
  0
SPLINE
  5
94
330
1F
100
AcDbEntity
  8
0
  6
Continuous
 62
     7
370
    25
100
AcDbSpline
210
0.0
220
0.0
230
1.0
 70
     8
 71
     3
 72
    19
 73
    15
 74
     0
 42
0.000000001
 43
0.00000001
 40
0.0
 40
0.0
 40
0.0
 40
0.0
 40
0.0843261511037433
 40
0.1670353409858405
 40
0.2495407139852792
 40
0.332706665579664
 40
0.415872617174049
 40
0.4977774155681172
 40
0.5803136056784763
 40
0.6645325781316561
 40
0.7495711764063213
 40
0.8324741628544073
 40
0.9156738488962567
 40
1.0
 40
1.0
 40
1.0
 40
1.0
 10
163.1506846812686
 20
85.85767625020371
 30
0.0
 10
163.1528678268191
 20
85.92495726410951
 30
0.0
 10
163.1571922559158
 20
86.05822917267558
 30
0.0
 10
163.1957151049253
 20
86.25427583183675
 30
0.0
 10
163.2581535179725
 20
86.44265228923119
 30
0.0
 10
163.3441750647976
 20
86.62203441491596
 30
0.0
 10
163.4528249095693
 20
86.78821677818878
 30
0.0
 10
163.5836439208631
 20
86.93684488960062
 30
0.0
 10
163.7337408483611
 20
87.06740164073912
 30
0.0
 10
163.9035761344984
 20
87.17547953187218
 30
0.0
 10
164.0848999386244
 20
87.26356330648517
 30
0.0
 10
164.2756919677732
 20
87.32569006647493
 30
0.0
 10
164.4721124566481
 20
87.36586760432621
 30
0.0
 10
164.6058181865676
 20
87.3700127952627
 30
0.0
 10
164.6731205787044
 20
87.37209932712679
 30
0.0
  0
SPLINE
  5
95
330
1F
100
AcDbEntity
  8
0
  6
Continuous
 62
     7
370
    25
100
AcDbSpline
210
0.0
220
0.0
230
1.0
 70
     8
 71
     3
 72
    19
 73
    15
 74
     0
 42
0.000000001
 43
0.00000001
 40
0.0
 40
0.0
 40
0.0
 40
0.0
 40
0.0859901205637197
 40
0.1691084375726415
 40
0.2505285789581879
 40
0.332255696176845
 40
0.4135763652356402
 40
0.4941261456201217
 40
0.576305934120417
 40
0.6607126719045471
 40
0.7461272722239101
 40
0.8300149859609741
 40
0.914419725928851
 40
1.0
 40
1.0
 40
1.0
 40
1.0
 10
164.6821350017814
 20
84.29517625020372
 30
0.0
 10
164.6122055908276
 20
84.29778557688084
 30
0.0
 10
164.474682194544
 20
84.30291708681001
 30
0.0
 10
164.2735430307382
 20
84.3402722995876
 30
0.0
 10
164.0834600466687
 20
84.40473905057483
 30
0.0
 10
163.9036862475921
 20
84.49098783284265
 30
0.0
 10
163.7394521627064
 20
84.60288884601822
 30
0.0
 10
163.5910285892721
 20
84.73549769886988
 30
0.0
 10
163.4616556412674
 20
84.89006791578477
 30
0.0
 10
163.3506719784083
 20
85.0629392399053
 30
0.0
 10
163.2624955980159
 20
85.25003969922872
 30
0.0
 10
163.1973050002124
 20
85.44622065098156
 30
0.0
 10
163.1583519612794
 20
85.64980524625393
 30
0.0
 10
163.1532521971059
 20
85.7880671979689
 30
0.0
 10
163.1506846812686
 20
85.85767625020371
 30
0.0
  0
SPLINE
  5
96
330
1F
100
AcDbEntity
  8
0
  6
Continuous
 62
     7
370
    25
100
AcDbSpline
210
0.0
220
0.0
230
1.0
 70
     8
 71
     3
 72
    23
 73
    19
 74
     0
 42
0.000000001
 43
0.00000001
 40
0.0
 40
0.0
 40
0.0
 40
0.0
 40
0.0652308037420295
 40
0.128404896003223
 40
0.1900670715964783
 40
0.2509433657682803
 40
0.3115458328521435
 40
0.3728628021568291
 40
0.4350236738562385
 40
0.4990717247070431
 40
0.5630910750496624
 40
0.625510106330375
 40
0.6866800359296493
 40
0.7472825030135126
 40
0.8085634952159588
 40
0.8707421035159857
 40
0.9343409515059125
 40
1.0
 40
1.0
 40
1.0
 40
1.0
 10
166.1635051940891
 20
85.77854964763962
 30
0.0
 10
166.162139320238
 20
85.72773179573224
 30
0.0
 10
166.1594506382083
 20
85.62769836650945
 30
0.0
 10
166.1387594229342
 20
85.48083150626088
 30
0.0
 10
166.1061521201862
 20
85.33970445487064
 30
0.0
 10
166.0586203259745
 20
85.20490215164862
 30
0.0
 10
165.9979026768855
 20
85.0759407489921
 30
0.0
 10
165.9251328621991
 20
84.95208018312276
 30
0.0
 10
165.8365533188323
 20
84.83564874011388
 30
0.0
 10
165.7376033819982
 20
84.72514705552544
 30
0.0
 10
165.6280076898622
 20
84.62482263067838
 30
0.0
 10
165.5117200659965
 20
84.53599969416764
 30
0.0
 10
165.3888616645704
 20
84.46138999169033
 30
0.0
 10
165.2594947132371
 20
84.4008558179552
 30
0.0
 10
165.1238186281506
 20
84.35384884852967
 30
0.0
 10
164.9820070003101
 20
84.31958078418165
 30
0.0
 10
164.8339620410813
 20
84.29932422301046
 30
0.0
 10
164.7332789335582
 20
84.29657352198888
 30
0.0
 10
164.6821350017814
 20
84.29517625020372
 30
0.0
  0
SPLINE
  5
97
330
1F
100
AcDbEntity
  8
0
  6
Continuous
 62
     7
370
    25
100
AcDbSpline
210
0.0
220
0.0
230
1.0
 70
     8
 71
     3
 72
     9
 73
     5
 74
     0
 42
0.000000001
 43
0.00000001
 40
0.0
 40
0.0
 40
0.0
 40
0.0
 40
0.5126593363417813
 40
1.0
 40
1.0
 40
1.0
 40
1.0
 10
166.1154282710121
 20
86.29637817328064
 30
0.0
 10
166.1294480719459
 20
86.20842063473303
 30
0.0
 10
166.1567952788333
 20
86.03684951076742
 30
0.0
 10
166.1613066294739
 20
85.86318394144688
 30
0.0
 10
166.1635051940891
 20
85.77854964763962
 30
0.0
  0
LINE
  5
98
330
1F
100
AcDbEntity
  8
0
  6
Continuous
 62
     7
370
    25
100
AcDbLine
 10
168.1356606428
 20
84.9752643912
 30
0.0
 11
166.115428271
 21
86.2963781733
 31
0.0
  0
LINE
  5
99
330
1F
100
AcDbEntity
  8
0
  6
Continuous
 62
     7
370
    25
100
AcDbLine
 10
168.4070949377
 20
85.3208172758
 30
0.0
 11
168.1356606428
 21
84.9752643912
 31
0.0
  0
LINE
  5
9A
330
1F
100
AcDbEntity
  8
0
  6
Continuous
 62
     7
370
    25
100
AcDbLine
 10
167.7660692967
 20
89.8965214792
 30
0.0
 11
168.2788898095
 21
89.6030519279
 31
0.0
  0
LINE
  5
9B
330
1F
100
AcDbEntity
  8
0
  6
Continuous
 62
     7
370
    25
100
AcDbLine
 10
167.7660692967
 20
89.12729071
 30
0.0
 11
167.7660692967
 21
89.8965214792
 31
0.0
  0
LINE
  5
9C
330
1F
100
AcDbEntity
  8
0
  6
Continuous
 62
     7
370
    25
100
AcDbLine
 10
163.2788898095
 20
89.12729071
 30
0.0
 11
167.7660692967
 21
89.12729071
 31
0.0
  0
LINE
  5
9D
330
1F
100
AcDbEntity
  8
0
  6
Continuous
 62
     7
370
    25
100
AcDbLine
 10
163.2788898095
 20
88.6785727613
 30
0.0
 11
163.2788898095
 21
89.12729071
 31
0.0
  0
LINE
  5
9E
330
1F
100
AcDbEntity
  8
0
  6
Continuous
 62
     7
370
    25
100
AcDbLine
 10
168.2788898095
 20
88.6785727613
 30
0.0
 11
163.2788898095
 21
88.6785727613
 31
0.0
  0
LINE
  5
9F
330
1F
100
AcDbEntity
  8
0
  6
Continuous
 62
     7
370
    25
100
AcDbLine
 10
168.2788898095
 20
89.6030519279
 30
0.0
 11
168.2788898095
 21
88.6785727613
 31
0.0
  0
SPLINE
  5
A0
330
1F
100
AcDbEntity
  8
0
  6
Continuous
 62
     7
370
    25
100
AcDbSpline
210
0.0
220
0.0
230
1.0
 70
     8
 71
     3
 72
    19
 73
    15
 74
     0
 42
0.000000001
 43
0.00000001
 40
0.0
 40
0.0
 40
0.0
 40
0.0
 40
0.1227280999764558
 40
0.2397165235883927
 40
0.3518621792202467
 40
0.4632019818032245
 40
0.5202611541541641
 40
0.5794324380306668
 40
0.6405963441586368
 40
0.7052982290880196
 40
0.773236105908453
 40
0.8446489293403163
 40
0.9200459817773702
 40
1.0
 40
1.0
 40
1.0
 40
1.0
 10
167.8942744248583
 20
92.8929660267174
 30
0.0
 10
167.8922906203657
 20
92.94989886233495
 30
0.0
 10
167.8884157887946
 20
93.06110193184296
 30
0.0
 10
167.8543577658608
 20
93.22138274386705
 30
0.0
 10
167.8003963394222
 20
93.37023164063055
 30
0.0
 10
167.7352380770448
 20
93.48362447422481
 30
0.0
 10
167.6711398025022
 20
93.56749982353028
 30
0.0
 10
167.615996057012
 20
93.62858549681316
 30
0.0
 10
167.5534743440947
 20
93.68747834322124
 30
0.0
 10
167.4818597635288
 20
93.74186735405173
 30
0.0
 10
167.4036148508865
 20
93.79501163400793
 30
0.0
 10
167.3183086623231
 20
93.8464037346555
 30
0.0
 10
167.2247249868903
 20
93.89439294053183
 30
0.0
 10
167.158914248967
 20
93.92360475589953
 30
0.0
 10
167.1250436556275
 20
93.93863910364047
 30
0.0
  0
SPLINE
  5
A1
330
1F
100
AcDbEntity
  8
0
  6
Continuous
 62
     7
370
    25
100
AcDbSpline
210
0.0
220
0.0
230
1.0
 70
     8
 71
     3
 72
    23
 73
    19
 74
     0
 42
0.000000001
 43
0.00000001
 40
0.0
 40
0.0
 40
0.0
 40
0.0
 40
0.0552698294993251
 40
0.109956704485094
 40
0.1632335040550557
 40
0.2180575651623566
 40
0.2732775387226745
 40
0.3308810454954967
 40
0.3904799376860885
 40
0.4536559730386414
 40
0.5189026226022311
 40
0.5833461108214764
 40
0.648546693081443
 40
0.7150552190344909
 40
0.7825206438000536
 40
0.8523352944264507
 40
0.9249348997257083
 40
1.0
 40
1.0
 40
1.0
 40
1.0
 10
167.110019617166
 20
91.88735705235842
 30
0.0
 10
167.1361307444273
 20
91.88794899909679
 30
0.0
 10
167.188077593731
 20
91.88912664905828
 30
0.0
 10
167.2639696279156
 20
91.90398091435111
 30
0.0
 10
167.3375458461489
 20
91.92629719773008
 30
0.0
 10
167.4084724032711
 20
91.95699698747
 30
0.0
 10
167.4763376085525
 20
91.99801322173678
 30
0.0
 10
167.5412247193091
 20
92.04724636660649
 30
0.0
 10
167.6042211763202
 20
92.10472018455754
 30
0.0
 10
167.6623131519989
 20
92.17193675242204
 30
0.0
 10
167.7171087609735
 20
92.24470585593195
 30
0.0
 10
167.7644775265635
 20
92.32371220654508
 30
0.0
 10
167.8046272606217
 20
92.40721322275736
 30
0.0
 10
167.8377994998552
 20
92.49528568969504
 30
0.0
 10
167.8627369877512
 20
92.58828242280754
 30
0.0
 10
167.8806465519303
 20
92.68574806014338
 30
0.0
 10
167.8918428622426
 20
92.78787356540523
 30
0.0
 10
167.8934549319715
 20
92.8575474345966
 30
0.0
 10
167.8942744248583
 20
92.8929660267174
 30
0.0
  0
SPLINE
  5
A2
330
1F
100
AcDbEntity
  8
0
  6
Continuous
 62
     7
370
    25
100
AcDbSpline
210
0.0
220
0.0
230
1.0
 70
     8
 71
     3
 72
    19
 73
    15
 74
     0
 42
0.000000001
 43
0.00000001
 40
0.0
 40
0.0
 40
0.0
 40
0.0
 40
0.1101423815503169
 40
0.2157418685830273
 40
0.3179605426392306
 40
0.4180517606815226
 40
0.5115631470355316
 40
0.5965727584443461
 40
0.6733290469034968
 40
0.7440491927238596
 40
0.8107168223002834
 40
0.8740854521098848
 40
0.93670961689667
 40
1.0
 40
1.0
 40
1.0
 40
1.0
 10
166.2917103222942
 20
93.16940833440971
 30
0.0
 10
166.2927646188562
 20
93.10755123596914
 30
0.0
 10
166.2948297268294
 20
92.98638837554385
 30
0.0
 10
166.3196338838647
 20
92.80937244394846
 30
0.0
 10
166.3543316365976
 20
92.63990061184303
 30
0.0
 10
166.4062522087359
 20
92.48184126492701
 30
0.0
 10
166.4685717144026
 20
92.33824553793282
 30
0.0
 10
166.5388415081446
 20
92.2129807534228
 30
0.0
 10
166.618454031614
 20
92.10901563778722
 30
0.0
 10
166.7063644467747
 20
92.02609044344909
 30
0.0
 10
166.8017504114131
 20
91.96522629527601
 30
0.0
 10
166.9001268359491
 20
91.91954172375792
 30
0.0
 10
167.0037826132891
 20
91.89275957691522
 30
0.0
 10
167.0744825905155
 20
91.88916423490453
 30
0.0
 10
167.110019617166
 20
91.88735705235842
 30
0.0
  0
LINE
  5
A3
330
1F
100
AcDbEntity
  8
0
  6
Continuous
 62
     7
370
    25
100
AcDbLine
 10
165.7788898095
 20
93.1694083344
 30
0.0
 11
166.2917103223
 21
93.1694083344
 31
0.0
  0
SPLINE
  5
A4
330
1F
100
AcDbEntity
  8
0
  6
Continuous
 62
     7
370
    25
100
AcDbSpline
210
0.0
220
0.0
230
1.0
 70
     8
 71
     3
 72
    23
 73
    19
 74
     0
 42
0.000000001
 43
0.00000001
 40
0.0
 40
0.0
 40
0.0
 40
0.0
 40
0.0669051223273615
 40
0.1334773340846823
 40
0.2010229080576287
 40
0.2712178684297487
 40
0.3428591616573977
 40
0.4138109980627168
 40
0.4855518488903452
 40
0.5598002749200528
 40
0.599899964903578
 40
0.6436094423977957
 40
0.6919106424505658
 40
0.7447030291556901
 40
0.8015038302285952
 40
0.8628660266331956
 40
0.9293326711591622
 40
1.0
 40
1.0
 40
1.0
 40
1.0
 10
164.7211975017814
 20
91.63094679594818
 30
0.0
 10
164.7677851813899
 20
91.6331329021649
 30
0.0
 10
164.8607287268019
 20
91.63749423683832
 30
0.0
 10
164.997467330002
 20
91.67079278892189
 30
0.0
 10
165.1292181379087
 20
91.72556032708775
 30
0.0
 10
165.2537143585889
 20
91.80224422839862
 30
0.0
 10
165.3691545853066
 20
91.89554700729136
 30
0.0
 10
165.4717526484951
 20
92.0045654981795
 30
0.0
 10
165.557262217802
 20
92.12956712314228
 30
0.0
 10
165.6161237985878
 20
92.24535666042465
 30
0.0
 10
165.6553525668067
 20
92.3481666662746
 30
0.0
 10
165.6828590446899
 20
92.4359745795483
 30
0.0
 10
165.7048472357031
 20
92.53436517390547
 30
0.0
 10
165.7261164381153
 20
92.64215729169503
 30
0.0
 10
165.7439471876756
 20
92.75980554567825
 30
0.0
 10
165.7588811393066
 20
92.88741592951172
 30
0.0
 10
165.7708118754534
 20
93.02503978182538
 30
0.0
 10
165.7761427332345
 20
93.12031268452029
 30
0.0
 10
165.7788898094737
 20
93.16940833440971
 30
0.0
  0
SPLINE
  5
A5
330
1F
100
AcDbEntity
  8
0
  6
Continuous
 62
     7
370
    25
100
AcDbSpline
210
0.0
220
0.0
230
1.0
 70
     8
 71
     3
 72
    23
 73
    19
 74
     0
 42
0.000000001
 43
0.00000001
 40
0.0
 40
0.0
 40
0.0
 40
0.0
 40
0.076061890562834
 40
0.1487324608035363
 40
0.2183745247439723
 40
0.2857225935927385
 40
0.351057694182457
 40
0.4149349157293192
 40
0.4784859417740855
 40
0.5421690352812161
 40
0.6047501165431388
 40
0.6641185017301126
 40
0.7214996756099117
 40
0.777615916385255
 40
0.8326661086975489
 40
0.8878580281135741
 40
0.9434676608977687
 40
1.0
 40
1.0
 40
1.0
 40
1.0
 10
163.6635051940891
 20
92.90398365492253
 30
0.0
 10
163.6643836277866
 20
92.85719230346989
 30
0.0
 10
163.6661013290496
 20
92.76569585505958
 30
0.0
 10
163.6819437591263
 20
92.6321977621806
 30
0.0
 10
163.7049157762126
 20
92.50515550513089
 30
0.0
 10
163.7408484774194
 20
92.38586554975872
 30
0.0
 10
163.7839556885006
 20
92.2727046525036
 30
0.0
 10
163.8403909394096
 20
92.16819889152339
 30
0.0
 10
163.9041254315289
 20
92.06927592655971
 30
0.0
 10
163.9782609039154
 20
91.97883374331204
 30
0.0
 10
164.0583933249978
 20
91.89729569274246
 30
0.0
 10
164.1434066825382
 20
91.82683780823315
 30
0.0
 10
164.2306650092146
 20
91.76581322202136
 30
0.0
 10
164.3222038654101
 20
91.71675963875131
 30
0.0
 10
164.4171253285331
 20
91.67795595202865
 30
0.0
 10
164.5157846904609
 20
91.65155596741894
 30
0.0
 10
164.6173511776338
 20
91.6331954387765
 30
0.0
 10
164.6863927020651
 20
91.63170044384006
 30
0.0
 10
164.7211975017814
 20
91.63094679594818
 30
0.0
  0
SPLINE
  5
A6
330
1F
100
AcDbEntity
  8
0
  6
Continuous
 62
     7
370
    25
100
AcDbSpline
210
0.0
220
0.0
230
1.0
 70
     8
 71
     3
 72
    15
 73
    11
 74
     0
 42
0.000000001
 43
0.00000001
 40
0.0
 40
0.0
 40
0.0
 40
0.0
 40
0.1182713048357261
 40
0.2361775330837632
 40
0.3556629329485094
 40
0.4759041646706826
 40
0.6001273417110828
 40
0.7286081161551193
 40
0.8613134756739418
 40
0.9999999999999999
 40
0.9999999999999999
 40
0.9999999999999999
 40
0.9999999999999999
 10
163.9339378863968
 20
93.73932019338407
 30
0.0
 10
163.9123545522746
 20
93.71132508406242
 30
0.0
 10
163.8692545068682
 20
93.65542127994713
 30
0.0
 10
163.8142521803857
 20
93.56432380694936
 30
0.0
 10
163.7665935727646
 20
93.46851682682689
 30
0.0
 10
163.7301882931699
 20
93.36592443508275
 30
0.0
 10
163.6993630634711
 20
93.25876047729126
 30
0.0
 10
163.6791908932818
 20
93.14529281267437
 30
0.0
 10
163.6653506485058
 20
93.02652250251472
 30
0.0
 10
163.6641293178024
 20
92.94542569753892
 30
0.0
 10
163.6635051940891
 20
92.90398365492253
 30
0.0
  0
SPLINE
  5
A7
330
1F
100
AcDbEntity
  8
0
  6
Continuous
 62
     7
370
    25
100
AcDbSpline
210
0.0
220
0.0
230
1.0
 70
     8
 71
     3
 72
    15
 73
    11
 74
     0
 42
0.000000001
 43
0.00000001
 40
0.0
 40
0.0
 40
0.0
 40
0.0
 40
0.149770386031968
 40
0.2913164099952444
 40
0.4259663731047428
 40
0.5521595739695285
 40
0.6715274135235931
 40
0.7861216286916591
 40
0.8953250730704452
 40
1.0
 40
1.0
 40
1.0
 40
1.0
 10
164.6250436556275
 20
94.13094679594818
 30
0.0
 10
164.5865450652438
 20
94.11925637960492
 30
0.0
 10
164.5116619629322
 20
94.09651750437935
 30
0.0
 10
164.4038900976824
 20
94.05781136432918
 30
0.0
 10
164.3050928787898
 20
94.01371383279995
 30
0.0
 10
164.2145455616784
 20
93.96640732046274
 30
0.0
 10
164.131356415301
 20
93.91672382614453
 30
0.0
 10
164.0577251738237
 20
93.86113107594967
 30
0.0
 10
163.9904177420955
 20
93.8037465828821
 30
0.0
 10
163.9524968678952
 20
93.76049036380874
 30
0.0
 10
163.9339378863968
 20
93.73932019338407
 30
0.0
  0
LINE
  5
A8
330
1F
100
AcDbEntity
  8
0
  6
Continuous
 62
     7
370
    25
100
AcDbLine
 10
164.6250436556
 20
94.5796647447
 30
0.0
 11
164.6250436556
 21
94.1309467959
 31
0.0
  0
SPLINE
  5
A9
330
1F
100
AcDbEntity
  8
0
  6
Continuous
 62
     7
370
    25
100
AcDbSpline
210
0.0
220
0.0
230
1.0
 70
     8
 71
     3
 72
    23
 73
    19
 74
     0
 42
0.000000001
 43
0.00000001
 40
0.0
 40
0.0
 40
0.0
 40
0.0
 40
0.0655411703374035
 40
0.1289631677825934
 40
0.190377136188561
 40
0.2500923616690529
 40
0.3085484324592012
 40
0.3663979630552959
 40
0.42454218926668
 40
0.4831699964229058
 40
0.5422433998311202
 40
0.6017393520173302
 40
0.6625060022496068
 40
0.7248555134488471
 40
0.7891278292811814
 40
0.8563463998785102
 40
0.9262952349869056
 40
1.0
 40
1.0
 40
1.0
 40
1.0
 10
163.1506846812686
 20
92.91199647543536
 30
0.0
 10
163.1519249859235
 20
92.96545261869697
 30
0.0
 10
163.154365491891
 20
93.07063648308281
 30
0.0
 10
163.1710492078861
 20
93.22527005220613
 30
0.0
 10
163.2015206439401
 20
93.37287247986973
 30
0.0
 10
163.2425253658917
 20
93.51364333395068
 30
0.0
 10
163.2945135688638
 20
93.64770767165575
 30
0.0
 10
163.3592545660372
 20
93.77465639333819
 30
0.0
 10
163.4354138546826
 20
93.89527052693835
 30
0.0
 10
163.523890408692
 20
94.0084118857163
 30
0.0
 10
163.6228637512017
 20
94.1140669824395
 30
0.0
 10
163.7340909082984
 20
94.20942801705398
 30
0.0
 10
163.8555157710427
 20
94.2960848641141
 30
0.0
 10
163.9885487084695
 20
94.37171720513054
 30
0.0
 10
164.1314705045805
 20
94.43976999458175
 30
0.0
 10
164.2861112165543
 20
94.49574278979219
 30
0.0
 10
164.4510883908243
 20
94.54500788784404
 30
0.0
 10
164.5660565910756
 20
94.56791283676701
 30
0.0
 10
164.6250436556275
 20
94.57966474466612
 30
0.0
  0
SPLINE
  5
AA
330
1F
100
AcDbEntity
  8
0
  6
Continuous
 62
     7
370
    25
100
AcDbSpline
210
0.0
220
0.0
230
1.0
 70
     8
 71
     3
 72
    19
 73
    15
 74
     0
 42
0.000000001
 43
0.00000001
 40
0.0
 40
0.0
 40
0.0
 40
0.0
 40
0.0796417041949911
 40
0.1589086132578559
 40
0.2395997983184507
 40
0.3224093988203483
 40
0.4058277481735129
 40
0.4876442139503135
 40
0.5697199979738972
 40
0.6530646649976932
 40
0.7374573001733062
 40
0.8224924079539122
 40
0.909755073746698
 40
0.9999999999999999
 40
0.9999999999999999
 40
0.9999999999999999
 40
0.9999999999999999
 10
164.7642664120378
 20
91.18222884723022
 30
0.0
 10
164.6942553086934
 20
91.18479808293527
 30
0.0
 10
164.5545625753753
 20
91.18992446348108
 30
0.0
 10
164.3481283552331
 20
91.23555989582458
 30
0.0
 10
164.1466844416922
 20
91.30671524349198
 30
0.0
 10
163.9532155786089
 20
91.40599505582674
 30
0.0
 10
163.7725776107434
 20
91.52883026379222
 30
0.0
 10
163.6116889972883
 20
91.67577741559022
 30
0.0
 10
163.4724619764638
 20
91.84326424939881
 30
0.0
 10
163.3565096222753
 20
92.03019459730164
 30
0.0
 10
163.2637527420176
 20
92.2326298611293
 30
0.0
 10
163.199389589871
 20
92.44917125819497
 30
0.0
 10
163.1574654737786
 20
92.67667001764997
 30
0.0
 10
163.1529701205387
 20
92.83268062450264
 30
0.0
 10
163.1506846812686
 20
92.91199647543536
 30
0.0
  0
SPLINE
  5
AB
330
1F
100
AcDbEntity
  8
0
  6
Continuous
 62
     7
370
    25
100
AcDbSpline
210
0.0
220
0.0
230
1.0
 70
     8
 71
     3
 72
    15
 73
    11
 74
     0
 42
0.000000001
 43
0.00000001
 40
0.0
 40
0.0
 40
0.0
 40
0.0
 40
0.1281455049994642
 40
0.254192538628042
 40
0.378141139713589
 40
0.5013808330744056
 40
0.6239569784447038
 40
0.7470758858273291
 40
0.8728647202442611
 40
1.0
 40
1.0
 40
1.0
 40
1.0
 10
165.6526878863968
 20
91.48070641133278
 30
0.0
 10
165.6197517516468
 20
91.45663755737426
 30
0.0
 10
165.5544188341579
 20
91.40889399360582
 30
0.0
 10
165.4493155122726
 20
91.35012916472606
 30
0.0
 10
165.3433951814876
 20
91.29620847332242
 30
0.0
 10
165.2324931910081
 20
91.25652440528874
 30
0.0
 10
165.1201719089397
 20
91.22227862716187
 30
0.0
 10
165.00402608772
 20
91.19974604545408
 30
0.0
 10
164.8851592109615
 20
91.18528102930176
 30
0.0
 10
164.8047067749315
 20
91.18324984559976
 30
0.0
 10
164.7642664120378
 20
91.18222884723022
 30
0.0
  0
SPLINE
  5
AC
330
1F
100
AcDbEntity
  8
0
  6
Continuous
 62
     7
370
    25
100
AcDbSpline
210
0.0
220
0.0
230
1.0
 70
     8
 71
     3
 72
    11
 73
     7
 74
     0
 42
0.000000001
 43
0.00000001
 40
0.0
 40
0.0
 40
0.0
 40
0.0
 40
0.2538796003266561
 40
0.5030089172783634
 40
0.7502910806899732
 40
1.0
 40
1.0
 40
1.0
 40
1.0
 10
166.0793705787044
 20
92.02257339851228
 30
0.0
 10
166.0536874765023
 20
91.96938517769323
 30
0.0
 10
166.0028018227735
 20
91.86400392874008
 30
0.0
 10
165.9030078834631
 20
91.72036031512164
 30
0.0
 10
165.7877845301004
 20
91.58996335032599
 30
0.0
 10
165.6978664545096
 20
91.51724375174913
 30
0.0
 10
165.6526878863968
 20
91.48070641133278
 30
0.0
  0
SPLINE
  5
AD
330
1F
100
AcDbEntity
  8
0
  6
Continuous
 62
     7
370
    25
100
AcDbSpline
210
0.0
220
0.0
230
1.0
 70
     8
 71
     3
 72
    15
 73
    11
 74
     0
 42
0.000000001
 43
0.00000001
 40
0.0
 40
0.0
 40
0.0
 40
0.0
 40
0.1280675485958908
 40
0.2506083188676689
 40
0.3706301659145033
 40
0.4900722467299491
 40
0.6103747641546201
 40
0.7343130699115257
 40
0.8632165042449896
 40
1.0
 40
1.0
 40
1.0
 40
1.0
 10
167.1080164120378
 20
91.43863910364047
 30
0.0
 10
167.0551495624584
 20
91.44030137656485
 30
0.0
 10
166.9516973417968
 20
91.44355418672359
 30
0.0
 10
166.8006666315994
 20
91.47117376609837
 30
0.0
 10
166.6583214883391
 20
91.51765414163583
 30
0.0
 10
166.5240626853056
 20
91.58203951674706
 30
0.0
 10
166.3987414855583
 20
91.66538458851889
 30
0.0
 10
166.2820759271861
 20
91.76634558407649
 30
0.0
 10
166.1735485584315
 20
91.88563510089863
 30
0.0
 10
166.1113778827522
 20
91.97603358378905
 30
0.0
 10
166.0793705787044
 20
92.02257339851228
 30
0.0
  0
SPLINE
  5
AE
330
1F
100
AcDbEntity
  8
0
  6
Continuous
 62
     7
370
    25
100
AcDbSpline
210
0.0
220
0.0
230
1.0
 70
     8
 71
     3
 72
    19
 73
    15
 74
     0
 42
0.000000001
 43
0.00000001
 40
0.0
 40
0.0
 40
0.0
 40
0.0
 40
0.0902542493426766
 40
0.1785397915286846
 40
0.26609303385382
 40
0.3546309779571735
 40
0.4418861533505626
 40
0.5257469151636484
 40
0.6081136336036368
 40
0.6901972728278826
 40
0.7708214843303355
 40
0.8483261812554113
 40
0.9240117400247433
 40
1.0
 40
1.0
 40
1.0
 40
1.0
 10
168.4070949376788
 20
92.89897564210202
 30
0.0
 10
168.4051246087575
 20
92.83371458199477
 30
0.0
 10
168.4012269295077
 20
92.70461599493267
 30
0.0
 10
168.3656348773948
 20
92.5149544992891
 30
0.0
 10
168.3093132597459
 20
92.33205904342894
 30
0.0
 10
168.2314936495502
 20
92.15793154654847
 30
0.0
 10
168.1355117736043
 20
91.9961909285538
 30
0.0
 10
168.0212764351832
 20
91.85228209034365
 30
0.0
 10
167.8909917187727
 20
91.728155646338
 30
0.0
 10
167.7470880554605
 20
91.62402082110924
 30
0.0
 10
167.593294470622
 20
91.54248510817541
 30
0.0
 10
167.4350085318401
 20
91.4823617174901
 30
0.0
 10
167.2726057155703
 20
91.44575931606344
 30
0.0
 10
167.1629524596057
 20
91.4410156634774
 30
0.0
 10
167.1080164120378
 20
91.43863910364047
 30
0.0
  0
SPLINE
  5
AF
330
1F
100
AcDbEntity
  8
0
  6
Continuous
 62
     7
370
    25
100
AcDbSpline
210
0.0
220
0.0
230
1.0
 70
     8
 71
     3
 72
    23
 73
    19
 74
     0
 42
0.000000001
 43
0.00000001
 40
0.0
 40
0.0
 40
0.0
 40
0.0
 40
0.0726253460834355
 40
0.1419766113262345
 40
0.2089849284189387
 40
0.2739568703644448
 40
0.3368893473968407
 40
0.3987449534945903
 40
0.4601158852788614
 40
0.5208249225900292
 40
0.5809944586324856
 40
0.6401519276014647
 40
0.6986224507562545
 40
0.7572710809271643
 40
0.8164266940046602
 40
0.8762540482034703
 40
0.937165293062537
 40
1.0
 40
1.0
 40
1.0
 40
1.0
 10
167.1250436556275
 20
94.38735705235842
 30
0.0
 10
167.1753757755924
 20
94.37520055138557
 30
0.0
 10
167.2737709532933
 20
94.351435586304
 30
0.0
 10
167.4143527545038
 20
94.30186762420556
 30
0.0
 10
167.5473863564905
 20
94.24786868821327
 30
0.0
 10
167.6703807474839
 20
94.18302711026362
 30
0.0
 10
167.7858077513878
 20
94.11230031851201
 30
0.0
 10
167.8910493577708
 20
94.03126785917506
 30
0.0
 10
167.988782165581
 20
93.94366825550945
 30
0.0
 10
168.0755153620913
 20
93.84677547079264
 30
0.0
 10
168.1540549752437
 20
93.74516309702005
 30
0.0
 10
168.2210193428756
 20
93.63739935451902
 30
0.0
 10
168.2786252755392
 20
93.52565236356101
 30
0.0
 10
168.3260827496469
 20
93.40914788792017
 30
0.0
 10
168.3618334977413
 20
93.2875390712173
 30
0.0
 10
168.3877717914424
 20
93.16192532361616
 30
0.0
 10
168.4046162403202
 20
93.03197746630951
 30
0.0
 10
168.4062601875864
 20
92.9437666225977
 30
0.0
 10
168.4070949376788
 20
92.89897564210202
 30
0.0
  0
LINE
  5
B0
330
1F
100
AcDbEntity
  8
0
  6
Continuous
 62
     7
370
    25
100
AcDbLine
 10
167.1250436556
 20
93.9386391036
 30
0.0
 11
167.1250436556
 21
94.3873570524
 31
0.0
  0
SPLINE
  5
B1
330
1F
100
AcDbEntity
  8
0
  6
Continuous
 62
     7
370
    25
100
AcDbSpline
210
0.0
220
0.0
230
1.0
 70
     8
 71
     3
 72
    10
 73
     6
 74
     0
 42
0.000000001
 43
0.00000001
 40
0.0
 40
0.0
 40
0.0
 40
0.0
 40
0.5
 40
0.5
 40
1.0
 40
1.0
 40
1.0
 40
1.0
 10
160.5813842257589
 20
120.1552321505299
 30
0.0
 10
160.6093186729809
 20
120.2471416897913
 30
0.0
 10
160.6240651923893
 20
120.3216022711131
 30
0.0
 10
160.624108213369
 20
120.4221837368675
 30
0.0
 10
160.6093260138367
 20
120.4481253693434
 30
0.0
 10
160.5813842257589
 20
120.4481253693434
 30
0.0
  0
SPLINE
  5
B2
330
1F
100
AcDbEntity
  8
0
  6
Continuous
 62
     7
370
    25
100
AcDbSpline
210
0.0
220
0.0
230
1.0
 70
     8
 71
     3
 72
    16
 73
    12
 74
     0
 42
0.000000001
 43
0.00000001
 40
0.0
 40
0.0
 40
0.0
 40
0.0
 40
0.2500000000000002
 40
0.2500000000000002
 40
0.5000000000000003
 40
0.5000000000000003
 40
0.6250000000000003
 40
0.6250000000000003
 40
0.7500000000000002
 40
0.7500000000000002
 40
1.0
 40
1.0
 40
1.0
 40
1.0
 10
160.5813842257589
 20
120.1552321505299
 30
0.0
 10
160.1335428634645
 20
118.6817505761959
 30
0.0
 10
159.7801857871542
 20
117.2037979869571
 30
0.0
 10
159.3006615299211
 20
114.2371421381648
 30
0.0
 10
159.174990134999
 20
112.7484154179207
 30
0.0
 10
159.1723738615725
 20
110.5065289476196
 30
0.0
 10
159.2022846384034
 20
109.7577768061821
 30
0.0
 10
159.3234816566344
 20
108.2573682243113
 30
0.0
 10
159.4150412834592
 20
107.5041697901859
 30
0.0
 10
159.7765217116217
 20
105.2532171061676
 30
0.0
 10
160.1324915650062
 20
103.7656863451676
 30
0.0
 10
160.5813842257592
 20
102.2887458029084
 30
0.0
  0
SPLINE
  5
B3
330
1F
100
AcDbEntity
  8
0
  6
Continuous
 62
     7
370
    25
100
AcDbSpline
210
0.0
220
0.0
230
1.0
 70
     8
 71
     3
 72
    10
 73
     6
 74
     0
 42
0.000000001
 43
0.00000001
 40
0.0
 40
0.0
 40
0.0
 40
0.0
 40
0.5
 40
0.5
 40
1.0
 40
1.0
 40
1.0
 40
1.0
 10
160.5813842257589
 20
75.60750493577737
 30
0.0
 10
160.6093186729811
 20
75.69941447503973
 30
0.0
 10
160.6240651923897
 20
75.8103459885144
 30
0.0
 10
160.6241082133687
 20
76.0529705132713
 30
0.0
 10
160.609326013837
 20
76.18459784283253
 30
0.0
 10
160.581384225759
 20
76.3146117169639
 30
0.0
  0
SPLINE
  5
B4
330
1F
100
AcDbEntity
  8
0
  6
Continuous
 62
     7
370
    25
100
AcDbSpline
210
0.0
220
0.0
230
1.0
 70
     8
 71
     3
 72
    16
 73
    12
 74
     0
 42
0.000000001
 43
0.00000001
 40
0.0
 40
0.0
 40
0.0
 40
0.0
 40
0.25
 40
0.25
 40
0.5
 40
0.5
 40
0.625
 40
0.625
 40
0.75
 40
0.75
 40
1.0
 40
1.0
 40
1.0
 40
1.0
 10
160.5813842257589
 20
75.60750493577738
 30
0.0
 10
160.1335428634645
 20
74.13402336144345
 30
0.0
 10
159.7801857871542
 20
72.6560707722046
 30
0.0
 10
159.3006615299211
 20
69.68941492341229
 30
0.0
 10
159.174990134999
 20
68.20068820316823
 30
0.0
 10
159.1723738615725
 20
65.95880173286714
 30
0.0
 10
159.2022846384034
 20
65.21004959142958
 30
0.0
 10
159.3234816566344
 20
63.70964100955882
 30
0.0
 10
159.4150412834592
 20
62.95644257543339
 30
0.0
 10
159.7765217116217
 20
60.70548989141514
 30
0.0
 10
160.1324915650061
 20
59.21795913041513
 30
0.0
 10
160.5813842257592
 20
57.74101858815593
 30
0.0
  0
SPLINE
  5
B5
330
1F
100
AcDbEntity
  8
0
  6
Continuous
 62
     7
370
    25
100
AcDbSpline
210
0.0
220
0.0
230
1.0
 70
     8
 71
     3
 72
    10
 73
     6
 74
     0
 42
0.000000001
 43
0.00000001
 40
0.0
 40
0.0
 40
0.0
 40
0.0
 40
0.5
 40
0.5
 40
1.0
 40
1.0
 40
1.0
 40
1.0
 10
160.5813842257555
 20
57.44812536934332
 30
0.0
 10
160.6093186729773
 20
57.44812536934332
 30
0.0
 10
160.6240651923899
 20
57.47391421278584
 30
0.0
 10
160.6241082133684
 20
57.57435382302659
 30
0.0
 10
160.6093260138366
 20
57.64908489611139
 30
0.0
 10
160.5813842257589
 20
57.741018588157
 30
0.0
  0
SPLINE
  5
B6
330
1F
100
AcDbEntity
  8
0
  6
Continuous
 62
     7
370
    25
100
AcDbSpline
210
0.0
220
0.0
230
1.0
 70
    24
 71
     3
 72
    12
 73
     8
 74
     0
 42
0.000000001
 43
0.00000001
 40
0.0
 40
0.0
 40
0.0
 40
0.0
 40
0.1970726933610203
 40
0.3944194043165373
 40
0.6275209895453746
 40
0.8607705611357971
 40
1.0
 40
1.0
 40
1.0
 40
1.0
 10
160.5813842257606
 20
57.44812536934332
 30
0.0
 10
160.4138249156005
 20
57.44812536934332
 30
0.0
 10
160.0784733142501
 20
57.44812536934331
 30
0.0
 10
159.6662742042971
 20
57.44812536934332
 30
0.0
 10
159.3574411895405
 20
57.44812536934331
 30
0.0
 10
159.18651628531
 20
57.44812536934331
 30
0.0
 10
159.1912811894572
 20
57.44812536934331
 30
0.0
 10
159.1930622694967
 20
57.44812536934332
 30
0.0
  0
SPLINE
  5
B7
330
1F
100
AcDbEntity
  8
0
  6
Continuous
 62
     7
370
    25
100
AcDbSpline
210
0.0
220
0.0
230
1.0
 70
    24
 71
     3
 72
    12
 73
     8
 74
     0
 42
0.000000001
 43
0.00000001
 40
0.0
 40
0.0
 40
0.0
 40
0.0
 40
0.1272671184168858
 40
0.366502171946946
 40
0.6055771484738566
 40
0.8026432280604261
 40
1.0
 40
1.0
 40
1.0
 40
1.0
 10
159.1949108340423
 20
120.4481253693433
 30
0.0
 10
159.191618433357
 20
120.4481253693433
 30
0.0
 10
159.182137021213
 20
120.4481253693433
 30
0.0
 10
159.350536771818
 20
120.4481253693433
 30
0.0
 10
159.6620523660401
 20
120.4481253693433
 30
0.0
 10
160.0783022708561
 20
120.4481253693433
 30
0.0
 10
160.4136078666161
 20
120.4481253693433
 30
0.0
 10
160.5813842257606
 20
120.4481253693433
 30
0.0
  0
LINE
  5
B8
330
1F
100
AcDbEntity
  8
0
  6
Continuous
 62
     7
370
    25
100
AcDbLine
 10
159.0288898095
 20
120.1981253693
 30
0.0
 11
159.0288898095
 21
57.6981253693
 31
0.0
  0
SPLINE
  5
B9
330
1F
100
AcDbEntity
  8
0
  6
Continuous
 62
     7
370
    25
100
AcDbSpline
210
0.0
220
0.0
230
1.0
 70
    24
 71
     3
 72
    12
 73
     8
 74
     0
 42
0.000000001
 43
0.00000001
 40
0.0
 40
0.0
 40
0.0
 40
0.0
 40
0.1970726933607993
 40
0.394419404316094
 40
0.6275209895451019
 40
0.8607705611356951
 40
1.0
 40
1.0
 40
1.0
 40
1.0
 10
171.4763953931887
 20
57.44812536934332
 30
0.0
 10
171.6439547033484
 20
57.44812536934332
 30
0.0
 10
171.979306304698
 20
57.44812536934331
 30
0.0
 10
172.3915054146505
 20
57.44812536934333
 30
0.0
 10
172.7003384294069
 20
57.44812536934332
 30
0.0
 10
172.8712633336374
 20
57.44812536934332
 30
0.0
 10
172.8664984294902
 20
57.44812536934331
 30
0.0
 10
172.8647173494507
 20
57.44812536934332
 30
0.0
  0
SPLINE
  5
BA
330
1F
100
AcDbEntity
  8
0
  6
Continuous
 62
     7
370
    25
100
AcDbSpline
210
0.0
220
0.0
230
1.0
 70
     8
 71
     3
 72
    10
 73
     6
 74
     0
 42
0.000000001
 43
0.00000001
 40
0.0
 40
0.0
 40
0.0
 40
0.0
 40
0.5
 40
0.5
 40
1.0
 40
1.0
 40
1.0
 40
1.0
 10
171.476395393192
 20
57.74101858815676
 30
0.0
 10
171.4484609459698
 20
57.64910904889435
 30
0.0
 10
171.4337144265577
 20
57.57464846757201
 30
0.0
 10
171.4336714055787
 20
57.47406700181735
 30
0.0
 10
171.4484536051104
 20
57.4481253693432
 30
0.0
 10
171.4763953931885
 20
57.44812536934326
 30
0.0
  0
SPLINE
  5
BB
330
1F
100
AcDbEntity
  8
0
  6
Continuous
 62
     7
370
    25
100
AcDbSpline
210
0.0
220
0.0
230
1.0
 70
     8
 71
     3
 72
    16
 73
    12
 74
     0
 42
0.000000001
 43
0.00000001
 40
0.0
 40
0.0
 40
0.0
 40
0.0
 40
0.2499999999999999
 40
0.2499999999999999
 40
0.4999999999999999
 40
0.4999999999999999
 40
0.6249999999999999
 40
0.6249999999999999
 40
0.7499999999999998
 40
0.7499999999999998
 40
1.0
 40
1.0
 40
1.0
 40
1.0
 10
171.4763953931885
 20
75.60750493577737
 30
0.0
 10
171.9242367554828
 20
74.13402336144354
 30
0.0
 10
172.2775938317932
 20
72.65607077220479
 30
0.0
 10
172.7571180890262
 20
69.68941492341268
 30
0.0
 10
172.8827894839484
 20
68.20068820316872
 30
0.0
 10
172.8854057573749
 20
65.95880173286781
 30
0.0
 10
172.855494980544
 20
65.2100495914303
 30
0.0
 10
172.734297962313
 20
63.70964100955965
 30
0.0
 10
172.6427383354883
 20
62.95644257543427
 30
0.0
 10
172.2812579073259
 20
60.70548989141619
 30
0.0
 10
171.9252880539415
 20
59.21795913041628
 30
0.0
 10
171.4763953931886
 20
57.74101858815715
 30
0.0
  0
SPLINE
  5
BC
330
1F
100
AcDbEntity
  8
0
  6
Continuous
 62
     7
370
    25
100
AcDbSpline
210
0.0
220
0.0
230
1.0
 70
     8
 71
     3
 72
    10
 73
     6
 74
     0
 42
0.000000001
 43
0.00000001
 40
0.0
 40
0.0
 40
0.0
 40
0.0
 40
0.5
 40
0.5
 40
1.0
 40
1.0
 40
1.0
 40
1.0
 10
171.4763953931884
 20
76.31461171696391
 30
0.0
 10
171.4484609459662
 20
76.1846320000276
 30
0.0
 10
171.4337144265577
 20
76.05353999261821
 30
0.0
 10
171.4336714055787
 20
75.81085670938374
 30
0.0
 10
171.4484536051104
 20
75.69943862782397
 30
0.0
 10
171.4763953931884
 20
75.60750493577733
 30
0.0
  0
SPLINE
  5
BD
330
1F
100
AcDbEntity
  8
0
  6
Continuous
 62
     7
370
    25
100
AcDbSpline
210
0.0
220
0.0
230
1.0
 70
     8
 71
     3
 72
    16
 73
    12
 74
     0
 42
0.000000001
 43
0.00000001
 40
0.0
 40
0.0
 40
0.0
 40
0.0
 40
0.25
 40
0.25
 40
0.5
 40
0.5
 40
0.625
 40
0.625
 40
0.75
 40
0.75
 40
1.0
 40
1.0
 40
1.0
 40
1.0
 10
171.4763953931884
 20
120.1552321505299
 30
0.0
 10
171.9242367554828
 20
118.681750576196
 30
0.0
 10
172.2775938317931
 20
117.2037979869573
 30
0.0
 10
172.7571180890262
 20
114.2371421381652
 30
0.0
 10
172.8827894839484
 20
112.7484154179212
 30
0.0
 10
172.8854057573749
 20
110.5065289476203
 30
0.0
 10
172.855494980544
 20
109.7577768061828
 30
0.0
 10
172.734297962313
 20
108.2573682243121
 30
0.0
 10
172.6427383354882
 20
107.5041697901868
 30
0.0
 10
172.2812579073259
 20
105.2532171061687
 30
0.0
 10
171.9252880539415
 20
103.7656863451688
 30
0.0
 10
171.4763953931886
 20
102.2887458029096
 30
0.0
  0
SPLINE
  5
BE
330
1F
100
AcDbEntity
  8
0
  6
Continuous
 62
     7
370
    25
100
AcDbSpline
210
0.0
220
0.0
230
1.0
 70
     8
 71
     3
 72
    10
 73
     6
 74
     0
 42
0.000000001
 43
0.00000001
 40
0.0
 40
0.0
 40
0.0
 40
0.0
 40
0.5
 40
0.5
 40
1.0
 40
1.0
 40
1.0
 40
1.0
 10
171.4763953931919
 20
120.4481253693433
 30
0.0
 10
171.4484609459697
 20
120.4481253693433
 30
0.0
 10
171.4337144265577
 20
120.4223365259023
 30
0.0
 10
171.4336714055787
 20
120.3218969156611
 30
0.0
 10
171.4484536051104
 20
120.2471658425765
 30
0.0
 10
171.4763953931884
 20
120.1552321505299
 30
0.0
  0
SPLINE
  5
BF
330
1F
100
AcDbEntity
  8
0
  6
Continuous
 62
     7
370
    25
100
AcDbSpline
210
0.0
220
0.0
230
1.0
 70
    24
 71
     3
 72
    12
 73
     8
 74
     0
 42
0.000000001
 43
0.00000001
 40
0.0
 40
0.0
 40
0.0
 40
0.0
 40
0.1272671184169789
 40
0.3665021719472141
 40
0.6055771484742997
 40
0.8026432280606483
 40
1.0
 40
1.0
 40
1.0
 40
1.0
 10
172.8628687849051
 20
120.4481253693433
 30
0.0
 10
172.8661611855904
 20
120.4481253693433
 30
0.0
 10
172.8756425977344
 20
120.4481253693433
 30
0.0
 10
172.7072428471294
 20
120.4481253693433
 30
0.0
 10
172.3957272529074
 20
120.4481253693433
 30
0.0
 10
171.979477348092
 20
120.4481253693433
 30
0.0
 10
171.6441717523328
 20
120.4481253693433
 30
0.0
 10
171.4763953931887
 20
120.4481253693433
 30
0.0
  0
LINE
  5
C0
330
1F
100
AcDbEntity
  8
0
  6
Continuous
 62
     7
370
    25
100
AcDbLine
 10
173.0288898095
 20
120.1981253693
 30
0.0
 11
173.0288898095
 21
57.6981253693
 31
0.0
  0
SPLINE
  5
C1
330
1F
100
AcDbEntity
  8
0
  6
Continuous
 62
     7
370
    25
100
AcDbSpline
210
0.0
220
0.0
230
1.0
 70
     8
 71
     3
 72
    23
 73
    19
 74
     0
 42
0.000000001
 43
0.00000001
 40
0.0
 40
0.0
 40
0.0
 40
0.0
 40
0.0679503475997536
 40
0.1332598223836994
 40
0.197800296759647
 40
0.2608458295516823
 40
0.3233192927503669
 40
0.386281722459572
 40
0.4500615162333127
 40
0.5152075844858152
 40
0.5796407692199316
 40
0.6418172023841517
 40
0.7016924412115345
 40
0.7607690981778943
 40
0.8192540511346831
 40
0.8787376269055535
 40
0.9381582970160908
 40
1.0
 40
1.0
 40
1.0
 40
1.0
 10
163.6635051940891
 20
85.83363778866526
 30
0.0
 10
163.6646038242262
 20
85.79654415858731
 30
0.0
 10
163.6667583865221
 20
85.72379853284201
 30
0.0
 10
163.6797305665162
 20
85.61640873922636
 30
0.0
 10
163.702675536885
 20
85.5134365191606
 30
0.0
 10
163.7352816609523
 20
85.41481025634961
 30
0.0
 10
163.7750118004058
 20
85.31970822481374
 30
0.0
 10
163.8257063338318
 20
85.22947971073228
 30
0.0
 10
163.8849638388571
 20
85.1429065642953
 30
0.0
 10
163.9527590162512
 20
85.0618731886115
 30
0.0
 10
164.0256182611465
 20
84.98636756940034
 30
0.0
 10
164.1056469327083
 20
84.9232007324976
 30
0.0
 10
164.1866973405252
 20
84.86619312651327
 30
0.0
 10
164.2736920805714
 20
84.8230118577063
 30
0.0
 10
164.3634800788343
 20
84.78681129219082
 30
0.0
 10
164.4574299479808
 20
84.76247546029984
 30
0.0
 10
164.5550573473657
 20
84.74654357477328
 30
0.0
 10
164.6213060470035
 20
84.7447890010365
 30
0.0
 10
164.6550917325506
 20
84.74389419892167
 30
0.0
  0
SPLINE
  5
C2
330
1F
100
AcDbEntity
  8
0
  6
Continuous
 62
     7
370
    25
100
AcDbSpline
210
0.0
220
0.0
230
1.0
 70
     8
 71
     3
 72
    23
 73
    19
 74
     0
 42
0.000000001
 43
0.00000001
 40
0.0
 40
0.0
 40
0.0
 40
0.0
 40
0.0705921865358071
 40
0.1385012886049301
 40
0.2037899961427014
 40
0.2667875726696011
 40
0.3290979656467184
 40
0.391174524603966
 40
0.4531677986176575
 40
0.5157967602265848
 40
0.5779688050530404
 40
0.6389663383752915
 40
0.6983810661628432
 40
0.7573204555574266
 40
0.816412239721669
 40
0.8762793582308313
 40
0.9368234656501933
 40
1.0
 40
1.0
 40
1.0
 40
1.0
 10
165.6506846812686
 20
85.87270028866526
 30
0.0
 10
165.6495584664199
 20
85.91078801479131
 30
0.0
 10
165.647348842162
 20
85.9855158197703
 30
0.0
 10
165.6348688684322
 20
86.0950140071544
 30
0.0
 10
165.6112227396975
 20
86.19836711944006
 30
0.0
 10
165.5806359278433
 20
86.29675561772055
 30
0.0
 10
165.5389898431872
 20
86.38915403554554
 30
0.0
 10
165.4890027347062
 20
86.4766163643067
 30
0.0
 10
165.4295713304635
 20
86.55827472412976
 30
0.0
 10
165.36135827601
 20
86.63269505257036
 30
0.0
 10
165.2877657617437
 20
86.7010312940182
 30
0.0
 10
165.2084693492816
 20
86.75981162093476
 30
0.0
 10
165.1258916826789
 20
86.81057082462917
 30
0.0
 10
165.0392566320661
 20
86.85182716030573
 30
0.0
 10
164.9486197704838
 20
86.88395675463195
 30
0.0
 10
164.8543920009635
 20
86.9071968644409
 30
0.0
 10
164.7559430651134
 20
86.92013086177373
 30
0.0
 10
164.6891823368507
 20
86.92228261180296
 30
0.0
 10
164.6550917325506
 20
86.92338137840883
 30
0.0
  0
SPLINE
  5
C3
330
1F
100
AcDbEntity
  8
0
  6
Continuous
 62
     7
370
    25
100
AcDbSpline
210
0.0
220
0.0
230
1.0
 70
     8
 71
     3
 72
    23
 73
    19
 74
     0
 42
0.000000001
 43
0.00000001
 40
0.0
 40
0.0
 40
0.0
 40
0.0
 40
0.0611415679303345
 40
0.1200010135310724
 40
0.1782359705414085
 40
0.236495543407017
 40
0.2948872487049731
 40
0.3546771928192958
 40
0.4166948132897781
 40
0.4806333779628393
 40
0.5458046334786405
 40
0.6097347883178744
 40
0.6729516883751544
 40
0.7360010960706833
 40
0.799827438516525
 40
0.864767276939387
 40
0.9310835057306723
 40
1.0
 40
1.0
 40
1.0
 40
1.0
 10
164.6550917325506
 20
84.74389419892167
 30
0.0
 10
164.6892307673845
 20
84.74467116906513
 30
0.0
 10
164.756234590147
 20
84.74619610877238
 30
0.0
 10
164.8543033021572
 20
84.76377802562635
 30
0.0
 10
164.9493859979356
 20
84.78752533043237
 30
0.0
 10
165.0393407863516
 20
84.82590315155686
 30
0.0
 10
165.1266552791195
 20
84.87161426910237
 30
0.0
 10
165.208833962823
 20
84.92984723008695
 30
0.0
 10
165.288204974303
 20
84.99661274521354
 30
0.0
 10
165.3618463534035
 20
85.0739336900964
 30
0.0
 10
165.4292047522852
 20
85.15805195626159
 30
0.0
 10
165.4886598274043
 20
85.24750560210568
 30
0.0
 10
165.5388387428897
 20
85.34108768228582
 30
0.0
 10
165.5807059311186
 20
85.4387077974037
 30
0.0
 10
165.61091949297
 20
85.54148329040667
 30
0.0
 10
165.6347098326997
 20
85.64775521824475
 30
0.0
 10
165.6473698600673
 20
85.75888270372963
 30
0.0
 10
165.6495656671508
 20
85.83427785902013
 30
0.0
 10
165.6506846812686
 20
85.87270028866526
 30
0.0
  0
SPLINE
  5
C4
330
1F
100
AcDbEntity
  8
0
  6
Continuous
 62
     7
370
    25
100
AcDbSpline
210
0.0
220
0.0
230
1.0
 70
     8
 71
     3
 72
    23
 73
    19
 74
     0
 42
0.000000001
 43
0.00000001
 40
0.0
 40
0.0
 40
0.0
 40
0.0
 40
0.0618526459466919
 40
0.1212838306153701
 40
0.1807779320756125
 40
0.2392732340142805
 40
0.2986414352139416
 40
0.3581858222417119
 40
0.420760086758971
 40
0.4852046730216432
 40
0.5503622689482871
 40
0.6136499245309119
 40
0.6766234955168249
 40
0.7391080134690126
 40
0.8021647022429446
 40
0.866716597132478
 40
0.9320376285055444
 40
1.0
 40
1.0
 40
1.0
 40
1.0
 10
164.6550917325506
 20
86.92338137840883
 30
0.0
 10
164.6213073330276
 20
86.92248427071732
 30
0.0
 10
164.5550611550917
 20
86.92072517608784
 30
0.0
 10
164.4574154037133
 20
86.90482619191049
 30
0.0
 10
164.3635343695434
 20
86.8803669530663
 30
0.0
 10
164.2733493872071
 20
86.844565108327
 30
0.0
 10
164.1873524016624
 20
86.79965912680146
 30
0.0
 10
164.104932551195
 20
86.74439736502842
 30
0.0
 10
164.026032947728
 20
86.67971553806831
 30
0.0
 10
163.9526431592246
 20
86.60452419758386
 30
0.0
 10
163.88532826176
 20
86.52343762680202
 30
0.0
 10
163.8253909506866
 20
86.43768320745158
 30
0.0
 10
163.7750596367734
 20
86.34753360529412
 30
0.0
 10
163.7352687659331
 20
86.25247441805713
 30
0.0
 10
163.7026790941255
 20
86.15383654863595
 30
0.0
 10
163.6797295970794
 20
86.05086752201477
 30
0.0
 10
163.6667586415936
 20
85.94347686454269
 30
0.0
 10
163.6646039103659
 20
85.87073135797402
 30
0.0
 10
163.6635051940891
 20
85.83363778866526
 30
0.0
  0
LINE
  5
C5
330
1F
100
AcDbEntity
  8
0
  6
Continuous
 62
     7
370
    25
100
AcDbLine
 10
171.4763953932
 20
75.6075049358
 30
0.0
 11
160.5813842258
 21
75.6075049358
 31
0.0
  0
LINE
  5
C6
330
1F
100
AcDbEntity
  8
0
  6
Continuous
 62
     7
370
    25
100
AcDbLine
 10
171.4763953932
 20
120.1552321505
 30
0.0
 11
160.5813842258
 21
120.1552321505
 31
0.0
  0
LINE
  5
C7
330
1F
100
AcDbEntity
  8
0
  6
Continuous
 62
     7
370
    25
100
AcDbLine
 10
160.5813842258
 20
57.7410185882
 30
0.0
 11
171.4763953932
 21
57.7410185882
 31
0.0
  0
LINE
  5
C8
330
1F
100
AcDbEntity
  8
0
  6
Continuous
 62
     7
370
    25
100
AcDbLine
 10
136.0279139616
 20
88.9481253693
 30
0.0
 11
136.0279139616
 21
59.5749058646
 31
0.0
  0
LINE
  5
C9
330
1F
100
AcDbEntity
  8
0
  6
Continuous
 62
     7
370
    25
100
AcDbLine
 10
136.0279139616
 20
118.3213448741
 30
0.0
 11
136.0279139616
 21
88.9481253693
 31
0.0
  0
LINE
  5
CA
330
1F
100
AcDbEntity
  8
0
  6
Continuous
 62
     7
370
    25
100
AcDbLine
 10
134.0288898095
 20
88.9481253693
 30
0.0
 11
134.0288898095
 21
116.1933514218
 31
0.0
  0
LINE
  5
CB
330
1F
100
AcDbEntity
  8
0
  6
Continuous
 62
     7
370
    25
100
AcDbLine
 10
134.0288898095
 20
61.7028993169
 30
0.0
 11
134.0288898095
 21
88.9481253693
 31
0.0
  0
LINE
  5
CC
330
1F
100
AcDbEntity
  8
0
  6
Continuous
 62
     7
370
    25
100
AcDbLine
 10
185.0288898095
 20
115.1981253693
 30
0.0
 11
185.0288898095
 21
62.6981253693
 31
0.0
  0
LINE
  5
CD
330
1F
100
AcDbEntity
  8
0
  6
Continuous
 62
     7
370
    25
100
AcDbLine
 10
205.0288898095
 20
115.1981253693
 30
0.0
 11
205.0288898095
 21
62.6981253693
 31
0.0
  0
LINE
  5
CE
330
1F
100
AcDbEntity
  8
0
  6
Continuous
 62
     7
370
    25
100
AcDbLine
 10
195.0288898095
 20
115.1981253693
 30
0.0
 11
195.0288898095
 21
62.6981253693
 31
0.0
  0
LINE
  5
CF
330
1F
100
AcDbEntity
  8
0
  6
Continuous
 62
     7
370
    25
100
AcDbLine
 10
215.0288898095
 20
115.1981253693
 30
0.0
 11
215.0288898095
 21
62.6981253693
 31
0.0
  0
LINE
  5
D0
330
1F
100
AcDbEntity
  8
0
  6
Continuous
 62
     7
370
    25
100
AcDbLine
 10
225.0288898095
 20
115.1981253693
 30
0.0
 11
225.0288898095
 21
62.6981253693
 31
0.0
  0
LINE
  5
D1
330
1F
100
AcDbEntity
  8
0
  6
Continuous
 62
     7
370
    25
100
AcDbLine
 10
236.0288898095
 20
113.0553258318
 30
0.0
 11
236.0288898095
 21
64.8409249069
 31
0.0
  0
LINE
  5
D2
330
1F
100
AcDbEntity
  8
0
  6
Continuous
 62
     7
370
    25
100
AcDbLine
 10
171.4763953932
 20
57.4481253693
 30
0.0
 11
160.5813842258
 21
57.4481253693
 31
0.0
  0
LINE
  5
D3
330
1F
100
AcDbEntity
  8
0
  6
Continuous
 62
     7
370
    25
100
AcDbLine
 10
160.5813842258
 20
120.4481253693
 30
0.0
 11
171.4763953932
 21
120.4481253693
 31
0.0
  0
LINE
  5
D4
330
1F
100
AcDbEntity
  8
0
  6
Continuous
 62
     8
370
    25
100
AcDbLine
 10
235.1417994975
 20
63.8473196521
 30
0.0
 11
235.1417994975
 21
114.0489310866
 31
0.0
  0
LINE
  5
D5
330
1F
100
AcDbEntity
  8
0
  6
Continuous
 62
     7
370
    18
100
AcDbLine
 10
135.0168094957
 20
117.245007862
 30
0.0
 11
158.0288898095
 21
117.9641353718
 31
0.0
  0
LINE
  5
D6
330
1F
100
AcDbEntity
  8
0
  6
Continuous
 62
     7
370
    18
100
AcDbLine
 10
135.0168094957
 20
60.6512428767
 30
0.0
 11
158.0288898095
 21
59.9321153669
 31
0.0
  0
LINE
  5
D7
330
1F
100
AcDbEntity
  8
0
  6
Continuous
 62
     7
370
    18
100
AcDbLine
 10
158.0288898095
 20
58.8873753693
 30
0.0
 11
158.0288898095
 21
119.0088753693
 31
0.0
  0
LINE
  5
D8
330
1F
100
AcDbEntity
  8
0
  6
CENTERX2
 62
     7
370
    18
100
AcDbLine
 10
238.0288898095
 20
88.9481253693
 30
0.0
 11
131.2178358037
 21
88.9481253693
 31
0.0
  0
CIRCLE
  5
D9
330
1F
100
AcDbEntity
  8
0
  6
Continuous
 62
     7
370
    25
100
AcDbCircle
 10
292.441616288
 20
88.9481253693
 30
0.0
 40
21.25
  0
CIRCLE
  5
DA
330
1F
100
AcDbEntity
  8
0
  6
Continuous
 62
     7
370
    25
100
AcDbCircle
 10
292.441616288
 20
88.9481253693
 30
0.0
 40
23.25000000000006
  0
CIRCLE
  5
DB
330
1F
100
AcDbEntity
  8
0
  6
Continuous
 62
     7
370
    25
100
AcDbCircle
 10
292.441616288
 20
88.9481253693
 30
0.0
 40
24.10720046247803
  0
CIRCLE
  5
DC
330
1F
100
AcDbEntity
  8
0
  6
Continuous
 62
     7
370
    25
100
AcDbCircle
 10
292.441616288
 20
88.9481253693
 30
0.0
 40
25.10080571726769
  0
CIRCLE
  5
DD
330
1F
100
AcDbEntity
  8
0
  6
Continuous
 62
     7
370
    25
100
AcDbCircle
 10
292.441616288
 20
88.9481253693
 30
0.0
 40
26.25
  0
CIRCLE
  5
DE
330
1F
100
AcDbEntity
  8
0
  6
Continuous
 62
     7
370
    25
100
AcDbCircle
 10
292.441616288
 20
88.9481253693
 30
0.0
 40
31.25
  0
SPLINE
  5
DF
330
1F
100
AcDbEntity
  8
0
  6
Continuous
 62
     7
370
    25
100
AcDbSpline
210
0.0
220
0.0
230
1.0
 70
     8
 71
     3
 72
    10
 73
     6
 74
     0
 42
0.000000001
 43
0.00000001
 40
0.0
 40
0.0
 40
0.0
 40
0.0
 40
0.5
 40
0.5
 40
1.0
 40
1.0
 40
1.0
 40
1.0
 10
323.9416162879567
 20
101.5816390217227
 30
0.0
 10
323.9416162879567
 20
101.7116187386588
 30
0.0
 10
323.9158274445156
 20
101.8427107460683
 30
0.0
 10
323.8153878342744
 20
102.0853940293028
 30
0.0
 10
323.7406567611898
 20
102.1968121108627
 30
0.0
 10
323.6487230691432
 20
102.2887458029093
 30
0.0
  0
SPLINE
  5
E0
330
1F
100
AcDbEntity
  8
0
  6
Continuous
 62
     7
370
    25
100
AcDbSpline
210
0.0
220
0.0
230
1.0
 70
    24
 71
     3
 72
    18
 73
    14
 74
     0
 42
0.000000001
 43
0.00000001
 40
0.0
 40
0.0
 40
0.0
 40
0.0
 40
0.125
 40
0.125
 40
0.25
 40
0.25
 40
0.5
 40
0.5
 40
0.7500000000000001
 40
0.7500000000000001
 40
0.8750000000000001
 40
0.8750000000000001
 40
1.0
 40
1.0
 40
1.0
 40
1.0
 10
323.9416162879567
 20
76.31461171696394
 30
0.0
 10
323.9416162879566
 20
77.3542798180142
 30
0.0
 10
323.9416162879567
 20
78.40418185862652
 30
0.0
 10
323.9416162879566
 20
80.50854263351438
 30
0.0
 10
323.9416162879567
 20
81.56133084501127
 30
0.0
 10
323.9416162879567
 20
84.72166008423727
 30
0.0
 10
323.9416162879567
 20
86.83118595773023
 30
0.0
 10
323.9416162879567
 20
91.05588429771721
 30
0.0
 10
323.9416162879567
 20
93.17105761501595
 30
0.0
 10
323.9416162879567
 20
96.34784003730876
 30
0.0
 10
323.9416162879567
 20
97.40880508144448
 30
0.0
 10
323.9416162879567
 20
99.50742817656251
 30
0.0
 10
323.9416162879567
 20
100.5482346119085
 30
0.0
 10
323.9416162879567
 20
101.5816390217216
 30
0.0
  0
SPLINE
  5
E1
330
1F
100
AcDbEntity
  8
0
  6
Continuous
 62
     7
370
    25
100
AcDbSpline
210
0.0
220
0.0
230
1.0
 70
     8
 71
     3
 72
    10
 73
     6
 74
     0
 42
0.000000001
 43
0.00000001
 40
0.0
 40
0.0
 40
0.0
 40
0.0
 40
0.5
 40
0.5
 40
1.0
 40
1.0
 40
1.0
 40
1.0
 10
323.6487230691432
 20
75.60750493577738
 30
0.0
 10
323.7406326084055
 20
75.69941447503966
 30
0.0
 10
323.8150931897277
 20
75.81034598851403
 30
0.0
 10
323.9156746554824
 20
76.05297051327115
 30
0.0
 10
323.9416162879567
 20
76.18459784283242
 30
0.0
 10
323.9416162879567
 20
76.31461171696392
 30
0.0
  0
SPLINE
  5
E2
330
1F
100
AcDbEntity
  8
0
  6
Continuous
 62
     7
370
    25
100
AcDbSpline
210
0.0
220
0.0
230
1.0
 70
    24
 71
     3
 72
    16
 73
    12
 74
     0
 42
0.000000001
 43
0.00000001
 40
0.0
 40
0.0
 40
0.0
 40
0.0
 40
0.2499999999999997
 40
0.2499999999999997
 40
0.4999999999999993
 40
0.4999999999999993
 40
0.6249999999999994
 40
0.6249999999999994
 40
0.7499999999999997
 40
0.7499999999999997
 40
1.0
 40
1.0
 40
1.0
 40
1.0
 10
305.7822367215226
 20
57.74101858815676
 30
0.0
 10
307.2557182958564
 20
59.21450016249058
 30
0.0
 10
308.7336708850951
 20
60.69245275172934
 30
0.0
 10
311.7003267338873
 20
63.65910860052146
 30
0.0
 10
313.1890534541312
 20
65.14783532076541
 30
0.0
 10
315.4309399244321
 20
67.38972179106632
 30
0.0
 10
316.1796920658696
 20
68.13847393250383
 30
0.0
 10
317.6801006477403
 20
69.63888251437449
 30
0.0
 10
318.4332990818657
 20
70.39208094849987
 30
0.0
 10
320.6842517658838
 20
72.64303363251797
 30
0.0
 10
322.1717825268836
 20
74.13056439351789
 30
0.0
 10
323.6487230691428
 20
75.60750493577699
 30
0.0
  0
SPLINE
  5
E3
330
1F
100
AcDbEntity
  8
0
  6
Continuous
 62
     7
370
    25
100
AcDbSpline
210
0.0
220
0.0
230
1.0
 70
     8
 71
     3
 72
    10
 73
     6
 74
     0
 42
0.000000001
 43
0.00000001
 40
0.0
 40
0.0
 40
0.0
 40
0.0
 40
0.5
 40
0.5
 40
1.0
 40
1.0
 40
1.0
 40
1.0
 10
305.075129940336
 20
57.44812536934332
 30
0.0
 10
305.2051096572723
 20
57.44812536934332
 30
0.0
 10
305.3362016646817
 20
57.47391421278439
 30
0.0
 10
305.5788849479162
 20
57.57435382302551
 30
0.0
 10
305.690303029476
 20
57.64908489611009
 30
0.0
 10
305.7822367215226
 20
57.74101858815672
 30
0.0
  0
SPLINE
  5
E4
330
1F
100
AcDbEntity
  8
0
  6
Continuous
 62
     7
370
    25
100
AcDbSpline
210
0.0
220
0.0
230
1.0
 70
    24
 71
     3
 72
    18
 73
    14
 74
     0
 42
0.000000001
 43
0.00000001
 40
0.0
 40
0.0
 40
0.0
 40
0.0
 40
0.125
 40
0.125
 40
0.2500000000000001
 40
0.2500000000000001
 40
0.5000000000000001
 40
0.5000000000000001
 40
0.75
 40
0.75
 40
0.8750000000000001
 40
0.8750000000000001
 40
1.0
 40
1.0
 40
1.0
 40
1.0
 10
305.075129940336
 20
57.44812536934332
 30
0.0
 10
304.0354618392857
 20
57.4481253693433
 30
0.0
 10
302.9855597986734
 20
57.44812536934332
 30
0.0
 10
300.8811990237856
 20
57.44812536934332
 30
0.0
 10
299.8284108122887
 20
57.44812536934331
 30
0.0
 10
296.6680815730627
 20
57.44812536934332
 30
0.0
 10
294.5585556995698
 20
57.44812536934332
 30
0.0
 10
290.3338573595828
 20
57.44812536934332
 30
0.0
 10
288.218684042284
 20
57.44812536934331
 30
0.0
 10
285.0419016199912
 20
57.44812536934332
 30
0.0
 10
283.9809365758555
 20
57.44812536934332
 30
0.0
 10
281.8823134807374
 20
57.4481253693433
 30
0.0
 10
280.8415070453914
 20
57.44812536934331
 30
0.0
 10
279.8081026355784
 20
57.44812536934332
 30
0.0
  0
SPLINE
  5
E5
330
1F
100
AcDbEntity
  8
0
  6
Continuous
 62
     7
370
    25
100
AcDbSpline
210
0.0
220
0.0
230
1.0
 70
     8
 71
     3
 72
    10
 73
     6
 74
     0
 42
0.000000001
 43
0.00000001
 40
0.0
 40
0.0
 40
0.0
 40
0.0
 40
0.5
 40
0.5
 40
1.0
 40
1.0
 40
1.0
 40
1.0
 10
279.1009958543907
 20
57.74101858815676
 30
0.0
 10
279.1929053936531
 20
57.64910904889435
 30
0.0
 10
279.3038369071277
 20
57.57464846757201
 30
0.0
 10
279.5464614318852
 20
57.47406700181735
 30
0.0
 10
279.678088761446
 20
57.4481253693432
 30
0.0
 10
279.8081026355777
 20
57.44812536934326
 30
0.0
  0
SPLINE
  5
E6
330
1F
100
AcDbEntity
  8
0
  6
Continuous
 62
     7
370
    25
100
AcDbSpline
210
0.0
220
0.0
230
1.0
 70
    24
 71
     3
 72
    16
 73
    12
 74
     0
 42
0.000000001
 43
0.00000001
 40
0.0
 40
0.0
 40
0.0
 40
0.0
 40
0.2499999999999999
 40
0.2499999999999999
 40
0.4999999999999999
 40
0.4999999999999999
 40
0.6249999999999999
 40
0.6249999999999999
 40
0.7499999999999998
 40
0.7499999999999998
 40
1.0
 40
1.0
 40
1.0
 40
1.0
 10
261.2345095067701
 20
75.60750493577737
 30
0.0
 10
262.707991081104
 20
74.13402336144354
 30
0.0
 10
264.1859436703426
 20
72.65607077220479
 30
0.0
 10
267.1525995191348
 20
69.68941492341268
 30
0.0
 10
268.6413262393788
 20
68.20068820316872
 30
0.0
 10
270.8832127096796
 20
65.95880173286781
 30
0.0
 10
271.6319648511172
 20
65.2100495914303
 30
0.0
 10
273.1323734329878
 20
63.70964100955965
 30
0.0
 10
273.8855718671132
 20
62.95644257543427
 30
0.0
 10
276.1365245511313
 20
60.70548989141619
 30
0.0
 10
277.6240553121312
 20
59.21795913041628
 30
0.0
 10
279.1009958543904
 20
57.74101858815715
 30
0.0
  0
SPLINE
  5
E7
330
1F
100
AcDbEntity
  8
0
  6
Continuous
 62
     7
370
    25
100
AcDbSpline
210
0.0
220
0.0
230
1.0
 70
     8
 71
     3
 72
    10
 73
     6
 74
     0
 42
0.000000001
 43
0.00000001
 40
0.0
 40
0.0
 40
0.0
 40
0.0
 40
0.5
 40
0.5
 40
1.0
 40
1.0
 40
1.0
 40
1.0
 10
260.9416162879567
 20
76.31461171696391
 30
0.0
 10
260.9416162879567
 20
76.1846320000276
 30
0.0
 10
260.9674051313978
 20
76.05353999261821
 30
0.0
 10
261.0678447416389
 20
75.81085670938374
 30
0.0
 10
261.1425758147234
 20
75.69943862782397
 30
0.0
 10
261.2345095067701
 20
75.60750493577733
 30
0.0
  0
SPLINE
  5
E8
330
1F
100
AcDbEntity
  8
0
  6
Continuous
 62
     7
370
    25
100
AcDbSpline
210
0.0
220
0.0
230
1.0
 70
    24
 71
     3
 72
    18
 73
    14
 74
     0
 42
0.000000001
 43
0.00000001
 40
0.0
 40
0.0
 40
0.0
 40
0.0
 40
0.125
 40
0.125
 40
0.2500000000000001
 40
0.2500000000000001
 40
0.5
 40
0.5
 40
0.7499999999999999
 40
0.7499999999999999
 40
0.875
 40
0.875
 40
1.0
 40
1.0
 40
1.0
 40
1.0
 10
260.9416162879567
 20
76.31461171696392
 30
0.0
 10
260.9416162879567
 20
77.35427981801419
 30
0.0
 10
260.9416162879567
 20
78.4041818586265
 30
0.0
 10
260.9416162879567
 20
80.50854263351435
 30
0.0
 10
260.9416162879567
 20
81.56133084501126
 30
0.0
 10
260.9416162879567
 20
84.72166008423727
 30
0.0
 10
260.9416162879567
 20
86.83118595773023
 30
0.0
 10
260.9416162879567
 20
91.05588429771721
 30
0.0
 10
260.9416162879567
 20
93.17105761501595
 30
0.0
 10
260.9416162879567
 20
96.34784003730876
 30
0.0
 10
260.9416162879567
 20
97.40880508144448
 30
0.0
 10
260.9416162879567
 20
99.5074281765625
 30
0.0
 10
260.9416162879567
 20
100.5482346119085
 30
0.0
 10
260.9416162879567
 20
101.5816390217216
 30
0.0
  0
SPLINE
  5
E9
330
1F
100
AcDbEntity
  8
0
  6
Continuous
 62
     7
370
    25
100
AcDbSpline
210
0.0
220
0.0
230
1.0
 70
     8
 71
     3
 72
    10
 73
     6
 74
     0
 42
0.000000001
 43
0.00000001
 40
0.0
 40
0.0
 40
0.0
 40
0.0
 40
0.5
 40
0.5
 40
1.0
 40
1.0
 40
1.0
 40
1.0
 10
261.2345095067701
 20
102.2887458029092
 30
0.0
 10
261.1425999675076
 20
102.1968362636469
 30
0.0
 10
261.0681393861854
 20
102.0859047501723
 30
0.0
 10
260.9675579204307
 20
101.8432802254148
 30
0.0
 10
260.9416162879565
 20
101.711652895854
 30
0.0
 10
260.9416162879566
 20
101.5816390217223
 30
0.0
  0
SPLINE
  5
EA
330
1F
100
AcDbEntity
  8
0
  6
Continuous
 62
     7
370
    25
100
AcDbSpline
210
0.0
220
0.0
230
1.0
 70
    24
 71
     3
 72
    16
 73
    12
 74
     0
 42
0.000000001
 43
0.00000001
 40
0.0
 40
0.0
 40
0.0
 40
0.0
 40
0.25
 40
0.25
 40
0.5
 40
0.5
 40
0.625
 40
0.625
 40
0.75
 40
0.75
 40
1.0
 40
1.0
 40
1.0
 40
1.0
 10
279.1009958543907
 20
120.1552321505299
 30
0.0
 10
277.6275142800569
 20
118.681750576196
 30
0.0
 10
276.1495616908181
 20
117.2037979869573
 30
0.0
 10
273.1829058420261
 20
114.2371421381652
 30
0.0
 10
271.694179121782
 20
112.7484154179212
 30
0.0
 10
269.4522926514811
 20
110.5065289476203
 30
0.0
 10
268.7035405100436
 20
109.7577768061828
 30
0.0
 10
267.203131928173
 20
108.2573682243121
 30
0.0
 10
266.4499334940476
 20
107.5041697901868
 30
0.0
 10
264.1989808100295
 20
105.2532171061687
 30
0.0
 10
262.7114500490296
 20
103.7656863451688
 30
0.0
 10
261.2345095067705
 20
102.2887458029096
 30
0.0
  0
SPLINE
  5
EB
330
1F
100
AcDbEntity
  8
0
  6
Continuous
 62
     7
370
    25
100
AcDbSpline
210
0.0
220
0.0
230
1.0
 70
     8
 71
     3
 72
    10
 73
     6
 74
     0
 42
0.000000001
 43
0.00000001
 40
0.0
 40
0.0
 40
0.0
 40
0.0
 40
0.5
 40
0.5
 40
1.0
 40
1.0
 40
1.0
 40
1.0
 10
279.8081026355773
 20
120.4481253693433
 30
0.0
 10
279.6781229186411
 20
120.4481253693433
 30
0.0
 10
279.5470309112316
 20
120.4223365259023
 30
0.0
 10
279.3043476279971
 20
120.3218969156611
 30
0.0
 10
279.1929295464373
 20
120.2471658425765
 30
0.0
 10
279.1009958543907
 20
120.1552321505299
 30
0.0
  0
SPLINE
  5
EC
330
1F
100
AcDbEntity
  8
0
  6
Continuous
 62
     7
370
    25
100
AcDbSpline
210
0.0
220
0.0
230
1.0
 70
    24
 71
     3
 72
    18
 73
    14
 74
     0
 42
0.000000001
 43
0.00000001
 40
0.0
 40
0.0
 40
0.0
 40
0.0
 40
0.125
 40
0.125
 40
0.2499999999999999
 40
0.2499999999999999
 40
0.5
 40
0.5
 40
0.75
 40
0.75
 40
0.875
 40
0.875
 40
1.0
 40
1.0
 40
1.0
 40
1.0
 10
305.075129940336
 20
120.4481253693433
 30
0.0
 10
304.0354618392857
 20
120.4481253693433
 30
0.0
 10
302.9855597986735
 20
120.4481253693433
 30
0.0
 10
300.8811990237857
 20
120.4481253693433
 30
0.0
 10
299.8284108122887
 20
120.4481253693433
 30
0.0
 10
296.6680815730627
 20
120.4481253693433
 30
0.0
 10
294.5585556995698
 20
120.4481253693433
 30
0.0
 10
290.3338573595828
 20
120.4481253693433
 30
0.0
 10
288.218684042284
 20
120.4481253693433
 30
0.0
 10
285.0419016199912
 20
120.4481253693433
 30
0.0
 10
283.9809365758555
 20
120.4481253693433
 30
0.0
 10
281.8823134807374
 20
120.4481253693433
 30
0.0
 10
280.8415070453914
 20
120.4481253693433
 30
0.0
 10
279.8081026355783
 20
120.4481253693433
 30
0.0
  0
SPLINE
  5
ED
330
1F
100
AcDbEntity
  8
0
  6
Continuous
 62
     7
370
    25
100
AcDbSpline
210
0.0
220
0.0
230
1.0
 70
     8
 71
     3
 72
    10
 73
     6
 74
     0
 42
0.000000001
 43
0.00000001
 40
0.0
 40
0.0
 40
0.0
 40
0.0
 40
0.5
 40
0.5
 40
1.0
 40
1.0
 40
1.0
 40
1.0
 10
305.7822367215226
 20
120.1552321505299
 30
0.0
 10
305.6903271822603
 20
120.2471416897921
 30
0.0
 10
305.5793956687859
 20
120.3216022711144
 30
0.0
 10
305.3367711440288
 20
120.4221837368691
 30
0.0
 10
305.2051438144675
 20
120.4481253693433
 30
0.0
 10
305.075129940336
 20
120.4481253693433
 30
0.0
  0
SPLINE
  5
EE
330
1F
100
AcDbEntity
  8
0
  6
Continuous
 62
     7
370
    25
100
AcDbSpline
210
0.0
220
0.0
230
1.0
 70
    24
 71
     3
 72
    16
 73
    12
 74
     0
 42
0.000000001
 43
0.00000001
 40
0.0
 40
0.0
 40
0.0
 40
0.0
 40
0.2499999999999999
 40
0.2499999999999999
 40
0.4999999999999998
 40
0.4999999999999998
 40
0.6249999999999998
 40
0.6249999999999998
 40
0.7499999999999999
 40
0.7499999999999999
 40
1.0
 40
1.0
 40
1.0
 40
1.0
 10
323.6487230691432
 20
102.2887458029093
 30
0.0
 10
322.1752414948094
 20
103.7622273772431
 30
0.0
 10
320.6972889055706
 20
105.2401799664818
 30
0.0
 10
317.7306330567785
 20
108.2068358152739
 30
0.0
 10
316.2419063365346
 20
109.6955625355179
 30
0.0
 10
314.0000198662336
 20
111.9374490058188
 30
0.0
 10
313.2512677247961
 20
112.6862011472563
 30
0.0
 10
311.7508591429254
 20
114.186609729127
 30
0.0
 10
310.9976607088001
 20
114.9398081632524
 30
0.0
 10
308.746708024782
 20
117.1907608472705
 30
0.0
 10
307.2591772637821
 20
118.6782916082704
 30
0.0
 10
305.782236721523
 20
120.1552321505295
 30
0.0
  0
INSERT
  5
FA
330
1F
100
AcDbEntity
  8
0
  6
Continuous
 62
     7
370
    18
100
AcDbBlockReference
  2
SW_CENTERMARKSYMBOL_0
 10
292.441616288
 20
88.9481253693
 30
0.0
  0
INSERT
  5
106
330
1F
100
AcDbEntity
  8
0
  6
Continuous
 62
     7
370
    18
100
AcDbBlockReference
  2
SW_CENTERMARKSYMBOL_1
 10
292.441616288
 20
88.9481253693
 30
0.0
  0
LINE
  5
107
330
1F
100
AcDbEntity
  8
0
  6
Continuous
 62
     7
370
    25
100
AcDbLine
 10
172.8845522422
 20
144.7602246706
 30
0.0
 11
173.0288898095
 21
145.0102246706
 31
0.0
  0
LINE
  5
108
330
1F
100
AcDbEntity
  8
0
  6
Continuous
 62
     7
370
    25
100
AcDbLine
 10
173.0288898095
 20
207.5102246706
 30
0.0
 11
172.8845522422
 21
207.7602246706
 31
0.0
  0
LINE
  5
109
330
1F
100
AcDbEntity
  8
0
  6
Continuous
 62
     7
370
    25
100
AcDbLine
 10
159.1732273768
 20
207.7602246706
 30
0.0
 11
159.0288898095
 21
207.5102246706
 31
0.0
  0
LINE
  5
10A
330
1F
100
AcDbEntity
  8
0
  6
Continuous
 62
     7
370
    25
100
AcDbLine
 10
159.0288898095
 20
145.0102246706
 30
0.0
 11
159.1732273768
 21
144.7602246706
 31
0.0
  0
LINE
  5
10B
330
1F
100
AcDbEntity
  8
0
  6
Continuous
 62
     7
370
    25
100
AcDbLine
 10
159.0288898095
 20
206.3522246706
 30
0.0
 11
136.0279139616
 21
205.6334441753
 31
0.0
  0
LINE
  5
10C
330
1F
100
AcDbEntity
  8
0
  6
Continuous
 62
     7
370
    25
100
AcDbLine
 10
136.0279139616
 20
146.8870051658
 30
0.0
 11
159.0288898095
 21
146.1682246706
 31
0.0
  0
LINE
  5
10D
330
1F
100
AcDbEntity
  8
0
  6
Continuous
 62
     7
370
    25
100
AcDbLine
 10
136.0279139616
 20
205.6334441753
 30
0.0
 11
134.0288898095
 21
203.505450723
 31
0.0
  0
LINE
  5
10E
330
1F
100
AcDbEntity
  8
0
  6
Continuous
 62
     7
370
    25
100
AcDbLine
 10
134.0288898095
 20
149.0149986181
 30
0.0
 11
136.0279139616
 21
146.8870051658
 31
0.0
  0
LINE
  5
10F
330
1F
100
AcDbEntity
  8
0
  6
Continuous
 62
     7
370
    25
100
AcDbLine
 10
205.0288898095
 20
150.0102246706
 30
0.0
 11
215.0288898095
 21
151.2602246706
 31
0.0
  0
LINE
  5
110
330
1F
100
AcDbEntity
  8
0
  6
Continuous
 62
     7
370
    25
100
AcDbLine
 10
215.0288898095
 20
201.2602246706
 30
0.0
 11
205.0288898095
 21
202.5102246706
 31
0.0
  0
LINE
  5
111
330
1F
100
AcDbEntity
  8
0
  6
Continuous
 62
     7
370
    25
100
AcDbLine
 10
185.0288898095
 20
202.5102246706
 30
0.0
 11
173.0288898095
 21
202.5102246706
 31
0.0
  0
LINE
  5
112
330
1F
100
AcDbEntity
  8
0
  6
Continuous
 62
     7
370
    25
100
AcDbLine
 10
173.0288898095
 20
150.0102246706
 30
0.0
 11
185.0288898095
 21
150.0102246706
 31
0.0
  0
LINE
  5
113
330
1F
100
AcDbEntity
  8
0
  6
Continuous
 62
     7
370
    25
100
AcDbLine
 10
185.0288898095
 20
150.0102246706
 30
0.0
 11
195.0288898095
 21
151.2602246706
 31
0.0
  0
LINE
  5
114
330
1F
100
AcDbEntity
  8
0
  6
Continuous
 62
     7
370
    25
100
AcDbLine
 10
195.0288898095
 20
201.2602246706
 30
0.0
 11
185.0288898095
 21
202.5102246706
 31
0.0
  0
LINE
  5
115
330
1F
100
AcDbEntity
  8
0
  6
Continuous
 62
     7
370
    25
100
AcDbLine
 10
195.0288898095
 20
150.0102246706
 30
0.0
 11
205.0288898095
 21
151.2602246706
 31
0.0
  0
LINE
  5
116
330
1F
100
AcDbEntity
  8
0
  6
Continuous
 62
     7
370
    25
100
AcDbLine
 10
205.0288898095
 20
201.2602246706
 30
0.0
 11
195.0288898095
 21
202.5102246706
 31
0.0
  0
LINE
  5
117
330
1F
100
AcDbEntity
  8
0
  6
Continuous
 62
     7
370
    25
100
AcDbLine
 10
225.0288898095
 20
150.0102246706
 30
0.0
 11
235.1417994975
 21
151.1594189533
 31
0.0
  0
LINE
  5
118
330
1F
100
AcDbEntity
  8
0
  6
Continuous
 62
     7
370
    25
100
AcDbLine
 10
235.1417994975
 20
201.3610303878
 30
0.0
 11
225.0288898095
 21
202.5102246706
 31
0.0
  0
LINE
  5
119
330
1F
100
AcDbEntity
  8
0
  6
Continuous
 62
     7
370
    25
100
AcDbLine
 10
215.0288898095
 20
150.0102246706
 30
0.0
 11
225.0288898095
 21
151.2602246706
 31
0.0
  0
LINE
  5
11A
330
1F
100
AcDbEntity
  8
0
  6
Continuous
 62
     7
370
    25
100
AcDbLine
 10
225.0288898095
 20
201.2602246706
 30
0.0
 11
215.0288898095
 21
202.5102246706
 31
0.0
  0
ARC
  5
11B
330
1F
100
AcDbEntity
  8
0
  6
Continuous
 62
     7
370
    25
100
AcDbCircle
 10
235.0288898095
 20
200.367425133
 30
0.0
 40
1.0
100
AcDbArc
 50
0.0
 51
83.5169263071
  0
ARC
  5
11C
330
1F
100
AcDbEntity
  8
0
  6
Continuous
 62
     7
370
    25
100
AcDbCircle
 10
235.0288898095
 20
152.1530242081
 30
0.0
 40
1.0
100
AcDbArc
 50
276.4830736929
 51
0.0
  0
SPLINE
  5
11D
330
1F
100
AcDbEntity
  8
0
  6
Continuous
 62
     7
370
    25
100
AcDbSpline
210
0.0
220
0.0
230
1.0
 70
     8
 71
     3
 72
    10
 73
     6
 74
     0
 42
0.000000001
 43
0.00000001
 40
0.0
 40
0.0
 40
0.0
 40
0.0
 40
0.5
 40
0.5
 40
1.0
 40
1.0
 40
1.0
 40
1.0
 10
171.4763953931919
 20
207.7602246705662
 30
0.0
 10
171.4484609459697
 20
207.7602246705662
 30
0.0
 10
171.4337144265577
 20
207.7344358271252
 30
0.0
 10
171.4336714055787
 20
207.633996216884
 30
0.0
 10
171.4484536051104
 20
207.5592651437995
 30
0.0
 10
171.4763953931884
 20
207.4673314517528
 30
0.0
  0
SPLINE
  5
11E
330
1F
100
AcDbEntity
  8
0
  6
Continuous
 62
     7
370
    25
100
AcDbSpline
210
0.0
220
0.0
230
1.0
 70
    24
 71
     3
 72
    13
 73
     9
 74
     0
 42
0.000000001
 43
0.00000001
 40
0.0
 40
0.0
 40
0.0
 40
0.0
 40
0.0669525399853722
 40
0.245694972051922
 40
0.4256402922257166
 40
0.6055900676253606
 40
0.8026496923969302
 40
1.0
 40
1.0
 40
1.0
 40
1.0
 10
172.8733691014304
 20
207.7602246705662
 30
0.0
 10
172.8762494113594
 20
207.7602246705662
 30
0.0
 10
172.8868192518412
 20
207.7602246705662
 30
0.0
 10
172.806625679433
 20
207.7602246705662
 30
0.0
 10
172.6342697188064
 20
207.7602246705662
 30
0.0
 10
172.3551994117631
 20
207.7602246705662
 30
0.0
 10
171.9799145238077
 20
207.7602246705662
 30
0.0
 10
171.6443175491542
 20
207.7602246705662
 30
0.0
 10
171.4763953931887
 20
207.7602246705662
 30
0.0
  0
SPLINE
  5
11F
330
1F
100
AcDbEntity
  8
0
  6
Continuous
 62
     7
370
    25
100
AcDbSpline
210
0.0
220
0.0
230
1.0
 70
    24
 71
     3
 72
    11
 73
     7
 74
     0
 42
0.000000001
 43
0.00000001
 40
0.0
 40
0.0
 40
0.0
 40
0.0
 40
0.1970847632607319
 40
0.3944435608984211
 40
0.7430535658122234
 40
1.0
 40
1.0
 40
1.0
 40
1.0
 10
171.4763953931887
 20
144.7602246705663
 30
0.0
 10
171.6442987582573
 20
144.7602246705663
 30
0.0
 10
171.980338947812
 20
144.7602246705663
 30
0.0
 10
172.4619067085496
 20
144.7602246705663
 30
0.0
 10
172.8337860729414
 20
144.7602246705663
 30
0.0
 10
172.8443388620272
 20
144.7602246705663
 30
0.0
 10
172.8488165644364
 20
144.7602246705663
 30
0.0
  0
SPLINE
  5
120
330
1F
100
AcDbEntity
  8
0
  6
Continuous
 62
     7
370
    25
100
AcDbSpline
210
0.0
220
0.0
230
1.0
 70
     8
 71
     3
 72
    10
 73
     6
 74
     0
 42
0.000000001
 43
0.00000001
 40
0.0
 40
0.0
 40
0.0
 40
0.0
 40
0.5
 40
0.5
 40
1.0
 40
1.0
 40
1.0
 40
1.0
 10
171.476395393192
 20
145.0531178893797
 30
0.0
 10
171.4484609459698
 20
144.9612083501173
 30
0.0
 10
171.4337144265577
 20
144.8867477687949
 30
0.0
 10
171.4336714055787
 20
144.7861663030403
 30
0.0
 10
171.4484536051104
 20
144.7602246705661
 30
0.0
 10
171.4763953931885
 20
144.7602246705662
 30
0.0
  0
SPLINE
  5
121
330
1F
100
AcDbEntity
  8
0
  6
Continuous
 62
     7
370
    25
100
AcDbSpline
210
0.0
220
0.0
230
1.0
 70
     8
 71
     3
 72
    16
 73
    12
 74
     0
 42
0.000000001
 43
0.00000001
 40
0.0
 40
0.0
 40
0.0
 40
0.0
 40
0.25
 40
0.25
 40
0.5
 40
0.5
 40
0.625
 40
0.625
 40
0.75
 40
0.75
 40
1.0
 40
1.0
 40
1.0
 40
1.0
 10
171.4763953931884
 20
162.9196042370003
 30
0.0
 10
171.9242367554828
 20
161.4461226626665
 30
0.0
 10
172.2775938317931
 20
159.9681700734277
 30
0.0
 10
172.7571180890262
 20
157.0015142246356
 30
0.0
 10
172.8827894839484
 20
155.5127875043917
 30
0.0
 10
172.8854057573749
 20
153.2709010340907
 30
0.0
 10
172.855494980544
 20
152.5221488926533
 30
0.0
 10
172.734297962313
 20
151.0217403107826
 30
0.0
 10
172.6427383354882
 20
150.2685418766572
 30
0.0
 10
172.2812579073259
 20
148.0175891926391
 30
0.0
 10
171.9252880539415
 20
146.5300584316392
 30
0.0
 10
171.4763953931886
 20
145.0531178893801
 30
0.0
  0
SPLINE
  5
122
330
1F
100
AcDbEntity
  8
0
  6
Continuous
 62
     7
370
    25
100
AcDbSpline
210
0.0
220
0.0
230
1.0
 70
     8
 71
     3
 72
    10
 73
     6
 74
     0
 42
0.000000001
 43
0.00000001
 40
0.0
 40
0.0
 40
0.0
 40
0.0
 40
0.5
 40
0.5
 40
1.0
 40
1.0
 40
1.0
 40
1.0
 10
171.4763953931919
 20
163.6267110181869
 30
0.0
 10
171.4484609459697
 20
163.4967313012507
 30
0.0
 10
171.4337144265577
 20
163.3656392938412
 30
0.0
 10
171.4336714055787
 20
163.1229560106067
 30
0.0
 10
171.4484536051104
 20
163.0115379290469
 30
0.0
 10
171.4763953931884
 20
162.9196042370003
 30
0.0
  0
SPLINE
  5
123
330
1F
100
AcDbEntity
  8
0
  6
Continuous
 62
     7
370
    25
100
AcDbSpline
210
0.0
220
0.0
230
1.0
 70
     8
 71
     3
 72
    18
 73
    14
 74
     0
 42
0.000000001
 43
0.00000001
 40
0.0
 40
0.0
 40
0.0
 40
0.0
 40
0.125
 40
0.125
 40
0.2499999999999999
 40
0.2499999999999999
 40
0.5
 40
0.5
 40
0.75
 40
0.75
 40
0.875
 40
0.875
 40
1.0
 40
1.0
 40
1.0
 40
1.0
 10
171.4763953931884
 20
188.8937383229456
 30
0.0
 10
171.6998345141678
 20
187.8540702218954
 30
0.0
 10
171.9015803020337
 20
186.8041681812831
 30
0.0
 10
172.2521092519992
 20
184.6998074063952
 30
0.0
 10
172.4007160688047
 20
183.6470191948983
 30
0.0
 10
172.7603738192882
 20
180.4866899556723
 30
0.0
 10
172.8843743316334
 20
178.3771640821793
 30
0.0
 10
172.8847297665301
 20
174.1524657421924
 30
0.0
 10
172.7610473748924
 20
172.0372924248936
 30
0.0
 10
172.3991092491011
 20
168.8605100026008
 30
0.0
 10
172.2489000492413
 20
167.7995449584651
 30
0.0
 10
171.8987115420857
 20
165.700921863347
 30
0.0
 10
171.6984883598879
 20
164.6601154280011
 30
0.0
 10
171.4763953931887
 20
163.6267110181879
 30
0.0
  0
SPLINE
  5
124
330
1F
100
AcDbEntity
  8
0
  6
Continuous
 62
     7
370
    25
100
AcDbSpline
210
0.0
220
0.0
230
1.0
 70
     8
 71
     3
 72
    10
 73
     6
 74
     0
 42
0.000000001
 43
0.00000001
 40
0.0
 40
0.0
 40
0.0
 40
0.0
 40
0.5
 40
0.5
 40
1.0
 40
1.0
 40
1.0
 40
1.0
 10
171.476395393192
 20
189.6008451041322
 30
0.0
 10
171.4484609459698
 20
189.5089355648699
 30
0.0
 10
171.4337144265578
 20
189.3980040513955
 30
0.0
 10
171.4336714055787
 20
189.1553795266384
 30
0.0
 10
171.4484536051104
 20
189.0237521970772
 30
0.0
 10
171.4763953931884
 20
188.8937383229456
 30
0.0
  0
SPLINE
  5
125
330
1F
100
AcDbEntity
  8
0
  6
Continuous
 62
     7
370
    25
100
AcDbSpline
210
0.0
220
0.0
230
1.0
 70
     8
 71
     3
 72
    16
 73
    12
 74
     0
 42
0.000000001
 43
0.00000001
 40
0.0
 40
0.0
 40
0.0
 40
0.0
 40
0.2499999999999999
 40
0.2499999999999999
 40
0.4999999999999998
 40
0.4999999999999998
 40
0.6249999999999998
 40
0.6249999999999998
 40
0.7499999999999999
 40
0.7499999999999999
 40
1.0
 40
1.0
 40
1.0
 40
1.0
 10
171.4763953931884
 20
207.4673314517528
 30
0.0
 10
171.9242367554828
 20
205.9938498774189
 30
0.0
 10
172.2775938317931
 20
204.5158972881802
 30
0.0
 10
172.7571180890262
 20
201.5492414393881
 30
0.0
 10
172.8827894839484
 20
200.0605147191442
 30
0.0
 10
172.8854057573749
 20
197.8186282488433
 30
0.0
 10
172.855494980544
 20
197.0698761074057
 30
0.0
 10
172.734297962313
 20
195.5694675255351
 30
0.0
 10
172.6427383354882
 20
194.8162690914097
 30
0.0
 10
172.2812579073259
 20
192.5653164073916
 30
0.0
 10
171.9252880539415
 20
191.0777856463917
 30
0.0
 10
171.4763953931886
 20
189.6008451041326
 30
0.0
  0
LINE
  5
126
330
1F
100
AcDbEntity
  8
0
  6
Continuous
 62
     7
370
    25
100
AcDbLine
 10
173.0288898095
 20
207.5102246706
 30
0.0
 11
173.0288898095
 21
145.0102246706
 31
0.0
  0
SPLINE
  5
127
330
1F
100
AcDbEntity
  8
0
  6
Continuous
 62
     7
370
    25
100
AcDbSpline
210
0.0
220
0.0
230
1.0
 70
     8
 71
     3
 72
    10
 73
     6
 74
     0
 42
0.000000001
 43
0.00000001
 40
0.0
 40
0.0
 40
0.0
 40
0.0
 40
0.5
 40
0.5
 40
1.0
 40
1.0
 40
1.0
 40
1.0
 10
160.5813842257589
 20
162.9196042370003
 30
0.0
 10
160.6093186729809
 20
163.0115137762617
 30
0.0
 10
160.6240651923893
 20
163.1224452897351
 30
0.0
 10
160.624108213369
 20
163.3650698144891
 30
0.0
 10
160.6093260138367
 20
163.4966971440572
 30
0.0
 10
160.5813842257589
 20
163.6267110181873
 30
0.0
  0
SPLINE
  5
128
330
1F
100
AcDbEntity
  8
0
  6
Continuous
 62
     7
370
    25
100
AcDbSpline
210
0.0
220
0.0
230
1.0
 70
     8
 71
     3
 72
    16
 73
    12
 74
     0
 42
0.000000001
 43
0.00000001
 40
0.0
 40
0.0
 40
0.0
 40
0.0
 40
0.2500000000000002
 40
0.2500000000000002
 40
0.5000000000000003
 40
0.5000000000000003
 40
0.6250000000000003
 40
0.6250000000000003
 40
0.7500000000000002
 40
0.7500000000000002
 40
1.0
 40
1.0
 40
1.0
 40
1.0
 10
160.5813842257589
 20
162.9196042370003
 30
0.0
 10
160.1335428634645
 20
161.4461226626664
 30
0.0
 10
159.7801857871542
 20
159.9681700734275
 30
0.0
 10
159.3006615299211
 20
157.0015142246352
 30
0.0
 10
159.174990134999
 20
155.5127875043912
 30
0.0
 10
159.1723738615725
 20
153.2709010340901
 30
0.0
 10
159.2022846384034
 20
152.5221488926525
 30
0.0
 10
159.3234816566344
 20
151.0217403107818
 30
0.0
 10
159.4150412834592
 20
150.2685418766563
 30
0.0
 10
159.7765217116217
 20
148.0175891926381
 30
0.0
 10
160.1324915650062
 20
146.5300584316381
 30
0.0
 10
160.5813842257592
 20
145.0531178893789
 30
0.0
  0
SPLINE
  5
129
330
1F
100
AcDbEntity
  8
0
  6
Continuous
 62
     7
370
    25
100
AcDbSpline
210
0.0
220
0.0
230
1.0
 70
     8
 71
     3
 72
    10
 73
     6
 74
     0
 42
0.000000001
 43
0.00000001
 40
0.0
 40
0.0
 40
0.0
 40
0.0
 40
0.5
 40
0.5
 40
1.0
 40
1.0
 40
1.0
 40
1.0
 10
160.5813842257555
 20
144.7602246705663
 30
0.0
 10
160.6093186729773
 20
144.7602246705663
 30
0.0
 10
160.6240651923899
 20
144.7860135140088
 30
0.0
 10
160.6241082133684
 20
144.8864531242495
 30
0.0
 10
160.6093260138366
 20
144.9611841973343
 30
0.0
 10
160.5813842257589
 20
145.0531178893799
 30
0.0
  0
SPLINE
  5
12A
330
1F
100
AcDbEntity
  8
0
  6
Continuous
 62
     7
370
    25
100
AcDbSpline
210
0.0
220
0.0
230
1.0
 70
    24
 71
     3
 72
    11
 73
     7
 74
     0
 42
0.000000001
 43
0.00000001
 40
0.0
 40
0.0
 40
0.0
 40
0.0
 40
0.1970847632609529
 40
0.3944435608988643
 40
0.7430535658124114
 40
1.0
 40
1.0
 40
1.0
 40
1.0
 10
160.5813842257606
 20
144.7602246705663
 30
0.0
 10
160.4134808606917
 20
144.7602246705663
 30
0.0
 10
160.0774406711362
 20
144.7602246705663
 30
0.0
 10
159.595872910398
 20
144.7602246705662
 30
0.0
 10
159.223993546006
 20
144.7602246705663
 30
0.0
 10
159.2134407569202
 20
144.7602246705663
 30
0.0
 10
159.2089630545109
 20
144.7602246705663
 30
0.0
  0
SPLINE
  5
12B
330
1F
100
AcDbEntity
  8
0
  6
Continuous
 62
     7
370
    25
100
AcDbSpline
210
0.0
220
0.0
230
1.0
 70
    24
 71
     3
 72
    13
 73
     9
 74
     0
 42
0.000000001
 43
0.00000001
 40
0.0
 40
0.0
 40
0.0
 40
0.0
 40
0.0669525399853232
 40
0.245694972051742
 40
0.4256402922254049
 40
0.6055900676249171
 40
0.8026496923967079
 40
1.0
 40
1.0
 40
1.0
 40
1.0
 10
159.184410517517
 20
207.7602246705662
 30
0.0
 10
159.181530207588
 20
207.7602246705662
 30
0.0
 10
159.1709603671062
 20
207.7602246705662
 30
0.0
 10
159.2511539395144
 20
207.7602246705662
 30
0.0
 10
159.423509900141
 20
207.7602246705662
 30
0.0
 10
159.7025802071845
 20
207.7602246705662
 30
0.0
 10
160.0778650951404
 20
207.7602246705662
 30
0.0
 10
160.4134620697948
 20
207.7602246705662
 30
0.0
 10
160.5813842257606
 20
207.7602246705662
 30
0.0
  0
SPLINE
  5
12C
330
1F
100
AcDbEntity
  8
0
  6
Continuous
 62
     7
370
    25
100
AcDbSpline
210
0.0
220
0.0
230
1.0
 70
     8
 71
     3
 72
    10
 73
     6
 74
     0
 42
0.000000001
 43
0.00000001
 40
0.0
 40
0.0
 40
0.0
 40
0.0
 40
0.5
 40
0.5
 40
1.0
 40
1.0
 40
1.0
 40
1.0
 10
160.5813842257589
 20
207.4673314517528
 30
0.0
 10
160.6093186729808
 20
207.5592409910142
 30
0.0
 10
160.6240651923893
 20
207.633701572336
 30
0.0
 10
160.624108213369
 20
207.7342830380905
 30
0.0
 10
160.6093260138367
 20
207.7602246705663
 30
0.0
 10
160.5813842257589
 20
207.7602246705663
 30
0.0
  0
SPLINE
  5
12D
330
1F
100
AcDbEntity
  8
0
  6
Continuous
 62
     7
370
    25
100
AcDbSpline
210
0.0
220
0.0
230
1.0
 70
     8
 71
     3
 72
    16
 73
    12
 74
     0
 42
0.000000001
 43
0.00000001
 40
0.0
 40
0.0
 40
0.0
 40
0.0
 40
0.2500000000000003
 40
0.2500000000000003
 40
0.5000000000000006
 40
0.5000000000000006
 40
0.6250000000000004
 40
0.6250000000000004
 40
0.7500000000000003
 40
0.7500000000000003
 40
1.0
 40
1.0
 40
1.0
 40
1.0
 10
160.5813842257589
 20
207.4673314517528
 30
0.0
 10
160.1335428634645
 20
205.9938498774189
 30
0.0
 10
159.7801857871542
 20
204.51589728818
 30
0.0
 10
159.3006615299211
 20
201.5492414393877
 30
0.0
 10
159.174990134999
 20
200.0605147191436
 30
0.0
 10
159.1723738615725
 20
197.8186282488425
 30
0.0
 10
159.2022846384034
 20
197.069876107405
 30
0.0
 10
159.3234816566344
 20
195.5694675255342
 30
0.0
 10
159.4150412834592
 20
194.8162690914088
 30
0.0
 10
159.7765217116217
 20
192.5653164073906
 30
0.0
 10
160.1324915650062
 20
191.0777856463906
 30
0.0
 10
160.5813842257592
 20
189.6008451041314
 30
0.0
  0
SPLINE
  5
12E
330
1F
100
AcDbEntity
  8
0
  6
Continuous
 62
     7
370
    25
100
AcDbSpline
210
0.0
220
0.0
230
1.0
 70
     8
 71
     3
 72
    10
 73
     6
 74
     0
 42
0.000000001
 43
0.00000001
 40
0.0
 40
0.0
 40
0.0
 40
0.0
 40
0.5
 40
0.5
 40
1.0
 40
1.0
 40
1.0
 40
1.0
 10
160.581384225759
 20
188.8937383229456
 30
0.0
 10
160.6093186729811
 20
189.0237180398817
 30
0.0
 10
160.6240651923896
 20
189.154810047291
 30
0.0
 10
160.6241082133687
 20
189.3974933305251
 30
0.0
 10
160.6093260138369
 20
189.5089114120861
 30
0.0
 10
160.5813842257589
 20
189.6008451041325
 30
0.0
  0
SPLINE
  5
12F
330
1F
100
AcDbEntity
  8
0
  6
Continuous
 62
     7
370
    25
100
AcDbSpline
210
0.0
220
0.0
230
1.0
 70
     8
 71
     3
 72
    18
 73
    14
 74
     0
 42
0.000000001
 43
0.00000001
 40
0.0
 40
0.0
 40
0.0
 40
0.0
 40
0.1249999999999999
 40
0.1249999999999999
 40
0.2499999999999999
 40
0.2499999999999999
 40
0.4999999999999999
 40
0.4999999999999999
 40
0.7499999999999999
 40
0.7499999999999999
 40
0.8749999999999999
 40
0.8749999999999999
 40
1.0
 40
1.0
 40
1.0
 40
1.0
 10
160.581384225759
 20
188.8937383229457
 30
0.0
 10
160.3579451047795
 20
187.854070221895
 30
0.0
 10
160.1561993169136
 20
186.8041681812823
 30
0.0
 10
159.8056703669479
 20
184.6998074063937
 30
0.0
 10
159.6570635501425
 20
183.6470191948964
 30
0.0
 10
159.2974057996589
 20
180.4866899556692
 30
0.0
 10
159.1734052873138
 20
178.3771640821755
 30
0.0
 10
159.1730498524174
 20
174.152465742187
 30
0.0
 10
159.2967322440554
 20
172.0372924248874
 30
0.0
 10
159.6586703698473
 20
168.8605100025934
 30
0.0
 10
159.8088795697072
 20
167.7995449584573
 30
0.0
 10
160.1590680768632
 20
165.7009218633386
 30
0.0
 10
160.3592912590612
 20
164.6601154279923
 30
0.0
 10
160.5813842257606
 20
163.6267110181788
 30
0.0
  0
LINE
  5
130
330
1F
100
AcDbEntity
  8
0
  6
Continuous
 62
     7
370
    25
100
AcDbLine
 10
159.0288898095
 20
207.5102246706
 30
0.0
 11
159.0288898095
 21
145.0102246706
 31
0.0
  0
LINE
  5
131
330
1F
100
AcDbEntity
  8
0
  6
Continuous
 62
     7
370
    25
100
AcDbLine
 10
171.4763953932
 20
188.8937383229
 30
0.0
 11
160.5813842258
 21
188.8937383229
 31
0.0
  0
LINE
  5
132
330
1F
100
AcDbEntity
  8
0
  6
Continuous
 62
     7
370
    25
100
AcDbLine
 10
160.5813842258
 20
189.6008451041
 30
0.0
 11
171.4763953932
 21
189.6008451041
 31
0.0
  0
LINE
  5
133
330
1F
100
AcDbEntity
  8
0
  6
Continuous
 62
     7
370
    25
100
AcDbLine
 10
160.5813842258
 20
163.6267110182
 30
0.0
 11
171.4763953932
 21
163.6267110182
 31
0.0
  0
LINE
  5
134
330
1F
100
AcDbEntity
  8
0
  6
Continuous
 62
     7
370
    25
100
AcDbLine
 10
171.4763953932
 20
162.919604237
 30
0.0
 11
160.5813842258
 21
162.919604237
 31
0.0
  0
LINE
  5
135
330
1F
100
AcDbEntity
  8
0
  6
Continuous
 62
     7
370
    25
100
AcDbLine
 10
171.4763953932
 20
207.4673314518
 30
0.0
 11
160.5813842258
 21
207.4673314518
 31
0.0
  0
LINE
  5
136
330
1F
100
AcDbEntity
  8
0
  6
Continuous
 62
     7
370
    25
100
AcDbLine
 10
160.5813842258
 20
145.0531178894
 30
0.0
 11
171.4763953932
 21
145.0531178894
 31
0.0
  0
LINE
  5
137
330
1F
100
AcDbEntity
  8
0
  6
Continuous
 62
     7
370
    25
100
AcDbLine
 10
136.0279139616
 20
205.6334441753
 30
0.0
 11
136.0279139616
 21
146.8870051658
 31
0.0
  0
LINE
  5
138
330
1F
100
AcDbEntity
  8
0
  6
Continuous
 62
     7
370
    25
100
AcDbLine
 10
134.0288898095
 20
149.0149986181
 30
0.0
 11
134.0288898095
 21
203.505450723
 31
0.0
  0
LINE
  5
139
330
1F
100
AcDbEntity
  8
0
  6
Continuous
 62
     7
370
    25
100
AcDbLine
 10
205.0288898095
 20
202.5102246706
 30
0.0
 11
205.0288898095
 21
150.0102246706
 31
0.0
  0
LINE
  5
13A
330
1F
100
AcDbEntity
  8
0
  6
Continuous
 62
     7
370
    25
100
AcDbLine
 10
185.0288898095
 20
202.5102246706
 30
0.0
 11
185.0288898095
 21
150.0102246706
 31
0.0
  0
LINE
  5
13B
330
1F
100
AcDbEntity
  8
0
  6
Continuous
 62
     7
370
    25
100
AcDbLine
 10
195.0288898095
 20
202.5102246706
 30
0.0
 11
195.0288898095
 21
150.0102246706
 31
0.0
  0
LINE
  5
13C
330
1F
100
AcDbEntity
  8
0
  6
Continuous
 62
     7
370
    25
100
AcDbLine
 10
225.0288898095
 20
202.5102246706
 30
0.0
 11
225.0288898095
 21
150.0102246706
 31
0.0
  0
LINE
  5
13D
330
1F
100
AcDbEntity
  8
0
  6
Continuous
 62
     7
370
    25
100
AcDbLine
 10
215.0288898095
 20
202.5102246706
 30
0.0
 11
215.0288898095
 21
150.0102246706
 31
0.0
  0
LINE
  5
13E
330
1F
100
AcDbEntity
  8
0
  6
Continuous
 62
     7
370
    25
100
AcDbLine
 10
236.0288898095
 20
200.367425133
 30
0.0
 11
236.0288898095
 21
152.1530242093
 31
0.0
  0
LINE
  5
13F
330
1F
100
AcDbEntity
  8
0
  6
Continuous
 62
     7
370
    25
100
AcDbLine
 10
171.4763953932
 20
144.7602246706
 30
0.0
 11
160.5813842258
 21
144.7602246706
 31
0.0
  0
LINE
  5
140
330
1F
100
AcDbEntity
  8
0
  6
Continuous
 62
     7
370
    25
100
AcDbLine
 10
160.5813842258
 20
207.7602246706
 30
0.0
 11
171.4763953932
 21
207.7602246706
 31
0.0
  0
LINE
  5
141
330
1F
100
AcDbEntity
  8
0
  6
Continuous
 62
     8
370
    25
100
AcDbLine
 10
235.1417994975
 20
151.1594189533
 30
0.0
 11
235.1417994975
 21
201.3610303878
 31
0.0
  0
LINE
  5
142
330
1F
100
AcDbEntity
  8
0
  6
Continuous
 62
     7
370
    18
100
AcDbLine
 10
135.0168094957
 20
204.5571071632
 30
0.0
 11
158.0288898095
 21
205.276234673
 31
0.0
  0
LINE
  5
143
330
1F
100
AcDbEntity
  8
0
  6
Continuous
 62
     7
370
    18
100
AcDbLine
 10
135.0168094957
 20
147.9633421779
 30
0.0
 11
158.0288898095
 21
147.2442146681
 31
0.0
  0
LINE
  5
144
330
1F
100
AcDbEntity
  8
0
  6
Continuous
 62
     7
370
    18
100
AcDbLine
 10
158.0288898095
 20
146.1994746706
 30
0.0
 11
158.0288898095
 21
206.3209746706
 31
0.0
  0
LINE
  5
145
330
1F
100
AcDbEntity
  8
0
  6
CENTERX2
 62
     7
370
    18
100
AcDbLine
 10
238.0288898095
 20
176.2602246706
 30
0.0
 11
132.0553619361
 21
176.2602246706
 31
0.0
  0
ENDSEC
  0
SECTION
  2
OBJECTS
  0
DICTIONARY
  5
C
330
0
100
AcDbDictionary
281
     1
  3
ACAD_GROUP
350
D
  3
ACAD_LAYOUT
350
1A
  3
ACAD_MLINESTYLE
350
17
  3
ACAD_PLOTSETTINGS
350
19
  3
ACAD_PLOTSTYLENAME
350
E
  3
ACAD_SCALELIST
350
47
  0
DICTIONARY
  5
D
102
{ACAD_REACTORS
330
C
102
}
330
C
100
AcDbDictionary
281
     1
  0
DICTIONARY
  5
1A
102
{ACAD_REACTORS
330
C
102
}
330
C
100
AcDbDictionary
281
     1
  3
Layout1
350
1E
  3
Layout2
350
26
  3
Model
350
22
  0
DICTIONARY
  5
17
102
{ACAD_REACTORS
330
C
102
}
330
C
100
AcDbDictionary
281
     1
  3
Standard
350
18
  0
DICTIONARY
  5
19
102
{ACAD_REACTORS
330
C
102
}
330
C
100
AcDbDictionary
281
     1
  0
ACDBDICTIONARYWDFLT
  5
E
102
{ACAD_REACTORS
330
C
102
}
330
C
100
AcDbDictionary
281
     1
  3
Normal
350
F
100
AcDbDictionaryWithDefault
340
F
  0
DICTIONARY
  5
47
102
{ACAD_REACTORS
330
C
102
}
330
C
100
AcDbDictionary
281
     1
  3
A0
350
48
  3
A1
350
49
  3
A2
350
4A
  3
A3
350
4B
  3
A4
350
4C
  3
A5
350
4D
  3
A6
350
4E
  3
A7
350
4F
  3
A8
350
50
  3
A9
350
51
  3
B0
350
52
  3
B1
350
53
  3
B2
350
54
  3
B3
350
55
  3
B4
350
56
  3
B5
350
57
  3
B6
350
58
  3
B7
350
59
  3
B8
350
5A
  3
B9
350
5B
  3
C0
350
5C
  3
C1
350
5D
  3
C2
350
5E
  3
C3
350
5F
  3
C4
350
60
  3
C5
350
61
  3
C6
350
62
  3
C7
350
63
  3
C8
350
64
  3
C9
350
65
  3
D0
350
66
  3
D1
350
67
  3
D2
350
68
  0
LAYOUT
  5
1E
102
{ACAD_REACTORS
330
1A
102
}
330
1A
100
AcDbPlotSettings
  1

  2
none_device
  4

  6

 40
0.0
 41
0.0
 42
0.0
 43
0.0
 44
0.0
 45
0.0
 46
0.0
 47
0.0
 48
0.0
 49
0.0
140
0.0
141
0.0
142
1.0
143
1.0
 70
   688
 72
     1
 73
     0
 74
     5
  7

 75
    16
147
1.0
148
0.0
149
0.0
100
AcDbLayout
  1
Layout1
 70
     1
 71
     1
 10
0.0
 20
0.0
 11
420.0
 21
297.0
 12
0.0
 22
0.0
 32
0.0
 14
1.0000000000E+20
 24
1.0000000000E+20
 34
1.0000000000E+20
 15
-1.0000000000E+20
 25
-1.0000000000E+20
 35
-1.0000000000E+20
146
0.0
 13
0.0
 23
0.0
 33
0.0
 16
1.0
 26
0.0
 36
0.0
 17
0.0
 27
1.0
 37
0.0
 76
     0
330
1B
  0
LAYOUT
  5
26
102
{ACAD_REACTORS
330
1A
102
}
330
1A
100
AcDbPlotSettings
  1

  2
none_device
  4

  6

 40
0.0
 41
0.0
 42
0.0
 43
0.0
 44
0.0
 45
0.0
 46
0.0
 47
0.0
 48
0.0
 49
0.0
140
0.0
141
0.0
142
1.0
143
1.0
 70
   688
 72
     1
 73
     0
 74
     5
  7

 75
    16
147
1.0
148
0.0
149
0.0
100
AcDbLayout
  1
Layout2
 70
     1
 71
     2
 10
0.0
 20
0.0
 11
0.0
 21
0.0
 12
0.0
 22
0.0
 32
0.0
 14
0.0
 24
0.0
 34
0.0
 15
0.0
 25
0.0
 35
0.0
146
0.0
 13
0.0
 23
0.0
 33
0.0
 16
1.0
 26
0.0
 36
0.0
 17
0.0
 27
1.0
 37
0.0
 76
     0
330
23
  0
LAYOUT
  5
22
102
{ACAD_REACTORS
330
1A
102
}
330
1A
100
AcDbPlotSettings
  1

  2
none_device
  4
Letter_(8.50_x_11.00_Inches)
  6

 40
6.35
 41
6.35
 42
6.35000508
 43
6.35000508
 44
215.9
 45
279.4
 46
0.0
 47
0.0
 48
0.0
 49
0.0
140
0.0
141
0.0
142
1.0
143
1.0
 70
  1712
 72
     1
 73
     0
 74
     0
  7

 75
     0
147
1.0
148
0.0
149
0.0
100
AcDbLayout
  1
Model
 70
     1
 71
     0
 10
0.0
 20
0.0
 11
431.8
 21
279.4
 12
0.0
 22
0.0
 32
0.0
 14
0.0
 24
0.0
 34
0.0
 15
431.8
 25
279.4
 35
0.0
146
0.0
 13
0.0
 23
0.0
 33
0.0
 16
1.0
 26
0.0
 36
0.0
 17
0.0
 27
1.0
 37
0.0
 76
     0
330
1F
331
29
  0
MLINESTYLE
  5
18
102
{ACAD_REACTORS
330
17
102
}
330
17
100
AcDbMlineStyle
  2
Standard
 70
     0
  3

 62
   256
 51
90.0
 52
90.0
 71
     2
 49
0.5
 62
   256
  6
BYLAYER
 49
-0.5
 62
   256
  6
BYLAYER
  0
ACDBPLACEHOLDER
  5
F
102
{ACAD_REACTORS
330
E
102
}
330
E
  0
SCALE
  5
48
102
{ACAD_REACTORS
330
47
102
}
330
47
100
AcDbScale
 70
     0
300
1:1
140
1.0
141
1.0
290
     1
  0
SCALE
  5
49
102
{ACAD_REACTORS
330
47
102
}
330
47
100
AcDbScale
 70
     0
300
1:2
140
1.0
141
2.0
290
     0
  0
SCALE
  5
4A
102
{ACAD_REACTORS
330
47
102
}
330
47
100
AcDbScale
 70
     0
300
1:4
140
1.0
141
4.0
290
     0
  0
SCALE
  5
4B
102
{ACAD_REACTORS
330
47
102
}
330
47
100
AcDbScale
 70
     0
300
1:5
140
1.0
141
5.0
290
     0
  0
SCALE
  5
4C
102
{ACAD_REACTORS
330
47
102
}
330
47
100
AcDbScale
 70
     0
300
1:8
140
1.0
141
8.0
290
     0
  0
SCALE
  5
4D
102
{ACAD_REACTORS
330
47
102
}
330
47
100
AcDbScale
 70
     0
300
1:10
140
1.0
141
10.0
290
     0
  0
SCALE
  5
4E
102
{ACAD_REACTORS
330
47
102
}
330
47
100
AcDbScale
 70
     0
300
1:16
140
1.0
141
16.0
290
     0
  0
SCALE
  5
4F
102
{ACAD_REACTORS
330
47
102
}
330
47
100
AcDbScale
 70
     0
300
1:20
140
1.0
141
20.0
290
     0
  0
SCALE
  5
50
102
{ACAD_REACTORS
330
47
102
}
330
47
100
AcDbScale
 70
     0
300
1:30
140
1.0
141
30.0
290
     0
  0
SCALE
  5
51
102
{ACAD_REACTORS
330
47
102
}
330
47
100
AcDbScale
 70
     0
300
1:40
140
1.0
141
40.0
290
     0
  0
SCALE
  5
52
102
{ACAD_REACTORS
330
47
102
}
330
47
100
AcDbScale
 70
     0
300
1:50
140
1.0
141
50.0
290
     0
  0
SCALE
  5
53
102
{ACAD_REACTORS
330
47
102
}
330
47
100
AcDbScale
 70
     0
300
1:100
140
1.0
141
100.0
290
     0
  0
SCALE
  5
54
102
{ACAD_REACTORS
330
47
102
}
330
47
100
AcDbScale
 70
     0
300
2:1
140
2.0
141
1.0
290
     0
  0
SCALE
  5
55
102
{ACAD_REACTORS
330
47
102
}
330
47
100
AcDbScale
 70
     0
300
4:1
140
4.0
141
1.0
290
     0
  0
SCALE
  5
56
102
{ACAD_REACTORS
330
47
102
}
330
47
100
AcDbScale
 70
     0
300
8:1
140
8.0
141
1.0
290
     0
  0
SCALE
  5
57
102
{ACAD_REACTORS
330
47
102
}
330
47
100
AcDbScale
 70
     0
300
10:1
140
10.0
141
1.0
290
     0
  0
SCALE
  5
58
102
{ACAD_REACTORS
330
47
102
}
330
47
100
AcDbScale
 70
     0
300
100:1
140
100.0
141
1.0
290
     0
  0
SCALE
  5
59
102
{ACAD_REACTORS
330
47
102
}
330
47
100
AcDbScale
 70
     0
300
1/128" = 1'-0"
140
0.0078125
141
12.0
290
     0
  0
SCALE
  5
5A
102
{ACAD_REACTORS
330
47
102
}
330
47
100
AcDbScale
 70
     0
300
1/64" = 1'-0"
140
0.015625
141
12.0
290
     0
  0
SCALE
  5
5B
102
{ACAD_REACTORS
330
47
102
}
330
47
100
AcDbScale
 70
     0
300
1/32" = 1'-0"
140
0.03125
141
12.0
290
     0
  0
SCALE
  5
5C
102
{ACAD_REACTORS
330
47
102
}
330
47
100
AcDbScale
 70
     0
300
1/16" = 1'-0"
140
0.0625
141
12.0
290
     0
  0
SCALE
  5
5D
102
{ACAD_REACTORS
330
47
102
}
330
47
100
AcDbScale
 70
     0
300
3/32" = 1'-0"
140
0.09375
141
12.0
290
     0
  0
SCALE
  5
5E
102
{ACAD_REACTORS
330
47
102
}
330
47
100
AcDbScale
 70
     0
300
1/8" = 1'-0"
140
0.125
141
12.0
290
     0
  0
SCALE
  5
5F
102
{ACAD_REACTORS
330
47
102
}
330
47
100
AcDbScale
 70
     0
300
3/16" = 1'-0"
140
0.1875
141
12.0
290
     0
  0
SCALE
  5
60
102
{ACAD_REACTORS
330
47
102
}
330
47
100
AcDbScale
 70
     0
300
1/4" = 1'-0"
140
0.25
141
12.0
290
     0
  0
SCALE
  5
61
102
{ACAD_REACTORS
330
47
102
}
330
47
100
AcDbScale
 70
     0
300
3/8" = 1'-0"
140
0.375
141
12.0
290
     0
  0
SCALE
  5
62
102
{ACAD_REACTORS
330
47
102
}
330
47
100
AcDbScale
 70
     0
300
1/2" = 1'-0"
140
0.5
141
12.0
290
     0
  0
SCALE
  5
63
102
{ACAD_REACTORS
330
47
102
}
330
47
100
AcDbScale
 70
     0
300
3/4" = 1'-0"
140
0.75
141
12.0
290
     0
  0
SCALE
  5
64
102
{ACAD_REACTORS
330
47
102
}
330
47
100
AcDbScale
 70
     0
300
1" = 1'-0"
140
1.0
141
12.0
290
     0
  0
SCALE
  5
65
102
{ACAD_REACTORS
330
47
102
}
330
47
100
AcDbScale
 70
     0
300
1-1/2" = 1'-0"
140
1.5
141
12.0
290
     0
  0
SCALE
  5
66
102
{ACAD_REACTORS
330
47
102
}
330
47
100
AcDbScale
 70
     0
300
3" = 1'-0"
140
3.0
141
12.0
290
     0
  0
SCALE
  5
67
102
{ACAD_REACTORS
330
47
102
}
330
47
100
AcDbScale
 70
     0
300
6" = 1'-0"
140
6.0
141
12.0
290
     0
  0
SCALE
  5
68
102
{ACAD_REACTORS
330
47
102
}
330
47
100
AcDbScale
 70
     0
300
1'-0" = 1'-0"
140
12.0
141
12.0
290
     0
  0
ENDSEC
  0
EOF
