  0
SECTION
  2
HEADER
  9
$ACADVER
  1
AC1015
  9
$ACADMAINTVER
 70
     6
  9
$DWGCODEPAGE
  3
DOS932
  9
$INSBASE
 10
0.0
 20
0.0
 30
0.0
  9
$EXTMIN
 10
0.0
 20
0.0
 30
0.0
  9
$EXTMAX
 10
431.8
 20
279.4
 30
0.0
  9
$LIMMIN
 10
0.0
 20
0.0
  9
$LIMMAX
 10
431.8
 20
279.4
  9
$ORTHOMODE
 70
     0
  9
$REGENMODE
 70
     1
  9
$FILLMODE
 70
     1
  9
$QTEXTMODE
 70
     0
  9
$MIRRTEXT
 70
     1
  9
$LTSCALE
 40
1.0
  9
$ATTMODE
 70
     1
  9
$TEXTSIZE
 40
3.5
  9
$TRACEWID
 40
1.0
  9
$TEXTSTYLE
  7
Standard
  9
$CLAYER
  8
0
  9
$CELTYPE
  6
ByLayer
  9
$CECOLOR
 62
   256
  9
$CELTSCALE
 40
1.0
  9
$DISPSILH
 70
     0
  9
$DIMSCALE
 40
1.0
  9
$DIMASZ
 40
3.302
  9
$DIMEXO
 40
1.0
  9
$DIMDLI
 40
3.75
  9
$DIMRND
 40
0.0
  9
$DIMDLE
 40
0.0
  9
$DIMEXE
 40
1.0
  9
$DIMTP
 40
0.0
  9
$DIMTM
 40
0.0
  9
$DIMTXT
 40
3.5
  9
$DIMCEN
 40
2.5
  9
$DIMTSZ
 40
0.0
  9
$DIMTOL
 70
     0
  9
$DIMLIM
 70
     0
  9
$DIMTIH
 70
     1
  9
$DIMTOH
 70
     1
  9
$DIMSE1
 70
     0
  9
$DIMSE2
 70
     0
  9
$DIMTAD
 70
     1
  9
$DIMZIN
 70
     1
  9
$DIMBLK
  1

  9
$DIMASO
 70
     1
  9
$DIMSHO
 70
     1
  9
$DIMPOST
  1

  9
$DIMAPOST
  1

  9
$DIMALT
 70
     0
  9
$DIMALTD
 70
     3
  9
$DIMALTF
 40
0.0393700787
  9
$DIMLFAC
 40
1.0
  9
$DIMTOFL
 70
     1
  9
$DIMTVP
 40
0.0
  9
$DIMTIX
 70
     0
  9
$DIMSOXD
 70
     0
  9
$DIMSAH
 70
     0
  9
$DIMBLK1
  1

  9
$DIMBLK2
  1

  9
$DIMSTYLE
  2
ISO-25
  9
$DIMCLRD
 70
     0
  9
$DIMCLRE
 70
     0
  9
$DIMCLRT
 70
     0
  9
$DIMTFAC
 40
1.0
  9
$DIMGAP
 40
1.524
  9
$DIMJUST
 70
     0
  9
$DIMSD1
 70
     0
  9
$DIMSD2
 70
     0
  9
$DIMTOLJ
 70
     0
  9
$DIMTZIN
 70
     1
  9
$DIMALTZ
 70
     0
  9
$DIMALTTZ
 70
     0
  9
$DIMUPT
 70
     0
  9
$DIMDEC
 70
     2
  9
$DIMTDEC
 70
     2
  9
$DIMALTU
 70
     2
  9
$DIMALTTD
 70
     3
  9
$DIMTXSTY
  7
Standard
  9
$DIMAUNIT
 70
     0
  9
$DIMADEC
 70
     2
  9
$DIMALTRND
 40
0.0
  9
$DIMAZIN
 70
     0
  9
$DIMDSEP
 70
    44
  9
$DIMATFIT
 70
     3
  9
$DIMFRAC
 70
     0
  9
$DIMLDRBLK
  1

  9
$DIMLUNIT
 70
     2
  9
$DIMLWD
 70
    -2
  9
$DIMLWE
 70
    -2
  9
$DIMTMOVE
 70
     0
  9
$LUNITS
 70
     2
  9
$LUPREC
 70
     2
  9
$SKETCHINC
 40
1.0
  9
$FILLETRAD
 40
10.0
  9
$AUNITS
 70
     0
  9
$AUPREC
 70
     2
  9
$MENU
  1
.
  9
$ELEVATION
 40
0.0
  9
$PELEVATION
 40
0.0
  9
$THICKNESS
 40
0.0
  9
$LIMCHECK
 70
     0
  9
$CHAMFERA
 40
0.0
  9
$CHAMFERB
 40
0.0
  9
$CHAMFERC
 40
0.0
  9
$CHAMFERD
 40
0.0
  9
$SKPOLY
 70
     0
  9
$TDCREATE
 40
2460084.757351597
  9
$TDUCREATE
 40
2460084.382351597
  9
$TDUPDATE
 40
2460084.757352072
  9
$TDUUPDATE
 40
2460084.382352072
  9
$TDINDWG
 40
0.0000000116
  9
$TDUSRTIMER
 40
0.0000000116
  9
$USRTIMER
 70
     1
  9
$ANGBASE
 50
0.0
  9
$ANGDIR
 70
     0
  9
$PDMODE
 70
     0
  9
$PDSIZE
 40
-1.0
  9
$PLINEWID
 40
0.0
  9
$SPLFRAME
 70
     0
  9
$SPLINETYPE
 70
     6
  9
$SPLINESEGS
 70
     8
  9
$HANDSEED
  5
138
  9
$SURFTAB1
 70
     6
  9
$SURFTAB2
 70
     6
  9
$SURFTYPE
 70
     6
  9
$SURFU
 70
     6
  9
$SURFV
 70
     6
  9
$UCSBASE
  2

  9
$UCSNAME
  2

  9
$UCSORG
 10
0.0
 20
0.0
 30
0.0
  9
$UCSXDIR
 10
1.0
 20
0.0
 30
0.0
  9
$UCSYDIR
 10
0.0
 20
1.0
 30
0.0
  9
$UCSORTHOREF
  2

  9
$UCSORTHOVIEW
 70
     0
  9
$UCSORGTOP
 10
0.0
 20
0.0
 30
0.0
  9
$UCSORGBOTTOM
 10
0.0
 20
0.0
 30
0.0
  9
$UCSORGLEFT
 10
0.0
 20
0.0
 30
0.0
  9
$UCSORGRIGHT
 10
0.0
 20
0.0
 30
0.0
  9
$UCSORGFRONT
 10
0.0
 20
0.0
 30
0.0
  9
$UCSORGBACK
 10
0.0
 20
0.0
 30
0.0
  9
$PUCSBASE
  2

  9
$PUCSNAME
  2

  9
$PUCSORG
 10
0.0
 20
0.0
 30
0.0
  9
$PUCSXDIR
 10
1.0
 20
0.0
 30
0.0
  9
$PUCSYDIR
 10
0.0
 20
1.0
 30
0.0
  9
$PUCSORTHOREF
  2

  9
$PUCSORTHOVIEW
 70
     0
  9
$PUCSORGTOP
 10
0.0
 20
0.0
 30
0.0
  9
$PUCSORGBOTTOM
 10
0.0
 20
0.0
 30
0.0
  9
$PUCSORGLEFT
 10
0.0
 20
0.0
 30
0.0
  9
$PUCSORGRIGHT
 10
0.0
 20
0.0
 30
0.0
  9
$PUCSORGFRONT
 10
0.0
 20
0.0
 30
0.0
  9
$PUCSORGBACK
 10
0.0
 20
0.0
 30
0.0
  9
$USERI1
 70
     0
  9
$USERI2
 70
     0
  9
$USERI3
 70
     0
  9
$USERI4
 70
     0
  9
$USERI5
 70
     0
  9
$USERR1
 40
0.0
  9
$USERR2
 40
0.0
  9
$USERR3
 40
0.0
  9
$USERR4
 40
0.0
  9
$USERR5
 40
0.0
  9
$WORLDVIEW
 70
     1
  9
$SHADEDGE
 70
     3
  9
$SHADEDIF
 70
    70
  9
$TILEMODE
 70
     1
  9
$MAXACTVP
 70
    64
  9
$PINSBASE
 10
0.0
 20
0.0
 30
0.0
  9
$PLIMCHECK
 70
     0
  9
$PEXTMIN
 10
1.0000000000E+20
 20
1.0000000000E+20
 30
1.0000000000E+20
  9
$PEXTMAX
 10
-1.0000000000E+20
 20
-1.0000000000E+20
 30
-1.0000000000E+20
  9
$PLIMMIN
 10
0.0
 20
0.0
  9
$PLIMMAX
 10
420.0
 20
297.0
  9
$UNITMODE
 70
     0
  9
$VISRETAIN
 70
     1
  9
$PLINEGEN
 70
     0
  9
$PSLTSCALE
 70
     1
  9
$TREEDEPTH
 70
  3020
  9
$CMLSTYLE
  2
Standard
  9
$CMLJUST
 70
     0
  9
$CMLSCALE
 40
20.0
  9
$PROXYGRAPHICS
 70
     1
  9
$MEASUREMENT
 70
     1
  9
$CELWEIGHT
370
    -1
  9
$ENDCAPS
280
     0
  9
$JOINSTYLE
280
     0
  9
$LWDISPLAY
290
     1
  9
$INSUNITS
 70
     4
  9
$HYPERLINKBASE
  1

  9
$STYLESHEET
  1

  9
$XEDIT
290
     1
  9
$CEPSNTYPE
380
     0
  9
$PSTYLEMODE
290
     1
  9
$FINGERPRINTGUID
  2
{D59088EB-61BF-46EA-9426-DF47C2F4F154}
  9
$VERSIONGUID
  2
{FAEB1C32-E019-11D5-929B-00C0DF256EC4}
  9
$EXTNAMES
290
     1
  9
$PSVPSCALE
 40
0.0
  9
$OLESTARTUP
290
     0
  0
ENDSEC
  0
SECTION
  2
CLASSES
  0
CLASS
  1
ACDBDICTIONARYWDFLT
  2
AcDbDictionaryWithDefault
  3
ObjectDBX Classes
 90
        0
280
     0
281
     0
  0
CLASS
  1
VISUALSTYLE
  2
AcDbVisualStyle
  3
ObjectDBX Classes
 90
     4095
280
     0
281
     0
  0
CLASS
  1
MATERIAL
  2
AcDbMaterial
  3
ObjectDBX Classes
 90
     1153
280
     0
281
     0
  0
CLASS
  1
SCALE
  2
AcDbScale
  3
ObjectDBX Classes
 90
     1153
280
     0
281
     0
  0
CLASS
  1
TABLESTYLE
  2
AcDbTableStyle
  3
ObjectDBX Classes
 90
     4095
280
     0
281
     0
  0
CLASS
  1
MLEADERSTYLE
  2
AcDbMLeaderStyle
  3
ACDB_MLEADERSTYLE_CLASS
 90
     4095
280
     0
281
     0
  0
CLASS
  1
SUN
  2
AcDbSun
  3
SCENEOE
 90
     1153
280
     0
281
     0
  0
CLASS
  1
ACDBPLACEHOLDER
  2
AcDbPlaceHolder
  3
ObjectDBX Classes
 90
        0
280
     0
281
     0
  0
CLASS
  1
LAYOUT
  2
AcDbLayout
  3
ObjectDBX Classes
 90
        0
280
     0
281
     0
  0
ENDSEC
  0
SECTION
  2
TABLES
  0
TABLE
  2
VPORT
  5
8
330
0
100
AcDbSymbolTable
 70
     1
  0
VPORT
  5
29
330
8
100
AcDbSymbolTableRecord
100
AcDbViewportTableRecord
  2
*Active
 70
     0
 10
0.0
 20
0.0
 11
1.0
 21
1.0
 12
215.9
 22
139.7
 13
0.0
 23
0.0
 14
10.0
 24
10.0
 15
10.0
 25
10.0
 16
0.0
 26
0.0
 36
1.0
 17
0.0
 27
0.0
 37
0.0
 40
279.4
 41
1.5454545455
 42
50.0
 43
0.0
 44
0.0
 50
0.0
 51
0.0
 71
     0
 72
  2000
 73
     1
 74
     3
 75
     0
 76
     0
 77
     0
 78
     0
281
     0
 65
     1
110
0.0
120
0.0
130
0.0
111
1.0
121
0.0
131
0.0
112
0.0
122
1.0
132
0.0
 79
     0
146
0.0
  0
ENDTAB
  0
TABLE
  2
LTYPE
  5
5
330
0
100
AcDbSymbolTable
 70
     6
  0
LTYPE
  5
14
330
5
100
AcDbSymbolTableRecord
100
AcDbLinetypeTableRecord
  2
ByBlock
 70
     0
  3

 72
    65
 73
     0
 40
0.0
  0
LTYPE
  5
15
330
5
100
AcDbSymbolTableRecord
100
AcDbLinetypeTableRecord
  2
ByLayer
 70
     0
  3

 72
    65
 73
     0
 40
0.0
  0
LTYPE
  5
16
330
5
100
AcDbSymbolTableRecord
100
AcDbLinetypeTableRecord
  2
Continuous
 70
     0
  3
Solid line
 72
    65
 73
     0
 40
0.0
  0
LTYPE
  5
6E
330
5
100
AcDbSymbolTableRecord
100
AcDbLinetypeTableRecord
  2
HIDDEN
 70
     0
  3
Hidden __ __ __ __ __ __ __ __ __ __ __ __ __ __
 72
    65
 73
     2
 40
1.905
 49
1.27
 74
     0
 49
-0.635
 74
     0
  0
LTYPE
  5
6F
330
5
100
AcDbSymbolTableRecord
100
AcDbLinetypeTableRecord
  2
PHANTOM
 70
     0
  3
Phantom ______  __  __  ______  __  __  ______
 72
    65
 73
     6
 40
12.7
 49
6.35
 74
     0
 49
-1.27
 74
     0
 49
1.27
 74
     0
 49
-1.27
 74
     0
 49
1.27
 74
     0
 49
-1.27
 74
     0
  0
LTYPE
  5
70
330
5
100
AcDbSymbolTableRecord
100
AcDbLinetypeTableRecord
  2
CENTER
 70
     0
  3
Center ____ _ ____ _ ____ _ ____ _ ____ _ ____
 72
    65
 73
     4
 40
10.16
 49
6.35
 74
     0
 49
-1.27
 74
     0
 49
1.27
 74
     0
 49
-1.27
 74
     0
  0
LTYPE
  5
71
330
5
100
AcDbSymbolTableRecord
100
AcDbLinetypeTableRecord
  2
CENTERX2
 70
     0
  3
Center (2x) ________  __  ________  __  _____
 72
    65
 73
     4
 40
20.32
 49
12.7
 74
     0
 49
-2.54
 74
     0
 49
2.54
 74
     0
 49
-2.54
 74
     0
  0
LTYPE
  5
72
330
5
100
AcDbSymbolTableRecord
100
AcDbLinetypeTableRecord
  2
DOT2
 70
     0
  3
Dot (.5x) ........................................
 72
    65
 73
     2
 40
0.635
 49
0.0
 74
     0
 49
-0.635
 74
     0
  0
ENDTAB
  0
TABLE
  2
LAYER
  5
2
330
0
100
AcDbSymbolTable
 70
     1
  0
LAYER
  5
10
330
2
100
AcDbSymbolTableRecord
100
AcDbLayerTableRecord
  2
0
 70
     0
 62
     7
  6
Continuous
370
    -3
390
F
  0
ENDTAB
  0
TABLE
  2
STYLE
  5
3
330
0
100
AcDbSymbolTable
 70
     2
  0
STYLE
  5
11
330
3
100
AcDbSymbolTableRecord
100
AcDbTextStyleTableRecord
  2
Standard
 70
     0
 40
0.0
 41
1.0
 50
0.0
 71
     0
 42
3.5
  3
txt
  4
bigfont
  0
STYLE
  5
73
330
3
100
AcDbSymbolTableRecord
100
AcDbTextStyleTableRecord
  2
SLDTEXTSTYLE0
 70
     0
 40
0.0
 41
0.7
 50
0.0
 71
     0
 42
3.5
  3
TXT
  4
bigfont
  0
ENDTAB
  0
TABLE
  2
VIEW
  5
6
330
0
100
AcDbSymbolTable
 70
     0
  0
ENDTAB
  0
TABLE
  2
UCS
  5
7
330
0
100
AcDbSymbolTable
 70
     0
  0
ENDTAB
  0
TABLE
  2
APPID
  5
9
330
0
100
AcDbSymbolTable
 70
     1
  0
APPID
  5
12
330
9
100
AcDbSymbolTableRecord
100
AcDbRegAppTableRecord
  2
ACAD
 70
     0
  0
ENDTAB
  0
TABLE
  2
DIMSTYLE
  5
A
330
0
100
AcDbSymbolTable
 70
     1
100
AcDbDimStyleTable
  0
DIMSTYLE
105
27
330
A
100
AcDbSymbolTableRecord
100
AcDbDimStyleTableRecord
  2
ISO-25
 70
     0
 41
2.5
 42
0.625
 43
3.75
 44
1.25
 73
     0
 74
     0
 77
     1
 78
     8
140
2.5
141
2.5
143
0.0393700787
147
0.625
171
     3
172
     1
178
     0
271
     2
272
     2
274
     3
278
    44
283
     0
284
     8
340
11
  0
ENDTAB
  0
TABLE
  2
BLOCK_RECORD
  5
1
330
0
100
AcDbSymbolTable
 70
     3
  0
BLOCK_RECORD
  5
1F
330
1
100
AcDbSymbolTableRecord
100
AcDbBlockTableRecord
  2
*Model_Space
340
22
  0
BLOCK_RECORD
  5
1B
330
1
100
AcDbSymbolTableRecord
100
AcDbBlockTableRecord
  2
*Paper_Space
340
1E
  0
BLOCK_RECORD
  5
23
330
1
100
AcDbSymbolTableRecord
100
AcDbBlockTableRecord
  2
*Paper_Space0
340
26
  0
BLOCK_RECORD
  5
E7
330
1
100
AcDbSymbolTableRecord
100
AcDbBlockTableRecord
  2
SW_CENTERMARKSYMBOL_0
340
0
102
{BLKREFS
331
F2
102
}
  0
BLOCK_RECORD
  5
F3
330
1
100
AcDbSymbolTableRecord
100
AcDbBlockTableRecord
  2
SW_CENTERMARKSYMBOL_1
340
0
102
{BLKREFS
331
FE
102
}
  0
ENDTAB
  0
ENDSEC
  0
SECTION
  2
BLOCKS
  0
BLOCK
  5
20
330
1F
100
AcDbEntity
  8
0
100
AcDbBlockBegin
  2
*Model_Space
 70
     0
 10
0.0
 20
0.0
 30
0.0
  3
*Model_Space
  1

  0
ENDBLK
  5
21
330
1F
100
AcDbEntity
  8
0
100
AcDbBlockEnd
  0
BLOCK
  5
1C
330
1B
100
AcDbEntity
 67
     1
  8
0
100
AcDbBlockBegin
  2
*Paper_Space
 70
     0
 10
0.0
 20
0.0
 30
0.0
  3
*Paper_Space
  1

  0
ENDBLK
  5
1D
330
1B
100
AcDbEntity
 67
     1
  8
0
100
AcDbBlockEnd
  0
BLOCK
  5
24
330
23
100
AcDbEntity
  8
0
100
AcDbBlockBegin
  2
*Paper_Space0
 70
     0
 10
0.0
 20
0.0
 30
0.0
  3
*Paper_Space0
  1

  0
ENDBLK
  5
25
330
23
100
AcDbEntity
  8
0
100
AcDbBlockEnd
  0
BLOCK
  5
E8
330
E7
100
AcDbEntity
  8
0
100
AcDbBlockBegin
  2
SW_CENTERMARKSYMBOL_0
 70
     0
 10
0.0
 20
0.0
 30
0.0
  3
SW_CENTERMARKSYMBOL_0
  1

  0
LINE
  5
EA
330
E7
100
AcDbEntity
  8
0
  6
Continuous
 62
     0
370
    18
100
AcDbLine
 10
0.0
 20
0.0
 30
0.0
 11
0.0
 21
2.5
 31
0.0
  0
LINE
  5
EB
330
E7
100
AcDbEntity
  8
0
  6
Continuous
 62
     0
370
    18
100
AcDbLine
 10
0.0
 20
0.0
 30
0.0
 11
-2.5
 21
0.0
 31
0.0
  0
LINE
  5
EC
330
E7
100
AcDbEntity
  8
0
  6
Continuous
 62
     0
370
    18
100
AcDbLine
 10
0.0
 20
0.0
 30
0.0
 11
0.0
 21
-2.5
 31
0.0
  0
LINE
  5
ED
330
E7
100
AcDbEntity
  8
0
  6
Continuous
 62
     0
370
    18
100
AcDbLine
 10
0.0
 20
0.0
 30
0.0
 11
2.5
 21
0.0
 31
0.0
  0
LINE
  5
EE
330
E7
100
AcDbEntity
  8
0
  6
Continuous
 62
     0
370
    18
100
AcDbLine
 10
0.0
 20
5.0
 30
0.0
 11
0.0
 21
18.0
 31
0.0
  0
LINE
  5
EF
330
E7
100
AcDbEntity
  8
0
  6
Continuous
 62
     0
370
    18
100
AcDbLine
 10
-5.0
 20
0.0
 30
0.0
 11
-18.0
 21
0.0
 31
0.0
  0
LINE
  5
F0
330
E7
100
AcDbEntity
  8
0
  6
Continuous
 62
     0
370
    18
100
AcDbLine
 10
0.0
 20
-5.0
 30
0.0
 11
0.0
 21
-18.0
 31
0.0
  0
LINE
  5
F1
330
E7
100
AcDbEntity
  8
0
  6
Continuous
 62
     0
370
    18
100
AcDbLine
 10
5.0
 20
0.0
 30
0.0
 11
18.0
 21
0.0
 31
0.0
  0
ENDBLK
  5
E9
330
E7
100
AcDbEntity
  8
0
100
AcDbBlockEnd
  0
BLOCK
  5
F4
330
F3
100
AcDbEntity
  8
0
100
AcDbBlockBegin
  2
SW_CENTERMARKSYMBOL_1
 70
     0
 10
0.0
 20
0.0
 30
0.0
  3
SW_CENTERMARKSYMBOL_1
  1

  0
LINE
  5
F6
330
F3
100
AcDbEntity
  8
0
  6
Continuous
 62
     0
370
    18
100
AcDbLine
 10
0.0
 20
0.0
 30
0.0
 11
0.0
 21
2.5
 31
0.0
  0
LINE
  5
F7
330
F3
100
AcDbEntity
  8
0
  6
Continuous
 62
     0
370
    18
100
AcDbLine
 10
0.0
 20
0.0
 30
0.0
 11
-2.5
 21
0.0
 31
0.0
  0
LINE
  5
F8
330
F3
100
AcDbEntity
  8
0
  6
Continuous
 62
     0
370
    18
100
AcDbLine
 10
0.0
 20
0.0
 30
0.0
 11
0.0
 21
-2.5
 31
0.0
  0
LINE
  5
F9
330
F3
100
AcDbEntity
  8
0
  6
Continuous
 62
     0
370
    18
100
AcDbLine
 10
0.0
 20
0.0
 30
0.0
 11
2.5
 21
0.0
 31
0.0
  0
LINE
  5
FA
330
F3
100
AcDbEntity
  8
0
  6
Continuous
 62
     0
370
    18
100
AcDbLine
 10
0.0
 20
5.0
 30
0.0
 11
0.0
 21
32.0353745638
 31
0.0
  0
LINE
  5
FB
330
F3
100
AcDbEntity
  8
0
  6
Continuous
 62
     0
370
    18
100
AcDbLine
 10
-5.0
 20
0.0
 30
0.0
 11
-27.25
 21
0.0
 31
0.0
  0
LINE
  5
FC
330
F3
100
AcDbEntity
  8
0
  6
Continuous
 62
     0
370
    18
100
AcDbLine
 10
0.0
 20
-5.0
 30
0.0
 11
0.0
 21
-31.4072299645
 31
0.0
  0
LINE
  5
FD
330
F3
100
AcDbEntity
  8
0
  6
Continuous
 62
     0
370
    18
100
AcDbLine
 10
5.0
 20
0.0
 30
0.0
 11
27.25
 21
0.0
 31
0.0
  0
ENDBLK
  5
F5
330
F3
100
AcDbEntity
  8
0
100
AcDbBlockEnd
  0
ENDSEC
  0
SECTION
  2
ENTITIES
  0
MTEXT
  5
74
330
1F
100
AcDbEntity
  8
0
  6
Continuous
 62
     7
370
     0
100
AcDbMText
 10
229.1111000463
 20
142.0955144272
 30
0.0
 40
4.7625
 41
0.0
 71
     1
 72
     1
  1
メガニップル　HN-8040
  7
SLDTEXTSTYLE0
 73
     1
 44
1.0
  0
LINE
  5
75
330
1F
100
AcDbEntity
  8
0
  6
Continuous
 62
     7
370
    25
100
AcDbLine
 10
174.2875937612
 20
69.0687796553
 30
0.0
 11
176.6201830667
 21
73.1089428456
 31
0.0
  0
LINE
  5
76
330
1F
100
AcDbEntity
  8
0
  6
Continuous
 62
     7
370
    25
100
AcDbLine
 10
176.6201830667
 20
122.6089428456
 30
0.0
 11
174.2875937612
 21
126.6491060358
 31
0.0
  0
LINE
  5
77
330
1F
100
AcDbEntity
  8
0
  6
Continuous
 62
     7
370
    25
100
AcDbLine
 10
168.9527723722
 20
126.6491060358
 30
0.0
 11
166.6201830667
 21
122.6089428456
 31
0.0
  0
LINE
  5
78
330
1F
100
AcDbEntity
  8
0
  6
Continuous
 62
     7
370
    25
100
AcDbLine
 10
166.6201830667
 20
73.1089428456
 30
0.0
 11
168.9527723722
 21
69.0687796553
 31
0.0
  0
LINE
  5
79
330
1F
100
AcDbEntity
  8
0
  6
Continuous
 62
     7
370
    25
100
AcDbLine
 10
166.6201830667
 20
122.1510678456
 30
0.0
 11
143.6192072189
 21
121.4322873503
 31
0.0
  0
LINE
  5
7A
330
1F
100
AcDbEntity
  8
0
  6
Continuous
 62
     7
370
    25
100
AcDbLine
 10
143.6192072189
 20
74.2855983408
 30
0.0
 11
166.6201830667
 21
73.5668178456
 31
0.0
  0
LINE
  5
7B
330
1F
100
AcDbEntity
  8
0
  6
Continuous
 62
     7
370
    25
100
AcDbLine
 10
143.6192072189
 20
121.4322873503
 30
0.0
 11
141.6201830667
 21
119.304293898
 31
0.0
  0
LINE
  5
7C
330
1F
100
AcDbEntity
  8
0
  6
Continuous
 62
     7
370
    25
100
AcDbLine
 10
141.6201830667
 20
76.4135917931
 30
0.0
 11
143.6192072189
 21
74.2855983408
 31
0.0
  0
LINE
  5
7D
330
1F
100
AcDbEntity
  8
0
  6
Continuous
 62
     7
370
    25
100
AcDbLine
 10
187.6201830667
 20
118.1089428456
 30
0.0
 11
176.6201830667
 21
118.1089428456
 31
0.0
  0
LINE
  5
7E
330
1F
100
AcDbEntity
  8
0
  6
Continuous
 62
     7
370
    25
100
AcDbLine
 10
176.6201830667
 20
77.6089428456
 30
0.0
 11
187.6201830667
 21
77.6089428456
 31
0.0
  0
LINE
  5
7F
330
1F
100
AcDbEntity
  8
0
  6
Continuous
 62
     7
370
    25
100
AcDbLine
 10
223.6201830667
 20
77.6089428456
 30
0.0
 11
232.7442178013
 21
78.7494471874
 31
0.0
  0
LINE
  5
80
330
1F
100
AcDbEntity
  8
0
  6
Continuous
 62
     7
370
    25
100
AcDbLine
 10
232.7442178013
 20
116.9684385037
 30
0.0
 11
223.6201830667
 21
118.1089428456
 31
0.0
  0
LINE
  5
81
330
1F
100
AcDbEntity
  8
0
  6
Continuous
 62
     7
370
    25
100
AcDbLine
 10
205.6201830667
 20
77.6089428456
 30
0.0
 11
214.6201830667
 21
78.8589428456
 31
0.0
  0
LINE
  5
82
330
1F
100
AcDbEntity
  8
0
  6
Continuous
 62
     7
370
    25
100
AcDbLine
 10
214.6201830667
 20
116.8589428456
 30
0.0
 11
205.6201830667
 21
118.1089428456
 31
0.0
  0
LINE
  5
83
330
1F
100
AcDbEntity
  8
0
  6
Continuous
 62
     7
370
    25
100
AcDbLine
 10
214.6201830667
 20
77.6089428456
 30
0.0
 11
223.6201830667
 21
78.8589428456
 31
0.0
  0
LINE
  5
84
330
1F
100
AcDbEntity
  8
0
  6
Continuous
 62
     7
370
    25
100
AcDbLine
 10
223.6201830667
 20
116.8589428456
 30
0.0
 11
214.6201830667
 21
118.1089428456
 31
0.0
  0
LINE
  5
85
330
1F
100
AcDbEntity
  8
0
  6
Continuous
 62
     7
370
    25
100
AcDbLine
 10
196.6201830667
 20
77.6089428456
 30
0.0
 11
205.6201830667
 21
78.8589428456
 31
0.0
  0
LINE
  5
86
330
1F
100
AcDbEntity
  8
0
  6
Continuous
 62
     7
370
    25
100
AcDbLine
 10
205.6201830667
 20
116.8589428456
 30
0.0
 11
196.6201830667
 21
118.1089428456
 31
0.0
  0
LINE
  5
87
330
1F
100
AcDbEntity
  8
0
  6
Continuous
 62
     7
370
    25
100
AcDbLine
 10
187.6201830667
 20
77.6089428456
 30
0.0
 11
196.6201830667
 21
78.8589428456
 31
0.0
  0
LINE
  5
88
330
1F
100
AcDbEntity
  8
0
  6
Continuous
 62
     7
370
    25
100
AcDbLine
 10
196.6201830667
 20
116.8589428456
 30
0.0
 11
187.6201830667
 21
118.1089428456
 31
0.0
  0
ARC
  5
89
330
1F
100
AcDbEntity
  8
0
  6
Continuous
 62
     7
370
    25
100
AcDbCircle
 10
232.6201830667
 20
115.976160627
 30
0.0
 40
1.0
100
AcDbArc
 50
0.0
 51
82.8749836511
  0
ARC
  5
8A
330
1F
100
AcDbEntity
  8
0
  6
Continuous
 62
     7
370
    25
100
AcDbCircle
 10
232.6201830667
 20
79.7417250641
 30
0.0
 40
1.0
100
AcDbArc
 50
277.1250163489
 51
0.0
  0
LINE
  5
8B
330
1F
100
AcDbEntity
  8
0
  6
Continuous
 62
     7
370
    25
100
AcDbLine
 10
168.9501982287
 20
69.0687796553
 30
0.0
 11
174.2901679047
 21
69.0687796553
 31
0.0
  0
LINE
  5
8C
330
1F
100
AcDbEntity
  8
0
  6
Continuous
 62
     7
370
    25
100
AcDbLine
 10
174.2901679047
 20
126.6491060358
 30
0.0
 11
168.9501982287
 21
126.6491060358
 31
0.0
  0
LINE
  5
8D
330
1F
100
AcDbEntity
  8
0
  6
Continuous
 62
     7
370
    25
100
AcDbLine
 10
174.325640767
 20
112.0040244407
 30
0.0
 11
168.9147253664
 21
112.0040244407
 31
0.0
  0
SPLINE
  5
8E
330
1F
100
AcDbEntity
  8
0
  6
Continuous
 62
     7
370
    25
100
AcDbSpline
210
0.0
220
0.0
230
1.0
 70
     8
 71
     3
 72
    20
 73
    16
 74
     0
 42
0.000000001
 43
0.00000001
 40
0.0
 40
0.0
 40
0.0
 40
0.0
 40
0.125
 40
0.125
 40
0.25
 40
0.25
 40
0.5
 40
0.5
 40
0.5625
 40
0.5625
 40
0.625
 40
0.625
 40
0.75
 40
0.75
 40
1.0
 40
1.0
 40
1.0
 40
1.0
 10
174.3256407669846
 20
83.71386125041198
 30
0.0
 10
174.6535971372709
 20
84.86736802296191
 30
0.0
 10
174.9550295862016
 20
86.03486206924114
 30
0.0
 10
175.4857481491111
 20
88.38004282527119
 30
0.0
 10
175.714726832286
 20
89.55593306104885
 30
0.0
 10
176.2746560817484
 20
93.09512376516336
 30
0.0
 10
176.476097860119
 20
95.47017117003628
 30
0.0
 10
176.4757821077312
 20
98.4618484793591
 30
0.0
 10
176.4633011691486
 20
99.0613102815372
 30
0.0
 10
176.4134163398217
 20
100.2624944918495
 30
0.0
 10
176.3759170537014
 20
100.8653120262574
 30
0.0
 10
176.2271514235464
 20
102.6693534556073
 30
0.0
 10
176.0803117982018
 20
103.8597080061828
 30
0.0
 10
175.5162472528604
 20
107.3987859318756
 30
0.0
 10
174.9762343484684
 20
109.7157197440637
 30
0.0
 10
174.3256407669846
 20
112.0040244407037
 30
0.0
  0
LINE
  5
8F
330
1F
100
AcDbEntity
  8
0
  6
Continuous
 62
     7
370
    25
100
AcDbLine
 10
168.9147253664
 20
83.7138612504
 30
0.0
 11
174.325640767
 21
83.7138612504
 31
0.0
  0
SPLINE
  5
90
330
1F
100
AcDbEntity
  8
0
  6
Continuous
 62
     7
370
    25
100
AcDbSpline
210
0.0
220
0.0
230
1.0
 70
     8
 71
     3
 72
    20
 73
    16
 74
     0
 42
0.000000001
 43
0.00000001
 40
0.0
 40
0.0
 40
0.0
 40
0.0
 40
0.125
 40
0.125
 40
0.2500000000000001
 40
0.2500000000000001
 40
0.5
 40
0.5
 40
0.5625
 40
0.5625
 40
0.625
 40
0.625
 40
0.75
 40
0.75
 40
1.0
 40
1.0
 40
1.0
 40
1.0
 10
168.9147253663801
 20
83.71386125041191
 30
0.0
 10
168.5867689960939
 20
84.86736802296186
 30
0.0
 10
168.285336547163
 20
86.03486206924107
 30
0.0
 10
167.7546179842536
 20
88.38004282527113
 30
0.0
 10
167.5256393010787
 20
89.55593306104879
 30
0.0
 10
166.9657100516163
 20
93.09512376516332
 30
0.0
 10
166.7642682732458
 20
95.47017117003625
 30
0.0
 10
166.7645840256335
 20
98.46184847935908
 30
0.0
 10
166.7770649642161
 20
99.06131028153717
 30
0.0
 10
166.826949793543
 20
100.2624944918495
 30
0.0
 10
166.8644490796632
 20
100.8653120262574
 30
0.0
 10
167.0132147098183
 20
102.6693534556072
 30
0.0
 10
167.1600543351628
 20
103.8597080061828
 30
0.0
 10
167.7241188805043
 20
107.3987859318756
 30
0.0
 10
168.2641317848964
 20
109.7157197440637
 30
0.0
 10
168.9147253663801
 20
112.0040244407037
 30
0.0
  0
LINE
  5
91
330
1F
100
AcDbEntity
  8
0
  6
Continuous
 62
     7
370
    25
100
AcDbLine
 10
171.9667375539
 20
96.2165568651
 30
0.0
 11
174.2483881949
 21
94.7241690446
 31
0.0
  0
SPLINE
  5
92
330
1F
100
AcDbEntity
  8
0
  6
Continuous
 62
     7
370
    25
100
AcDbSpline
210
0.0
220
0.0
230
1.0
 70
     8
 71
     3
 72
    19
 73
    15
 74
     0
 42
0.000000001
 43
0.00000001
 40
0.0
 40
0.0
 40
0.0
 40
0.0
 40
0.0978059775289525
 40
0.1996122522918969
 40
0.3052960258330042
 40
0.4158173591641857
 40
0.474240566618493
 40
0.5372869128296532
 40
0.6033858352934852
 40
0.6743111580696058
 40
0.7495304673574814
 40
0.828608314269512
 40
0.9120427387714448
 40
1.0
 40
1.0
 40
1.0
 40
1.0
 10
170.5144138359131
 20
96.77545109588237
 30
0.0
 10
170.5658873491242
 20
96.7736390268807
 30
0.0
 10
170.6709396594741
 20
96.76994077464839
 30
0.0
 10
170.8305045730154
 20
96.74787003140506
 30
0.0
 10
170.9931339502897
 20
96.70738959174159
 30
0.0
 10
171.1309991691098
 20
96.66358090850979
 30
0.0
 10
171.2451765484605
 20
96.62010947035968
 30
0.0
 10
171.3353394088173
 20
96.57980175263727
 30
0.0
 10
171.4305542844082
 20
96.53473281283901
 30
0.0
 10
171.5290196160935
 20
96.48190573910829
 30
0.0
 10
171.63354877167
 20
96.42590477777595
 30
0.0
 10
171.7402707173923
 20
96.36048929994813
 30
0.0
 10
171.8530832682577
 20
96.29222724368034
 30
0.0
 10
171.9281921122634
 20
96.24222020145184
 30
0.0
 10
171.9667375538618
 20
96.21655686511313
 30
0.0
  0
SPLINE
  5
93
330
1F
100
AcDbEntity
  8
0
  6
Continuous
 62
     7
370
    25
100
AcDbSpline
210
0.0
220
0.0
230
1.0
 70
     8
 71
     3
 72
    19
 73
    15
 74
     0
 42
0.000000001
 43
0.00000001
 40
0.0
 40
0.0
 40
0.0
 40
0.0
 40
0.0843261511037433
 40
0.1670353409858401
 40
0.2495407139852789
 40
0.3327066655796647
 40
0.4158726171740497
 40
0.4977774155681171
 40
0.5803136056784768
 40
0.6645325781316563
 40
0.7495711764063213
 40
0.8324741628544072
 40
0.9156738488962567
 40
1.0
 40
1.0
 40
1.0
 40
1.0
 10
168.9919779384772
 20
95.2610280189593
 30
0.0
 10
168.9941610840277
 20
95.32830903286508
 30
0.0
 10
168.9984855131245
 20
95.46158094143115
 30
0.0
 10
169.0370083621339
 20
95.6576276005923
 30
0.0
 10
169.0994467751811
 20
95.84600405798676
 30
0.0
 10
169.1854683220063
 20
96.02538618367153
 30
0.0
 10
169.2941181667779
 20
96.19156854694434
 30
0.0
 10
169.4249371780718
 20
96.34019665835618
 30
0.0
 10
169.5750341055697
 20
96.47075340949468
 30
0.0
 10
169.744869391707
 20
96.57883130062777
 30
0.0
 10
169.926193195833
 20
96.66691507524074
 30
0.0
 10
170.1169852249819
 20
96.7290418352305
 30
0.0
 10
170.3134057138568
 20
96.76921937308178
 30
0.0
 10
170.4471114437762
 20
96.77336456401827
 30
0.0
 10
170.5144138359131
 20
96.77545109588237
 30
0.0
  0
SPLINE
  5
94
330
1F
100
AcDbEntity
  8
0
  6
Continuous
 62
     7
370
    25
100
AcDbSpline
210
0.0
220
0.0
230
1.0
 70
     8
 71
     3
 72
    19
 73
    15
 74
     0
 42
0.000000001
 43
0.00000001
 40
0.0
 40
0.0
 40
0.0
 40
0.0
 40
0.0859901205637197
 40
0.1691084375726413
 40
0.2505285789581879
 40
0.3322556961768451
 40
0.4135763652356396
 40
0.4941261456201212
 40
0.576305934120417
 40
0.6607126719045476
 40
0.7461272722239098
 40
0.8300149859609746
 40
0.9144197259288503
 40
1.0
 40
1.0
 40
1.0
 40
1.0
 10
170.52342825899
 20
93.69852801895928
 30
0.0
 10
170.4534988480363
 20
93.7011373456364
 30
0.0
 10
170.3159754517527
 20
93.70626885556558
 30
0.0
 10
170.1148362879469
 20
93.74362406834317
 30
0.0
 10
169.9247533038774
 20
93.80809081933039
 30
0.0
 10
169.7449795048008
 20
93.89433960159822
 30
0.0
 10
169.5807454199151
 20
94.00624061477379
 30
0.0
 10
169.4323218464808
 20
94.13884946762543
 30
0.0
 10
169.3029488984761
 20
94.29341968454032
 30
0.0
 10
169.1919652356169
 20
94.46629100866089
 30
0.0
 10
169.1037888552246
 20
94.65339146798428
 30
0.0
 10
169.038598257421
 20
94.84957241973713
 30
0.0
 10
168.9996452184881
 20
95.05315701500949
 30
0.0
 10
168.9945454543146
 20
95.19141896672447
 30
0.0
 10
168.9919779384772
 20
95.2610280189593
 30
0.0
  0
SPLINE
  5
95
330
1F
100
AcDbEntity
  8
0
  6
Continuous
 62
     7
370
    25
100
AcDbSpline
210
0.0
220
0.0
230
1.0
 70
     8
 71
     3
 72
    23
 73
    19
 74
     0
 42
0.000000001
 43
0.00000001
 40
0.0
 40
0.0
 40
0.0
 40
0.0
 40
0.0652308037420299
 40
0.1284048960032233
 40
0.1900670715964784
 40
0.2509433657682798
 40
0.3115458328521436
 40
0.3728628021568288
 40
0.4350236738562394
 40
0.4990717247070431
 40
0.5630910750496624
 40
0.6255101063303753
 40
0.6866800359296494
 40
0.7472825030135125
 40
0.808563495215959
 40
0.8707421035159857
 40
0.9343409515059125
 40
1.0
 40
1.0
 40
1.0
 40
1.0
 10
172.0047984512977
 20
95.18190141639518
 30
0.0
 10
172.0034325774466
 20
95.13108356448781
 30
0.0
 10
172.0007438954169
 20
95.03105013526503
 30
0.0
 10
171.9800526801428
 20
94.88418327501647
 30
0.0
 10
171.9474453773948
 20
94.74305622362621
 30
0.0
 10
171.8999135831831
 20
94.6082539204042
 30
0.0
 10
171.8391959340941
 20
94.47929251774767
 30
0.0
 10
171.7664261194077
 20
94.35543195187833
 30
0.0
 10
171.6778465760409
 20
94.23900050886945
 30
0.0
 10
171.5788966392068
 20
94.12849882428102
 30
0.0
 10
171.4693009470709
 20
94.02817439943395
 30
0.0
 10
171.3530133232051
 20
93.9393514629232
 30
0.0
 10
171.2301549217791
 20
93.8647417604459
 30
0.0
 10
171.1007879704458
 20
93.80420758671077
 30
0.0
 10
170.9651118853593
 20
93.75720061728524
 30
0.0
 10
170.8233002575188
 20
93.72293255293722
 30
0.0
 10
170.67525529829
 20
93.70267599176601
 30
0.0
 10
170.5745721907669
 20
93.69992529074446
 30
0.0
 10
170.52342825899
 20
93.69852801895928
 30
0.0
  0
SPLINE
  5
96
330
1F
100
AcDbEntity
  8
0
  6
Continuous
 62
     7
370
    25
100
AcDbSpline
210
0.0
220
0.0
230
1.0
 70
     8
 71
     3
 72
     9
 73
     5
 74
     0
 42
0.000000001
 43
0.00000001
 40
0.0
 40
0.0
 40
0.0
 40
0.0
 40
0.5126593363417853
 40
1.0
 40
1.0
 40
1.0
 40
1.0
 10
171.9567215282208
 20
95.69972994203621
 30
0.0
 10
171.9707413291545
 20
95.61177240348859
 30
0.0
 10
171.9980885360419
 20
95.44020127952301
 30
0.0
 10
172.0025998866825
 20
95.26653571020243
 30
0.0
 10
172.0047984512977
 20
95.18190141639518
 30
0.0
  0
LINE
  5
97
330
1F
100
AcDbEntity
  8
0
  6
Continuous
 62
     7
370
    25
100
AcDbLine
 10
173.9769539
 20
94.37861616
 30
0.0
 11
171.9567215282
 21
95.699729942
 31
0.0
  0
LINE
  5
98
330
1F
100
AcDbEntity
  8
0
  6
Continuous
 62
     7
370
    25
100
AcDbLine
 10
174.2483881949
 20
94.7241690446
 30
0.0
 11
173.9769539
 21
94.37861616
 31
0.0
  0
LINE
  5
99
330
1F
100
AcDbEntity
  8
0
  6
Continuous
 62
     7
370
    25
100
AcDbLine
 10
173.6073625539
 20
99.0627548566
 30
0.0
 11
174.1201830667
 21
98.7692853053
 31
0.0
  0
LINE
  5
9A
330
1F
100
AcDbEntity
  8
0
  6
Continuous
 62
     7
370
    25
100
AcDbLine
 10
173.6073625539
 20
98.2935240873
 30
0.0
 11
173.6073625539
 21
99.0627548566
 31
0.0
  0
LINE
  5
9B
330
1F
100
AcDbEntity
  8
0
  6
Continuous
 62
     7
370
    25
100
AcDbLine
 10
169.1201830667
 20
98.2935240873
 30
0.0
 11
173.6073625539
 21
98.2935240873
 31
0.0
  0
LINE
  5
9C
330
1F
100
AcDbEntity
  8
0
  6
Continuous
 62
     7
370
    25
100
AcDbLine
 10
169.1201830667
 20
97.8448061386
 30
0.0
 11
169.1201830667
 21
98.2935240873
 31
0.0
  0
LINE
  5
9D
330
1F
100
AcDbEntity
  8
0
  6
Continuous
 62
     7
370
    25
100
AcDbLine
 10
174.1201830667
 20
98.7692853053
 30
0.0
 11
174.1201830667
 21
97.8448061386
 31
0.0
  0
SPLINE
  5
9E
330
1F
100
AcDbEntity
  8
0
  6
Continuous
 62
     7
370
    25
100
AcDbSpline
210
0.0
220
0.0
230
1.0
 70
     8
 71
     3
 72
    19
 73
    15
 74
     0
 42
0.000000001
 43
0.00000001
 40
0.0
 40
0.0
 40
0.0
 40
0.0
 40
0.122728099976455
 40
0.2397165235883937
 40
0.3518621792202475
 40
0.4632019818032242
 40
0.5202611541541653
 40
0.579432438030666
 40
0.6405963441586373
 40
0.7052982290880198
 40
0.7732361059084526
 40
0.8446489293403158
 40
0.9200459817773701
 40
1.0
 40
1.0
 40
1.0
 40
1.0
 10
173.735567682067
 20
101.2833756421777
 30
0.0
 10
173.7335838775744
 20
101.3403084777952
 30
0.0
 10
173.7297090460033
 20
101.4515115473033
 30
0.0
 10
173.6956510230694
 20
101.6117923593274
 30
0.0
 10
173.6416895966308
 20
101.7606412560908
 30
0.0
 10
173.5765313342535
 20
101.8740340896851
 30
0.0
 10
173.5124330597108
 20
101.9579094389906
 30
0.0
 10
173.4572893142207
 20
102.0189951122735
 30
0.0
 10
173.3947676013034
 20
102.0778879586815
 30
0.0
 10
173.3231530207375
 20
102.132276969512
 30
0.0
 10
173.2449081080952
 20
102.1854212494682
 30
0.0
 10
173.1596019195318
 20
102.2368133501158
 30
0.0
 10
173.066018244099
 20
102.2848025559921
 30
0.0
 10
173.0002075061757
 20
102.3140143713598
 30
0.0
 10
172.9663369128362
 20
102.3290487191008
 30
0.0
  0
SPLINE
  5
9F
330
1F
100
AcDbEntity
  8
0
  6
Continuous
 62
     7
370
    25
100
AcDbSpline
210
0.0
220
0.0
230
1.0
 70
     8
 71
     3
 72
    23
 73
    19
 74
     0
 42
0.000000001
 43
0.00000001
 40
0.0
 40
0.0
 40
0.0
 40
0.0
 40
0.0552698294993251
 40
0.1099567044850944
 40
0.1632335040550557
 40
0.2180575651623569
 40
0.2732775387226746
 40
0.3308810454954966
 40
0.3904799376860891
 40
0.4536559730386409
 40
0.5189026226022317
 40
0.5833461108214764
 40
0.6485466930814441
 40
0.715055219034491
 40
0.7825206438000544
 40
0.8523352944264525
 40
0.9249348997257083
 40
1.0
 40
1.0
 40
1.0
 40
1.0
 10
172.9513128743747
 20
100.2777666678187
 30
0.0
 10
172.9774240016359
 20
100.2783586145571
 30
0.0
 10
173.0293708509396
 20
100.2795362645186
 30
0.0
 10
173.1052628851242
 20
100.2943905298114
 30
0.0
 10
173.1788391033576
 20
100.3167068131904
 30
0.0
 10
173.2497656604797
 20
100.3474066029303
 30
0.0
 10
173.3176308657612
 20
100.3884228371971
 30
0.0
 10
173.3825179765178
 20
100.4376559820668
 30
0.0
 10
173.4455144335288
 20
100.4951298000178
 30
0.0
 10
173.5036064092075
 20
100.5623463678823
 30
0.0
 10
173.5584020181822
 20
100.6351154713923
 30
0.0
 10
173.6057707837722
 20
100.7141218220054
 30
0.0
 10
173.6459205178304
 20
100.7976228382177
 30
0.0
 10
173.6790927570639
 20
100.8856953051553
 30
0.0
 10
173.7040302449599
 20
100.9786920382678
 30
0.0
 10
173.7219398091389
 20
101.0761576756037
 30
0.0
 10
173.7331361194512
 20
101.1782831808655
 30
0.0
 10
173.7347481891802
 20
101.2479570500569
 30
0.0
 10
173.735567682067
 20
101.2833756421777
 30
0.0
  0
SPLINE
  5
A0
330
1F
100
AcDbEntity
  8
0
  6
Continuous
 62
     7
370
    25
100
AcDbSpline
210
0.0
220
0.0
230
1.0
 70
     8
 71
     3
 72
    19
 73
    15
 74
     0
 42
0.000000001
 43
0.00000001
 40
0.0
 40
0.0
 40
0.0
 40
0.0
 40
0.110142381550317
 40
0.2157418685830272
 40
0.3179605426392293
 40
0.4180517606815211
 40
0.5115631470355313
 40
0.5965727584443453
 40
0.6733290469034966
 40
0.7440491927238596
 40
0.8107168223002835
 40
0.8740854521098846
 40
0.93670961689667
 40
1.0
 40
1.0
 40
1.0
 40
1.0
 10
172.1330035795029
 20
101.55981794987
 30
0.0
 10
172.1340578760649
 20
101.4979608514294
 30
0.0
 10
172.1361229840381
 20
101.3767979910041
 30
0.0
 10
172.1609271410734
 20
101.1997820594088
 30
0.0
 10
172.1956248938063
 20
101.0303102273033
 30
0.0
 10
172.2475454659446
 20
100.8722508803873
 30
0.0
 10
172.3098649716112
 20
100.7286551533931
 30
0.0
 10
172.3801347653532
 20
100.6033903688831
 30
0.0
 10
172.4597472888227
 20
100.4994252532475
 30
0.0
 10
172.5476577039834
 20
100.4165000589094
 30
0.0
 10
172.6430436686217
 20
100.3556359107363
 30
0.0
 10
172.7414200931578
 20
100.3099513392182
 30
0.0
 10
172.8450758704977
 20
100.2831691923755
 30
0.0
 10
172.9157758477241
 20
100.2795738503648
 30
0.0
 10
172.9513128743747
 20
100.2777666678187
 30
0.0
  0
LINE
  5
A1
330
1F
100
AcDbEntity
  8
0
  6
Continuous
 62
     7
370
    25
100
AcDbLine
 10
171.6201830667
 20
101.5598179499
 30
0.0
 11
172.1330035795
 21
101.5598179499
 31
0.0
  0
SPLINE
  5
A2
330
1F
100
AcDbEntity
  8
0
  6
Continuous
 62
     7
370
    25
100
AcDbSpline
210
0.0
220
0.0
230
1.0
 70
     8
 71
     3
 72
    23
 73
    19
 74
     0
 42
0.000000001
 43
0.00000001
 40
0.0
 40
0.0
 40
0.0
 40
0.0
 40
0.0669051223273616
 40
0.1334773340846822
 40
0.2010229080576291
 40
0.2712178684297493
 40
0.3428591616573979
 40
0.4138109980627165
 40
0.4855518488903456
 40
0.5598002749200526
 40
0.5998999649035787
 40
0.6436094423977968
 40
0.6919106424505661
 40
0.7447030291556913
 40
0.8015038302285952
 40
0.8628660266331959
 40
0.9293326711591631
 40
1.0
 40
1.0
 40
1.0
 40
1.0
 10
170.56249075899
 20
100.0213564114085
 30
0.0
 10
170.6090784385985
 20
100.0235425176252
 30
0.0
 10
170.7020219840105
 20
100.0279038522986
 30
0.0
 10
170.8387605872107
 20
100.0612024043822
 30
0.0
 10
170.9705113951173
 20
100.115969942548
 30
0.0
 10
171.0950076157975
 20
100.1926538438589
 30
0.0
 10
171.2104478425153
 20
100.2859566227516
 30
0.0
 10
171.3130459057037
 20
100.3949751136398
 30
0.0
 10
171.3985554750106
 20
100.5199767386026
 30
0.0
 10
171.4574170557964
 20
100.6357662758849
 30
0.0
 10
171.4966458240154
 20
100.7385762817349
 30
0.0
 10
171.5241523018986
 20
100.8263841950086
 30
0.0
 10
171.5461404929118
 20
100.9247747893658
 30
0.0
 10
171.567409695324
 20
101.0325669071553
 30
0.0
 10
171.5852404448843
 20
101.1502151611385
 30
0.0
 10
171.6001743965152
 20
101.277825544972
 30
0.0
 10
171.612105132662
 20
101.4154493972857
 30
0.0
 10
171.6174359904432
 20
101.5107222999806
 30
0.0
 10
171.6201830666824
 20
101.55981794987
 30
0.0
  0
SPLINE
  5
A3
330
1F
100
AcDbEntity
  8
0
  6
Continuous
 62
     7
370
    25
100
AcDbSpline
210
0.0
220
0.0
230
1.0
 70
     8
 71
     3
 72
    23
 73
    19
 74
     0
 42
0.000000001
 43
0.00000001
 40
0.0
 40
0.0
 40
0.0
 40
0.0
 40
0.0760618905628338
 40
0.1487324608035368
 40
0.218374524743973
 40
0.2857225935927387
 40
0.3510576941824577
 40
0.4149349157293193
 40
0.4784859417740848
 40
0.5421690352812156
 40
0.6047501165431389
 40
0.6641185017301126
 40
0.7214996756099116
 40
0.7776159163852546
 40
0.832666108697549
 40
0.8878580281135738
 40
0.9434676608977686
 40
1.0
 40
1.0
 40
1.0
 40
1.0
 10
169.5047984512977
 20
101.2943932703828
 30
0.0
 10
169.5056768849953
 20
101.2476019189302
 30
0.0
 10
169.5073945862583
 20
101.1561054705199
 30
0.0
 10
169.523237016335
 20
101.0226073776409
 30
0.0
 10
169.5462090334213
 20
100.8955651205912
 30
0.0
 10
169.582141734628
 20
100.776275165219
 30
0.0
 10
169.6252489457093
 20
100.6631142679639
 30
0.0
 10
169.6816841966183
 20
100.5586085069837
 30
0.0
 10
169.7454186887375
 20
100.45968554202
 30
0.0
 10
169.8195541611241
 20
100.3692433587723
 30
0.0
 10
169.8996865822065
 20
100.2877053082027
 30
0.0
 10
169.9846999397469
 20
100.2172474236935
 30
0.0
 10
170.0719582664233
 20
100.1562228374816
 30
0.0
 10
170.1634971226188
 20
100.1071692542116
 30
0.0
 10
170.2584185857418
 20
100.068365567489
 30
0.0
 10
170.3570779476696
 20
100.0419655828792
 30
0.0
 10
170.4586444348424
 20
100.0236050542368
 30
0.0
 10
170.5276859592738
 20
100.0221100593003
 30
0.0
 10
170.56249075899
 20
100.0213564114085
 30
0.0
  0
SPLINE
  5
A4
330
1F
100
AcDbEntity
  8
0
  6
Continuous
 62
     7
370
    25
100
AcDbSpline
210
0.0
220
0.0
230
1.0
 70
     8
 71
     3
 72
    15
 73
    11
 74
     0
 42
0.000000001
 43
0.00000001
 40
0.0
 40
0.0
 40
0.0
 40
0.0
 40
0.1182713048357254
 40
0.2361775330837627
 40
0.3556629329485089
 40
0.4759041646706832
 40
0.6001273417110845
 40
0.7286081161551192
 40
0.8613134756739437
 40
1.0
 40
1.0
 40
1.0
 40
1.0
 10
169.7752311436054
 20
102.1297298088444
 30
0.0
 10
169.7536478094833
 20
102.1017346995227
 30
0.0
 10
169.7105477640769
 20
102.0458308954074
 30
0.0
 10
169.6555454375943
 20
101.9547334224097
 30
0.0
 10
169.6078868299732
 20
101.8589264422872
 30
0.0
 10
169.5714815503785
 20
101.756334050543
 30
0.0
 10
169.5406563206797
 20
101.6491700927515
 30
0.0
 10
169.5204841504905
 20
101.5357024281347
 30
0.0
 10
169.5066439057145
 20
101.416932117975
 30
0.0
 10
169.5054225750111
 20
101.3358353129992
 30
0.0
 10
169.5047984512977
 20
101.2943932703828
 30
0.0
  0
SPLINE
  5
A5
330
1F
100
AcDbEntity
  8
0
  6
Continuous
 62
     7
370
    25
100
AcDbSpline
210
0.0
220
0.0
230
1.0
 70
     8
 71
     3
 72
    15
 73
    11
 74
     0
 42
0.000000001
 43
0.00000001
 40
0.0
 40
0.0
 40
0.0
 40
0.0
 40
0.1497703860319683
 40
0.2913164099952443
 40
0.4259663731047422
 40
0.5521595739695284
 40
0.671527413523593
 40
0.7861216286916589
 40
0.8953250730704435
 40
1.0
 40
1.0
 40
1.0
 40
1.0
 10
170.4663369128362
 20
102.5213564114085
 30
0.0
 10
170.4278383224524
 20
102.5096659950652
 30
0.0
 10
170.3529552201408
 20
102.4869271198396
 30
0.0
 10
170.245183354891
 20
102.4482209797895
 30
0.0
 10
170.1463861359985
 20
102.4041234482603
 30
0.0
 10
170.0558388188871
 20
102.356816935923
 30
0.0
 10
169.9726496725096
 20
102.3071334416048
 30
0.0
 10
169.8990184310324
 20
102.25154069141
 30
0.0
 10
169.8317109993041
 20
102.1941561983424
 30
0.0
 10
169.7937901251038
 20
102.150899979269
 30
0.0
 10
169.7752311436054
 20
102.1297298088444
 30
0.0
  0
LINE
  5
A6
330
1F
100
AcDbEntity
  8
0
  6
Continuous
 62
     7
370
    25
100
AcDbLine
 10
170.4663369128
 20
102.9700743601
 30
0.0
 11
170.4663369128
 21
102.5213564114
 31
0.0
  0
SPLINE
  5
A7
330
1F
100
AcDbEntity
  8
0
  6
Continuous
 62
     7
370
    25
100
AcDbSpline
210
0.0
220
0.0
230
1.0
 70
     8
 71
     3
 72
    23
 73
    19
 74
     0
 42
0.000000001
 43
0.00000001
 40
0.0
 40
0.0
 40
0.0
 40
0.0
 40
0.0655411703374032
 40
0.1289631677825928
 40
0.1903771361885608
 40
0.2500923616690523
 40
0.3085484324592001
 40
0.3663979630552951
 40
0.424542189266679
 40
0.4831699964229053
 40
0.5422433998311197
 40
0.6017393520173296
 40
0.6625060022496064
 40
0.7248555134488468
 40
0.7891278292811813
 40
0.85634639987851
 40
0.9262952349869056
 40
1.0
 40
1.0
 40
1.0
 40
1.0
 10
168.9919779384772
 20
101.3024060908956
 30
0.0
 10
168.9932182431322
 20
101.3558622341573
 30
0.0
 10
168.9956587490997
 20
101.4610460985431
 30
0.0
 10
169.0123424650948
 20
101.6156796676664
 30
0.0
 10
169.0428139011488
 20
101.76328209533
 30
0.0
 10
169.0838186231003
 20
101.904052949411
 30
0.0
 10
169.1358068260725
 20
102.0381172871161
 30
0.0
 10
169.2005478232458
 20
102.1650660087985
 30
0.0
 10
169.2767071118913
 20
102.2856801423986
 30
0.0
 10
169.3651836659007
 20
102.3988215011766
 30
0.0
 10
169.4641570084103
 20
102.5044765978998
 30
0.0
 10
169.575384165507
 20
102.5998376325143
 30
0.0
 10
169.6968090282514
 20
102.6864944795744
 30
0.0
 10
169.8298419656781
 20
102.7621268205908
 30
0.0
 10
169.9727637617892
 20
102.8301796100421
 30
0.0
 10
170.127404473763
 20
102.8861524052525
 30
0.0
 10
170.292381648033
 20
102.9354175033043
 30
0.0
 10
170.4073498482842
 20
102.9583224522273
 30
0.0
 10
170.4663369128362
 20
102.9700743601264
 30
0.0
  0
SPLINE
  5
A8
330
1F
100
AcDbEntity
  8
0
  6
Continuous
 62
     7
370
    25
100
AcDbSpline
210
0.0
220
0.0
230
1.0
 70
     8
 71
     3
 72
    19
 73
    15
 74
     0
 42
0.000000001
 43
0.00000001
 40
0.0
 40
0.0
 40
0.0
 40
0.0
 40
0.079641704194991
 40
0.158908613257856
 40
0.2395997983184508
 40
0.3224093988203481
 40
0.4058277481735125
 40
0.487644213950313
 40
0.5697199979738967
 40
0.6530646649976927
 40
0.7374573001733057
 40
0.8224924079539123
 40
0.9097550737466981
 40
1.0
 40
1.0
 40
1.0
 40
1.0
 10
170.6055596692464
 20
99.57263846269052
 30
0.0
 10
170.535548565902
 20
99.57520769839554
 30
0.0
 10
170.3958558325839
 20
99.58033407894136
 30
0.0
 10
170.1894216124417
 20
99.62596951128486
 30
0.0
 10
169.9879776989008
 20
99.69712485895226
 30
0.0
 10
169.7945088358175
 20
99.79640467128704
 30
0.0
 10
169.6138708679521
 20
99.91923987925252
 30
0.0
 10
169.452982254497
 20
100.0661870310505
 30
0.0
 10
169.3137552336725
 20
100.2336738648591
 30
0.0
 10
169.197802879484
 20
100.4206042127619
 30
0.0
 10
169.1050459992263
 20
100.6230394765896
 30
0.0
 10
169.0406828470797
 20
100.8395808736553
 30
0.0
 10
168.9987587309872
 20
101.0670796331103
 30
0.0
 10
168.9942633777474
 20
101.2230902399629
 30
0.0
 10
168.9919779384772
 20
101.3024060908956
 30
0.0
  0
SPLINE
  5
A9
330
1F
100
AcDbEntity
  8
0
  6
Continuous
 62
     7
370
    25
100
AcDbSpline
210
0.0
220
0.0
230
1.0
 70
     8
 71
     3
 72
    15
 73
    11
 74
     0
 42
0.000000001
 43
0.00000001
 40
0.0
 40
0.0
 40
0.0
 40
0.0
 40
0.1281455049994639
 40
0.2541925386280416
 40
0.3781411397135891
 40
0.5013808330744061
 40
0.6239569784447037
 40
0.7470758858273294
 40
0.8728647202442612
 40
1.0
 40
1.0
 40
1.0
 40
1.0
 10
171.4939811436054
 20
99.87111602679308
 30
0.0
 10
171.4610450088554
 20
99.84704717283456
 30
0.0
 10
171.3957120913665
 20
99.79930360906611
 30
0.0
 10
171.2906087694813
 20
99.74053878018636
 30
0.0
 10
171.1846884386962
 20
99.68661808878271
 30
0.0
 10
171.0737864482168
 20
99.64693402074903
 30
0.0
 10
170.9614651661484
 20
99.61268824262218
 30
0.0
 10
170.8453193449287
 20
99.59015566091438
 30
0.0
 10
170.7264524681701
 20
99.57569064476206
 30
0.0
 10
170.6460000321401
 20
99.57365946106006
 30
0.0
 10
170.6055596692464
 20
99.57263846269052
 30
0.0
  0
SPLINE
  5
AA
330
1F
100
AcDbEntity
  8
0
  6
Continuous
 62
     7
370
    25
100
AcDbSpline
210
0.0
220
0.0
230
1.0
 70
     8
 71
     3
 72
    11
 73
     7
 74
     0
 42
0.000000001
 43
0.00000001
 40
0.0
 40
0.0
 40
0.0
 40
0.0
 40
0.2538796003266574
 40
0.5030089172783628
 40
0.7502910806899746
 40
1.0
 40
1.0
 40
1.0
 40
1.0
 10
171.9206638359131
 20
100.4129830139726
 30
0.0
 10
171.894980733711
 20
100.3597947931535
 30
0.0
 10
171.8440950799821
 20
100.2544135442003
 30
0.0
 10
171.7443011406718
 20
100.1107699305819
 30
0.0
 10
171.6290777873091
 20
99.98037296578627
 30
0.0
 10
171.5391597117183
 20
99.90765336720942
 30
0.0
 10
171.4939811436054
 20
99.87111602679308
 30
0.0
  0
SPLINE
  5
AB
330
1F
100
AcDbEntity
  8
0
  6
Continuous
 62
     7
370
    25
100
AcDbSpline
210
0.0
220
0.0
230
1.0
 70
     8
 71
     3
 72
    15
 73
    11
 74
     0
 42
0.000000001
 43
0.00000001
 40
0.0
 40
0.0
 40
0.0
 40
0.0
 40
0.1280675485958908
 40
0.2506083188676692
 40
0.3706301659145036
 40
0.4900722467299493
 40
0.6103747641546206
 40
0.7343130699115262
 40
0.8632165042449909
 40
1.0
 40
1.0
 40
1.0
 40
1.0
 10
172.9493096692464
 20
99.82904871910077
 30
0.0
 10
172.896442819667
 20
99.83071099202515
 30
0.0
 10
172.7929905990055
 20
99.83396380218389
 30
0.0
 10
172.6419598888081
 20
99.86158338155866
 30
0.0
 10
172.4996147455478
 20
99.90806375709613
 30
0.0
 10
172.3653559425142
 20
99.97244913220736
 30
0.0
 10
172.2400347427669
 20
100.0557942039792
 30
0.0
 10
172.1233691843948
 20
100.1567551995368
 30
0.0
 10
172.0148418156402
 20
100.2760447163589
 30
0.0
 10
171.9526711399609
 20
100.3664431992493
 30
0.0
 10
171.9206638359131
 20
100.4129830139726
 30
0.0
  0
SPLINE
  5
AC
330
1F
100
AcDbEntity
  8
0
  6
Continuous
 62
     7
370
    25
100
AcDbSpline
210
0.0
220
0.0
230
1.0
 70
     8
 71
     3
 72
    19
 73
    15
 74
     0
 42
0.000000001
 43
0.00000001
 40
0.0
 40
0.0
 40
0.0
 40
0.0
 40
0.0902542493426763
 40
0.1785397915286849
 40
0.2660930338538203
 40
0.3546309779571736
 40
0.4418861533505631
 40
0.525746915163648
 40
0.608113633603637
 40
0.6901972728278825
 40
0.7708214843303355
 40
0.8483261812554113
 40
0.9240117400247433
 40
1.0
 40
1.0
 40
1.0
 40
1.0
 10
174.2483881948875
 20
101.2893852575623
 30
0.0
 10
174.2464178659661
 20
101.2241241974551
 30
0.0
 10
174.2425201867164
 20
101.095025610393
 30
0.0
 10
174.2069281346034
 20
100.9053641147494
 30
0.0
 10
174.1506065169546
 20
100.7224686588892
 30
0.0
 10
174.0727869067588
 20
100.5483411620088
 30
0.0
 10
173.976805030813
 20
100.3866005440141
 30
0.0
 10
173.8625696923919
 20
100.2426917058039
 30
0.0
 10
173.7322849759814
 20
100.1185652617983
 30
0.0
 10
173.5883813126692
 20
100.0144304365695
 30
0.0
 10
173.4345877278307
 20
99.93289472363568
 30
0.0
 10
173.2763017890488
 20
99.87277133295039
 30
0.0
 10
173.1138989727789
 20
99.83616893152373
 30
0.0
 10
173.0042457168144
 20
99.8314252789377
 30
0.0
 10
172.9493096692464
 20
99.82904871910077
 30
0.0
  0
SPLINE
  5
AD
330
1F
100
AcDbEntity
  8
0
  6
Continuous
 62
     7
370
    25
100
AcDbSpline
210
0.0
220
0.0
230
1.0
 70
     8
 71
     3
 72
    23
 73
    19
 74
     0
 42
0.000000001
 43
0.00000001
 40
0.0
 40
0.0
 40
0.0
 40
0.0
 40
0.0726253460834354
 40
0.1419766113262341
 40
0.2089849284189383
 40
0.273956870364445
 40
0.3368893473968401
 40
0.3987449534945907
 40
0.4601158852788612
 40
0.5208249225900291
 40
0.5809944586324858
 40
0.6401519276014642
 40
0.6986224507562541
 40
0.7572710809271639
 40
0.8164266940046598
 40
0.8762540482034699
 40
0.9371652930625379
 40
1.0
 40
1.0
 40
1.0
 40
1.0
 10
172.9663369128362
 20
102.7777666678187
 30
0.0
 10
173.016669032801
 20
102.7656101668459
 30
0.0
 10
173.115064210502
 20
102.7418452017643
 30
0.0
 10
173.2556460117124
 20
102.6922772396659
 30
0.0
 10
173.3886796136992
 20
102.6382783036736
 30
0.0
 10
173.5116740046926
 20
102.5734367257239
 30
0.0
 10
173.6271010085964
 20
102.5027099339723
 30
0.0
 10
173.7323426149795
 20
102.4216774746353
 30
0.0
 10
173.8300754227896
 20
102.3340778709698
 30
0.0
 10
173.9168086192999
 20
102.2371850862529
 30
0.0
 10
173.9953482324524
 20
102.1355727124803
 30
0.0
 10
174.0623126000843
 20
102.0278089699793
 30
0.0
 10
174.1199185327478
 20
101.9160619790213
 30
0.0
 10
174.1673760068556
 20
101.7995575033805
 30
0.0
 10
174.20312675495
 20
101.6779486866776
 30
0.0
 10
174.2290650486511
 20
101.5523349390764
 30
0.0
 10
174.2459094975289
 20
101.4223870817698
 30
0.0
 10
174.2475534447951
 20
101.334176238058
 30
0.0
 10
174.2483881948875
 20
101.2893852575623
 30
0.0
  0
LINE
  5
AE
330
1F
100
AcDbEntity
  8
0
  6
Continuous
 62
     7
370
    25
100
AcDbLine
 10
172.9663369128
 20
102.3290487191
 30
0.0
 11
172.9663369128
 21
102.7777666678
 31
0.0
  0
LINE
  5
AF
330
1F
100
AcDbEntity
  8
0
  6
Continuous
 62
     7
370
    25
100
AcDbLine
 10
174.1201830667
 20
97.8448061386
 30
0.0
 11
169.1201830667
 21
97.8448061386
 31
0.0
  0
SPLINE
  5
B0
330
1F
100
AcDbEntity
  8
0
  6
Continuous
 62
     7
370
    25
100
AcDbSpline
210
0.0
220
0.0
230
1.0
 70
     8
 71
     3
 72
    10
 73
     6
 74
     0
 42
0.000000001
 43
0.00000001
 40
0.0
 40
0.0
 40
0.0
 40
0.0
 40
0.5
 40
0.5
 40
1.0
 40
1.0
 40
1.0
 40
1.0
 10
174.325640766987
 20
112.4370371425959
 30
0.0
 10
174.3012577298116
 20
112.3941564409758
 30
0.0
 10
174.2876396241057
 20
112.3307392466798
 30
0.0
 10
174.287548135509
 20
112.1781013901857
 30
0.0
 10
174.3012481962101
 20
112.0898193760598
 30
0.0
 10
174.3256407669846
 20
112.0040244407037
 30
0.0
  0
SPLINE
  5
B1
330
1F
100
AcDbEntity
  8
0
  6
Continuous
 62
     7
370
    25
100
AcDbSpline
210
0.0
220
0.0
230
1.0
 70
     8
 71
     3
 72
    18
 73
    14
 74
     0
 42
0.000000001
 43
0.00000001
 40
0.0
 40
0.0
 40
0.0
 40
0.0
 40
0.2499999999999995
 40
0.2499999999999995
 40
0.499999999999999
 40
0.499999999999999
 40
0.5624999999999991
 40
0.5624999999999991
 40
0.6249999999999992
 40
0.6249999999999992
 40
0.7499999999999994
 40
0.7499999999999994
 40
1.0
 40
1.0
 40
1.0
 40
1.0
 10
174.3256407669846
 20
126.5821187377417
 30
0.0
 10
174.9824260232695
 20
125.4270775342817
 30
0.0
 10
175.5224080131589
 20
124.2636474031166
 30
0.0
 10
176.2695202432687
 20
121.9128813943917
 30
0.0
 10
176.4743158491158
 20
120.7253778410505
 30
0.0
 10
176.4762170804761
 20
119.2227491655291
 30
0.0
 10
176.4639903279887
 20
118.9207188713228
 30
0.0
 10
176.4146909133995
 20
118.3192762379373
 30
0.0
 10
176.3776761815158
 20
118.0195790071502
 30
0.0
 10
176.2310947641877
 20
117.1234305493595
 30
0.0
 10
176.0859085983613
 20
116.5299293696899
 30
0.0
 10
175.5246527673147
 20
114.7598362319498
 30
0.0
 10
174.9833027270122
 20
113.593620142155
 30
0.0
 10
174.3256407669847
 20
112.4370371425961
 30
0.0
  0
SPLINE
  5
B2
330
1F
100
AcDbEntity
  8
0
  6
Continuous
 62
     7
370
    25
100
AcDbSpline
210
0.0
220
0.0
230
1.0
 70
     8
 71
     3
 72
    10
 73
     6
 74
     0
 42
0.000000001
 43
0.00000001
 40
0.0
 40
0.0
 40
0.0
 40
0.0
 40
0.1536981895808833
 40
0.7085165464479803
 40
1.0
 40
1.0
 40
1.0
 40
1.0
 10
174.2901811874952
 20
126.6445460279431
 30
0.0
 10
174.2894095563532
 20
126.6459059839354
 30
0.0
 10
174.2858524979821
 20
126.6521750969653
 30
0.0
 10
174.300684851272
 20
126.626023631295
 30
0.0
 10
174.3192474371281
 20
126.5933665104155
 30
0.0
 10
174.3256407669846
 20
126.5821187377417
 30
0.0
  0
SPLINE
  5
B3
330
1F
100
AcDbEntity
  8
0
  6
Continuous
 62
     7
370
    25
100
AcDbSpline
210
0.0
220
0.0
230
1.0
 70
     8
 71
     3
 72
     9
 73
     5
 74
     0
 42
0.000000001
 43
0.00000001
 40
0.0
 40
0.0
 40
0.0
 40
0.0
 40
0.576499247708558
 40
1.0
 40
1.0
 40
1.0
 40
1.0
 10
174.3256407669847
 20
69.13576695337412
 30
0.0
 10
174.3129569269337
 20
69.11344116599446
 30
0.0
 10
174.2909554410663
 20
69.07471468461848
 30
0.0
 10
174.2904115329792
 20
69.07374874101521
 30
0.0
 10
174.2901811874952
 20
69.07333966317255
 30
0.0
  0
SPLINE
  5
B4
330
1F
100
AcDbEntity
  8
0
  6
Continuous
 62
     7
370
    25
100
AcDbSpline
210
0.0
220
0.0
230
1.0
 70
     8
 71
     3
 72
    18
 73
    14
 74
     0
 42
0.000000001
 43
0.00000001
 40
0.0
 40
0.0
 40
0.0
 40
0.0
 40
0.2499999999999998
 40
0.2499999999999998
 40
0.4999999999999996
 40
0.4999999999999996
 40
0.5624999999999997
 40
0.5624999999999997
 40
0.6249999999999999
 40
0.6249999999999999
 40
0.75
 40
0.75
 40
1.0
 40
1.0
 40
1.0
 40
1.0
 10
174.3256407669848
 20
83.28084854851946
 30
0.0
 10
174.9824260232696
 20
82.12580734505948
 30
0.0
 10
175.522408013159
 20
80.96237721389437
 30
0.0
 10
176.2695202432688
 20
78.6116112051696
 30
0.0
 10
176.4743158491158
 20
77.42410765182841
 30
0.0
 10
176.4762170804761
 20
75.921478976307
 30
0.0
 10
176.4639903279887
 20
75.61944868210071
 30
0.0
 10
176.4146909133995
 20
75.01800604871528
 30
0.0
 10
176.3776761815158
 20
74.71830881792809
 30
0.0
 10
176.2310947641876
 20
73.82216036013747
 30
0.0
 10
176.0859085983612
 20
73.22865918046789
 30
0.0
 10
175.5246527673147
 20
71.4585660427278
 30
0.0
 10
174.9833027270122
 20
70.292349952933
 30
0.0
 10
174.3256407669847
 20
69.13576695337412
 30
0.0
  0
SPLINE
  5
B5
330
1F
100
AcDbEntity
  8
0
  6
Continuous
 62
     7
370
    25
100
AcDbSpline
210
0.0
220
0.0
230
1.0
 70
     8
 71
     3
 72
    10
 73
     6
 74
     0
 42
0.000000001
 43
0.00000001
 40
0.0
 40
0.0
 40
0.0
 40
0.0
 40
0.5
 40
0.5
 40
1.0
 40
1.0
 40
1.0
 40
1.0
 10
174.3256407669846
 20
83.71386125041198
 30
0.0
 10
174.301257729809
 20
83.6280998471717
 30
0.0
 10
174.2876396241057
 20
83.54065689724082
 30
0.0
 10
174.2875481355091
 20
83.38785777717884
 30
0.0
 10
174.3012481962102
 20
83.32374601619728
 30
0.0
 10
174.3256407669849
 20
83.28084854851932
 30
0.0
  0
LINE
  5
B6
330
1F
100
AcDbEntity
  8
0
  6
Continuous
 62
     7
370
    25
100
AcDbLine
 10
176.6201830667
 20
122.6089428456
 30
0.0
 11
176.6201830667
 21
73.1089428456
 31
0.0
  0
SPLINE
  5
B7
330
1F
100
AcDbEntity
  8
0
  6
Continuous
 62
     7
370
    25
100
AcDbSpline
210
0.0
220
0.0
230
1.0
 70
     8
 71
     3
 72
    10
 73
     6
 74
     0
 42
0.000000001
 43
0.00000001
 40
0.0
 40
0.0
 40
0.0
 40
0.0
 40
0.1536981895749754
 40
0.7085165464232284
 40
1.0
 40
1.0
 40
1.0
 40
1.0
 10
168.9501849458695
 20
69.0733396631725
 30
0.0
 10
168.9509565770115
 20
69.07197970718023
 30
0.0
 10
168.9545136353825
 20
69.06571059415037
 30
0.0
 10
168.9396812820923
 20
69.09186205982132
 30
0.0
 10
168.9211186962351
 20
69.12451918070288
 30
0.0
 10
168.9147253663776
 20
69.13576695337827
 30
0.0
  0
SPLINE
  5
B8
330
1F
100
AcDbEntity
  8
0
  6
Continuous
 62
     7
370
    25
100
AcDbSpline
210
0.0
220
0.0
230
1.0
 70
     8
 71
     3
 72
     9
 73
     5
 74
     0
 42
0.000000001
 43
0.00000001
 40
0.0
 40
0.0
 40
0.0
 40
0.0
 40
0.5764992477086257
 40
1.0
 40
1.0
 40
1.0
 40
1.0
 10
168.9147253663802
 20
126.5821187377418
 30
0.0
 10
168.9274092064311
 20
126.6044445251214
 30
0.0
 10
168.9494106922985
 20
126.6431710064972
 30
0.0
 10
168.9499546003855
 20
126.6441369501005
 30
0.0
 10
168.9501849458695
 20
126.6445460279431
 30
0.0
  0
SPLINE
  5
B9
330
1F
100
AcDbEntity
  8
0
  6
Continuous
 62
     7
370
    25
100
AcDbSpline
210
0.0
220
0.0
230
1.0
 70
     8
 71
     3
 72
    18
 73
    14
 74
     0
 42
0.000000001
 43
0.00000001
 40
0.0
 40
0.0
 40
0.0
 40
0.0
 40
0.2500000000000003
 40
0.2500000000000003
 40
0.5000000000000006
 40
0.5000000000000006
 40
0.5625000000000006
 40
0.5625000000000006
 40
0.6250000000000004
 40
0.6250000000000004
 40
0.7500000000000003
 40
0.7500000000000003
 40
1.0
 40
1.0
 40
1.0
 40
1.0
 10
168.9147253663802
 20
126.5821187377418
 30
0.0
 10
168.2579401100954
 20
125.4270775342822
 30
0.0
 10
167.7179581202062
 20
124.2636474031174
 30
0.0
 10
166.9708458900963
 20
121.9128813943932
 30
0.0
 10
166.7660502842491
 20
120.7253778410524
 30
0.0
 10
166.7641490528885
 20
119.2227491655314
 30
0.0
 10
166.7763758053759
 20
118.9207188713252
 30
0.0
 10
166.825675219965
 20
118.3192762379399
 30
0.0
 10
166.8626899518486
 20
118.0195790071528
 30
0.0
 10
167.0092713691764
 20
117.1234305493624
 30
0.0
 10
167.1544575350026
 20
116.529929369693
 30
0.0
 10
167.7157133660486
 20
114.7598362319533
 30
0.0
 10
168.2570634063506
 20
113.5936201421588
 30
0.0
 10
168.9147253663776
 20
112.4370371426002
 30
0.0
  0
SPLINE
  5
BA
330
1F
100
AcDbEntity
  8
0
  6
Continuous
 62
     7
370
    25
100
AcDbSpline
210
0.0
220
0.0
230
1.0
 70
     8
 71
     3
 72
    10
 73
     6
 74
     0
 42
0.000000001
 43
0.00000001
 40
0.0
 40
0.0
 40
0.0
 40
0.0
 40
0.5
 40
0.5
 40
1.0
 40
1.0
 40
1.0
 40
1.0
 10
168.9147253663801
 20
112.0040244407037
 30
0.0
 10
168.939108403556
 20
112.0897858439453
 30
0.0
 10
168.9527265092595
 20
112.1772287938775
 30
0.0
 10
168.9528179978552
 20
112.3300279139413
 30
0.0
 10
168.9391179371549
 20
112.3941396749174
 30
0.0
 10
168.91472536638
 20
112.4370371425961
 30
0.0
  0
SPLINE
  5
BB
330
1F
100
AcDbEntity
  8
0
  6
Continuous
 62
     7
370
    25
100
AcDbSpline
210
0.0
220
0.0
230
1.0
 70
     8
 71
     3
 72
    10
 73
     6
 74
     0
 42
0.000000001
 43
0.00000001
 40
0.0
 40
0.0
 40
0.0
 40
0.0
 40
0.5
 40
0.5
 40
1.0
 40
1.0
 40
1.0
 40
1.0
 10
168.9147253663801
 20
83.28084854851976
 30
0.0
 10
168.9391084035557
 20
83.32372925013985
 30
0.0
 10
168.952726509259
 20
83.38714644443625
 30
0.0
 10
168.9528179978556
 20
83.53978430093021
 30
0.0
 10
168.9391179371546
 20
83.62806631505596
 30
0.0
 10
168.9147253663801
 20
83.71386125041198
 30
0.0
  0
SPLINE
  5
BC
330
1F
100
AcDbEntity
  8
0
  6
Continuous
 62
     7
370
    25
100
AcDbSpline
210
0.0
220
0.0
230
1.0
 70
     8
 71
     3
 72
    18
 73
    14
 74
     0
 42
0.000000001
 43
0.00000001
 40
0.0
 40
0.0
 40
0.0
 40
0.0
 40
0.2499999999999998
 40
0.2499999999999998
 40
0.4999999999999996
 40
0.4999999999999996
 40
0.5624999999999996
 40
0.5624999999999996
 40
0.6249999999999997
 40
0.6249999999999997
 40
0.7499999999999998
 40
0.7499999999999998
 40
1.0
 40
1.0
 40
1.0
 40
1.0
 10
168.9147253663801
 20
83.28084854851986
 30
0.0
 10
168.2579401100954
 20
82.12580734506022
 30
0.0
 10
167.7179581202062
 20
80.96237721389542
 30
0.0
 10
166.9708458900963
 20
78.61161120517129
 30
0.0
 10
166.7660502842491
 20
77.42410765183041
 30
0.0
 10
166.7641490528885
 20
75.92147897630943
 30
0.0
 10
166.7763758053759
 20
75.61944868210325
 30
0.0
 10
166.8256752199649
 20
75.01800604871795
 30
0.0
 10
166.8626899518486
 20
74.71830881793083
 30
0.0
 10
167.0092713691764
 20
73.82216036014046
 30
0.0
 10
167.1544575350026
 20
73.228659180471
 30
0.0
 10
167.7157133660486
 20
71.45856604273138
 30
0.0
 10
168.2570634063506
 20
70.29234995293685
 30
0.0
 10
168.9147253663776
 20
69.13576695337827
 30
0.0
  0
LINE
  5
BD
330
1F
100
AcDbEntity
  8
0
  6
Continuous
 62
     7
370
    25
100
AcDbLine
 10
166.6201830667
 20
122.6089428456
 30
0.0
 11
166.6201830667
 21
73.1089428456
 31
0.0
  0
SPLINE
  5
BE
330
1F
100
AcDbEntity
  8
0
  6
Continuous
 62
     7
370
    25
100
AcDbSpline
210
0.0
220
0.0
230
1.0
 70
     8
 71
     3
 72
    23
 73
    19
 74
     0
 42
0.000000001
 43
0.00000001
 40
0.0
 40
0.0
 40
0.0
 40
0.0
 40
0.0611415679303345
 40
0.1200010135310723
 40
0.1782359705414084
 40
0.2364955434070173
 40
0.2948872487049734
 40
0.3546771928192955
 40
0.4166948132897785
 40
0.4806333779628399
 40
0.545804633478641
 40
0.6097347883178743
 40
0.6729516883751534
 40
0.736001096070683
 40
0.7998274385165253
 40
0.8647672769393875
 40
0.9310835057306726
 40
1.0
 40
1.0
 40
1.0
 40
1.0
 10
170.4963849897593
 20
94.14724596767724
 30
0.0
 10
170.5305240245931
 20
94.14802293782071
 30
0.0
 10
170.5975278473557
 20
94.14954787752794
 30
0.0
 10
170.6955965593658
 20
94.1671297943819
 30
0.0
 10
170.7906792551443
 20
94.19087709918794
 30
0.0
 10
170.8806340435602
 20
94.22925492031243
 30
0.0
 10
170.9679485363281
 20
94.27496603785792
 30
0.0
 10
171.0501272200317
 20
94.33319899884252
 30
0.0
 10
171.1294982315117
 20
94.39996451396911
 30
0.0
 10
171.2031396106121
 20
94.47728545885197
 30
0.0
 10
171.2704980094939
 20
94.56140372501714
 30
0.0
 10
171.329953084613
 20
94.65085737086125
 30
0.0
 10
171.3801320000983
 20
94.74443945104139
 30
0.0
 10
171.4219991883273
 20
94.84205956615925
 30
0.0
 10
171.4522127501787
 20
94.94483505916224
 30
0.0
 10
171.4760030899083
 20
95.05110698700031
 30
0.0
 10
171.488663117276
 20
95.16223447248518
 30
0.0
 10
171.4908589243595
 20
95.2376296277757
 30
0.0
 10
171.4919779384772
 20
95.27605205742081
 30
0.0
  0
SPLINE
  5
BF
330
1F
100
AcDbEntity
  8
0
  6
Continuous
 62
     7
370
    25
100
AcDbSpline
210
0.0
220
0.0
230
1.0
 70
     8
 71
     3
 72
    23
 73
    19
 74
     0
 42
0.000000001
 43
0.00000001
 40
0.0
 40
0.0
 40
0.0
 40
0.0
 40
0.0679503475997538
 40
0.1332598223836998
 40
0.1978002967596484
 40
0.2608458295516824
 40
0.3233192927503665
 40
0.3862817224595732
 40
0.4500615162333123
 40
0.5152075844858153
 40
0.5796407692199315
 40
0.6418172023841516
 40
0.7016924412115343
 40
0.7607690981778945
 40
0.8192540511346833
 40
0.8787376269055535
 40
0.9381582970160909
 40
1.0
 40
1.0
 40
1.0
 40
1.0
 10
169.5047984512977
 20
95.23698955742083
 30
0.0
 10
169.5058970814348
 20
95.19989592734288
 30
0.0
 10
169.5080516437308
 20
95.12715030159757
 30
0.0
 10
169.5210238237248
 20
95.01976050798191
 30
0.0
 10
169.5439687940936
 20
94.91678828791618
 30
0.0
 10
169.576574918161
 20
94.8181620251052
 30
0.0
 10
169.6163050576145
 20
94.72305999356931
 30
0.0
 10
169.6669995910405
 20
94.63283147948783
 30
0.0
 10
169.7262570960658
 20
94.54625833305086
 30
0.0
 10
169.7940522734598
 20
94.46522495736706
 30
0.0
 10
169.8669115183552
 20
94.3897193381559
 30
0.0
 10
169.946940189917
 20
94.32655250125319
 30
0.0
 10
170.0279905977339
 20
94.26954489526882
 30
0.0
 10
170.1149853377801
 20
94.22636362646188
 30
0.0
 10
170.204773336043
 20
94.19016306094638
 30
0.0
 10
170.2987232051895
 20
94.16582722905542
 30
0.0
 10
170.3963506045743
 20
94.14989534352884
 30
0.0
 10
170.4625993042121
 20
94.14814076979205
 30
0.0
 10
170.4963849897593
 20
94.14724596767724
 30
0.0
  0
SPLINE
  5
C0
330
1F
100
AcDbEntity
  8
0
  6
Continuous
 62
     7
370
    25
100
AcDbSpline
210
0.0
220
0.0
230
1.0
 70
     8
 71
     3
 72
    23
 73
    19
 74
     0
 42
0.000000001
 43
0.00000001
 40
0.0
 40
0.0
 40
0.0
 40
0.0
 40
0.061852645946692
 40
0.1212838306153701
 40
0.1807779320756126
 40
0.2392732340142806
 40
0.2986414352139417
 40
0.3581858222417117
 40
0.4207600867589708
 40
0.4852046730216429
 40
0.5503622689482872
 40
0.6136499245309122
 40
0.6766234955168249
 40
0.7391080134690121
 40
0.8021647022429451
 40
0.8667165971324772
 40
0.9320376285055443
 40
1.0
 40
1.0
 40
1.0
 40
1.0
 10
170.4963849897593
 20
96.32673314716442
 30
0.0
 10
170.4626005902362
 20
96.32583603947288
 30
0.0
 10
170.3963544123003
 20
96.32407694484341
 30
0.0
 10
170.298708660922
 20
96.30817796066607
 30
0.0
 10
170.2048276267521
 20
96.28371872182188
 30
0.0
 10
170.1146426444157
 20
96.24791687708256
 30
0.0
 10
170.0286456588711
 20
96.20301089555703
 30
0.0
 10
169.9462258084036
 20
96.14774913378399
 30
0.0
 10
169.8673262049367
 20
96.08306730682388
 30
0.0
 10
169.7939364164333
 20
96.00787596633941
 30
0.0
 10
169.7266215189686
 20
95.9267893955576
 30
0.0
 10
169.6666842078952
 20
95.84103497620715
 30
0.0
 10
169.616352893982
 20
95.75088537404967
 30
0.0
 10
169.5765620231418
 20
95.6558261868127
 30
0.0
 10
169.5439723513341
 20
95.55718831739152
 30
0.0
 10
169.521022854288
 20
95.45421929077033
 30
0.0
 10
169.5080518988023
 20
95.34682863329827
 30
0.0
 10
169.5058971675746
 20
95.27408312672958
 30
0.0
 10
169.5047984512977
 20
95.23698955742083
 30
0.0
  0
SPLINE
  5
C1
330
1F
100
AcDbEntity
  8
0
  6
Continuous
 62
     7
370
    25
100
AcDbSpline
210
0.0
220
0.0
230
1.0
 70
     8
 71
     3
 72
    23
 73
    19
 74
     0
 42
0.000000001
 43
0.00000001
 40
0.0
 40
0.0
 40
0.0
 40
0.0
 40
0.0705921865358065
 40
0.1385012886049309
 40
0.2037899961427011
 40
0.2667875726696016
 40
0.3290979656467194
 40
0.3911745246039656
 40
0.4531677986176574
 40
0.5157967602265845
 40
0.5779688050530409
 40
0.6389663383752916
 40
0.6983810661628433
 40
0.7573204555574269
 40
0.8164122397216687
 40
0.8762793582308314
 40
0.9368234656501933
 40
1.0
 40
1.0
 40
1.0
 40
1.0
 10
171.4919779384772
 20
95.27605205742081
 30
0.0
 10
171.4908517236286
 20
95.31413978354688
 30
0.0
 10
171.4886420993707
 20
95.38886758852588
 30
0.0
 10
171.4761621256409
 20
95.49836577590996
 30
0.0
 10
171.4525159969062
 20
95.60171888819563
 30
0.0
 10
171.4219291850519
 20
95.70010738647612
 30
0.0
 10
171.3802831003959
 20
95.79250580430111
 30
0.0
 10
171.3302959919149
 20
95.87996813306225
 30
0.0
 10
171.2708645876722
 20
95.96162649288533
 30
0.0
 10
171.2026515332186
 20
96.03604682132593
 30
0.0
 10
171.1290590189524
 20
96.10438306277378
 30
0.0
 10
171.0497626064902
 20
96.16316338969031
 30
0.0
 10
170.9671849398875
 20
96.21392259338474
 30
0.0
 10
170.8805498892748
 20
96.25517892906132
 30
0.0
 10
170.7899130276924
 20
96.28730852338751
 30
0.0
 10
170.6956852581722
 20
96.31054863319648
 30
0.0
 10
170.597236322322
 20
96.3234826305293
 30
0.0
 10
170.5304755940593
 20
96.32563438055854
 30
0.0
 10
170.4963849897593
 20
96.32673314716442
 30
0.0
  0
LINE
  5
C2
330
1F
100
AcDbEntity
  8
0
  6
Continuous
 62
     7
370
    25
100
AcDbLine
 10
174.325640767
 20
83.2808485485
 30
0.0
 11
168.9147253664
 21
83.2808485485
 31
0.0
  0
LINE
  5
C3
330
1F
100
AcDbEntity
  8
0
  6
Continuous
 62
     7
370
    25
100
AcDbLine
 10
168.9147253664
 20
112.4370371426
 30
0.0
 11
174.325640767
 21
112.4370371426
 31
0.0
  0
LINE
  5
C4
330
1F
100
AcDbEntity
  8
0
  6
Continuous
 62
     7
370
    25
100
AcDbLine
 10
168.9147253664
 20
69.1357669534
 30
0.0
 11
174.325640767
 21
69.1357669534
 31
0.0
  0
LINE
  5
C5
330
1F
100
AcDbEntity
  8
0
  6
Continuous
 62
     7
370
    25
100
AcDbLine
 10
174.325640767
 20
126.5821187377
 30
0.0
 11
168.9147253664
 21
126.5821187377
 31
0.0
  0
LINE
  5
C6
330
1F
100
AcDbEntity
  8
0
  6
Continuous
 62
     7
370
    25
100
AcDbLine
 10
143.6192072189
 20
97.8589428456
 30
0.0
 11
143.6192072189
 21
74.2855983408
 31
0.0
  0
LINE
  5
C7
330
1F
100
AcDbEntity
  8
0
  6
Continuous
 62
     7
370
    25
100
AcDbLine
 10
143.6192072189
 20
121.4322873503
 30
0.0
 11
143.6192072189
 21
97.8589428456
 31
0.0
  0
LINE
  5
C8
330
1F
100
AcDbEntity
  8
0
  6
Continuous
 62
     7
370
    25
100
AcDbLine
 10
141.6201830667
 20
97.8589428456
 30
0.0
 11
141.6201830667
 21
119.304293898
 31
0.0
  0
LINE
  5
C9
330
1F
100
AcDbEntity
  8
0
  6
Continuous
 62
     7
370
    25
100
AcDbLine
 10
141.6201830667
 20
76.4135917931
 30
0.0
 11
141.6201830667
 21
97.8589428456
 31
0.0
  0
LINE
  5
CA
330
1F
100
AcDbEntity
  8
0
  6
Continuous
 62
     7
370
    25
100
AcDbLine
 10
187.6201830667
 20
118.1089428456
 30
0.0
 11
187.6201830667
 21
77.6089428456
 31
0.0
  0
LINE
  5
CB
330
1F
100
AcDbEntity
  8
0
  6
Continuous
 62
     7
370
    25
100
AcDbLine
 10
223.6201830667
 20
118.1089428456
 30
0.0
 11
223.6201830667
 21
77.6089428456
 31
0.0
  0
LINE
  5
CC
330
1F
100
AcDbEntity
  8
0
  6
Continuous
 62
     7
370
    25
100
AcDbLine
 10
205.6201830667
 20
118.1089428456
 30
0.0
 11
205.6201830667
 21
77.6089428456
 31
0.0
  0
LINE
  5
CD
330
1F
100
AcDbEntity
  8
0
  6
Continuous
 62
     7
370
    25
100
AcDbLine
 10
214.6201830667
 20
118.1089428456
 30
0.0
 11
214.6201830667
 21
77.6089428456
 31
0.0
  0
LINE
  5
CE
330
1F
100
AcDbEntity
  8
0
  6
Continuous
 62
     7
370
    25
100
AcDbLine
 10
196.6201830667
 20
118.1089428456
 30
0.0
 11
196.6201830667
 21
77.6089428456
 31
0.0
  0
LINE
  5
CF
330
1F
100
AcDbEntity
  8
0
  6
Continuous
 62
     7
370
    25
100
AcDbLine
 10
233.6201830667
 20
115.976160627
 30
0.0
 11
233.6201830667
 21
79.7417250641
 31
0.0
  0
LINE
  5
D0
330
1F
100
AcDbEntity
  8
0
  6
Continuous
 62
     8
370
    25
100
AcDbLine
 10
232.7442178013
 20
78.7494471874
 30
0.0
 11
232.7442178013
 21
116.9684385037
 31
0.0
  0
LINE
  5
D1
330
1F
100
AcDbEntity
  8
0
  6
Continuous
 62
     7
370
    18
100
AcDbLine
 10
142.5658725847
 20
120.310995643
 30
0.0
 11
166.1201830667
 21
121.0470678456
 31
0.0
  0
LINE
  5
D2
330
1F
100
AcDbEntity
  8
0
  6
Continuous
 62
     7
370
    18
100
AcDbLine
 10
142.5658725847
 20
75.4068900481
 30
0.0
 11
166.1201830667
 21
74.6708178456
 31
0.0
  0
LINE
  5
D3
330
1F
100
AcDbEntity
  8
0
  6
Continuous
 62
     7
370
    18
100
AcDbLine
 10
166.1201830667
 20
73.5824428456
 30
0.0
 11
166.1201830667
 21
122.1354428456
 31
0.0
  0
LINE
  5
D4
330
1F
100
AcDbEntity
  8
0
  6
CENTERX2
 62
     7
370
    18
100
AcDbLine
 10
235.6201830667
 20
97.8589428456
 30
0.0
 11
139.0436673883
 21
97.8589428456
 31
0.0
  0
CIRCLE
  5
D5
330
1F
100
AcDbEntity
  8
0
  6
Continuous
 62
     7
370
    25
100
AcDbCircle
 10
286.6576482213
 20
97.8589428456
 30
0.0
 40
18.11721778146273
  0
CIRCLE
  5
D6
330
1F
100
AcDbEntity
  8
0
  6
Continuous
 62
     7
370
    25
100
AcDbCircle
 10
286.6576482213
 20
97.8589428456
 30
0.0
 40
19.1094956581764
  0
CIRCLE
  5
D7
330
1F
100
AcDbEntity
  8
0
  6
Continuous
 62
     7
370
    25
100
AcDbCircle
 10
286.6576482213
 20
97.8589428456
 30
0.0
 40
17.00000000000006
  0
CIRCLE
  5
D8
330
1F
100
AcDbEntity
  8
0
  6
Continuous
 62
     7
370
    25
100
AcDbCircle
 10
286.6576482213
 20
97.8589428456
 30
0.0
 40
15.50000000000006
  0
CIRCLE
  5
D9
330
1F
100
AcDbEntity
  8
0
  6
Continuous
 62
     7
370
    25
100
AcDbCircle
 10
286.6576482213
 20
97.8589428456
 30
0.0
 40
20.25
  0
CIRCLE
  5
DA
330
1F
100
AcDbEntity
  8
0
  6
Continuous
 62
     7
370
    25
100
AcDbCircle
 10
286.6576482213
 20
97.8589428456
 30
0.0
 40
24.75
  0
SPLINE
  5
DB
330
1F
100
AcDbEntity
  8
0
  6
Continuous
 62
     7
370
    25
100
AcDbSpline
210
0.0
220
0.0
230
1.0
 70
     8
 71
     3
 72
    10
 73
     6
 74
     0
 42
0.000000001
 43
0.00000001
 40
0.0
 40
0.0
 40
0.0
 40
0.0
 40
0.5
 40
0.5
 40
1.0
 40
1.0
 40
1.0
 40
1.0
 10
261.9076482213069
 20
112.4370371425959
 30
0.0
 10
261.8333766674368
 20
112.3941564409758
 30
0.0
 10
261.7690201802727
 20
112.3307392466798
 30
0.0
 10
261.6807084616086
 20
112.1781013901857
 30
0.0
 10
261.6576482213069
 20
112.0898193760598
 30
0.0
 10
261.6576482213069
 20
112.0040244407037
 30
0.0
  0
SPLINE
  5
DC
330
1F
100
AcDbEntity
  8
0
  6
Continuous
 62
     7
370
    25
100
AcDbSpline
210
0.0
220
0.0
230
1.0
 70
    24
 71
     3
 72
    18
 73
    14
 74
     0
 42
0.000000001
 43
0.00000001
 40
0.0
 40
0.0
 40
0.0
 40
0.0
 40
0.2499999999999995
 40
0.2499999999999995
 40
0.499999999999999
 40
0.499999999999999
 40
0.5624999999999991
 40
0.5624999999999991
 40
0.6249999999999992
 40
0.6249999999999992
 40
0.7499999999999994
 40
0.7499999999999994
 40
1.0
 40
1.0
 40
1.0
 40
1.0
 10
286.407648221307
 20
126.5821187377417
 30
0.0
 10
284.4070581720788
 20
125.4270775342817
 30
0.0
 10
282.3919380738442
 20
124.2636474031166
 30
0.0
 10
278.3202919100269
 20
121.9128813943917
 30
0.0
 10
276.2634754214714
 20
120.7253778410505
 30
0.0
 10
273.6608462105583
 20
119.2227491655291
 30
0.0
 10
273.137714395568
 20
118.9207188713228
 30
0.0
 10
272.0959851967064
 20
118.3192762379373
 30
0.0
 10
271.5768943660953
 20
118.0195790071502
 30
0.0
 10
270.0247197060774
 20
117.1234305493595
 30
0.0
 10
268.9967455085376
 20
116.5299293696899
 30
0.0
 10
265.9308542598426
 20
114.7598362319498
 30
0.0
 10
263.9109087397138
 20
113.593620142155
 30
0.0
 10
261.9076482213073
 20
112.4370371425961
 30
0.0
  0
SPLINE
  5
DD
330
1F
100
AcDbEntity
  8
0
  6
Continuous
 62
     7
370
    25
100
AcDbSpline
210
0.0
220
0.0
230
1.0
 70
     8
 71
     3
 72
    10
 73
     6
 74
     0
 42
0.000000001
 43
0.00000001
 40
0.0
 40
0.0
 40
0.0
 40
0.0
 40
0.5
 40
0.5
 40
1.0
 40
1.0
 40
1.0
 40
1.0
 10
286.907648221307
 20
126.5821187377417
 30
0.0
 10
286.8333766674369
 20
126.6249994393618
 30
0.0
 10
286.7462775225576
 20
126.6490251949962
 30
0.0
 10
286.5699334019225
 20
126.6491864585642
 30
0.0
 10
286.4819488148415
 20
126.6250162054198
 30
0.0
 10
286.407648221307
 20
126.5821187377417
 30
0.0
  0
SPLINE
  5
DE
330
1F
100
AcDbEntity
  8
0
  6
Continuous
 62
     7
370
    25
100
AcDbSpline
210
0.0
220
0.0
230
1.0
 70
    24
 71
     3
 72
    18
 73
    14
 74
     0
 42
0.000000001
 43
0.00000001
 40
0.0
 40
0.0
 40
0.0
 40
0.0
 40
0.2499999999999997
 40
0.2499999999999997
 40
0.4999999999999993
 40
0.4999999999999993
 40
0.5624999999999994
 40
0.5624999999999994
 40
0.6249999999999996
 40
0.6249999999999996
 40
0.7499999999999997
 40
0.7499999999999997
 40
1.0
 40
1.0
 40
1.0
 40
1.0
 10
311.4076482213064
 20
112.4370371425962
 30
0.0
 10
309.4070581720783
 20
113.5920783460561
 30
0.0
 10
307.3919380738438
 20
114.7555084772213
 30
0.0
 10
303.3202919100265
 20
117.106274485946
 30
0.0
 10
301.263475421471
 20
118.2937780392873
 30
0.0
 10
298.660846210558
 20
119.7964067148087
 30
0.0
 10
298.1377143955677
 20
120.0984370090149
 30
0.0
 10
297.0959851967062
 20
120.6998796424004
 30
0.0
 10
296.576894366095
 20
120.9995768731876
 30
0.0
 10
295.0247197060772
 20
121.8957253309782
 30
0.0
 10
293.9967455085375
 20
122.4892265106478
 30
0.0
 10
290.9308542598425
 20
124.2593196483878
 30
0.0
 10
288.9109087397137
 20
125.4255357381827
 30
0.0
 10
286.9076482213073
 20
126.5821187377415
 30
0.0
  0
SPLINE
  5
DF
330
1F
100
AcDbEntity
  8
0
  6
Continuous
 62
     7
370
    25
100
AcDbSpline
210
0.0
220
0.0
230
1.0
 70
     8
 71
     3
 72
    10
 73
     6
 74
     0
 42
0.000000001
 43
0.00000001
 40
0.0
 40
0.0
 40
0.0
 40
0.0
 40
0.5
 40
0.5
 40
1.0
 40
1.0
 40
1.0
 40
1.0
 10
311.657648221307
 20
112.0040244407037
 30
0.0
 10
311.657648221307
 20
112.089785843944
 30
0.0
 10
311.6349055635917
 20
112.1772287938748
 30
0.0
 10
311.5468731616205
 20
112.3300279139368
 30
0.0
 10
311.4819488148407
 20
112.3941396749184
 30
0.0
 10
311.4076482213062
 20
112.4370371425963
 30
0.0
  0
SPLINE
  5
E0
330
1F
100
AcDbEntity
  8
0
  6
Continuous
 62
     7
370
    25
100
AcDbSpline
210
0.0
220
0.0
230
1.0
 70
    24
 71
     3
 72
    20
 73
    16
 74
     0
 42
0.000000001
 43
0.00000001
 40
0.0
 40
0.0
 40
0.0
 40
0.0
 40
0.1250000000000001
 40
0.1250000000000001
 40
0.2500000000000001
 40
0.2500000000000001
 40
0.5000000000000001
 40
0.5000000000000001
 40
0.5625000000000001
 40
0.5625000000000001
 40
0.6250000000000001
 40
0.6250000000000001
 40
0.7500000000000001
 40
0.7500000000000001
 40
1.0
 40
1.0
 40
1.0
 40
1.0
 10
311.657648221307
 20
83.71386125041197
 30
0.0
 10
311.657648221307
 20
84.86736802296545
 30
0.0
 10
311.657648221307
 20
86.03486206925471
 30
0.0
 10
311.657648221307
 20
88.3800428252679
 30
0.0
 10
311.657648221307
 20
89.55593306103364
 30
0.0
 10
311.657648221307
 20
93.09512376509994
 30
0.0
 10
311.657648221307
 20
95.47017116992389
 30
0.0
 10
311.657648221307
 20
98.46184847915976
 30
0.0
 10
311.6576482213069
 20
99.0613102813192
 30
0.0
 10
311.657648221307
 20
100.2624944915916
 30
0.0
 10
311.657648221307
 20
100.8653120259542
 30
0.0
 10
311.657648221307
 20
102.6693534553915
 30
0.0
 10
311.657648221307
 20
103.859708006014
 30
0.0
 10
311.657648221307
 20
107.3987859318201
 30
0.0
 10
311.6576482213069
 20
109.7157197440471
 30
0.0
 10
311.657648221307
 20
112.0040244407037
 30
0.0
  0
SPLINE
  5
E1
330
1F
100
AcDbEntity
  8
0
  6
Continuous
 62
     7
370
    25
100
AcDbSpline
210
0.0
220
0.0
230
1.0
 70
     8
 71
     3
 72
    10
 73
     6
 74
     0
 42
0.000000001
 43
0.00000001
 40
0.0
 40
0.0
 40
0.0
 40
0.0
 40
0.5
 40
0.5
 40
1.0
 40
1.0
 40
1.0
 40
1.0
 10
311.4076482213069
 20
83.28084854851974
 30
0.0
 10
311.4819197751771
 20
83.32372925013979
 30
0.0
 10
311.5462762623412
 20
83.38714644443584
 30
0.0
 10
311.6345879810053
 20
83.53978430092995
 30
0.0
 10
311.657648221307
 20
83.6280663150558
 30
0.0
 10
311.657648221307
 20
83.71386125041197
 30
0.0
  0
SPLINE
  5
E2
330
1F
100
AcDbEntity
  8
0
  6
Continuous
 62
     7
370
    25
100
AcDbSpline
210
0.0
220
0.0
230
1.0
 70
    24
 71
     3
 72
    18
 73
    14
 74
     0
 42
0.000000001
 43
0.00000001
 40
0.0
 40
0.0
 40
0.0
 40
0.0
 40
0.2499999999999998
 40
0.2499999999999998
 40
0.4999999999999996
 40
0.4999999999999996
 40
0.5624999999999996
 40
0.5624999999999996
 40
0.6249999999999994
 40
0.6249999999999994
 40
0.7499999999999997
 40
0.7499999999999997
 40
1.0
 40
1.0
 40
1.0
 40
1.0
 10
286.9076482213069
 20
69.13576695337393
 30
0.0
 10
288.9082382705352
 20
70.2908081568339
 30
0.0
 10
290.9233583687697
 20
71.45423828799905
 30
0.0
 10
294.995004532587
 20
73.8050042967239
 30
0.0
 10
297.0518210211426
 20
74.99250785006511
 30
0.0
 10
299.6544502320556
 20
76.49513652558653
 30
0.0
 10
300.1775820470459
 20
76.79716681979284
 30
0.0
 10
301.2193112459075
 20
77.3986094531783
 30
0.0
 10
301.7384020765186
 20
77.69830668396548
 30
0.0
 10
303.2905767365365
 20
78.5944551417561
 30
0.0
 10
304.3185509340763
 20
79.18795632142572
 30
0.0
 10
307.3844421827713
 20
80.95804945916585
 30
0.0
 10
309.4043877029002
 20
82.12426554896065
 30
0.0
 10
311.4076482213066
 20
83.28084854851956
 30
0.0
  0
SPLINE
  5
E3
330
1F
100
AcDbEntity
  8
0
  6
Continuous
 62
     7
370
    25
100
AcDbSpline
210
0.0
220
0.0
230
1.0
 70
     8
 71
     3
 72
    10
 73
     6
 74
     0
 42
0.000000001
 43
0.00000001
 40
0.0
 40
0.0
 40
0.0
 40
0.0
 40
0.5
 40
0.5
 40
1.0
 40
1.0
 40
1.0
 40
1.0
 10
286.4076482213069
 20
69.13576695337392
 30
0.0
 10
286.4819197751771
 20
69.09288625175388
 30
0.0
 10
286.5690189200562
 20
69.06886049611944
 30
0.0
 10
286.7453630406914
 20
69.06869923255148
 30
0.0
 10
286.8333476277725
 20
69.09286948569584
 30
0.0
 10
286.9076482213069
 20
69.13576695337392
 30
0.0
  0
SPLINE
  5
E4
330
1F
100
AcDbEntity
  8
0
  6
Continuous
 62
     7
370
    25
100
AcDbSpline
210
0.0
220
0.0
230
1.0
 70
    24
 71
     3
 72
    18
 73
    14
 74
     0
 42
0.000000001
 43
0.00000001
 40
0.0
 40
0.0
 40
0.0
 40
0.0
 40
0.2499999999999998
 40
0.2499999999999998
 40
0.4999999999999996
 40
0.4999999999999996
 40
0.5624999999999997
 40
0.5624999999999997
 40
0.6249999999999999
 40
0.6249999999999999
 40
0.75
 40
0.75
 40
1.0
 40
1.0
 40
1.0
 40
1.0
 10
261.9076482213075
 20
83.28084854851946
 30
0.0
 10
263.9082382705356
 20
82.12580734505948
 30
0.0
 10
265.9233583687701
 20
80.96237721389437
 30
0.0
 10
269.9950045325874
 20
78.6116112051696
 30
0.0
 10
272.0518210211429
 20
77.42410765182841
 30
0.0
 10
274.6544502320559
 20
75.921478976307
 30
0.0
 10
275.1775820470462
 20
75.61944868210071
 30
0.0
 10
276.2193112459078
 20
75.01800604871528
 30
0.0
 10
276.7384020765189
 20
74.71830881792809
 30
0.0
 10
278.2905767365367
 20
73.82216036013747
 30
0.0
 10
279.3185509340765
 20
73.22865918046789
 30
0.0
 10
282.3844421827714
 20
71.4585660427278
 30
0.0
 10
284.4043877029003
 20
70.292349952933
 30
0.0
 10
286.4076482213066
 20
69.13576695337412
 30
0.0
  0
SPLINE
  5
E5
330
1F
100
AcDbEntity
  8
0
  6
Continuous
 62
     7
370
    25
100
AcDbSpline
210
0.0
220
0.0
230
1.0
 70
     8
 71
     3
 72
    10
 73
     6
 74
     0
 42
0.000000001
 43
0.00000001
 40
0.0
 40
0.0
 40
0.0
 40
0.0
 40
0.5
 40
0.5
 40
1.0
 40
1.0
 40
1.0
 40
1.0
 10
261.6576482213069
 20
83.71386125041198
 30
0.0
 10
261.6576482213069
 20
83.6280998471717
 30
0.0
 10
261.6803908790222
 20
83.54065689724082
 30
0.0
 10
261.7684232809934
 20
83.38785777717884
 30
0.0
 10
261.8333476277732
 20
83.32374601619728
 30
0.0
 10
261.9076482213077
 20
83.28084854851932
 30
0.0
  0
SPLINE
  5
E6
330
1F
100
AcDbEntity
  8
0
  6
Continuous
 62
     7
370
    25
100
AcDbSpline
210
0.0
220
0.0
230
1.0
 70
    24
 71
     3
 72
    20
 73
    16
 74
     0
 42
0.000000001
 43
0.00000001
 40
0.0
 40
0.0
 40
0.0
 40
0.0
 40
0.125
 40
0.125
 40
0.25
 40
0.25
 40
0.5
 40
0.5
 40
0.5625
 40
0.5625
 40
0.625
 40
0.625
 40
0.75
 40
0.75
 40
1.0
 40
1.0
 40
1.0
 40
1.0
 10
261.6576482213069
 20
83.71386125041198
 30
0.0
 10
261.6576482213069
 20
84.86736802296191
 30
0.0
 10
261.6576482213069
 20
86.03486206924114
 30
0.0
 10
261.657648221307
 20
88.38004282527119
 30
0.0
 10
261.6576482213069
 20
89.55593306104885
 30
0.0
 10
261.657648221307
 20
93.09512376516336
 30
0.0
 10
261.6576482213069
 20
95.47017117003628
 30
0.0
 10
261.6576482213069
 20
98.4618484793591
 30
0.0
 10
261.6576482213069
 20
99.0613102815372
 30
0.0
 10
261.6576482213069
 20
100.2624944918495
 30
0.0
 10
261.657648221307
 20
100.8653120262574
 30
0.0
 10
261.6576482213069
 20
102.6693534556073
 30
0.0
 10
261.657648221307
 20
103.8597080061828
 30
0.0
 10
261.6576482213069
 20
107.3987859318756
 30
0.0
 10
261.6576482213069
 20
109.7157197440637
 30
0.0
 10
261.6576482213069
 20
112.0040244407037
 30
0.0
  0
INSERT
  5
F2
330
1F
100
AcDbEntity
  8
0
  6
Continuous
 62
     7
370
    18
100
AcDbBlockReference
  2
SW_CENTERMARKSYMBOL_0
 10
286.6576482213
 20
97.8589428456
 30
0.0
  0
INSERT
  5
FE
330
1F
100
AcDbEntity
  8
0
  6
Continuous
 62
     7
370
    18
100
AcDbBlockReference
  2
SW_CENTERMARKSYMBOL_1
 10
286.6576482213
 20
97.8589428456
 30
0.0
  0
LINE
  5
FF
330
1F
100
AcDbEntity
  8
0
  6
Continuous
 62
     7
370
    25
100
AcDbLine
 10
166.764520634
 20
198.8644393596
 30
0.0
 11
166.6201830667
 21
198.6144393596
 31
0.0
  0
LINE
  5
100
330
1F
100
AcDbEntity
  8
0
  6
Continuous
 62
     7
370
    25
100
AcDbLine
 10
166.6201830667
 20
149.1144393596
 30
0.0
 11
166.764520634
 21
148.8644393596
 31
0.0
  0
LINE
  5
101
330
1F
100
AcDbEntity
  8
0
  6
Continuous
 62
     7
370
    25
100
AcDbLine
 10
176.4758454994
 20
148.8644393596
 30
0.0
 11
176.6201830667
 21
149.1144393596
 31
0.0
  0
LINE
  5
102
330
1F
100
AcDbEntity
  8
0
  6
Continuous
 62
     7
370
    25
100
AcDbLine
 10
176.6201830667
 20
198.6144393596
 30
0.0
 11
176.4758454994
 21
198.8644393596
 31
0.0
  0
LINE
  5
103
330
1F
100
AcDbEntity
  8
0
  6
Continuous
 62
     7
370
    25
100
AcDbLine
 10
166.6201830667
 20
198.1565643596
 30
0.0
 11
143.6192072189
 21
197.4377838643
 31
0.0
  0
LINE
  5
104
330
1F
100
AcDbEntity
  8
0
  6
Continuous
 62
     7
370
    25
100
AcDbLine
 10
143.6192072189
 20
150.2910948548
 30
0.0
 11
166.6201830667
 21
149.5723143596
 31
0.0
  0
LINE
  5
105
330
1F
100
AcDbEntity
  8
0
  6
Continuous
 62
     7
370
    25
100
AcDbLine
 10
143.6192072189
 20
197.4377838643
 30
0.0
 11
141.6201830667
 21
195.309790412
 31
0.0
  0
LINE
  5
106
330
1F
100
AcDbEntity
  8
0
  6
Continuous
 62
     7
370
    25
100
AcDbLine
 10
141.6201830667
 20
152.4190883071
 30
0.0
 11
143.6192072189
 21
150.2910948548
 31
0.0
  0
LINE
  5
107
330
1F
100
AcDbEntity
  8
0
  6
Continuous
 62
     7
370
    25
100
AcDbLine
 10
214.6201830667
 20
153.6144393596
 30
0.0
 11
223.6201830667
 21
154.8644393596
 31
0.0
  0
LINE
  5
108
330
1F
100
AcDbEntity
  8
0
  6
Continuous
 62
     7
370
    25
100
AcDbLine
 10
223.6201830667
 20
192.8644393596
 30
0.0
 11
214.6201830667
 21
194.1144393596
 31
0.0
  0
LINE
  5
109
330
1F
100
AcDbEntity
  8
0
  6
Continuous
 62
     7
370
    25
100
AcDbLine
 10
187.6201830667
 20
153.6144393596
 30
0.0
 11
196.6201830667
 21
154.8644393596
 31
0.0
  0
LINE
  5
10A
330
1F
100
AcDbEntity
  8
0
  6
Continuous
 62
     7
370
    25
100
AcDbLine
 10
196.6201830667
 20
192.8644393596
 30
0.0
 11
187.6201830667
 21
194.1144393596
 31
0.0
  0
LINE
  5
10B
330
1F
100
AcDbEntity
  8
0
  6
Continuous
 62
     7
370
    25
100
AcDbLine
 10
187.6201830667
 20
194.1144393596
 30
0.0
 11
176.6201830667
 21
194.1144393596
 31
0.0
  0
LINE
  5
10C
330
1F
100
AcDbEntity
  8
0
  6
Continuous
 62
     7
370
    25
100
AcDbLine
 10
176.6201830667
 20
153.6144393596
 30
0.0
 11
187.6201830667
 21
153.6144393596
 31
0.0
  0
LINE
  5
10D
330
1F
100
AcDbEntity
  8
0
  6
Continuous
 62
     7
370
    25
100
AcDbLine
 10
223.6201830667
 20
153.6144393596
 30
0.0
 11
232.7442178013
 21
154.7549437014
 31
0.0
  0
LINE
  5
10E
330
1F
100
AcDbEntity
  8
0
  6
Continuous
 62
     7
370
    25
100
AcDbLine
 10
232.7442178013
 20
192.9739350177
 30
0.0
 11
223.6201830667
 21
194.1144393596
 31
0.0
  0
LINE
  5
10F
330
1F
100
AcDbEntity
  8
0
  6
Continuous
 62
     7
370
    25
100
AcDbLine
 10
196.6201830667
 20
153.6144393596
 30
0.0
 11
205.6201830667
 21
154.8644393596
 31
0.0
  0
LINE
  5
110
330
1F
100
AcDbEntity
  8
0
  6
Continuous
 62
     7
370
    25
100
AcDbLine
 10
205.6201830667
 20
192.8644393596
 30
0.0
 11
196.6201830667
 21
194.1144393596
 31
0.0
  0
LINE
  5
111
330
1F
100
AcDbEntity
  8
0
  6
Continuous
 62
     7
370
    25
100
AcDbLine
 10
205.6201830667
 20
153.6144393596
 30
0.0
 11
214.6201830667
 21
154.8644393596
 31
0.0
  0
LINE
  5
112
330
1F
100
AcDbEntity
  8
0
  6
Continuous
 62
     7
370
    25
100
AcDbLine
 10
214.6201830667
 20
192.8644393596
 30
0.0
 11
205.6201830667
 21
194.1144393596
 31
0.0
  0
ARC
  5
113
330
1F
100
AcDbEntity
  8
0
  6
Continuous
 62
     7
370
    25
100
AcDbCircle
 10
232.6201830667
 20
191.981657141
 30
0.0
 40
1.000000000000007
100
AcDbArc
 50
0.0
 51
82.8749836511
  0
ARC
  5
114
330
1F
100
AcDbEntity
  8
0
  6
Continuous
 62
     7
370
    25
100
AcDbCircle
 10
232.6201830667
 20
155.7472215781
 30
0.0
 40
1.000000000000007
100
AcDbArc
 50
277.1250163489
 51
0.0
  0
SPLINE
  5
115
330
1F
100
AcDbEntity
  8
0
  6
Continuous
 62
     7
370
    25
100
AcDbSpline
210
0.0
220
0.0
230
1.0
 70
    24
 71
     3
 72
    13
 73
     9
 74
     0
 42
0.000000001
 43
0.00000001
 40
0.0
 40
0.0
 40
0.0
 40
0.0
 40
0.0966757260350297
 40
0.2292797219717882
 40
0.4205873125687112
 40
0.6125291155083928
 40
0.8060639539006853
 40
1.0
 40
1.0
 40
1.0
 40
1.0
 10
166.7728036831291
 20
198.864439359572
 30
0.0
 10
166.7738524582483
 20
198.864439359572
 30
0.0
 10
166.7763397720506
 20
198.864439359572
 30
0.0
 10
166.893121681926
 20
198.864439359572
 30
0.0
 10
167.150311648049
 20
198.864439359572
 30
0.0
 10
167.6004457774488
 20
198.864439359572
 30
0.0
 10
168.1829803018569
 20
198.864439359572
 30
0.0
 10
168.6706420280166
 20
198.864439359572
 30
0.0
 10
168.9147253663801
 20
198.864439359572
 30
0.0
  0
SPLINE
  5
116
330
1F
100
AcDbEntity
  8
0
  6
Continuous
 62
     7
370
    25
100
AcDbSpline
210
0.0
220
0.0
230
1.0
 70
     8
 71
     3
 72
    10
 73
     6
 74
     0
 42
0.000000001
 43
0.00000001
 40
0.0
 40
0.0
 40
0.0
 40
0.0
 40
0.5
 40
0.5
 40
1.0
 40
1.0
 40
1.0
 40
1.0
 10
168.9147253663802
 20
198.614439359572
 30
0.0
 10
168.9391084035557
 20
198.6887109134422
 30
0.0
 10
168.952726509259
 20
198.7530674006066
 30
0.0
 10
168.9528179978557
 20
198.8413791192705
 30
0.0
 10
168.9391179371546
 20
198.864439359572
 30
0.0
 10
168.9147253663801
 20
198.864439359572
 30
0.0
  0
SPLINE
  5
117
330
1F
100
AcDbEntity
  8
0
  6
Continuous
 62
     7
370
    25
100
AcDbSpline
210
0.0
220
0.0
230
1.0
 70
     8
 71
     3
 72
    18
 73
    14
 74
     0
 42
0.000000001
 43
0.00000001
 40
0.0
 40
0.0
 40
0.0
 40
0.0
 40
0.2500000000000002
 40
0.2500000000000002
 40
0.5000000000000003
 40
0.5000000000000003
 40
0.5625000000000002
 40
0.5625000000000002
 40
0.6250000000000002
 40
0.6250000000000002
 40
0.75
 40
0.75
 40
1.0
 40
1.0
 40
1.0
 40
1.0
 10
168.9147253663802
 20
198.6144393595722
 30
0.0
 10
168.2579401100955
 20
196.6138493103446
 30
0.0
 10
167.7179581202062
 20
194.5987292121106
 30
0.0
 10
166.9708458900963
 20
190.5270830482945
 30
0.0
 10
166.7660502842491
 20
188.4702665597396
 30
0.0
 10
166.7641490528886
 20
185.8676373488273
 30
0.0
 10
166.7763758053759
 20
185.3445055338372
 30
0.0
 10
166.825675219965
 20
184.3027763349758
 30
0.0
 10
166.8626899518486
 20
183.7836855043649
 30
0.0
 10
167.0092713691764
 20
182.2315108443474
 30
0.0
 10
167.1544575350026
 20
181.2035366468079
 30
0.0
 10
167.7157133660486
 20
178.1376453981138
 30
0.0
 10
168.2570634063506
 20
176.1176998779854
 30
0.0
 10
168.9147253663777
 20
174.1144393595795
 30
0.0
  0
SPLINE
  5
118
330
1F
100
AcDbEntity
  8
0
  6
Continuous
 62
     7
370
    25
100
AcDbSpline
210
0.0
220
0.0
230
1.0
 70
     8
 71
     3
 72
    10
 73
     6
 74
     0
 42
0.000000001
 43
0.00000001
 40
0.0
 40
0.0
 40
0.0
 40
0.0
 40
0.5
 40
0.5
 40
1.0
 40
1.0
 40
1.0
 40
1.0
 10
168.9147253663802
 20
173.614439359572
 30
0.0
 10
168.9391084035561
 20
173.6887109134435
 30
0.0
 10
168.9527265092595
 20
173.7758100583247
 30
0.0
 10
168.9528179978552
 20
173.9521541789628
 30
0.0
 10
168.939117937155
 20
174.0401387660369
 30
0.0
 10
168.91472536638
 20
174.1144393595724
 30
0.0
  0
SPLINE
  5
119
330
1F
100
AcDbEntity
  8
0
  6
Continuous
 62
     7
370
    25
100
AcDbSpline
210
0.0
220
0.0
230
1.0
 70
     8
 71
     3
 72
    18
 73
    14
 74
     0
 42
0.000000001
 43
0.00000001
 40
0.0
 40
0.0
 40
0.0
 40
0.0
 40
0.2500000000000003
 40
0.2500000000000003
 40
0.5000000000000006
 40
0.5000000000000006
 40
0.5625000000000006
 40
0.5625000000000006
 40
0.6250000000000004
 40
0.6250000000000004
 40
0.7500000000000003
 40
0.7500000000000003
 40
1.0
 40
1.0
 40
1.0
 40
1.0
 10
168.9147253663802
 20
173.6144393595722
 30
0.0
 10
168.2579401100955
 20
171.6138493103446
 30
0.0
 10
167.7179581202062
 20
169.5987292121106
 30
0.0
 10
166.9708458900963
 20
165.5270830482945
 30
0.0
 10
166.7660502842491
 20
163.4702665597396
 30
0.0
 10
166.7641490528886
 20
160.8676373488273
 30
0.0
 10
166.7763758053759
 20
160.3445055338372
 30
0.0
 10
166.825675219965
 20
159.3027763349758
 30
0.0
 10
166.8626899518486
 20
158.7836855043649
 30
0.0
 10
167.0092713691764
 20
157.2315108443474
 30
0.0
 10
167.1544575350026
 20
156.2035366468079
 30
0.0
 10
167.7157133660486
 20
153.1376453981138
 30
0.0
 10
168.2570634063506
 20
151.1176998779854
 30
0.0
 10
168.9147253663777
 20
149.1144393595795
 30
0.0
  0
SPLINE
  5
11A
330
1F
100
AcDbEntity
  8
0
  6
Continuous
 62
     7
370
    25
100
AcDbSpline
210
0.0
220
0.0
230
1.0
 70
     8
 71
     3
 72
    10
 73
     6
 74
     0
 42
0.000000001
 43
0.00000001
 40
0.0
 40
0.0
 40
0.0
 40
0.0
 40
0.5
 40
0.5
 40
1.0
 40
1.0
 40
1.0
 40
1.0
 10
168.9147253663801
 20
148.864439359572
 30
0.0
 10
168.9391084035561
 20
148.864439359572
 30
0.0
 10
168.9527265092595
 20
148.887182017288
 30
0.0
 10
168.9528179978552
 20
148.9752144192619
 30
0.0
 10
168.939117937155
 20
149.0401387660368
 30
0.0
 10
168.91472536638
 20
149.1144393595724
 30
0.0
  0
SPLINE
  5
11B
330
1F
100
AcDbEntity
  8
0
  6
Continuous
 62
     7
370
    25
100
AcDbSpline
210
0.0
220
0.0
230
1.0
 70
    24
 71
     3
 72
    12
 73
     8
 74
     0
 42
0.000000001
 43
0.00000001
 40
0.0
 40
0.0
 40
0.0
 40
0.0
 40
0.1915900933939986
 40
0.3835303797343679
 40
0.576830302393973
 40
0.7707419350649436
 40
1.0
 40
1.0
 40
1.0
 40
1.0
 10
168.9147253663801
 20
148.864439359572
 30
0.0
 10
168.6735765910861
 20
148.864439359572
 30
0.0
 10
168.1908382630098
 20
148.864439359572
 30
0.0
 10
167.6074847143046
 20
148.864439359572
 30
0.0
 10
167.157978290931
 20
148.864439359572
 30
0.0
 10
166.8294366553905
 20
148.864439359572
 30
0.0
 10
166.7969770828411
 20
148.864439359572
 30
0.0
 10
166.779391658286
 20
148.864439359572
 30
0.0
  0
LINE
  5
11C
330
1F
100
AcDbEntity
  8
0
  6
Continuous
 62
     7
370
    25
100
AcDbLine
 10
166.6201830667
 20
198.6144393596
 30
0.0
 11
166.6201830667
 21
149.1144393596
 31
0.0
  0
SPLINE
  5
11D
330
1F
100
AcDbEntity
  8
0
  6
Continuous
 62
     7
370
    25
100
AcDbSpline
210
0.0
220
0.0
230
1.0
 70
     8
 71
     3
 72
    10
 73
     6
 74
     0
 42
0.000000001
 43
0.00000001
 40
0.0
 40
0.0
 40
0.0
 40
0.0
 40
0.5
 40
0.5
 40
1.0
 40
1.0
 40
1.0
 40
1.0
 10
174.3256407669871
 20
149.114439359572
 30
0.0
 10
174.3012577298116
 20
149.0401678057019
 30
0.0
 10
174.2876396241057
 20
148.9758113185378
 30
0.0
 10
174.287548135509
 20
148.8874995998736
 30
0.0
 10
174.3012481962101
 20
148.864439359572
 30
0.0
 10
174.3256407669846
 20
148.864439359572
 30
0.0
  0
SPLINE
  5
11E
330
1F
100
AcDbEntity
  8
0
  6
Continuous
 62
     7
370
    25
100
AcDbSpline
210
0.0
220
0.0
230
1.0
 70
     8
 71
     3
 72
    18
 73
    14
 74
     0
 42
0.000000001
 43
0.00000001
 40
0.0
 40
0.0
 40
0.0
 40
0.0
 40
0.2499999999999995
 40
0.2499999999999995
 40
0.499999999999999
 40
0.499999999999999
 40
0.5624999999999991
 40
0.5624999999999991
 40
0.6249999999999992
 40
0.6249999999999992
 40
0.7499999999999994
 40
0.7499999999999994
 40
1.0
 40
1.0
 40
1.0
 40
1.0
 10
174.3256407669846
 20
173.614439359572
 30
0.0
 10
174.9824260232695
 20
171.6138493103439
 30
0.0
 10
175.5224080131589
 20
169.5987292121093
 30
0.0
 10
176.2695202432688
 20
165.527083048292
 30
0.0
 10
176.4743158491158
 20
163.4702665597364
 30
0.0
 10
176.4762170804761
 20
160.8676373488233
 30
0.0
 10
176.4639903279887
 20
160.3445055338331
 30
0.0
 10
176.4146909133995
 20
159.3027763349714
 30
0.0
 10
176.3776761815158
 20
158.7836855043603
 30
0.0
 10
176.2310947641877
 20
157.2315108443424
 30
0.0
 10
176.0859085983613
 20
156.2035366468026
 30
0.0
 10
175.5246527673147
 20
153.1376453981077
 30
0.0
 10
174.9833027270123
 20
151.1176998779788
 30
0.0
 10
174.3256407669847
 20
149.1144393595724
 30
0.0
  0
SPLINE
  5
11F
330
1F
100
AcDbEntity
  8
0
  6
Continuous
 62
     7
370
    25
100
AcDbSpline
210
0.0
220
0.0
230
1.0
 70
     8
 71
     3
 72
    10
 73
     6
 74
     0
 42
0.000000001
 43
0.00000001
 40
0.0
 40
0.0
 40
0.0
 40
0.0
 40
0.5
 40
0.5
 40
1.0
 40
1.0
 40
1.0
 40
1.0
 10
174.3256407669871
 20
174.114439359572
 30
0.0
 10
174.3012577298116
 20
174.0401678057019
 30
0.0
 10
174.2876396241057
 20
173.9530686608227
 30
0.0
 10
174.287548135509
 20
173.7767245401876
 30
0.0
 10
174.3012481962101
 20
173.6887399531065
 30
0.0
 10
174.3256407669846
 20
173.614439359572
 30
0.0
  0
SPLINE
  5
120
330
1F
100
AcDbEntity
  8
0
  6
Continuous
 62
     7
370
    25
100
AcDbSpline
210
0.0
220
0.0
230
1.0
 70
     8
 71
     3
 72
    18
 73
    14
 74
     0
 42
0.000000001
 43
0.00000001
 40
0.0
 40
0.0
 40
0.0
 40
0.0
 40
0.2499999999999997
 40
0.2499999999999997
 40
0.4999999999999993
 40
0.4999999999999993
 40
0.5624999999999994
 40
0.5624999999999994
 40
0.6249999999999996
 40
0.6249999999999996
 40
0.7499999999999997
 40
0.7499999999999997
 40
1.0
 40
1.0
 40
1.0
 40
1.0
 10
174.3256407669848
 20
198.6144393595715
 30
0.0
 10
174.9824260232697
 20
196.6138493103433
 30
0.0
 10
175.522408013159
 20
194.5987292121088
 30
0.0
 10
176.2695202432688
 20
190.5270830482916
 30
0.0
 10
176.4743158491159
 20
188.470266559736
 30
0.0
 10
176.4762170804761
 20
185.8676373488231
 30
0.0
 10
176.4639903279887
 20
185.3445055338328
 30
0.0
 10
176.4146909133995
 20
184.3027763349712
 30
0.0
 10
176.3776761815158
 20
183.7836855043601
 30
0.0
 10
176.2310947641877
 20
182.2315108443423
 30
0.0
 10
176.0859085983613
 20
181.2035366468025
 30
0.0
 10
175.5246527673147
 20
178.1376453981077
 30
0.0
 10
174.9833027270122
 20
176.1176998779787
 30
0.0
 10
174.3256407669847
 20
174.1144393595723
 30
0.0
  0
SPLINE
  5
121
330
1F
100
AcDbEntity
  8
0
  6
Continuous
 62
     7
370
    25
100
AcDbSpline
210
0.0
220
0.0
230
1.0
 70
     8
 71
     3
 72
    10
 73
     6
 74
     0
 42
0.000000001
 43
0.00000001
 40
0.0
 40
0.0
 40
0.0
 40
0.0
 40
0.5
 40
0.5
 40
1.0
 40
1.0
 40
1.0
 40
1.0
 10
174.3256407669846
 20
198.864439359572
 30
0.0
 10
174.3012577298091
 20
198.864439359572
 30
0.0
 10
174.2876396241057
 20
198.8416967018568
 30
0.0
 10
174.2875481355091
 20
198.7536642998855
 30
0.0
 10
174.3012481962103
 20
198.6887399531058
 30
0.0
 10
174.3256407669849
 20
198.6144393595712
 30
0.0
  0
SPLINE
  5
122
330
1F
100
AcDbEntity
  8
0
  6
Continuous
 62
     7
370
    25
100
AcDbSpline
210
0.0
220
0.0
230
1.0
 70
    24
 71
     3
 72
    13
 73
     9
 74
     0
 42
0.000000001
 43
0.00000001
 40
0.0
 40
0.0
 40
0.0
 40
0.0
 40
0.0966757260350297
 40
0.2292797219717881
 40
0.4205873125687112
 40
0.6125291155083928
 40
0.8060639539006852
 40
1.0
 40
1.0
 40
1.0
 40
1.0
 10
176.4675624502356
 20
198.864439359572
 30
0.0
 10
176.4665136751165
 20
198.864439359572
 30
0.0
 10
176.4640263613141
 20
198.864439359572
 30
0.0
 10
176.3472444514387
 20
198.864439359572
 30
0.0
 10
176.0900544853158
 20
198.864439359572
 30
0.0
 10
175.639920355916
 20
198.864439359572
 30
0.0
 10
175.0573858315079
 20
198.864439359572
 30
0.0
 10
174.5697241053481
 20
198.864439359572
 30
0.0
 10
174.3256407669846
 20
198.864439359572
 30
0.0
  0
SPLINE
  5
123
330
1F
100
AcDbEntity
  8
0
  6
Continuous
 62
     7
370
    25
100
AcDbSpline
210
0.0
220
0.0
230
1.0
 70
    24
 71
     3
 72
    12
 73
     8
 74
     0
 42
0.000000001
 43
0.00000001
 40
0.0
 40
0.0
 40
0.0
 40
0.0
 40
0.1915900933939987
 40
0.3835303797343679
 40
0.5768303023939729
 40
0.7707419350649435
 40
1.0
 40
1.0
 40
1.0
 40
1.0
 10
174.3256407669846
 20
148.864439359572
 30
0.0
 10
174.5667895422787
 20
148.864439359572
 30
0.0
 10
175.049527870355
 20
148.864439359572
 30
0.0
 10
175.6328814190601
 20
148.864439359572
 30
0.0
 10
176.0823878424338
 20
148.864439359572
 30
0.0
 10
176.4109294779743
 20
148.864439359572
 30
0.0
 10
176.4433890505236
 20
148.864439359572
 30
0.0
 10
176.4609744750788
 20
148.864439359572
 30
0.0
  0
LINE
  5
124
330
1F
100
AcDbEntity
  8
0
  6
Continuous
 62
     7
370
    25
100
AcDbLine
 10
176.6201830667
 20
198.6144393596
 30
0.0
 11
176.6201830667
 21
149.1144393596
 31
0.0
  0
LINE
  5
125
330
1F
100
AcDbEntity
  8
0
  6
Continuous
 62
     7
370
    25
100
AcDbLine
 10
174.325640767
 20
173.6144393596
 30
0.0
 11
168.9147253664
 21
173.6144393596
 31
0.0
  0
LINE
  5
126
330
1F
100
AcDbEntity
  8
0
  6
Continuous
 62
     7
370
    25
100
AcDbLine
 10
168.9147253664
 20
174.1144393596
 30
0.0
 11
174.325640767
 21
174.1144393596
 31
0.0
  0
LINE
  5
127
330
1F
100
AcDbEntity
  8
0
  6
Continuous
 62
     7
370
    25
100
AcDbLine
 10
168.9147253664
 20
149.1144393596
 30
0.0
 11
174.325640767
 21
149.1144393596
 31
0.0
  0
LINE
  5
128
330
1F
100
AcDbEntity
  8
0
  6
Continuous
 62
     7
370
    25
100
AcDbLine
 10
174.325640767
 20
198.6144393596
 30
0.0
 11
168.9147253664
 21
198.6144393596
 31
0.0
  0
LINE
  5
129
330
1F
100
AcDbEntity
  8
0
  6
Continuous
 62
     7
370
    25
100
AcDbLine
 10
143.6192072189
 20
197.4377838643
 30
0.0
 11
143.6192072189
 21
150.2910948548
 31
0.0
  0
LINE
  5
12A
330
1F
100
AcDbEntity
  8
0
  6
Continuous
 62
     7
370
    25
100
AcDbLine
 10
141.6201830667
 20
152.4190883071
 30
0.0
 11
141.6201830667
 21
195.309790412
 31
0.0
  0
LINE
  5
12B
330
1F
100
AcDbEntity
  8
0
  6
Continuous
 62
     7
370
    25
100
AcDbLine
 10
214.6201830667
 20
194.1144393596
 30
0.0
 11
214.6201830667
 21
153.6144393596
 31
0.0
  0
LINE
  5
12C
330
1F
100
AcDbEntity
  8
0
  6
Continuous
 62
     7
370
    25
100
AcDbLine
 10
187.6201830667
 20
194.1144393596
 30
0.0
 11
187.6201830667
 21
153.6144393596
 31
0.0
  0
LINE
  5
12D
330
1F
100
AcDbEntity
  8
0
  6
Continuous
 62
     7
370
    25
100
AcDbLine
 10
223.6201830667
 20
194.1144393596
 30
0.0
 11
223.6201830667
 21
153.6144393596
 31
0.0
  0
LINE
  5
12E
330
1F
100
AcDbEntity
  8
0
  6
Continuous
 62
     7
370
    25
100
AcDbLine
 10
196.6201830667
 20
194.1144393596
 30
0.0
 11
196.6201830667
 21
153.6144393596
 31
0.0
  0
LINE
  5
12F
330
1F
100
AcDbEntity
  8
0
  6
Continuous
 62
     7
370
    25
100
AcDbLine
 10
205.6201830667
 20
194.1144393596
 30
0.0
 11
205.6201830667
 21
153.6144393596
 31
0.0
  0
LINE
  5
130
330
1F
100
AcDbEntity
  8
0
  6
Continuous
 62
     7
370
    25
100
AcDbLine
 10
233.6201830667
 20
191.981657141
 30
0.0
 11
233.6201830667
 21
155.7472215788
 31
0.0
  0
LINE
  5
131
330
1F
100
AcDbEntity
  8
0
  6
Continuous
 62
     7
370
    25
100
AcDbLine
 10
174.325640767
 20
148.8644393596
 30
0.0
 11
168.9147253664
 21
148.8644393596
 31
0.0
  0
LINE
  5
132
330
1F
100
AcDbEntity
  8
0
  6
Continuous
 62
     7
370
    25
100
AcDbLine
 10
168.9147253664
 20
198.8644393596
 30
0.0
 11
174.325640767
 21
198.8644393596
 31
0.0
  0
LINE
  5
133
330
1F
100
AcDbEntity
  8
0
  6
Continuous
 62
     8
370
    25
100
AcDbLine
 10
232.7442178013
 20
154.7549437014
 30
0.0
 11
232.7442178013
 21
192.9739350177
 31
0.0
  0
LINE
  5
134
330
1F
100
AcDbEntity
  8
0
  6
Continuous
 62
     7
370
    18
100
AcDbLine
 10
142.5658725847
 20
196.316492157
 30
0.0
 11
166.1201830667
 21
197.0525643596
 31
0.0
  0
LINE
  5
135
330
1F
100
AcDbEntity
  8
0
  6
Continuous
 62
     7
370
    18
100
AcDbLine
 10
142.5658725847
 20
151.4123865621
 30
0.0
 11
166.1201830667
 21
150.6763143596
 31
0.0
  0
LINE
  5
136
330
1F
100
AcDbEntity
  8
0
  6
Continuous
 62
     7
370
    18
100
AcDbLine
 10
166.1201830667
 20
149.5879393596
 30
0.0
 11
166.1201830667
 21
198.1409393596
 31
0.0
  0
LINE
  5
137
330
1F
100
AcDbEntity
  8
0
  6
CENTERX2
 62
     7
370
    18
100
AcDbLine
 10
235.6201830667
 20
173.8644393596
 30
0.0
 11
139.0436673883
 21
173.8644393596
 31
0.0
  0
ENDSEC
  0
SECTION
  2
OBJECTS
  0
DICTIONARY
  5
C
330
0
100
AcDbDictionary
281
     1
  3
ACAD_GROUP
350
D
  3
ACAD_LAYOUT
350
1A
  3
ACAD_MLINESTYLE
350
17
  3
ACAD_PLOTSETTINGS
350
19
  3
ACAD_PLOTSTYLENAME
350
E
  3
ACAD_SCALELIST
350
47
  0
DICTIONARY
  5
D
102
{ACAD_REACTORS
330
C
102
}
330
C
100
AcDbDictionary
281
     1
  0
DICTIONARY
  5
1A
102
{ACAD_REACTORS
330
C
102
}
330
C
100
AcDbDictionary
281
     1
  3
Layout1
350
1E
  3
Layout2
350
26
  3
Model
350
22
  0
DICTIONARY
  5
17
102
{ACAD_REACTORS
330
C
102
}
330
C
100
AcDbDictionary
281
     1
  3
Standard
350
18
  0
DICTIONARY
  5
19
102
{ACAD_REACTORS
330
C
102
}
330
C
100
AcDbDictionary
281
     1
  0
ACDBDICTIONARYWDFLT
  5
E
102
{ACAD_REACTORS
330
C
102
}
330
C
100
AcDbDictionary
281
     1
  3
Normal
350
F
100
AcDbDictionaryWithDefault
340
F
  0
DICTIONARY
  5
47
102
{ACAD_REACTORS
330
C
102
}
330
C
100
AcDbDictionary
281
     1
  3
A0
350
48
  3
A1
350
49
  3
A2
350
4A
  3
A3
350
4B
  3
A4
350
4C
  3
A5
350
4D
  3
A6
350
4E
  3
A7
350
4F
  3
A8
350
50
  3
A9
350
51
  3
B0
350
52
  3
B1
350
53
  3
B2
350
54
  3
B3
350
55
  3
B4
350
56
  3
B5
350
57
  3
B6
350
58
  3
B7
350
59
  3
B8
350
5A
  3
B9
350
5B
  3
C0
350
5C
  3
C1
350
5D
  3
C2
350
5E
  3
C3
350
5F
  3
C4
350
60
  3
C5
350
61
  3
C6
350
62
  3
C7
350
63
  3
C8
350
64
  3
C9
350
65
  3
D0
350
66
  3
D1
350
67
  3
D2
350
68
  0
LAYOUT
  5
1E
102
{ACAD_REACTORS
330
1A
102
}
330
1A
100
AcDbPlotSettings
  1

  2
none_device
  4

  6

 40
0.0
 41
0.0
 42
0.0
 43
0.0
 44
0.0
 45
0.0
 46
0.0
 47
0.0
 48
0.0
 49
0.0
140
0.0
141
0.0
142
1.0
143
1.0
 70
   688
 72
     1
 73
     0
 74
     5
  7

 75
    16
147
1.0
148
0.0
149
0.0
100
AcDbLayout
  1
Layout1
 70
     1
 71
     1
 10
0.0
 20
0.0
 11
420.0
 21
297.0
 12
0.0
 22
0.0
 32
0.0
 14
1.0000000000E+20
 24
1.0000000000E+20
 34
1.0000000000E+20
 15
-1.0000000000E+20
 25
-1.0000000000E+20
 35
-1.0000000000E+20
146
0.0
 13
0.0
 23
0.0
 33
0.0
 16
1.0
 26
0.0
 36
0.0
 17
0.0
 27
1.0
 37
0.0
 76
     0
330
1B
  0
LAYOUT
  5
26
102
{ACAD_REACTORS
330
1A
102
}
330
1A
100
AcDbPlotSettings
  1

  2
none_device
  4

  6

 40
0.0
 41
0.0
 42
0.0
 43
0.0
 44
0.0
 45
0.0
 46
0.0
 47
0.0
 48
0.0
 49
0.0
140
0.0
141
0.0
142
1.0
143
1.0
 70
   688
 72
     1
 73
     0
 74
     5
  7

 75
    16
147
1.0
148
0.0
149
0.0
100
AcDbLayout
  1
Layout2
 70
     1
 71
     2
 10
0.0
 20
0.0
 11
0.0
 21
0.0
 12
0.0
 22
0.0
 32
0.0
 14
0.0
 24
0.0
 34
0.0
 15
0.0
 25
0.0
 35
0.0
146
0.0
 13
0.0
 23
0.0
 33
0.0
 16
1.0
 26
0.0
 36
0.0
 17
0.0
 27
1.0
 37
0.0
 76
     0
330
23
  0
LAYOUT
  5
22
102
{ACAD_REACTORS
330
1A
102
}
330
1A
100
AcDbPlotSettings
  1

  2
none_device
  4
Letter_(8.50_x_11.00_Inches)
  6

 40
6.35
 41
6.35
 42
6.35000508
 43
6.35000508
 44
215.9
 45
279.4
 46
0.0
 47
0.0
 48
0.0
 49
0.0
140
0.0
141
0.0
142
1.0
143
1.0
 70
  1712
 72
     1
 73
     0
 74
     0
  7

 75
     0
147
1.0
148
0.0
149
0.0
100
AcDbLayout
  1
Model
 70
     1
 71
     0
 10
0.0
 20
0.0
 11
431.8
 21
279.4
 12
0.0
 22
0.0
 32
0.0
 14
0.0
 24
0.0
 34
0.0
 15
431.8
 25
279.4
 35
0.0
146
0.0
 13
0.0
 23
0.0
 33
0.0
 16
1.0
 26
0.0
 36
0.0
 17
0.0
 27
1.0
 37
0.0
 76
     0
330
1F
331
29
  0
MLINESTYLE
  5
18
102
{ACAD_REACTORS
330
17
102
}
330
17
100
AcDbMlineStyle
  2
Standard
 70
     0
  3

 62
   256
 51
90.0
 52
90.0
 71
     2
 49
0.5
 62
   256
  6
BYLAYER
 49
-0.5
 62
   256
  6
BYLAYER
  0
ACDBPLACEHOLDER
  5
F
102
{ACAD_REACTORS
330
E
102
}
330
E
  0
SCALE
  5
48
102
{ACAD_REACTORS
330
47
102
}
330
47
100
AcDbScale
 70
     0
300
1:1
140
1.0
141
1.0
290
     1
  0
SCALE
  5
49
102
{ACAD_REACTORS
330
47
102
}
330
47
100
AcDbScale
 70
     0
300
1:2
140
1.0
141
2.0
290
     0
  0
SCALE
  5
4A
102
{ACAD_REACTORS
330
47
102
}
330
47
100
AcDbScale
 70
     0
300
1:4
140
1.0
141
4.0
290
     0
  0
SCALE
  5
4B
102
{ACAD_REACTORS
330
47
102
}
330
47
100
AcDbScale
 70
     0
300
1:5
140
1.0
141
5.0
290
     0
  0
SCALE
  5
4C
102
{ACAD_REACTORS
330
47
102
}
330
47
100
AcDbScale
 70
     0
300
1:8
140
1.0
141
8.0
290
     0
  0
SCALE
  5
4D
102
{ACAD_REACTORS
330
47
102
}
330
47
100
AcDbScale
 70
     0
300
1:10
140
1.0
141
10.0
290
     0
  0
SCALE
  5
4E
102
{ACAD_REACTORS
330
47
102
}
330
47
100
AcDbScale
 70
     0
300
1:16
140
1.0
141
16.0
290
     0
  0
SCALE
  5
4F
102
{ACAD_REACTORS
330
47
102
}
330
47
100
AcDbScale
 70
     0
300
1:20
140
1.0
141
20.0
290
     0
  0
SCALE
  5
50
102
{ACAD_REACTORS
330
47
102
}
330
47
100
AcDbScale
 70
     0
300
1:30
140
1.0
141
30.0
290
     0
  0
SCALE
  5
51
102
{ACAD_REACTORS
330
47
102
}
330
47
100
AcDbScale
 70
     0
300
1:40
140
1.0
141
40.0
290
     0
  0
SCALE
  5
52
102
{ACAD_REACTORS
330
47
102
}
330
47
100
AcDbScale
 70
     0
300
1:50
140
1.0
141
50.0
290
     0
  0
SCALE
  5
53
102
{ACAD_REACTORS
330
47
102
}
330
47
100
AcDbScale
 70
     0
300
1:100
140
1.0
141
100.0
290
     0
  0
SCALE
  5
54
102
{ACAD_REACTORS
330
47
102
}
330
47
100
AcDbScale
 70
     0
300
2:1
140
2.0
141
1.0
290
     0
  0
SCALE
  5
55
102
{ACAD_REACTORS
330
47
102
}
330
47
100
AcDbScale
 70
     0
300
4:1
140
4.0
141
1.0
290
     0
  0
SCALE
  5
56
102
{ACAD_REACTORS
330
47
102
}
330
47
100
AcDbScale
 70
     0
300
8:1
140
8.0
141
1.0
290
     0
  0
SCALE
  5
57
102
{ACAD_REACTORS
330
47
102
}
330
47
100
AcDbScale
 70
     0
300
10:1
140
10.0
141
1.0
290
     0
  0
SCALE
  5
58
102
{ACAD_REACTORS
330
47
102
}
330
47
100
AcDbScale
 70
     0
300
100:1
140
100.0
141
1.0
290
     0
  0
SCALE
  5
59
102
{ACAD_REACTORS
330
47
102
}
330
47
100
AcDbScale
 70
     0
300
1/128" = 1'-0"
140
0.0078125
141
12.0
290
     0
  0
SCALE
  5
5A
102
{ACAD_REACTORS
330
47
102
}
330
47
100
AcDbScale
 70
     0
300
1/64" = 1'-0"
140
0.015625
141
12.0
290
     0
  0
SCALE
  5
5B
102
{ACAD_REACTORS
330
47
102
}
330
47
100
AcDbScale
 70
     0
300
1/32" = 1'-0"
140
0.03125
141
12.0
290
     0
  0
SCALE
  5
5C
102
{ACAD_REACTORS
330
47
102
}
330
47
100
AcDbScale
 70
     0
300
1/16" = 1'-0"
140
0.0625
141
12.0
290
     0
  0
SCALE
  5
5D
102
{ACAD_REACTORS
330
47
102
}
330
47
100
AcDbScale
 70
     0
300
3/32" = 1'-0"
140
0.09375
141
12.0
290
     0
  0
SCALE
  5
5E
102
{ACAD_REACTORS
330
47
102
}
330
47
100
AcDbScale
 70
     0
300
1/8" = 1'-0"
140
0.125
141
12.0
290
     0
  0
SCALE
  5
5F
102
{ACAD_REACTORS
330
47
102
}
330
47
100
AcDbScale
 70
     0
300
3/16" = 1'-0"
140
0.1875
141
12.0
290
     0
  0
SCALE
  5
60
102
{ACAD_REACTORS
330
47
102
}
330
47
100
AcDbScale
 70
     0
300
1/4" = 1'-0"
140
0.25
141
12.0
290
     0
  0
SCALE
  5
61
102
{ACAD_REACTORS
330
47
102
}
330
47
100
AcDbScale
 70
     0
300
3/8" = 1'-0"
140
0.375
141
12.0
290
     0
  0
SCALE
  5
62
102
{ACAD_REACTORS
330
47
102
}
330
47
100
AcDbScale
 70
     0
300
1/2" = 1'-0"
140
0.5
141
12.0
290
     0
  0
SCALE
  5
63
102
{ACAD_REACTORS
330
47
102
}
330
47
100
AcDbScale
 70
     0
300
3/4" = 1'-0"
140
0.75
141
12.0
290
     0
  0
SCALE
  5
64
102
{ACAD_REACTORS
330
47
102
}
330
47
100
AcDbScale
 70
     0
300
1" = 1'-0"
140
1.0
141
12.0
290
     0
  0
SCALE
  5
65
102
{ACAD_REACTORS
330
47
102
}
330
47
100
AcDbScale
 70
     0
300
1-1/2" = 1'-0"
140
1.5
141
12.0
290
     0
  0
SCALE
  5
66
102
{ACAD_REACTORS
330
47
102
}
330
47
100
AcDbScale
 70
     0
300
3" = 1'-0"
140
3.0
141
12.0
290
     0
  0
SCALE
  5
67
102
{ACAD_REACTORS
330
47
102
}
330
47
100
AcDbScale
 70
     0
300
6" = 1'-0"
140
6.0
141
12.0
290
     0
  0
SCALE
  5
68
102
{ACAD_REACTORS
330
47
102
}
330
47
100
AcDbScale
 70
     0
300
1'-0" = 1'-0"
140
12.0
141
12.0
290
     0
  0
ENDSEC
  0
EOF
