  0
SECTION
  2
HEADER
  9
$ACADVER
  1
AC1015
  9
$ACADMAINTVER
 70
     6
  9
$DWGCODEPAGE
  3
DOS932
  9
$INSBASE
 10
0.0
 20
0.0
 30
0.0
  9
$EXTMIN
 10
0.0
 20
0.0
 30
0.0
  9
$EXTMAX
 10
431.8
 20
279.4
 30
0.0
  9
$LIMMIN
 10
0.0
 20
0.0
  9
$LIMMAX
 10
431.8
 20
279.4
  9
$ORTHOMODE
 70
     0
  9
$REGENMODE
 70
     1
  9
$FILLMODE
 70
     1
  9
$QTEXTMODE
 70
     0
  9
$MIRRTEXT
 70
     1
  9
$LTSCALE
 40
1.0
  9
$ATTMODE
 70
     1
  9
$TEXTSIZE
 40
3.5
  9
$TRACEWID
 40
1.0
  9
$TEXTSTYLE
  7
Standard
  9
$CLAYER
  8
0
  9
$CELTYPE
  6
ByLayer
  9
$CECOLOR
 62
   256
  9
$CELTSCALE
 40
1.0
  9
$DISPSILH
 70
     0
  9
$DIMSCALE
 40
1.0
  9
$DIMASZ
 40
3.302
  9
$DIMEXO
 40
1.0
  9
$DIMDLI
 40
3.75
  9
$DIMRND
 40
0.0
  9
$DIMDLE
 40
0.0
  9
$DIMEXE
 40
1.0
  9
$DIMTP
 40
0.0
  9
$DIMTM
 40
0.0
  9
$DIMTXT
 40
3.5
  9
$DIMCEN
 40
2.5
  9
$DIMTSZ
 40
0.0
  9
$DIMTOL
 70
     0
  9
$DIMLIM
 70
     0
  9
$DIMTIH
 70
     1
  9
$DIMTOH
 70
     1
  9
$DIMSE1
 70
     0
  9
$DIMSE2
 70
     0
  9
$DIMTAD
 70
     1
  9
$DIMZIN
 70
     1
  9
$DIMBLK
  1

  9
$DIMASO
 70
     1
  9
$DIMSHO
 70
     1
  9
$DIMPOST
  1

  9
$DIMAPOST
  1

  9
$DIMALT
 70
     0
  9
$DIMALTD
 70
     3
  9
$DIMALTF
 40
0.0393700787
  9
$DIMLFAC
 40
1.0
  9
$DIMTOFL
 70
     1
  9
$DIMTVP
 40
0.0
  9
$DIMTIX
 70
     0
  9
$DIMSOXD
 70
     0
  9
$DIMSAH
 70
     0
  9
$DIMBLK1
  1

  9
$DIMBLK2
  1

  9
$DIMSTYLE
  2
ISO-25
  9
$DIMCLRD
 70
     0
  9
$DIMCLRE
 70
     0
  9
$DIMCLRT
 70
     0
  9
$DIMTFAC
 40
1.0
  9
$DIMGAP
 40
1.524
  9
$DIMJUST
 70
     0
  9
$DIMSD1
 70
     0
  9
$DIMSD2
 70
     0
  9
$DIMTOLJ
 70
     0
  9
$DIMTZIN
 70
     1
  9
$DIMALTZ
 70
     0
  9
$DIMALTTZ
 70
     0
  9
$DIMUPT
 70
     0
  9
$DIMDEC
 70
     2
  9
$DIMTDEC
 70
     2
  9
$DIMALTU
 70
     2
  9
$DIMALTTD
 70
     3
  9
$DIMTXSTY
  7
Standard
  9
$DIMAUNIT
 70
     0
  9
$DIMADEC
 70
     2
  9
$DIMALTRND
 40
0.0
  9
$DIMAZIN
 70
     0
  9
$DIMDSEP
 70
    44
  9
$DIMATFIT
 70
     3
  9
$DIMFRAC
 70
     0
  9
$DIMLDRBLK
  1

  9
$DIMLUNIT
 70
     2
  9
$DIMLWD
 70
    -2
  9
$DIMLWE
 70
    -2
  9
$DIMTMOVE
 70
     0
  9
$LUNITS
 70
     2
  9
$LUPREC
 70
     2
  9
$SKETCHINC
 40
1.0
  9
$FILLETRAD
 40
10.0
  9
$AUNITS
 70
     0
  9
$AUPREC
 70
     2
  9
$MENU
  1
.
  9
$ELEVATION
 40
0.0
  9
$PELEVATION
 40
0.0
  9
$THICKNESS
 40
0.0
  9
$LIMCHECK
 70
     0
  9
$CHAMFERA
 40
0.0
  9
$CHAMFERB
 40
0.0
  9
$CHAMFERC
 40
0.0
  9
$CHAMFERD
 40
0.0
  9
$SKPOLY
 70
     0
  9
$TDCREATE
 40
2460084.754790949
  9
$TDUCREATE
 40
2460084.379790949
  9
$TDUPDATE
 40
2460084.754791667
  9
$TDUUPDATE
 40
2460084.379791667
  9
$TDINDWG
 40
0.0000000116
  9
$TDUSRTIMER
 40
0.0000000116
  9
$USRTIMER
 70
     1
  9
$ANGBASE
 50
0.0
  9
$ANGDIR
 70
     0
  9
$PDMODE
 70
     0
  9
$PDSIZE
 40
-1.0
  9
$PLINEWID
 40
0.0
  9
$SPLFRAME
 70
     0
  9
$SPLINETYPE
 70
     6
  9
$SPLINESEGS
 70
     8
  9
$HANDSEED
  5
138
  9
$SURFTAB1
 70
     6
  9
$SURFTAB2
 70
     6
  9
$SURFTYPE
 70
     6
  9
$SURFU
 70
     6
  9
$SURFV
 70
     6
  9
$UCSBASE
  2

  9
$UCSNAME
  2

  9
$UCSORG
 10
0.0
 20
0.0
 30
0.0
  9
$UCSXDIR
 10
1.0
 20
0.0
 30
0.0
  9
$UCSYDIR
 10
0.0
 20
1.0
 30
0.0
  9
$UCSORTHOREF
  2

  9
$UCSORTHOVIEW
 70
     0
  9
$UCSORGTOP
 10
0.0
 20
0.0
 30
0.0
  9
$UCSORGBOTTOM
 10
0.0
 20
0.0
 30
0.0
  9
$UCSORGLEFT
 10
0.0
 20
0.0
 30
0.0
  9
$UCSORGRIGHT
 10
0.0
 20
0.0
 30
0.0
  9
$UCSORGFRONT
 10
0.0
 20
0.0
 30
0.0
  9
$UCSORGBACK
 10
0.0
 20
0.0
 30
0.0
  9
$PUCSBASE
  2

  9
$PUCSNAME
  2

  9
$PUCSORG
 10
0.0
 20
0.0
 30
0.0
  9
$PUCSXDIR
 10
1.0
 20
0.0
 30
0.0
  9
$PUCSYDIR
 10
0.0
 20
1.0
 30
0.0
  9
$PUCSORTHOREF
  2

  9
$PUCSORTHOVIEW
 70
     0
  9
$PUCSORGTOP
 10
0.0
 20
0.0
 30
0.0
  9
$PUCSORGBOTTOM
 10
0.0
 20
0.0
 30
0.0
  9
$PUCSORGLEFT
 10
0.0
 20
0.0
 30
0.0
  9
$PUCSORGRIGHT
 10
0.0
 20
0.0
 30
0.0
  9
$PUCSORGFRONT
 10
0.0
 20
0.0
 30
0.0
  9
$PUCSORGBACK
 10
0.0
 20
0.0
 30
0.0
  9
$USERI1
 70
     0
  9
$USERI2
 70
     0
  9
$USERI3
 70
     0
  9
$USERI4
 70
     0
  9
$USERI5
 70
     0
  9
$USERR1
 40
0.0
  9
$USERR2
 40
0.0
  9
$USERR3
 40
0.0
  9
$USERR4
 40
0.0
  9
$USERR5
 40
0.0
  9
$WORLDVIEW
 70
     1
  9
$SHADEDGE
 70
     3
  9
$SHADEDIF
 70
    70
  9
$TILEMODE
 70
     1
  9
$MAXACTVP
 70
    64
  9
$PINSBASE
 10
0.0
 20
0.0
 30
0.0
  9
$PLIMCHECK
 70
     0
  9
$PEXTMIN
 10
1.0000000000E+20
 20
1.0000000000E+20
 30
1.0000000000E+20
  9
$PEXTMAX
 10
-1.0000000000E+20
 20
-1.0000000000E+20
 30
-1.0000000000E+20
  9
$PLIMMIN
 10
0.0
 20
0.0
  9
$PLIMMAX
 10
420.0
 20
297.0
  9
$UNITMODE
 70
     0
  9
$VISRETAIN
 70
     1
  9
$PLINEGEN
 70
     0
  9
$PSLTSCALE
 70
     1
  9
$TREEDEPTH
 70
  3020
  9
$CMLSTYLE
  2
Standard
  9
$CMLJUST
 70
     0
  9
$CMLSCALE
 40
20.0
  9
$PROXYGRAPHICS
 70
     1
  9
$MEASUREMENT
 70
     1
  9
$CELWEIGHT
370
    -1
  9
$ENDCAPS
280
     0
  9
$JOINSTYLE
280
     0
  9
$LWDISPLAY
290
     1
  9
$INSUNITS
 70
     4
  9
$HYPERLINKBASE
  1

  9
$STYLESHEET
  1

  9
$XEDIT
290
     1
  9
$CEPSNTYPE
380
     0
  9
$PSTYLEMODE
290
     1
  9
$FINGERPRINTGUID
  2
{EB3DFE86-910B-4FEF-8809-C320760D1B42}
  9
$VERSIONGUID
  2
{FAEB1C32-E019-11D5-929B-00C0DF256EC4}
  9
$EXTNAMES
290
     1
  9
$PSVPSCALE
 40
0.0
  9
$OLESTARTUP
290
     0
  0
ENDSEC
  0
SECTION
  2
CLASSES
  0
CLASS
  1
ACDBDICTIONARYWDFLT
  2
AcDbDictionaryWithDefault
  3
ObjectDBX Classes
 90
        0
280
     0
281
     0
  0
CLASS
  1
VISUALSTYLE
  2
AcDbVisualStyle
  3
ObjectDBX Classes
 90
     4095
280
     0
281
     0
  0
CLASS
  1
MATERIAL
  2
AcDbMaterial
  3
ObjectDBX Classes
 90
     1153
280
     0
281
     0
  0
CLASS
  1
SCALE
  2
AcDbScale
  3
ObjectDBX Classes
 90
     1153
280
     0
281
     0
  0
CLASS
  1
TABLESTYLE
  2
AcDbTableStyle
  3
ObjectDBX Classes
 90
     4095
280
     0
281
     0
  0
CLASS
  1
MLEADERSTYLE
  2
AcDbMLeaderStyle
  3
ACDB_MLEADERSTYLE_CLASS
 90
     4095
280
     0
281
     0
  0
CLASS
  1
SUN
  2
AcDbSun
  3
SCENEOE
 90
     1153
280
     0
281
     0
  0
CLASS
  1
ACDBPLACEHOLDER
  2
AcDbPlaceHolder
  3
ObjectDBX Classes
 90
        0
280
     0
281
     0
  0
CLASS
  1
LAYOUT
  2
AcDbLayout
  3
ObjectDBX Classes
 90
        0
280
     0
281
     0
  0
ENDSEC
  0
SECTION
  2
TABLES
  0
TABLE
  2
VPORT
  5
8
330
0
100
AcDbSymbolTable
 70
     1
  0
VPORT
  5
29
330
8
100
AcDbSymbolTableRecord
100
AcDbViewportTableRecord
  2
*Active
 70
     0
 10
0.0
 20
0.0
 11
1.0
 21
1.0
 12
215.9
 22
139.7
 13
0.0
 23
0.0
 14
10.0
 24
10.0
 15
10.0
 25
10.0
 16
0.0
 26
0.0
 36
1.0
 17
0.0
 27
0.0
 37
0.0
 40
279.4
 41
1.5454545455
 42
50.0
 43
0.0
 44
0.0
 50
0.0
 51
0.0
 71
     0
 72
  2000
 73
     1
 74
     3
 75
     0
 76
     0
 77
     0
 78
     0
281
     0
 65
     1
110
0.0
120
0.0
130
0.0
111
1.0
121
0.0
131
0.0
112
0.0
122
1.0
132
0.0
 79
     0
146
0.0
  0
ENDTAB
  0
TABLE
  2
LTYPE
  5
5
330
0
100
AcDbSymbolTable
 70
     6
  0
LTYPE
  5
14
330
5
100
AcDbSymbolTableRecord
100
AcDbLinetypeTableRecord
  2
ByBlock
 70
     0
  3

 72
    65
 73
     0
 40
0.0
  0
LTYPE
  5
15
330
5
100
AcDbSymbolTableRecord
100
AcDbLinetypeTableRecord
  2
ByLayer
 70
     0
  3

 72
    65
 73
     0
 40
0.0
  0
LTYPE
  5
16
330
5
100
AcDbSymbolTableRecord
100
AcDbLinetypeTableRecord
  2
Continuous
 70
     0
  3
Solid line
 72
    65
 73
     0
 40
0.0
  0
LTYPE
  5
6E
330
5
100
AcDbSymbolTableRecord
100
AcDbLinetypeTableRecord
  2
HIDDEN
 70
     0
  3
Hidden __ __ __ __ __ __ __ __ __ __ __ __ __ __
 72
    65
 73
     2
 40
1.905
 49
1.27
 74
     0
 49
-0.635
 74
     0
  0
LTYPE
  5
6F
330
5
100
AcDbSymbolTableRecord
100
AcDbLinetypeTableRecord
  2
PHANTOM
 70
     0
  3
Phantom ______  __  __  ______  __  __  ______
 72
    65
 73
     6
 40
12.7
 49
6.35
 74
     0
 49
-1.27
 74
     0
 49
1.27
 74
     0
 49
-1.27
 74
     0
 49
1.27
 74
     0
 49
-1.27
 74
     0
  0
LTYPE
  5
70
330
5
100
AcDbSymbolTableRecord
100
AcDbLinetypeTableRecord
  2
CENTER
 70
     0
  3
Center ____ _ ____ _ ____ _ ____ _ ____ _ ____
 72
    65
 73
     4
 40
10.16
 49
6.35
 74
     0
 49
-1.27
 74
     0
 49
1.27
 74
     0
 49
-1.27
 74
     0
  0
LTYPE
  5
71
330
5
100
AcDbSymbolTableRecord
100
AcDbLinetypeTableRecord
  2
CENTERX2
 70
     0
  3
Center (2x) ________  __  ________  __  _____
 72
    65
 73
     4
 40
20.32
 49
12.7
 74
     0
 49
-2.54
 74
     0
 49
2.54
 74
     0
 49
-2.54
 74
     0
  0
LTYPE
  5
72
330
5
100
AcDbSymbolTableRecord
100
AcDbLinetypeTableRecord
  2
DOT2
 70
     0
  3
Dot (.5x) ........................................
 72
    65
 73
     2
 40
0.635
 49
0.0
 74
     0
 49
-0.635
 74
     0
  0
ENDTAB
  0
TABLE
  2
LAYER
  5
2
330
0
100
AcDbSymbolTable
 70
     1
  0
LAYER
  5
10
330
2
100
AcDbSymbolTableRecord
100
AcDbLayerTableRecord
  2
0
 70
     0
 62
     7
  6
Continuous
370
    -3
390
F
  0
ENDTAB
  0
TABLE
  2
STYLE
  5
3
330
0
100
AcDbSymbolTable
 70
     2
  0
STYLE
  5
11
330
3
100
AcDbSymbolTableRecord
100
AcDbTextStyleTableRecord
  2
Standard
 70
     0
 40
0.0
 41
1.0
 50
0.0
 71
     0
 42
3.5
  3
txt
  4
bigfont
  0
STYLE
  5
73
330
3
100
AcDbSymbolTableRecord
100
AcDbTextStyleTableRecord
  2
SLDTEXTSTYLE0
 70
     0
 40
0.0
 41
0.7
 50
0.0
 71
     0
 42
3.5
  3
TXT
  4
bigfont
  0
ENDTAB
  0
TABLE
  2
VIEW
  5
6
330
0
100
AcDbSymbolTable
 70
     0
  0
ENDTAB
  0
TABLE
  2
UCS
  5
7
330
0
100
AcDbSymbolTable
 70
     0
  0
ENDTAB
  0
TABLE
  2
APPID
  5
9
330
0
100
AcDbSymbolTable
 70
     1
  0
APPID
  5
12
330
9
100
AcDbSymbolTableRecord
100
AcDbRegAppTableRecord
  2
ACAD
 70
     0
  0
ENDTAB
  0
TABLE
  2
DIMSTYLE
  5
A
330
0
100
AcDbSymbolTable
 70
     1
100
AcDbDimStyleTable
  0
DIMSTYLE
105
27
330
A
100
AcDbSymbolTableRecord
100
AcDbDimStyleTableRecord
  2
ISO-25
 70
     0
 41
2.5
 42
0.625
 43
3.75
 44
1.25
 73
     0
 74
     0
 77
     1
 78
     8
140
2.5
141
2.5
143
0.0393700787
147
0.625
171
     3
172
     1
178
     0
271
     2
272
     2
274
     3
278
    44
283
     0
284
     8
340
11
  0
ENDTAB
  0
TABLE
  2
BLOCK_RECORD
  5
1
330
0
100
AcDbSymbolTable
 70
     3
  0
BLOCK_RECORD
  5
1F
330
1
100
AcDbSymbolTableRecord
100
AcDbBlockTableRecord
  2
*Model_Space
340
22
  0
BLOCK_RECORD
  5
1B
330
1
100
AcDbSymbolTableRecord
100
AcDbBlockTableRecord
  2
*Paper_Space
340
1E
  0
BLOCK_RECORD
  5
23
330
1
100
AcDbSymbolTableRecord
100
AcDbBlockTableRecord
  2
*Paper_Space0
340
26
  0
BLOCK_RECORD
  5
E7
330
1
100
AcDbSymbolTableRecord
100
AcDbBlockTableRecord
  2
SW_CENTERMARKSYMBOL_0
340
0
102
{BLKREFS
331
F2
102
}
  0
BLOCK_RECORD
  5
F3
330
1
100
AcDbSymbolTableRecord
100
AcDbBlockTableRecord
  2
SW_CENTERMARKSYMBOL_1
340
0
102
{BLKREFS
331
FE
102
}
  0
ENDTAB
  0
ENDSEC
  0
SECTION
  2
BLOCKS
  0
BLOCK
  5
20
330
1F
100
AcDbEntity
  8
0
100
AcDbBlockBegin
  2
*Model_Space
 70
     0
 10
0.0
 20
0.0
 30
0.0
  3
*Model_Space
  1

  0
ENDBLK
  5
21
330
1F
100
AcDbEntity
  8
0
100
AcDbBlockEnd
  0
BLOCK
  5
1C
330
1B
100
AcDbEntity
 67
     1
  8
0
100
AcDbBlockBegin
  2
*Paper_Space
 70
     0
 10
0.0
 20
0.0
 30
0.0
  3
*Paper_Space
  1

  0
ENDBLK
  5
1D
330
1B
100
AcDbEntity
 67
     1
  8
0
100
AcDbBlockEnd
  0
BLOCK
  5
24
330
23
100
AcDbEntity
  8
0
100
AcDbBlockBegin
  2
*Paper_Space0
 70
     0
 10
0.0
 20
0.0
 30
0.0
  3
*Paper_Space0
  1

  0
ENDBLK
  5
25
330
23
100
AcDbEntity
  8
0
100
AcDbBlockEnd
  0
BLOCK
  5
E8
330
E7
100
AcDbEntity
  8
0
100
AcDbBlockBegin
  2
SW_CENTERMARKSYMBOL_0
 70
     0
 10
0.0
 20
0.0
 30
0.0
  3
SW_CENTERMARKSYMBOL_0
  1

  0
LINE
  5
EA
330
E7
100
AcDbEntity
  8
0
  6
Continuous
 62
     0
370
    18
100
AcDbLine
 10
0.0
 20
0.0
 30
0.0
 11
0.0
 21
2.5
 31
0.0
  0
LINE
  5
EB
330
E7
100
AcDbEntity
  8
0
  6
Continuous
 62
     0
370
    18
100
AcDbLine
 10
0.0
 20
0.0
 30
0.0
 11
-2.5
 21
0.0
 31
0.0
  0
LINE
  5
EC
330
E7
100
AcDbEntity
  8
0
  6
Continuous
 62
     0
370
    18
100
AcDbLine
 10
0.0
 20
0.0
 30
0.0
 11
0.0
 21
-2.5
 31
0.0
  0
LINE
  5
ED
330
E7
100
AcDbEntity
  8
0
  6
Continuous
 62
     0
370
    18
100
AcDbLine
 10
0.0
 20
0.0
 30
0.0
 11
2.5
 21
0.0
 31
0.0
  0
LINE
  5
EE
330
E7
100
AcDbEntity
  8
0
  6
Continuous
 62
     0
370
    18
100
AcDbLine
 10
0.0
 20
5.0
 30
0.0
 11
0.0
 21
15.0
 31
0.0
  0
LINE
  5
EF
330
E7
100
AcDbEntity
  8
0
  6
Continuous
 62
     0
370
    18
100
AcDbLine
 10
-5.0
 20
0.0
 30
0.0
 11
-15.0
 21
0.0
 31
0.0
  0
LINE
  5
F0
330
E7
100
AcDbEntity
  8
0
  6
Continuous
 62
     0
370
    18
100
AcDbLine
 10
0.0
 20
-5.0
 30
0.0
 11
0.0
 21
-15.0
 31
0.0
  0
LINE
  5
F1
330
E7
100
AcDbEntity
  8
0
  6
Continuous
 62
     0
370
    18
100
AcDbLine
 10
5.0
 20
0.0
 30
0.0
 11
15.0
 21
0.0
 31
0.0
  0
ENDBLK
  5
E9
330
E7
100
AcDbEntity
  8
0
100
AcDbBlockEnd
  0
BLOCK
  5
F4
330
F3
100
AcDbEntity
  8
0
100
AcDbBlockBegin
  2
SW_CENTERMARKSYMBOL_1
 70
     0
 10
0.0
 20
0.0
 30
0.0
  3
SW_CENTERMARKSYMBOL_1
  1

  0
LINE
  5
F6
330
F3
100
AcDbEntity
  8
0
  6
Continuous
 62
     0
370
    18
100
AcDbLine
 10
0.0
 20
0.0
 30
0.0
 11
0.0
 21
2.5
 31
0.0
  0
LINE
  5
F7
330
F3
100
AcDbEntity
  8
0
  6
Continuous
 62
     0
370
    18
100
AcDbLine
 10
0.0
 20
0.0
 30
0.0
 11
-2.5
 21
0.0
 31
0.0
  0
LINE
  5
F8
330
F3
100
AcDbEntity
  8
0
  6
Continuous
 62
     0
370
    18
100
AcDbLine
 10
0.0
 20
0.0
 30
0.0
 11
0.0
 21
-2.5
 31
0.0
  0
LINE
  5
F9
330
F3
100
AcDbEntity
  8
0
  6
Continuous
 62
     0
370
    18
100
AcDbLine
 10
0.0
 20
0.0
 30
0.0
 11
2.5
 21
0.0
 31
0.0
  0
LINE
  5
FA
330
F3
100
AcDbEntity
  8
0
  6
Continuous
 62
     0
370
    18
100
AcDbLine
 10
0.0
 20
5.0
 30
0.0
 11
0.0
 21
28.8401786249
 31
0.0
  0
LINE
  5
FB
330
F3
100
AcDbEntity
  8
0
  6
Continuous
 62
     0
370
    18
100
AcDbLine
 10
-5.0
 20
0.0
 30
0.0
 11
-25.25
 21
0.0
 31
0.0
  0
LINE
  5
FC
330
F3
100
AcDbEntity
  8
0
  6
Continuous
 62
     0
370
    18
100
AcDbLine
 10
0.0
 20
-5.0
 30
0.0
 11
0.0
 21
-28.8084663418
 31
0.0
  0
LINE
  5
FD
330
F3
100
AcDbEntity
  8
0
  6
Continuous
 62
     0
370
    18
100
AcDbLine
 10
5.0
 20
0.0
 30
0.0
 11
25.25
 21
0.0
 31
0.0
  0
ENDBLK
  5
F5
330
F3
100
AcDbEntity
  8
0
100
AcDbBlockEnd
  0
ENDSEC
  0
SECTION
  2
ENTITIES
  0
MTEXT
  5
74
330
1F
100
AcDbEntity
  8
0
  6
Continuous
 62
     7
370
     0
100
AcDbMText
 10
229.1111000463
 20
142.0955144272
 30
0.0
 40
4.7625
 41
0.0
 71
     1
 72
     1
  1
メガニップル　HN-8034
  7
SLDTEXTSTYLE0
 73
     1
 44
1.0
  0
LINE
  5
75
330
1F
100
AcDbEntity
  8
0
  6
Continuous
 62
     7
370
    25
100
AcDbLine
 10
169.9815903103
 20
73.1891315281
 30
0.0
 11
172.1355468208
 21
76.9198936416
 31
0.0
  0
LINE
  5
76
330
1F
100
AcDbEntity
  8
0
  6
Continuous
 62
     7
370
    25
100
AcDbLine
 10
172.1355468208
 20
122.4198936416
 30
0.0
 11
169.9815903103
 21
126.1506557552
 31
0.0
  0
LINE
  5
77
330
1F
100
AcDbEntity
  8
0
  6
Continuous
 62
     7
370
    25
100
AcDbLine
 10
164.2895033313
 20
126.1506557552
 30
0.0
 11
162.1355468208
 21
122.4198936416
 31
0.0
  0
LINE
  5
78
330
1F
100
AcDbEntity
  8
0
  6
Continuous
 62
     7
370
    25
100
AcDbLine
 10
162.1355468208
 20
76.9198936416
 30
0.0
 11
164.2895033313
 21
73.1891315281
 31
0.0
  0
LINE
  5
79
330
1F
100
AcDbEntity
  8
0
  6
Continuous
 62
     7
370
    25
100
AcDbLine
 10
162.1355468208
 20
120.9467686416
 30
0.0
 11
141.134570973
 21
120.2904881464
 31
0.0
  0
LINE
  5
7A
330
1F
100
AcDbEntity
  8
0
  6
Continuous
 62
     7
370
    25
100
AcDbLine
 10
141.134570973
 20
79.0492991369
 30
0.0
 11
162.1355468208
 21
78.3930186416
 31
0.0
  0
LINE
  5
7B
330
1F
100
AcDbEntity
  8
0
  6
Continuous
 62
     7
370
    25
100
AcDbLine
 10
141.134570973
 20
120.2904881464
 30
0.0
 11
139.1355468208
 21
118.1624946941
 31
0.0
  0
LINE
  5
7C
330
1F
100
AcDbEntity
  8
0
  6
Continuous
 62
     7
370
    25
100
AcDbLine
 10
139.1355468208
 20
81.1772925892
 30
0.0
 11
141.134570973
 21
79.0492991369
 31
0.0
  0
LINE
  5
7D
330
1F
100
AcDbEntity
  8
0
  6
Continuous
 62
     7
370
    25
100
AcDbLine
 10
183.1355468208
 20
116.6698936416
 30
0.0
 11
172.1355468208
 21
116.6698936416
 31
0.0
  0
LINE
  5
7E
330
1F
100
AcDbEntity
  8
0
  6
Continuous
 62
     7
370
    25
100
AcDbLine
 10
172.1355468208
 20
82.6698936416
 30
0.0
 11
183.1355468208
 21
82.6698936416
 31
0.0
  0
LINE
  5
7F
330
1F
100
AcDbEntity
  8
0
  6
Continuous
 62
     7
370
    25
100
AcDbLine
 10
215.1355468208
 20
82.6698936416
 30
0.0
 11
223.2459783469
 21
83.5710527001
 31
0.0
  0
LINE
  5
80
330
1F
100
AcDbEntity
  8
0
  6
Continuous
 62
     7
370
    25
100
AcDbLine
 10
223.2459783469
 20
115.7687345832
 30
0.0
 11
215.1355468208
 21
116.6698936416
 31
0.0
  0
LINE
  5
81
330
1F
100
AcDbEntity
  8
0
  6
Continuous
 62
     7
370
    25
100
AcDbLine
 10
207.1355468208
 20
82.6698936416
 30
0.0
 11
215.1355468208
 21
83.6698936416
 31
0.0
  0
LINE
  5
82
330
1F
100
AcDbEntity
  8
0
  6
Continuous
 62
     7
370
    25
100
AcDbLine
 10
215.1355468208
 20
115.6698936416
 30
0.0
 11
207.1355468208
 21
116.6698936416
 31
0.0
  0
LINE
  5
83
330
1F
100
AcDbEntity
  8
0
  6
Continuous
 62
     7
370
    25
100
AcDbLine
 10
191.1355468208
 20
82.6698936416
 30
0.0
 11
199.1355468208
 21
83.6698936416
 31
0.0
  0
LINE
  5
84
330
1F
100
AcDbEntity
  8
0
  6
Continuous
 62
     7
370
    25
100
AcDbLine
 10
199.1355468208
 20
115.6698936416
 30
0.0
 11
191.1355468208
 21
116.6698936416
 31
0.0
  0
LINE
  5
85
330
1F
100
AcDbEntity
  8
0
  6
Continuous
 62
     7
370
    25
100
AcDbLine
 10
183.1355468208
 20
82.6698936416
 30
0.0
 11
191.1355468208
 21
83.6698936416
 31
0.0
  0
LINE
  5
86
330
1F
100
AcDbEntity
  8
0
  6
Continuous
 62
     7
370
    25
100
AcDbLine
 10
191.1355468208
 20
115.6698936416
 30
0.0
 11
183.1355468208
 21
116.6698936416
 31
0.0
  0
LINE
  5
87
330
1F
100
AcDbEntity
  8
0
  6
Continuous
 62
     7
370
    25
100
AcDbLine
 10
199.1355468208
 20
82.6698936416
 30
0.0
 11
207.1355468208
 21
83.6698936416
 31
0.0
  0
LINE
  5
88
330
1F
100
AcDbEntity
  8
0
  6
Continuous
 62
     7
370
    25
100
AcDbLine
 10
207.1355468208
 20
115.6698936416
 30
0.0
 11
199.1355468208
 21
116.6698936416
 31
0.0
  0
ARC
  5
89
330
1F
100
AcDbEntity
  8
0
  6
Continuous
 62
     7
370
    25
100
AcDbCircle
 10
223.1355468208
 20
114.7748508485
 30
0.0
 40
1.0
100
AcDbArc
 50
0.0
 51
83.6598082541
  0
ARC
  5
8A
330
1F
100
AcDbEntity
  8
0
  6
Continuous
 62
     7
370
    25
100
AcDbCircle
 10
223.1355468208
 20
84.5649364347
 30
0.0
 40
1.0
100
AcDbArc
 50
276.3401917459
 51
0.0
  0
LINE
  5
8B
330
1F
100
AcDbEntity
  8
0
  6
Continuous
 62
     7
370
    25
100
AcDbLine
 10
164.2869293177
 20
73.1891315281
 30
0.0
 11
169.9841643239
 21
73.1891315281
 31
0.0
  0
LINE
  5
8C
330
1F
100
AcDbEntity
  8
0
  6
Continuous
 62
     7
370
    25
100
AcDbLine
 10
169.9841643239
 20
126.1506557552
 30
0.0
 11
164.2869293177
 21
126.1506557552
 31
0.0
  0
LINE
  5
8D
330
1F
100
AcDbEntity
  8
0
  6
Continuous
 62
     7
370
    25
100
AcDbLine
 10
170.0195824001
 20
112.6602746984
 30
0.0
 11
164.2515112416
 21
112.6602746984
 31
0.0
  0
SPLINE
  5
8E
330
1F
100
AcDbEntity
  8
0
  6
Continuous
 62
     7
370
    25
100
AcDbSpline
210
0.0
220
0.0
230
1.0
 70
     8
 71
     3
 72
    10
 73
     6
 74
     0
 42
0.000000001
 43
0.00000001
 40
0.0
 40
0.0
 40
0.0
 40
0.0
 40
0.5
 40
0.5
 40
1.0
 40
1.0
 40
1.0
 40
1.0
 10
164.2515112415578
 20
112.6602746983851
 30
0.0
 10
164.275863068998
 20
112.7460416978819
 30
0.0
 10
164.2894575832674
 20
112.8334830912729
 30
0.0
 10
164.2895488429914
 20
112.986274856271
 30
0.0
 10
164.275872555423
 20
113.0503871949613
 30
0.0
 10
164.2515112415577
 20
113.0932874002776
 30
0.0
  0
LINE
  5
8F
330
1F
100
AcDbEntity
  8
0
  6
Continuous
 62
     7
370
    25
100
AcDbLine
 10
164.2515112416
 20
113.0932874003
 30
0.0
 11
170.0195824001
 21
113.0932874003
 31
0.0
  0
SPLINE
  5
90
330
1F
100
AcDbEntity
  8
0
  6
Continuous
 62
     7
370
    25
100
AcDbSpline
210
0.0
220
0.0
230
1.0
 70
     8
 71
     3
 72
    10
 73
     6
 74
     0
 42
0.000000001
 43
0.00000001
 40
0.0
 40
0.0
 40
0.0
 40
0.0
 40
0.5
 40
0.5
 40
1.0
 40
1.0
 40
1.0
 40
1.0
 10
170.0195824000633
 20
113.0932874002773
 30
0.0
 10
169.9952305726236
 20
113.0504039005298
 30
0.0
 10
169.9816360583516
 20
112.9869855425786
 30
0.0
 10
169.9815447986266
 20
112.8343548860524
 30
0.0
 10
169.9952210861958
 20
112.7460751090163
 30
0.0
 10
170.0195824000606
 20
112.6602746983851
 30
0.0
  0
SPLINE
  5
91
330
1F
100
AcDbEntity
  8
0
  6
Continuous
 62
     7
370
    25
100
AcDbSpline
210
0.0
220
0.0
230
1.0
 70
     8
 71
     3
 72
    18
 73
    14
 74
     0
 42
0.000000001
 43
0.00000001
 40
0.0
 40
0.0
 40
0.0
 40
0.0
 40
0.25
 40
0.25
 40
0.5
 40
0.5
 40
0.5624999999999999
 40
0.5624999999999999
 40
0.6249999999999998
 40
0.6249999999999998
 40
0.7499999999999998
 40
0.7499999999999998
 40
1.0
 40
1.0
 40
1.0
 40
1.0
 10
170.0195824000606
 20
126.0836684570439
 30
0.0
 10
170.6219517343748
 20
125.0228977506194
 30
0.0
 10
171.1170893140496
 20
123.9544255328858
 30
0.0
 10
171.8020813068601
 20
121.7955552997154
 30
0.0
 10
171.9898054245072
 20
120.7050042839398
 30
0.0
 10
171.9915502587369
 20
119.3250876203767
 30
0.0
 10
171.9803429597592
 20
119.0477241678637
 30
0.0
 10
171.9351512562312
 20
118.495391608806
 30
0.0
 10
171.9012200281528
 20
118.2201641386054
 30
0.0
 10
171.7668445777257
 20
117.3971801885741
 30
0.0
 10
171.6337432436138
 20
116.8521284095234
 30
0.0
 10
171.1191549468975
 20
115.2265210545443
 30
0.0
 10
170.6227604523993
 20
114.1554822568723
 30
0.0
 10
170.0195824000608
 20
113.0932874002775
 30
0.0
  0
SPLINE
  5
92
330
1F
100
AcDbEntity
  8
0
  6
Continuous
 62
     7
370
    25
100
AcDbSpline
210
0.0
220
0.0
230
1.0
 70
     8
 71
     3
 72
    10
 73
     6
 74
     0
 42
0.000000001
 43
0.00000001
 40
0.0
 40
0.0
 40
0.0
 40
0.0
 40
0.1539852346386158
 40
0.7090163150926239
 40
1.0
 40
1.0
 40
1.0
 40
1.0
 10
169.9841775625709
 20
126.1460890785866
 30
0.0
 10
169.9834062781768
 20
126.1474505077551
 30
0.0
 10
169.9798549427496
 20
126.1537191314618
 30
0.0
 10
169.9946730200201
 20
126.1275519157067
 30
0.0
 10
170.0132075248871
 20
126.0948992291748
 30
0.0
 10
170.0195824000606
 20
126.0836684570439
 30
0.0
  0
SPLINE
  5
93
330
1F
100
AcDbEntity
  8
0
  6
Continuous
 62
     7
370
    25
100
AcDbSpline
210
0.0
220
0.0
230
1.0
 70
     8
 71
     3
 72
     9
 73
     5
 74
     0
 42
0.000000001
 43
0.00000001
 40
0.0
 40
0.0
 40
0.0
 40
0.0
 40
0.5766451313362625
 40
1.0
 40
1.0
 40
1.0
 40
1.0
 10
170.0195824000608
 20
73.25611882619334
 30
0.0
 10
170.0069128636992
 20
73.23378648616666
 30
0.0
 10
169.9849417489301
 20
73.19505843868463
 30
0.0
 10
169.984404857972
 20
73.19410278520417
 30
0.0
 10
169.9841775625709
 20
73.19369820465045
 30
0.0
  0
SPLINE
  5
94
330
1F
100
AcDbEntity
  8
0
  6
Continuous
 62
     7
370
    25
100
AcDbSpline
210
0.0
220
0.0
230
1.0
 70
     8
 71
     3
 72
    18
 73
    14
 74
     0
 42
0.000000001
 43
0.00000001
 40
0.0
 40
0.0
 40
0.0
 40
0.0
 40
0.2500000000000001
 40
0.2500000000000001
 40
0.5000000000000001
 40
0.5000000000000001
 40
0.5625000000000001
 40
0.5625000000000001
 40
0.6250000000000001
 40
0.6250000000000001
 40
0.75
 40
0.75
 40
1.0
 40
1.0
 40
1.0
 40
1.0
 10
170.0195824000607
 20
86.24649988295971
 30
0.0
 10
170.6219517343748
 20
85.18572917653519
 30
0.0
 10
171.1170893140496
 20
84.11725695880158
 30
0.0
 10
171.8020813068601
 20
81.95838672563121
 30
0.0
 10
171.9898054245072
 20
80.86783570985557
 30
0.0
 10
171.9915502587369
 20
79.48791904629256
 30
0.0
 10
171.9803429597592
 20
79.21055559377952
 30
0.0
 10
171.9351512562312
 20
78.65822303472179
 30
0.0
 10
171.9012200281528
 20
78.38299556452122
 30
0.0
 10
171.7668445777257
 20
77.56001161448992
 30
0.0
 10
171.6337432436138
 20
77.01495983543921
 30
0.0
 10
171.1191549468975
 20
75.3893524804601
 30
0.0
 10
170.6227604523993
 20
74.31831368278813
 30
0.0
 10
170.0195824000608
 20
73.25611882619334
 30
0.0
  0
SPLINE
  5
95
330
1F
100
AcDbEntity
  8
0
  6
Continuous
 62
     7
370
    25
100
AcDbSpline
210
0.0
220
0.0
230
1.0
 70
     8
 71
     3
 72
    10
 73
     6
 74
     0
 42
0.000000001
 43
0.00000001
 40
0.0
 40
0.0
 40
0.0
 40
0.0
 40
0.5
 40
0.5
 40
1.0
 40
1.0
 40
1.0
 40
1.0
 10
170.0195824000606
 20
86.67951258485193
 30
0.0
 10
169.9952305726209
 20
86.59374558535671
 30
0.0
 10
169.9816360583516
 20
86.50630419196727
 30
0.0
 10
169.9815447986266
 20
86.35351242697129
 30
0.0
 10
169.9952210861958
 20
86.28940008827527
 30
0.0
 10
170.0195824000607
 20
86.24649988295971
 30
0.0
  0
SPLINE
  5
96
330
1F
100
AcDbEntity
  8
0
  6
Continuous
 62
     7
370
    25
100
AcDbSpline
210
0.0
220
0.0
230
1.0
 70
     8
 71
     3
 72
    20
 73
    16
 74
     0
 42
0.000000001
 43
0.00000001
 40
0.0
 40
0.0
 40
0.0
 40
0.0
 40
0.125
 40
0.125
 40
0.2500000000000001
 40
0.2500000000000001
 40
0.4999999999999999
 40
0.4999999999999999
 40
0.5624999999999999
 40
0.5624999999999999
 40
0.6249999999999999
 40
0.6249999999999999
 40
0.7499999999999999
 40
0.7499999999999999
 40
1.0
 40
1.0
 40
1.0
 40
1.0
 10
170.0195824000607
 20
86.67951258485195
 30
0.0
 10
170.320454726855
 20
87.739183230273
 30
0.0
 10
170.5969762500726
 20
88.81181952645112
 30
0.0
 10
171.083492267475
 20
90.96500273658428
 30
0.0
 10
171.2934035636037
 20
92.04469219521953
 30
0.0
 10
171.8067265116279
 20
95.2945749518907
 30
0.0
 10
171.9914464619159
 20
97.47579450957959
 30
0.0
 10
171.9911496609652
 20
100.2237967452684
 30
0.0
 10
171.9797019864549
 20
100.7744551476718
 30
0.0
 10
171.9339435009408
 20
101.8778958994441
 30
0.0
 10
171.899529939981
 20
102.4318321680278
 30
0.0
 10
171.7631551905782
 20
104.0880928967761
 30
0.0
 10
171.6285590992546
 20
105.1810395622004
 30
0.0
 10
171.1114568703333
 20
108.430753984192
 30
0.0
 10
170.6163190591101
 20
110.5585715361881
 30
0.0
 10
170.0195824000606
 20
112.6602746983851
 30
0.0
  0
LINE
  5
97
330
1F
100
AcDbEntity
  8
0
  6
Continuous
 62
     7
370
    25
100
AcDbLine
 10
172.1355468208
 20
122.4198936416
 30
0.0
 11
172.1355468208
 21
76.9198936416
 31
0.0
  0
SPLINE
  5
98
330
1F
100
AcDbEntity
  8
0
  6
Continuous
 62
     7
370
    25
100
AcDbSpline
210
0.0
220
0.0
230
1.0
 70
     8
 71
     3
 72
    10
 73
     6
 74
     0
 42
0.000000001
 43
0.00000001
 40
0.0
 40
0.0
 40
0.0
 40
0.0
 40
0.1539852346321786
 40
0.7090163150658151
 40
1.0
 40
1.0
 40
1.0
 40
1.0
 10
164.2869160790476
 20
73.1936982046504
 30
0.0
 10
164.2876873634417
 20
73.19233677548189
 30
0.0
 10
164.2912386988688
 20
73.18606815177527
 30
0.0
 10
164.276420621598
 20
73.21223536753111
 30
0.0
 10
164.2578861167297
 20
73.24488805406519
 30
0.0
 10
164.2515112415551
 20
73.25611882619782
 30
0.0
  0
SPLINE
  5
99
330
1F
100
AcDbEntity
  8
0
  6
Continuous
 62
     7
370
    25
100
AcDbSpline
210
0.0
220
0.0
230
1.0
 70
     8
 71
     3
 72
     9
 73
     5
 74
     0
 42
0.000000001
 43
0.00000001
 40
0.0
 40
0.0
 40
0.0
 40
0.0
 40
0.5766451313362935
 40
1.0
 40
1.0
 40
1.0
 40
1.0
 10
164.2515112415579
 20
126.083668457044
 30
0.0
 10
164.2641807779194
 20
126.1060007970706
 30
0.0
 10
164.2861518926884
 20
126.1447288445524
 30
0.0
 10
164.2866887836465
 20
126.1456844980329
 30
0.0
 10
164.2869160790476
 20
126.1460890785866
 30
0.0
  0
SPLINE
  5
9A
330
1F
100
AcDbEntity
  8
0
  6
Continuous
 62
     7
370
    25
100
AcDbSpline
210
0.0
220
0.0
230
1.0
 70
     8
 71
     3
 72
    18
 73
    14
 74
     0
 42
0.000000001
 43
0.00000001
 40
0.0
 40
0.0
 40
0.0
 40
0.0
 40
0.2499999999999999
 40
0.2499999999999999
 40
0.4999999999999998
 40
0.4999999999999998
 40
0.5624999999999999
 40
0.5624999999999999
 40
0.6249999999999999
 40
0.6249999999999999
 40
0.75
 40
0.75
 40
1.0
 40
1.0
 40
1.0
 40
1.0
 10
164.2515112415579
 20
126.083668457044
 30
0.0
 10
163.6491419072439
 20
125.0228977506199
 30
0.0
 10
163.1540043275693
 20
123.9544255328866
 30
0.0
 10
162.4690123347587
 20
121.795555299717
 30
0.0
 10
162.2812882171115
 20
120.7050042839417
 30
0.0
 10
162.2795433828815
 20
119.3250876203792
 30
0.0
 10
162.2907506818592
 20
119.0477241678663
 30
0.0
 10
162.335942385387
 20
118.4953916088087
 30
0.0
 10
162.3698736134653
 20
118.2201641386083
 30
0.0
 10
162.5042490638921
 20
117.3971801885772
 30
0.0
 10
162.6373503980037
 20
116.8521284095267
 30
0.0
 10
163.1519386947195
 20
115.2265210545481
 30
0.0
 10
163.6483331892171
 20
114.1554822568765
 30
0.0
 10
164.2515112415551
 20
113.093287400282
 30
0.0
  0
SPLINE
  5
9B
330
1F
100
AcDbEntity
  8
0
  6
Continuous
 62
     7
370
    25
100
AcDbSpline
210
0.0
220
0.0
230
1.0
 70
     8
 71
     3
 72
    20
 73
    16
 74
     0
 42
0.000000001
 43
0.00000001
 40
0.0
 40
0.0
 40
0.0
 40
0.0
 40
0.125
 40
0.125
 40
0.2500000000000001
 40
0.2500000000000001
 40
0.5000000000000001
 40
0.5000000000000001
 40
0.5625000000000001
 40
0.5625000000000001
 40
0.6250000000000001
 40
0.6250000000000001
 40
0.7500000000000002
 40
0.7500000000000002
 40
1.0
 40
1.0
 40
1.0
 40
1.0
 10
164.2515112415578
 20
86.67951258485186
 30
0.0
 10
163.9506487407106
 20
87.73914862334226
 30
0.0
 10
163.6741365284215
 20
88.81173878814303
 30
0.0
 10
163.1876014172147
 20
90.96499858999238
 30
0.0
 10
162.9776853865926
 20
92.0447158959656
 30
0.0
 10
162.4643579514837
 20
95.29464506390993
 30
0.0
 10
162.2796488368673
 20
97.4758453904033
 30
0.0
 10
162.2799435623353
 20
100.2237466116319
 30
0.0
 10
162.2913899825332
 20
100.7743810130158
 30
0.0
 10
162.3371433546717
 20
101.877766052482
 30
0.0
 10
162.3715508432308
 20
102.4316503431455
 30
0.0
 10
162.5079253373633
 20
104.0879849422956
 30
0.0
 10
162.6425242537409
 20
105.1809679504124
 30
0.0
 10
163.1596354821483
 20
108.4307597886579
 30
0.0
 10
163.6547790403876
 20
110.5585872368137
 30
0.0
 10
164.2515112415578
 20
112.6602746983851
 30
0.0
  0
SPLINE
  5
9C
330
1F
100
AcDbEntity
  8
0
  6
Continuous
 62
     7
370
    25
100
AcDbSpline
210
0.0
220
0.0
230
1.0
 70
     8
 71
     3
 72
    10
 73
     6
 74
     0
 42
0.000000001
 43
0.00000001
 40
0.0
 40
0.0
 40
0.0
 40
0.0
 40
0.5
 40
0.5
 40
1.0
 40
1.0
 40
1.0
 40
1.0
 10
164.2515112415579
 20
86.24649988295971
 30
0.0
 10
164.2758630689976
 20
86.28938338270731
 30
0.0
 10
164.2894575832669
 20
86.3528017406589
 30
0.0
 10
164.2895488429918
 20
86.50543239718489
 30
0.0
 10
164.2758725554227
 20
86.59371217422085
 30
0.0
 10
164.2515112415578
 20
86.67951258485193
 30
0.0
  0
SPLINE
  5
9D
330
1F
100
AcDbEntity
  8
0
  6
Continuous
 62
     7
370
    25
100
AcDbSpline
210
0.0
220
0.0
230
1.0
 70
     8
 71
     3
 72
    18
 73
    14
 74
     0
 42
0.000000001
 43
0.00000001
 40
0.0
 40
0.0
 40
0.0
 40
0.0
 40
0.2500000000000004
 40
0.2500000000000004
 40
0.5000000000000006
 40
0.5000000000000006
 40
0.5625000000000004
 40
0.5625000000000004
 40
0.6250000000000003
 40
0.6250000000000003
 40
0.7500000000000002
 40
0.7500000000000002
 40
1.0
 40
1.0
 40
1.0
 40
1.0
 10
164.2515112415579
 20
86.24649988295982
 30
0.0
 10
163.6491419072439
 20
85.18572917653566
 30
0.0
 10
163.1540043275693
 20
84.11725695880241
 30
0.0
 10
162.4690123347587
 20
81.9583867256328
 30
0.0
 10
162.2812882171115
 20
80.86783570985756
 30
0.0
 10
162.2795433828815
 20
79.48791904629505
 30
0.0
 10
162.2907506818592
 20
79.21055559378209
 30
0.0
 10
162.335942385387
 20
78.65822303472453
 30
0.0
 10
162.3698736134653
 20
78.38299556452407
 30
0.0
 10
162.5042490638921
 20
77.56001161449304
 30
0.0
 10
162.6373503980037
 20
77.0149598354425
 30
0.0
 10
163.1519386947195
 20
75.3893524804639
 30
0.0
 10
163.6483331892171
 20
74.31831368279227
 30
0.0
 10
164.2515112415551
 20
73.25611882619782
 30
0.0
  0
LINE
  5
9E
330
1F
100
AcDbEntity
  8
0
  6
Continuous
 62
     7
370
    25
100
AcDbLine
 10
162.1355468208
 20
122.4198936416
 30
0.0
 11
162.1355468208
 21
76.9198936416
 31
0.0
  0
SPLINE
  5
9F
330
1F
100
AcDbEntity
  8
0
  6
Continuous
 62
     7
370
    25
100
AcDbSpline
210
0.0
220
0.0
230
1.0
 70
     8
 71
     3
 72
    23
 73
    19
 74
     0
 42
0.000000001
 43
0.00000001
 40
0.0
 40
0.0
 40
0.0
 40
0.0
 40
0.0679503475997538
 40
0.1332598223836998
 40
0.1978002967596484
 40
0.2608458295516824
 40
0.3233192927503665
 40
0.3862817224595732
 40
0.4500615162333123
 40
0.5152075844858153
 40
0.5796407692199315
 40
0.6418172023841516
 40
0.7016924412115343
 40
0.7607690981778945
 40
0.8192540511346833
 40
0.8787376269055535
 40
0.9381582970160909
 40
1.0
 40
1.0
 40
1.0
 40
1.0
 10
165.0201622054246
 20
97.04794035348152
 30
0.0
 10
165.0212608355617
 20
97.01084672340357
 30
0.0
 10
165.0234153978576
 20
96.93810109765828
 30
0.0
 10
165.0363875778517
 20
96.83071130404261
 30
0.0
 10
165.0593325482205
 20
96.72773908397687
 30
0.0
 10
165.0919386722878
 20
96.62911282116589
 30
0.0
 10
165.1316688117413
 20
96.53401078963
 30
0.0
 10
165.1823633451673
 20
96.44378227554853
 30
0.0
 10
165.2416208501927
 20
96.35720912911155
 30
0.0
 10
165.3094160275867
 20
96.27617575342775
 30
0.0
 10
165.382275272482
 20
96.2006701342166
 30
0.0
 10
165.4623039440439
 20
96.13750329731388
 30
0.0
 10
165.5433543518607
 20
96.08049569132952
 30
0.0
 10
165.630349091907
 20
96.03731442252257
 30
0.0
 10
165.7201370901699
 20
96.00111385700707
 30
0.0
 10
165.8140869593164
 20
95.97677802511612
 30
0.0
 10
165.9117143587012
 20
95.96084613958953
 30
0.0
 10
165.977963058339
 20
95.95909156585275
 30
0.0
 10
166.0117487438862
 20
95.95819676373793
 30
0.0
  0
SPLINE
  5
A0
330
1F
100
AcDbEntity
  8
0
  6
Continuous
 62
     7
370
    25
100
AcDbSpline
210
0.0
220
0.0
230
1.0
 70
     8
 71
     3
 72
    23
 73
    19
 74
     0
 42
0.000000001
 43
0.00000001
 40
0.0
 40
0.0
 40
0.0
 40
0.0
 40
0.061852645946692
 40
0.1212838306153701
 40
0.1807779320756126
 40
0.2392732340142806
 40
0.2986414352139417
 40
0.3581858222417117
 40
0.4207600867589708
 40
0.4852046730216429
 40
0.5503622689482872
 40
0.6136499245309122
 40
0.6766234955168249
 40
0.7391080134690121
 40
0.8021647022429451
 40
0.8667165971324772
 40
0.9320376285055443
 40
1.0
 40
1.0
 40
1.0
 40
1.0
 10
166.0117487438862
 20
98.13768394322511
 30
0.0
 10
165.9779643443631
 20
98.13678683553357
 30
0.0
 10
165.9117181664272
 20
98.1350277409041
 30
0.0
 10
165.8140724150488
 20
98.11912875672677
 30
0.0
 10
165.720191380879
 20
98.09466951788258
 30
0.0
 10
165.6300063985426
 20
98.05886767314325
 30
0.0
 10
165.544009412998
 20
98.01396169161772
 30
0.0
 10
165.4615895625305
 20
97.95869992984468
 30
0.0
 10
165.3826899590636
 20
97.89401810288457
 30
0.0
 10
165.3093001705602
 20
97.8188267624001
 30
0.0
 10
165.2419852730955
 20
97.7377401916183
 30
0.0
 10
165.1820479620221
 20
97.65198577226785
 30
0.0
 10
165.1317166481089
 20
97.56183617011037
 30
0.0
 10
165.0919257772687
 20
97.4667769828734
 30
0.0
 10
165.059336105461
 20
97.36813911345222
 30
0.0
 10
165.036386608415
 20
97.26517008683102
 30
0.0
 10
165.0234156529291
 20
97.15777942935897
 30
0.0
 10
165.0212609217015
 20
97.08503392279027
 30
0.0
 10
165.0201622054246
 20
97.04794035348152
 30
0.0
  0
SPLINE
  5
A1
330
1F
100
AcDbEntity
  8
0
  6
Continuous
 62
     7
370
    25
100
AcDbSpline
210
0.0
220
0.0
230
1.0
 70
     8
 71
     3
 72
    23
 73
    19
 74
     0
 42
0.000000001
 43
0.00000001
 40
0.0
 40
0.0
 40
0.0
 40
0.0
 40
0.0611415679303345
 40
0.1200010135310723
 40
0.1782359705414084
 40
0.2364955434070173
 40
0.2948872487049734
 40
0.3546771928192955
 40
0.4166948132897785
 40
0.4806333779628399
 40
0.545804633478641
 40
0.6097347883178743
 40
0.6729516883751534
 40
0.736001096070683
 40
0.7998274385165253
 40
0.8647672769393875
 40
0.9310835057306726
 40
1.0
 40
1.0
 40
1.0
 40
1.0
 10
166.0117487438862
 20
95.95819676373793
 30
0.0
 10
166.04588777872
 20
95.95897373388141
 30
0.0
 10
166.1128916014826
 20
95.96049867358863
 30
0.0
 10
166.2109603134928
 20
95.9780805904426
 30
0.0
 10
166.3060430092711
 20
96.00182789524864
 30
0.0
 10
166.3959977976871
 20
96.04020571637312
 30
0.0
 10
166.483312290455
 20
96.08591683391862
 30
0.0
 10
166.5654909741586
 20
96.14414979490321
 30
0.0
 10
166.6448619856386
 20
96.2109153100298
 30
0.0
 10
166.718503364739
 20
96.28823625491266
 30
0.0
 10
166.7858617636208
 20
96.37235452107784
 30
0.0
 10
166.8453168387399
 20
96.46180816692194
 30
0.0
 10
166.8954957542252
 20
96.55539024710208
 30
0.0
 10
166.9373629424542
 20
96.65301036221994
 30
0.0
 10
166.9675765043056
 20
96.75578585522294
 30
0.0
 10
166.9913668440352
 20
96.862057783061
 30
0.0
 10
167.0040268714029
 20
96.97318526854589
 30
0.0
 10
167.0062226784864
 20
97.04858042383641
 30
0.0
 10
167.0073416926041
 20
97.08700285348151
 30
0.0
  0
SPLINE
  5
A2
330
1F
100
AcDbEntity
  8
0
  6
Continuous
 62
     7
370
    25
100
AcDbSpline
210
0.0
220
0.0
230
1.0
 70
     8
 71
     3
 72
    23
 73
    19
 74
     0
 42
0.000000001
 43
0.00000001
 40
0.0
 40
0.0
 40
0.0
 40
0.0
 40
0.0705921865358065
 40
0.1385012886049309
 40
0.2037899961427011
 40
0.2667875726696016
 40
0.3290979656467194
 40
0.3911745246039656
 40
0.4531677986176574
 40
0.5157967602265845
 40
0.5779688050530409
 40
0.6389663383752916
 40
0.6983810661628433
 40
0.7573204555574269
 40
0.8164122397216687
 40
0.8762793582308314
 40
0.9368234656501933
 40
1.0
 40
1.0
 40
1.0
 40
1.0
 10
167.0073416926041
 20
97.08700285348151
 30
0.0
 10
167.0062154777555
 20
97.12509057960757
 30
0.0
 10
167.0040058534976
 20
97.19981838458658
 30
0.0
 10
166.9915258797677
 20
97.30931657197065
 30
0.0
 10
166.9678797510331
 20
97.41266968425633
 30
0.0
 10
166.9372929391788
 20
97.51105818253681
 30
0.0
 10
166.8956468545228
 20
97.60345660036181
 30
0.0
 10
166.8456597460417
 20
97.69091892912294
 30
0.0
 10
166.7862283417991
 20
97.77257728894602
 30
0.0
 10
166.7180152873455
 20
97.84699761738662
 30
0.0
 10
166.6444227730792
 20
97.91533385883447
 30
0.0
 10
166.5651263606171
 20
97.974114185751
 30
0.0
 10
166.4825486940145
 20
98.02487338944543
 30
0.0
 10
166.3959136434017
 20
98.06612972512201
 30
0.0
 10
166.3052767818193
 20
98.09825931944822
 30
0.0
 10
166.2110490122991
 20
98.12149942925717
 30
0.0
 10
166.1126000764489
 20
98.13443342659
 30
0.0
 10
166.0458393481862
 20
98.13658517661923
 30
0.0
 10
166.0117487438862
 20
98.13768394322511
 30
0.0
  0
LINE
  5
A3
330
1F
100
AcDbEntity
  8
0
  6
Continuous
 62
     7
370
    25
100
AcDbLine
 10
164.2515112416
 20
86.6795125849
 30
0.0
 11
170.0195824001
 21
86.6795125849
 31
0.0
  0
LINE
  5
A4
330
1F
100
AcDbEntity
  8
0
  6
Continuous
 62
     7
370
    25
100
AcDbLine
 10
169.763751949
 20
96.5351198407
 30
0.0
 11
169.4923176541
 21
96.189566956
 31
0.0
  0
SPLINE
  5
A5
330
1F
100
AcDbEntity
  8
0
  6
Continuous
 62
     7
370
    25
100
AcDbSpline
210
0.0
220
0.0
230
1.0
 70
     8
 71
     3
 72
    15
 73
    11
 74
     0
 42
0.000000001
 43
0.00000001
 40
0.0
 40
0.0
 40
0.0
 40
0.0
 40
0.1281455049994639
 40
0.2541925386280416
 40
0.3781411397135891
 40
0.5013808330744061
 40
0.6239569784447037
 40
0.7470758858273294
 40
0.8728647202442612
 40
1.0
 40
1.0
 40
1.0
 40
1.0
 10
167.0093448977323
 20
101.6820668228538
 30
0.0
 10
166.9764087629823
 20
101.6579979688953
 30
0.0
 10
166.9110758454934
 20
101.6102544051268
 30
0.0
 10
166.8059725236081
 20
101.5514895762471
 30
0.0
 10
166.7000521928231
 20
101.4975688848434
 30
0.0
 10
166.5891502023437
 20
101.4578848168097
 30
0.0
 10
166.4768289202753
 20
101.4236390386829
 30
0.0
 10
166.3606830990556
 20
101.4011064569751
 30
0.0
 10
166.241816222297
 20
101.3866414408228
 30
0.0
 10
166.161363786267
 20
101.3846102571208
 30
0.0
 10
166.1209234233733
 20
101.3835892587512
 30
0.0
  0
SPLINE
  5
A6
330
1F
100
AcDbEntity
  8
0
  6
Continuous
 62
     7
370
    25
100
AcDbSpline
210
0.0
220
0.0
230
1.0
 70
     8
 71
     3
 72
    19
 73
    15
 74
     0
 42
0.000000001
 43
0.00000001
 40
0.0
 40
0.0
 40
0.0
 40
0.0
 40
0.0978059775289525
 40
0.1996122522918969
 40
0.3052960258330042
 40
0.4158173591641857
 40
0.474240566618493
 40
0.5372869128296532
 40
0.6033858352934852
 40
0.6743111580696058
 40
0.7495304673574814
 40
0.828608314269512
 40
0.9120427387714448
 40
1.0
 40
1.0
 40
1.0
 40
1.0
 10
166.02977759004
 20
98.58640189194307
 30
0.0
 10
166.0812511032511
 20
98.5845898229414
 30
0.0
 10
166.186303413601
 20
98.58089157070908
 30
0.0
 10
166.3458683271423
 20
98.55882082746575
 30
0.0
 10
166.5084977044166
 20
98.51834038780228
 30
0.0
 10
166.6463629232367
 20
98.47453170457048
 30
0.0
 10
166.7605403025873
 20
98.43106026642037
 30
0.0
 10
166.8507031629442
 20
98.39075254869796
 30
0.0
 10
166.9459180385351
 20
98.3456836088997
 30
0.0
 10
167.0443833702204
 20
98.29285653516898
 30
0.0
 10
167.1489125257968
 20
98.23685557383666
 30
0.0
 10
167.2556344715191
 20
98.17144009600882
 30
0.0
 10
167.3684470223846
 20
98.10317803974104
 30
0.0
 10
167.4435558663903
 20
98.05317099751254
 30
0.0
 10
167.4821013079887
 20
98.02750766117383
 30
0.0
  0
SPLINE
  5
A7
330
1F
100
AcDbEntity
  8
0
  6
Continuous
 62
     7
370
    25
100
AcDbSpline
210
0.0
220
0.0
230
1.0
 70
     8
 71
     3
 72
    19
 73
    15
 74
     0
 42
0.000000001
 43
0.00000001
 40
0.0
 40
0.0
 40
0.0
 40
0.0
 40
0.0843261511037433
 40
0.1670353409858401
 40
0.2495407139852789
 40
0.3327066655796647
 40
0.4158726171740497
 40
0.4977774155681171
 40
0.5803136056784768
 40
0.6645325781316563
 40
0.7495711764063213
 40
0.8324741628544072
 40
0.9156738488962567
 40
1.0
 40
1.0
 40
1.0
 40
1.0
 10
164.5073416926041
 20
97.07197881501999
 30
0.0
 10
164.5095248381546
 20
97.13925982892577
 30
0.0
 10
164.5138492672514
 20
97.27253173749185
 30
0.0
 10
164.5523721162608
 20
97.468578396653
 30
0.0
 10
164.614810529308
 20
97.65695485404746
 30
0.0
 10
164.7008320761331
 20
97.83633697973222
 30
0.0
 10
164.8094819209048
 20
98.00251934300503
 30
0.0
 10
164.9403009321986
 20
98.15114745441687
 30
0.0
 10
165.0903978596966
 20
98.28170420555537
 30
0.0
 10
165.2602331458339
 20
98.38978209668846
 30
0.0
 10
165.4415569499599
 20
98.47786587130143
 30
0.0
 10
165.6323489791087
 20
98.5399926312912
 30
0.0
 10
165.8287694679836
 20
98.58017016914248
 30
0.0
 10
165.9624751979031
 20
98.58431536007896
 30
0.0
 10
166.02977759004
 20
98.58640189194307
 30
0.0
  0
SPLINE
  5
A8
330
1F
100
AcDbEntity
  8
0
  6
Continuous
 62
     7
370
    25
100
AcDbSpline
210
0.0
220
0.0
230
1.0
 70
     8
 71
     3
 72
    19
 73
    15
 74
     0
 42
0.000000001
 43
0.00000001
 40
0.0
 40
0.0
 40
0.0
 40
0.0
 40
0.0859901205637197
 40
0.1691084375726413
 40
0.2505285789581879
 40
0.3322556961768451
 40
0.4135763652356396
 40
0.4941261456201212
 40
0.576305934120417
 40
0.6607126719045476
 40
0.7461272722239098
 40
0.8300149859609746
 40
0.9144197259288503
 40
1.0
 40
1.0
 40
1.0
 40
1.0
 10
166.0387920131169
 20
95.50947881501997
 30
0.0
 10
165.9688626021632
 20
95.51208814169709
 30
0.0
 10
165.8313392058796
 20
95.51721965162628
 30
0.0
 10
165.6302000420738
 20
95.55457486440386
 30
0.0
 10
165.4401170580043
 20
95.61904161539108
 30
0.0
 10
165.2603432589277
 20
95.70529039765891
 30
0.0
 10
165.096109174042
 20
95.81719141083448
 30
0.0
 10
164.9476856006077
 20
95.94980026368613
 30
0.0
 10
164.818312652603
 20
96.10437048060102
 30
0.0
 10
164.7073289897438
 20
96.27724180472158
 30
0.0
 10
164.6191526093515
 20
96.46434226404497
 30
0.0
 10
164.5539620115479
 20
96.66052321579782
 30
0.0
 10
164.515008972615
 20
96.86410781107018
 30
0.0
 10
164.5099092084415
 20
97.00236976278516
 30
0.0
 10
164.5073416926041
 20
97.07197881501999
 30
0.0
  0
SPLINE
  5
A9
330
1F
100
AcDbEntity
  8
0
  6
Continuous
 62
     7
370
    25
100
AcDbSpline
210
0.0
220
0.0
230
1.0
 70
     8
 71
     3
 72
    23
 73
    19
 74
     0
 42
0.000000001
 43
0.00000001
 40
0.0
 40
0.0
 40
0.0
 40
0.0
 40
0.0652308037420299
 40
0.1284048960032233
 40
0.1900670715964784
 40
0.2509433657682798
 40
0.3115458328521436
 40
0.3728628021568288
 40
0.4350236738562394
 40
0.4990717247070431
 40
0.5630910750496624
 40
0.6255101063303753
 40
0.6866800359296494
 40
0.7472825030135125
 40
0.808563495215959
 40
0.8707421035159857
 40
0.9343409515059125
 40
1.0
 40
1.0
 40
1.0
 40
1.0
 10
167.5201622054246
 20
96.99285221245587
 30
0.0
 10
167.5187963315735
 20
96.9420343605485
 30
0.0
 10
167.5161076495438
 20
96.84200093132573
 30
0.0
 10
167.4954164342697
 20
96.69513407107716
 30
0.0
 10
167.4628091315217
 20
96.5540070196869
 30
0.0
 10
167.41527733731
 20
96.41920471646489
 30
0.0
 10
167.354559688221
 20
96.29024331380836
 30
0.0
 10
167.2817898735346
 20
96.16638274793902
 30
0.0
 10
167.1932103301678
 20
96.04995130493015
 30
0.0
 10
167.0942603933337
 20
95.93944962034172
 30
0.0
 10
166.9846647011978
 20
95.83912519549465
 30
0.0
 10
166.868377077332
 20
95.7503022589839
 30
0.0
 10
166.745518675906
 20
95.6756925565066
 30
0.0
 10
166.6161517245727
 20
95.61515838277147
 30
0.0
 10
166.4804756394862
 20
95.56815141334593
 30
0.0
 10
166.3386640116456
 20
95.53388334899792
 30
0.0
 10
166.1906190524169
 20
95.51362678782671
 30
0.0
 10
166.0899359448938
 20
95.51087608680515
 30
0.0
 10
166.0387920131169
 20
95.50947881501997
 30
0.0
  0
SPLINE
  5
AA
330
1F
100
AcDbEntity
  8
0
  6
Continuous
 62
     7
370
    25
100
AcDbSpline
210
0.0
220
0.0
230
1.0
 70
     8
 71
     3
 72
     9
 73
     5
 74
     0
 42
0.000000001
 43
0.00000001
 40
0.0
 40
0.0
 40
0.0
 40
0.0
 40
0.5126593363417853
 40
1.0
 40
1.0
 40
1.0
 40
1.0
 10
167.4720852823477
 20
97.51068073809691
 30
0.0
 10
167.4861050832814
 20
97.42272319954928
 30
0.0
 10
167.5134522901688
 20
97.2511520755837
 30
0.0
 10
167.5179636408094
 20
97.07748650626313
 30
0.0
 10
167.5201622054246
 20
96.99285221245587
 30
0.0
  0
LINE
  5
AB
330
1F
100
AcDbEntity
  8
0
  6
Continuous
 62
     7
370
    25
100
AcDbLine
 10
169.4923176541
 20
96.189566956
 30
0.0
 11
167.4720852823
 21
97.5106807381
 31
0.0
  0
SPLINE
  5
AC
330
1F
100
AcDbEntity
  8
0
  6
Continuous
 62
     7
370
    25
100
AcDbSpline
210
0.0
220
0.0
230
1.0
 70
     8
 71
     3
 72
    15
 73
    11
 74
     0
 42
0.000000001
 43
0.00000001
 40
0.0
 40
0.0
 40
0.0
 40
0.0
 40
0.1182713048357254
 40
0.2361775330837627
 40
0.3556629329485089
 40
0.4759041646706832
 40
0.6001273417110845
 40
0.7286081161551192
 40
0.8613134756739437
 40
1.0
 40
1.0
 40
1.0
 40
1.0
 10
165.2905948977323
 20
103.9406806049051
 30
0.0
 10
165.2690115636101
 20
103.9126854955834
 30
0.0
 10
165.2259115182038
 20
103.8567816914681
 30
0.0
 10
165.1709091917212
 20
103.7656842184704
 30
0.0
 10
165.1232505841002
 20
103.6698772383479
 30
0.0
 10
165.0868453045054
 20
103.5672848466037
 30
0.0
 10
165.0560200748066
 20
103.4601208888123
 30
0.0
 10
165.0358479046174
 20
103.3466532241954
 30
0.0
 10
165.0220076598413
 20
103.2278829140357
 30
0.0
 10
165.0207863291379
 20
103.1467861090599
 30
0.0
 10
165.0201622054246
 20
103.1053440664435
 30
0.0
  0
LINE
  5
AD
330
1F
100
AcDbEntity
  8
0
  6
Continuous
 62
     7
370
    25
100
AcDbLine
 10
167.482101308
 20
98.0275076612
 30
0.0
 11
169.763751949
 21
96.5351198407
 31
0.0
  0
LINE
  5
AE
330
1F
100
AcDbEntity
  8
0
  6
Continuous
 62
     7
370
    25
100
AcDbLine
 10
168.481700667
 20
104.1399995152
 30
0.0
 11
168.481700667
 21
104.5887174639
 31
0.0
  0
SPLINE
  5
AF
330
1F
100
AcDbEntity
  8
0
  6
Continuous
 62
     7
370
    25
100
AcDbSpline
210
0.0
220
0.0
230
1.0
 70
     8
 71
     3
 72
    19
 73
    15
 74
     0
 42
0.000000001
 43
0.00000001
 40
0.0
 40
0.0
 40
0.0
 40
0.0
 40
0.122728099976455
 40
0.2397165235883937
 40
0.3518621792202475
 40
0.4632019818032242
 40
0.5202611541541653
 40
0.579432438030666
 40
0.6405963441586373
 40
0.7052982290880198
 40
0.7732361059084526
 40
0.8446489293403158
 40
0.9200459817773701
 40
1.0
 40
1.0
 40
1.0
 40
1.0
 10
169.2509314361939
 20
103.0943264382384
 30
0.0
 10
169.2489476317013
 20
103.1512592738559
 30
0.0
 10
169.2450728001302
 20
103.2624623433639
 30
0.0
 10
169.2110147771963
 20
103.422743155388
 30
0.0
 10
169.1570533507577
 20
103.5715920521515
 30
0.0
 10
169.0918950883803
 20
103.6849848857458
 30
0.0
 10
169.0277968138377
 20
103.7688602350513
 30
0.0
 10
168.9726530683475
 20
103.8299459083342
 30
0.0
 10
168.9101313554303
 20
103.8888387547422
 30
0.0
 10
168.8385167748644
 20
103.9432277655727
 30
0.0
 10
168.7602718622221
 20
103.9963720455289
 30
0.0
 10
168.6749656736587
 20
104.0477641461765
 30
0.0
 10
168.5813819982258
 20
104.0957533520528
 30
0.0
 10
168.5155712603025
 20
104.1249651674205
 30
0.0
 10
168.4817006669631
 20
104.1399995151615
 30
0.0
  0
SPLINE
  5
B0
330
1F
100
AcDbEntity
  8
0
  6
Continuous
 62
     7
370
    25
100
AcDbSpline
210
0.0
220
0.0
230
1.0
 70
     8
 71
     3
 72
    23
 73
    19
 74
     0
 42
0.000000001
 43
0.00000001
 40
0.0
 40
0.0
 40
0.0
 40
0.0
 40
0.0552698294993251
 40
0.1099567044850944
 40
0.1632335040550557
 40
0.2180575651623569
 40
0.2732775387226746
 40
0.3308810454954966
 40
0.3904799376860891
 40
0.4536559730386409
 40
0.5189026226022317
 40
0.5833461108214764
 40
0.6485466930814441
 40
0.715055219034491
 40
0.7825206438000544
 40
0.8523352944264525
 40
0.9249348997257083
 40
1.0
 40
1.0
 40
1.0
 40
1.0
 10
168.4666766285015
 20
102.0887174638794
 30
0.0
 10
168.4927877557628
 20
102.0893094106178
 30
0.0
 10
168.5447346050665
 20
102.0904870605793
 30
0.0
 10
168.6206266392511
 20
102.1053413258721
 30
0.0
 10
168.6942028574845
 20
102.1276576092511
 30
0.0
 10
168.7651294146066
 20
102.158357398991
 30
0.0
 10
168.8329946198881
 20
102.1993736332578
 30
0.0
 10
168.8978817306447
 20
102.2486067781275
 30
0.0
 10
168.9608781876557
 20
102.3060805960785
 30
0.0
 10
169.0189701633344
 20
102.373297163943
 30
0.0
 10
169.073765772309
 20
102.4460662674529
 30
0.0
 10
169.121134537899
 20
102.5250726180661
 30
0.0
 10
169.1612842719573
 20
102.6085736342784
 30
0.0
 10
169.1944565111908
 20
102.696646101216
 30
0.0
 10
169.2193939990868
 20
102.7896428343285
 30
0.0
 10
169.2373035632658
 20
102.8871084716644
 30
0.0
 10
169.2484998735781
 20
102.9892339769262
 30
0.0
 10
169.250111943307
 20
103.0589078461176
 30
0.0
 10
169.2509314361939
 20
103.0943264382384
 30
0.0
  0
SPLINE
  5
B1
330
1F
100
AcDbEntity
  8
0
  6
Continuous
 62
     7
370
    25
100
AcDbSpline
210
0.0
220
0.0
230
1.0
 70
     8
 71
     3
 72
    19
 73
    15
 74
     0
 42
0.000000001
 43
0.00000001
 40
0.0
 40
0.0
 40
0.0
 40
0.0
 40
0.110142381550317
 40
0.2157418685830272
 40
0.3179605426392293
 40
0.4180517606815211
 40
0.5115631470355313
 40
0.5965727584443453
 40
0.6733290469034966
 40
0.7440491927238596
 40
0.8107168223002835
 40
0.8740854521098846
 40
0.93670961689667
 40
1.0
 40
1.0
 40
1.0
 40
1.0
 10
167.6483673336297
 20
103.3707687459307
 30
0.0
 10
167.6494216301917
 20
103.3089116474901
 30
0.0
 10
167.6514867381649
 20
103.1877487870648
 30
0.0
 10
167.6762908952003
 20
103.0107328554695
 30
0.0
 10
167.7109886479332
 20
102.841261023364
 30
0.0
 10
167.7629092200714
 20
102.683201676448
 30
0.0
 10
167.8252287257381
 20
102.5396059494538
 30
0.0
 10
167.8954985194801
 20
102.4143411649438
 30
0.0
 10
167.9751110429495
 20
102.3103760493082
 30
0.0
 10
168.0630214581103
 20
102.2274508549701
 30
0.0
 10
168.1584074227486
 20
102.166586706797
 30
0.0
 10
168.2567838472847
 20
102.1209021352789
 30
0.0
 10
168.3604396246246
 20
102.0941199884362
 30
0.0
 10
168.431139601851
 20
102.0905246464255
 30
0.0
 10
168.4666766285015
 20
102.0887174638794
 30
0.0
  0
LINE
  5
B2
330
1F
100
AcDbEntity
  8
0
  6
Continuous
 62
     7
370
    25
100
AcDbLine
 10
167.1355468208
 20
103.3707687459
 30
0.0
 11
167.6483673336
 21
103.3707687459
 31
0.0
  0
SPLINE
  5
B3
330
1F
100
AcDbEntity
  8
0
  6
Continuous
 62
     7
370
    25
100
AcDbSpline
210
0.0
220
0.0
230
1.0
 70
     8
 71
     3
 72
    23
 73
    19
 74
     0
 42
0.000000001
 43
0.00000001
 40
0.0
 40
0.0
 40
0.0
 40
0.0
 40
0.0669051223273616
 40
0.1334773340846822
 40
0.2010229080576291
 40
0.2712178684297493
 40
0.3428591616573979
 40
0.4138109980627165
 40
0.4855518488903456
 40
0.5598002749200526
 40
0.5998999649035787
 40
0.6436094423977968
 40
0.6919106424505661
 40
0.7447030291556913
 40
0.8015038302285952
 40
0.8628660266331959
 40
0.9293326711591631
 40
1.0
 40
1.0
 40
1.0
 40
1.0
 10
166.0778545131169
 20
101.8323072074692
 30
0.0
 10
166.1244421927254
 20
101.8344933136859
 30
0.0
 10
166.2173857381374
 20
101.8388546483593
 30
0.0
 10
166.3541243413376
 20
101.8721532004429
 30
0.0
 10
166.4858751492442
 20
101.9269207386087
 30
0.0
 10
166.6103713699244
 20
102.0036046399196
 30
0.0
 10
166.7258115966422
 20
102.0969074188123
 30
0.0
 10
166.8284096598306
 20
102.2059259097005
 30
0.0
 10
166.9139192291375
 20
102.3309275346633
 30
0.0
 10
166.9727808099233
 20
102.4467170719456
 30
0.0
 10
167.0120095781423
 20
102.5495270777956
 30
0.0
 10
167.0395160560255
 20
102.6373349910693
 30
0.0
 10
167.0615042470387
 20
102.7357255854265
 30
0.0
 10
167.0827734494509
 20
102.843517703216
 30
0.0
 10
167.1006041990112
 20
102.9611659571992
 30
0.0
 10
167.1155381506421
 20
103.0887763410327
 30
0.0
 10
167.1274688867889
 20
103.2264001933464
 30
0.0
 10
167.13279974457
 20
103.3216730960413
 30
0.0
 10
167.1355468208092
 20
103.3707687459307
 30
0.0
  0
SPLINE
  5
B4
330
1F
100
AcDbEntity
  8
0
  6
Continuous
 62
     7
370
    25
100
AcDbSpline
210
0.0
220
0.0
230
1.0
 70
     8
 71
     3
 72
    23
 73
    19
 74
     0
 42
0.000000001
 43
0.00000001
 40
0.0
 40
0.0
 40
0.0
 40
0.0
 40
0.0760618905628338
 40
0.1487324608035368
 40
0.218374524743973
 40
0.2857225935927387
 40
0.3510576941824577
 40
0.4149349157293193
 40
0.4784859417740848
 40
0.5421690352812156
 40
0.6047501165431389
 40
0.6641185017301126
 40
0.7214996756099116
 40
0.7776159163852546
 40
0.832666108697549
 40
0.8878580281135738
 40
0.9434676608977686
 40
1.0
 40
1.0
 40
1.0
 40
1.0
 10
165.0201622054246
 20
103.1053440664435
 30
0.0
 10
165.0210406391222
 20
103.0585527149909
 30
0.0
 10
165.0227583403852
 20
102.9670562665806
 30
0.0
 10
165.0386007704619
 20
102.8335581737016
 30
0.0
 10
165.0615727875482
 20
102.7065159166519
 30
0.0
 10
165.0975054887549
 20
102.5872259612797
 30
0.0
 10
165.1406126998362
 20
102.4740650640246
 30
0.0
 10
165.1970479507452
 20
102.3695593030444
 30
0.0
 10
165.2607824428644
 20
102.2706363380807
 30
0.0
 10
165.334917915251
 20
102.180194154833
 30
0.0
 10
165.4150503363334
 20
102.0986561042634
 30
0.0
 10
165.5000636938737
 20
102.0281982197541
 30
0.0
 10
165.5873220205502
 20
101.9671736335424
 30
0.0
 10
165.6788608767457
 20
101.9181200502723
 30
0.0
 10
165.7737823398687
 20
101.8793163635496
 30
0.0
 10
165.8724417017964
 20
101.8529163789399
 30
0.0
 10
165.9740081889693
 20
101.8345558502975
 30
0.0
 10
166.0430497134007
 20
101.833060855361
 30
0.0
 10
166.0778545131169
 20
101.8323072074692
 30
0.0
  0
SPLINE
  5
B5
330
1F
100
AcDbEntity
  8
0
  6
Continuous
 62
     7
370
    25
100
AcDbSpline
210
0.0
220
0.0
230
1.0
 70
     8
 71
     3
 72
    15
 73
    11
 74
     0
 42
0.000000001
 43
0.00000001
 40
0.0
 40
0.0
 40
0.0
 40
0.0
 40
0.1497703860319683
 40
0.2913164099952443
 40
0.4259663731047422
 40
0.5521595739695284
 40
0.671527413523593
 40
0.7861216286916589
 40
0.8953250730704435
 40
1.0
 40
1.0
 40
1.0
 40
1.0
 10
165.9817006669631
 20
104.3323072074692
 30
0.0
 10
165.9432020765793
 20
104.3206167911259
 30
0.0
 10
165.8683189742677
 20
104.2978779159003
 30
0.0
 10
165.7605471090179
 20
104.2591717758502
 30
0.0
 10
165.6617498901253
 20
104.2150742443209
 30
0.0
 10
165.5712025730139
 20
104.1677677319837
 30
0.0
 10
165.4880134266365
 20
104.1180842376655
 30
0.0
 10
165.4143821851593
 20
104.0624914874707
 30
0.0
 10
165.347074753431
 20
104.0051069944031
 30
0.0
 10
165.3091538792307
 20
103.9618507753297
 30
0.0
 10
165.2905948977323
 20
103.9406806049051
 30
0.0
  0
LINE
  5
B6
330
1F
100
AcDbEntity
  8
0
  6
Continuous
 62
     7
370
    25
100
AcDbLine
 10
165.981700667
 20
104.7810251562
 30
0.0
 11
165.981700667
 21
104.3323072075
 31
0.0
  0
SPLINE
  5
B7
330
1F
100
AcDbEntity
  8
0
  6
Continuous
 62
     7
370
    25
100
AcDbSpline
210
0.0
220
0.0
230
1.0
 70
     8
 71
     3
 72
    23
 73
    19
 74
     0
 42
0.000000001
 43
0.00000001
 40
0.0
 40
0.0
 40
0.0
 40
0.0
 40
0.0655411703374032
 40
0.1289631677825928
 40
0.1903771361885608
 40
0.2500923616690523
 40
0.3085484324592001
 40
0.3663979630552951
 40
0.424542189266679
 40
0.4831699964229053
 40
0.5422433998311197
 40
0.6017393520173296
 40
0.6625060022496064
 40
0.7248555134488468
 40
0.7891278292811813
 40
0.85634639987851
 40
0.9262952349869056
 40
1.0
 40
1.0
 40
1.0
 40
1.0
 10
164.5073416926041
 20
103.1133568869563
 30
0.0
 10
164.5085819972591
 20
103.166813030218
 30
0.0
 10
164.5110225032265
 20
103.2719968946038
 30
0.0
 10
164.5277062192217
 20
103.4266304637271
 30
0.0
 10
164.5581776552757
 20
103.5742328913907
 30
0.0
 10
164.5991823772272
 20
103.7150037454717
 30
0.0
 10
164.6511705801994
 20
103.8490680831767
 30
0.0
 10
164.7159115773727
 20
103.9760168048592
 30
0.0
 10
164.7920708660182
 20
104.0966309384593
 30
0.0
 10
164.8805474200276
 20
104.2097722972373
 30
0.0
 10
164.9795207625372
 20
104.3154273939605
 30
0.0
 10
165.0907479196339
 20
104.410788428575
 30
0.0
 10
165.2121727823782
 20
104.4974452756351
 30
0.0
 10
165.345205719805
 20
104.5730776166515
 30
0.0
 10
165.4881275159161
 20
104.6411304061027
 30
0.0
 10
165.6427682278899
 20
104.6971032013132
 30
0.0
 10
165.8077454021599
 20
104.746368299365
 30
0.0
 10
165.9227136024111
 20
104.769273248288
 30
0.0
 10
165.9817006669631
 20
104.7810251561871
 30
0.0
  0
SPLINE
  5
B8
330
1F
100
AcDbEntity
  8
0
  6
Continuous
 62
     7
370
    25
100
AcDbSpline
210
0.0
220
0.0
230
1.0
 70
     8
 71
     3
 72
    19
 73
    15
 74
     0
 42
0.000000001
 43
0.00000001
 40
0.0
 40
0.0
 40
0.0
 40
0.0
 40
0.079641704194991
 40
0.158908613257856
 40
0.2395997983184508
 40
0.3224093988203481
 40
0.4058277481735125
 40
0.487644213950313
 40
0.5697199979738967
 40
0.6530646649976927
 40
0.7374573001733057
 40
0.8224924079539123
 40
0.9097550737466981
 40
1.0
 40
1.0
 40
1.0
 40
1.0
 10
166.1209234233733
 20
101.3835892587512
 30
0.0
 10
166.0509123200289
 20
101.3861584944562
 30
0.0
 10
165.9112195867108
 20
101.3912848750021
 30
0.0
 10
165.7047853665686
 20
101.4369203073456
 30
0.0
 10
165.5033414530277
 20
101.508075655013
 30
0.0
 10
165.3098725899444
 20
101.6073554673477
 30
0.0
 10
165.129234622079
 20
101.7301906753132
 30
0.0
 10
164.9683460086238
 20
101.8771378271112
 30
0.0
 10
164.8291189877993
 20
102.0446246609198
 30
0.0
 10
164.7131666336109
 20
102.2315550088226
 30
0.0
 10
164.6204097533531
 20
102.4339902726503
 30
0.0
 10
164.5560466012066
 20
102.6505316697159
 30
0.0
 10
164.5141224851141
 20
102.878030429171
 30
0.0
 10
164.5096271318743
 20
103.0340410360236
 30
0.0
 10
164.5073416926041
 20
103.1133568869563
 30
0.0
  0
SPLINE
  5
B9
330
1F
100
AcDbEntity
  8
0
  6
Continuous
 62
     7
370
    25
100
AcDbSpline
210
0.0
220
0.0
230
1.0
 70
     8
 71
     3
 72
    11
 73
     7
 74
     0
 42
0.000000001
 43
0.00000001
 40
0.0
 40
0.0
 40
0.0
 40
0.0
 40
0.2538796003266574
 40
0.5030089172783628
 40
0.7502910806899746
 40
1.0
 40
1.0
 40
1.0
 40
1.0
 10
167.43602759004
 20
102.2239338100333
 30
0.0
 10
167.4103444878379
 20
102.1707455892142
 30
0.0
 10
167.359458834109
 20
102.065364340261
 30
0.0
 10
167.2596648947987
 20
101.9217207266426
 30
0.0
 10
167.144441541436
 20
101.791323761847
 30
0.0
 10
167.0545234658451
 20
101.7186041632701
 30
0.0
 10
167.0093448977323
 20
101.6820668228538
 30
0.0
  0
SPLINE
  5
BA
330
1F
100
AcDbEntity
  8
0
  6
Continuous
 62
     7
370
    25
100
AcDbSpline
210
0.0
220
0.0
230
1.0
 70
     8
 71
     3
 72
    15
 73
    11
 74
     0
 42
0.000000001
 43
0.00000001
 40
0.0
 40
0.0
 40
0.0
 40
0.0
 40
0.1280675485958908
 40
0.2506083188676692
 40
0.3706301659145036
 40
0.4900722467299493
 40
0.6103747641546206
 40
0.7343130699115262
 40
0.8632165042449909
 40
1.0
 40
1.0
 40
1.0
 40
1.0
 10
168.4646734233733
 20
101.6399995151615
 30
0.0
 10
168.4118065737939
 20
101.6416617880858
 30
0.0
 10
168.3083543531324
 20
101.6449145982446
 30
0.0
 10
168.157323642935
 20
101.6725341776194
 30
0.0
 10
168.0149784996747
 20
101.7190145531568
 30
0.0
 10
167.8807196966411
 20
101.7833999282681
 30
0.0
 10
167.7553984968938
 20
101.8667450000399
 30
0.0
 10
167.6387329385217
 20
101.9677059955975
 30
0.0
 10
167.530205569767
 20
102.0869955124196
 30
0.0
 10
167.4680348940878
 20
102.17739399531
 30
0.0
 10
167.43602759004
 20
102.2239338100333
 30
0.0
  0
SPLINE
  5
BB
330
1F
100
AcDbEntity
  8
0
  6
Continuous
 62
     7
370
    25
100
AcDbSpline
210
0.0
220
0.0
230
1.0
 70
     8
 71
     3
 72
    19
 73
    15
 74
     0
 42
0.000000001
 43
0.00000001
 40
0.0
 40
0.0
 40
0.0
 40
0.0
 40
0.0902542493426763
 40
0.1785397915286849
 40
0.2660930338538203
 40
0.3546309779571736
 40
0.4418861533505631
 40
0.525746915163648
 40
0.608113633603637
 40
0.6901972728278825
 40
0.7708214843303355
 40
0.8483261812554113
 40
0.9240117400247433
 40
1.0
 40
1.0
 40
1.0
 40
1.0
 10
169.7637519490144
 20
103.100336053623
 30
0.0
 10
169.761781620093
 20
103.0350749935158
 30
0.0
 10
169.7578839408433
 20
102.9059764064537
 30
0.0
 10
169.7222918887303
 20
102.7163149108101
 30
0.0
 10
169.6659702710814
 20
102.5334194549499
 30
0.0
 10
169.5881506608857
 20
102.3592919580695
 30
0.0
 10
169.4921687849399
 20
102.1975513400748
 30
0.0
 10
169.3779334465188
 20
102.0536425018646
 30
0.0
 10
169.2476487301083
 20
101.929516057859
 30
0.0
 10
169.1037450667961
 20
101.8253812326302
 30
0.0
 10
168.9499514819576
 20
101.7438455196964
 30
0.0
 10
168.7916655431757
 20
101.6837221290111
 30
0.0
 10
168.6292627269058
 20
101.6471197275844
 30
0.0
 10
168.5196094709413
 20
101.6423760749984
 30
0.0
 10
168.4646734233733
 20
101.6399995151615
 30
0.0
  0
SPLINE
  5
BC
330
1F
100
AcDbEntity
  8
0
  6
Continuous
 62
     7
370
    25
100
AcDbSpline
210
0.0
220
0.0
230
1.0
 70
     8
 71
     3
 72
    23
 73
    19
 74
     0
 42
0.000000001
 43
0.00000001
 40
0.0
 40
0.0
 40
0.0
 40
0.0
 40
0.0726253460834354
 40
0.1419766113262341
 40
0.2089849284189383
 40
0.273956870364445
 40
0.3368893473968401
 40
0.3987449534945907
 40
0.4601158852788612
 40
0.5208249225900291
 40
0.5809944586324858
 40
0.6401519276014642
 40
0.6986224507562541
 40
0.7572710809271639
 40
0.8164266940046598
 40
0.8762540482034699
 40
0.9371652930625379
 40
1.0
 40
1.0
 40
1.0
 40
1.0
 10
168.4817006669631
 20
104.5887174638794
 30
0.0
 10
168.5320327869279
 20
104.5765609629066
 30
0.0
 10
168.6304279646288
 20
104.552795997825
 30
0.0
 10
168.7710097658393
 20
104.5032280357266
 30
0.0
 10
168.9040433678261
 20
104.4492290997343
 30
0.0
 10
169.0270377588195
 20
104.3843875217846
 30
0.0
 10
169.1424647627233
 20
104.313660730033
 30
0.0
 10
169.2477063691064
 20
104.232628270696
 30
0.0
 10
169.3454391769165
 20
104.1450286670304
 30
0.0
 10
169.4321723734268
 20
104.0481358823136
 30
0.0
 10
169.5107119865793
 20
103.946523508541
 30
0.0
 10
169.5776763542112
 20
103.83875976604
 30
0.0
 10
169.6352822868747
 20
103.727012775082
 30
0.0
 10
169.6827397609824
 20
103.6105082994412
 30
0.0
 10
169.7184905090769
 20
103.4888994827383
 30
0.0
 10
169.744428802778
 20
103.3632857351371
 30
0.0
 10
169.7612732516558
 20
103.2333378778305
 30
0.0
 10
169.762917198922
 20
103.1451270341187
 30
0.0
 10
169.7637519490144
 20
103.100336053623
 30
0.0
  0
LINE
  5
BD
330
1F
100
AcDbEntity
  8
0
  6
Continuous
 62
     7
370
    25
100
AcDbLine
 10
164.6355468208
 20
99.6557569347
 30
0.0
 11
164.6355468208
 21
100.1044748834
 31
0.0
  0
LINE
  5
BE
330
1F
100
AcDbEntity
  8
0
  6
Continuous
 62
     7
370
    25
100
AcDbLine
 10
169.6355468208
 20
100.5802361013
 30
0.0
 11
169.6355468208
 21
99.6557569347
 31
0.0
  0
LINE
  5
BF
330
1F
100
AcDbEntity
  8
0
  6
Continuous
 62
     7
370
    25
100
AcDbLine
 10
169.122726308
 20
100.8737056526
 30
0.0
 11
169.6355468208
 21
100.5802361013
 31
0.0
  0
LINE
  5
C0
330
1F
100
AcDbEntity
  8
0
  6
Continuous
 62
     7
370
    25
100
AcDbLine
 10
169.122726308
 20
100.1044748834
 30
0.0
 11
169.122726308
 21
100.8737056526
 31
0.0
  0
LINE
  5
C1
330
1F
100
AcDbEntity
  8
0
  6
Continuous
 62
     7
370
    25
100
AcDbLine
 10
164.6355468208
 20
100.1044748834
 30
0.0
 11
169.122726308
 21
100.1044748834
 31
0.0
  0
LINE
  5
C2
330
1F
100
AcDbEntity
  8
0
  6
Continuous
 62
     7
370
    25
100
AcDbLine
 10
169.6355468208
 20
99.6557569347
 30
0.0
 11
164.6355468208
 21
99.6557569347
 31
0.0
  0
LINE
  5
C3
330
1F
100
AcDbEntity
  8
0
  6
Continuous
 62
     7
370
    25
100
AcDbLine
 10
170.0195824001
 20
86.246499883
 30
0.0
 11
164.2515112416
 21
86.246499883
 31
0.0
  0
LINE
  5
C4
330
1F
100
AcDbEntity
  8
0
  6
Continuous
 62
     7
370
    25
100
AcDbLine
 10
164.2515112416
 20
73.2561188262
 30
0.0
 11
170.0195824001
 21
73.2561188262
 31
0.0
  0
LINE
  5
C5
330
1F
100
AcDbEntity
  8
0
  6
Continuous
 62
     7
370
    25
100
AcDbLine
 10
170.0195824001
 20
126.083668457
 30
0.0
 11
164.2515112416
 21
126.083668457
 31
0.0
  0
LINE
  5
C6
330
1F
100
AcDbEntity
  8
0
  6
Continuous
 62
     7
370
    25
100
AcDbLine
 10
141.134570973
 20
99.6698936416
 30
0.0
 11
141.134570973
 21
79.0492991369
 31
0.0
  0
LINE
  5
C7
330
1F
100
AcDbEntity
  8
0
  6
Continuous
 62
     7
370
    25
100
AcDbLine
 10
141.134570973
 20
120.2904881464
 30
0.0
 11
141.134570973
 21
99.6698936416
 31
0.0
  0
LINE
  5
C8
330
1F
100
AcDbEntity
  8
0
  6
Continuous
 62
     7
370
    25
100
AcDbLine
 10
139.1355468208
 20
99.6698936416
 30
0.0
 11
139.1355468208
 21
118.1624946941
 31
0.0
  0
LINE
  5
C9
330
1F
100
AcDbEntity
  8
0
  6
Continuous
 62
     7
370
    25
100
AcDbLine
 10
139.1355468208
 20
81.1772925892
 30
0.0
 11
139.1355468208
 21
99.6698936416
 31
0.0
  0
LINE
  5
CA
330
1F
100
AcDbEntity
  8
0
  6
Continuous
 62
     7
370
    25
100
AcDbLine
 10
183.1355468208
 20
116.6698936416
 30
0.0
 11
183.1355468208
 21
82.6698936416
 31
0.0
  0
LINE
  5
CB
330
1F
100
AcDbEntity
  8
0
  6
Continuous
 62
     7
370
    25
100
AcDbLine
 10
215.1355468208
 20
116.6698936416
 30
0.0
 11
215.1355468208
 21
82.6698936416
 31
0.0
  0
LINE
  5
CC
330
1F
100
AcDbEntity
  8
0
  6
Continuous
 62
     7
370
    25
100
AcDbLine
 10
207.1355468208
 20
116.6698936416
 30
0.0
 11
207.1355468208
 21
82.6698936416
 31
0.0
  0
LINE
  5
CD
330
1F
100
AcDbEntity
  8
0
  6
Continuous
 62
     7
370
    25
100
AcDbLine
 10
191.1355468208
 20
116.6698936416
 30
0.0
 11
191.1355468208
 21
82.6698936416
 31
0.0
  0
LINE
  5
CE
330
1F
100
AcDbEntity
  8
0
  6
Continuous
 62
     7
370
    25
100
AcDbLine
 10
199.1355468208
 20
116.6698936416
 30
0.0
 11
199.1355468208
 21
82.6698936416
 31
0.0
  0
LINE
  5
CF
330
1F
100
AcDbEntity
  8
0
  6
Continuous
 62
     7
370
    25
100
AcDbLine
 10
224.1355468208
 20
114.7748508485
 30
0.0
 11
224.1355468208
 21
84.5649364347
 31
0.0
  0
LINE
  5
D0
330
1F
100
AcDbEntity
  8
0
  6
Continuous
 62
     8
370
    25
100
AcDbLine
 10
223.2459783469
 20
83.5710527001
 30
0.0
 11
223.2459783469
 21
115.7687345832
 31
0.0
  0
LINE
  5
D1
330
1F
100
AcDbEntity
  8
0
  6
Continuous
 62
     7
370
    18
100
AcDbLine
 10
140.0268268279
 20
119.1112766371
 30
0.0
 11
161.6355468208
 21
119.7865491369
 31
0.0
  0
LINE
  5
D2
330
1F
100
AcDbEntity
  8
0
  6
Continuous
 62
     7
370
    18
100
AcDbLine
 10
140.0268268279
 20
80.2285106462
 30
0.0
 11
161.6355468208
 21
79.5532381464
 31
0.0
  0
LINE
  5
D3
330
1F
100
AcDbEntity
  8
0
  6
Continuous
 62
     7
370
    18
100
AcDbLine
 10
161.6355468208
 20
78.4086436416
 30
0.0
 11
161.6355468208
 21
120.9311436416
 31
0.0
  0
LINE
  5
D4
330
1F
100
AcDbEntity
  8
0
  6
CENTERX2
 62
     7
370
    18
100
AcDbLine
 10
226.1355468208
 20
99.6698936416
 30
0.0
 11
137.9255140284
 21
99.6698936416
 31
0.0
  0
CIRCLE
  5
D5
330
1F
100
AcDbEntity
  8
0
  6
Continuous
 62
     7
370
    25
100
AcDbCircle
 10
268.3563785606
 20
99.6698936416
 30
0.0
 40
15.10495720687356
  0
CIRCLE
  5
D6
330
1F
100
AcDbEntity
  8
0
  6
Continuous
 62
     7
370
    25
100
AcDbCircle
 10
268.3563785606
 20
99.6698936416
 30
0.0
 40
16.09884094154722
  0
CIRCLE
  5
D7
330
1F
100
AcDbEntity
  8
0
  6
Continuous
 62
     7
370
    25
100
AcDbCircle
 10
268.3563785606
 20
99.6698936416
 30
0.0
 40
13.5
  0
CIRCLE
  5
D8
330
1F
100
AcDbEntity
  8
0
  6
Continuous
 62
     7
370
    25
100
AcDbCircle
 10
268.3563785606
 20
99.6698936416
 30
0.0
 40
12.5
  0
CIRCLE
  5
D9
330
1F
100
AcDbEntity
  8
0
  6
Continuous
 62
     7
370
    25
100
AcDbCircle
 10
268.3563785606
 20
99.6698936416
 30
0.0
 40
17.0
  0
CIRCLE
  5
DA
330
1F
100
AcDbEntity
  8
0
  6
Continuous
 62
     7
370
    25
100
AcDbCircle
 10
268.3563785606
 20
99.6698936416
 30
0.0
 40
22.75
  0
SPLINE
  5
DB
330
1F
100
AcDbEntity
  8
0
  6
Continuous
 62
     7
370
    25
100
AcDbSpline
210
0.0
220
0.0
230
1.0
 70
     8
 71
     3
 72
    10
 73
     6
 74
     0
 42
0.000000001
 43
0.00000001
 40
0.0
 40
0.0
 40
0.0
 40
0.0
 40
0.5
 40
0.5
 40
1.0
 40
1.0
 40
1.0
 40
1.0
 10
245.6063785605575
 20
113.0932874002773
 30
0.0
 10
245.5321021601883
 20
113.0504039005298
 30
0.0
 10
245.4677481421999
 20
112.9869855425786
 30
0.0
 10
245.3794407595308
 20
112.8343548860524
 30
0.0
 10
245.3563785605575
 20
112.7460751090163
 30
0.0
 10
245.3563785605575
 20
112.6602746983851
 30
0.0
  0
SPLINE
  5
DC
330
1F
100
AcDbEntity
  8
0
  6
Continuous
 62
     7
370
    25
100
AcDbSpline
210
0.0
220
0.0
230
1.0
 70
    24
 71
     3
 72
    18
 73
    14
 74
     0
 42
0.000000001
 43
0.00000001
 40
0.0
 40
0.0
 40
0.0
 40
0.0
 40
0.25
 40
0.25
 40
0.5
 40
0.5
 40
0.5624999999999999
 40
0.5624999999999999
 40
0.6249999999999998
 40
0.6249999999999998
 40
0.7499999999999998
 40
0.7499999999999998
 40
1.0
 40
1.0
 40
1.0
 40
1.0
 10
268.1063785605574
 20
126.0836684570439
 30
0.0
 10
266.2690698018495
 20
125.0228977506194
 30
0.0
 10
264.418421634259
 20
123.9544255328858
 30
0.0
 10
260.6791487034599
 20
121.7955552997154
 30
0.0
 10
258.7902589358906
 20
120.7050042839398
 30
0.0
 10
256.4001731643885
 20
119.3250876203767
 30
0.0
 10
255.9197655724733
 20
119.0477241678637
 30
0.0
 10
254.9630975175107
 20
118.495391608806
 30
0.0
 10
254.4863895554847
 20
118.2201641386054
 30
0.0
 10
253.0609395402168
 20
117.3971801885741
 30
0.0
 10
252.1168821661451
 20
116.8521284095234
 30
0.0
 10
249.3012476341637
 20
115.2265210545443
 30
0.0
 10
247.4461540197183
 20
114.1554822568723
 30
0.0
 10
245.6063785605578
 20
113.0932874002775
 30
0.0
  0
SPLINE
  5
DD
330
1F
100
AcDbEntity
  8
0
  6
Continuous
 62
     7
370
    25
100
AcDbSpline
210
0.0
220
0.0
230
1.0
 70
     8
 71
     3
 72
    10
 73
     6
 74
     0
 42
0.000000001
 43
0.00000001
 40
0.0
 40
0.0
 40
0.0
 40
0.0
 40
0.5
 40
0.5
 40
1.0
 40
1.0
 40
1.0
 40
1.0
 10
268.6063785605574
 20
126.0836684570439
 30
0.0
 10
268.5321021601883
 20
126.1265519567915
 30
0.0
 10
268.445003242142
 20
126.1505749922294
 30
0.0
 10
268.2686675248596
 20
126.1507361006994
 30
0.0
 10
268.1806838958192
 20
126.1265686623595
 30
0.0
 10
268.1063785605574
 20
126.0836684570439
 30
0.0
  0
SPLINE
  5
DE
330
1F
100
AcDbEntity
  8
0
  6
Continuous
 62
     7
370
    25
100
AcDbSpline
210
0.0
220
0.0
230
1.0
 70
    24
 71
     3
 72
    18
 73
    14
 74
     0
 42
0.000000001
 43
0.00000001
 40
0.0
 40
0.0
 40
0.0
 40
0.0
 40
0.2499999999999999
 40
0.2499999999999999
 40
0.5
 40
0.5
 40
0.5625000000000001
 40
0.5625000000000001
 40
0.6250000000000002
 40
0.6250000000000002
 40
0.7500000000000001
 40
0.7500000000000001
 40
1.0
 40
1.0
 40
1.0
 40
1.0
 10
291.1063785605575
 20
113.0932874002773
 30
0.0
 10
289.2690698018495
 20
114.1540581067018
 30
0.0
 10
287.418421634259
 20
115.2225303244355
 30
0.0
 10
283.6791487034599
 20
117.3814005576058
 30
0.0
 10
281.7902589358906
 20
118.4719515733814
 30
0.0
 10
279.4001731643885
 20
119.8518682369445
 30
0.0
 10
278.9197655724732
 20
120.1292316894575
 30
0.0
 10
277.9630975175107
 20
120.6815642485153
 30
0.0
 10
277.4863895554847
 20
120.9567917187158
 30
0.0
 10
276.0609395402168
 20
121.7797756687471
 30
0.0
 10
275.1168821661452
 20
122.3248274477978
 30
0.0
 10
272.3012476341637
 20
123.9504348027769
 30
0.0
 10
270.4461540197183
 20
125.0214736004489
 30
0.0
 10
268.6063785605578
 20
126.0836684570437
 30
0.0
  0
SPLINE
  5
DF
330
1F
100
AcDbEntity
  8
0
  6
Continuous
 62
     7
370
    25
100
AcDbSpline
210
0.0
220
0.0
230
1.0
 70
     8
 71
     3
 72
    10
 73
     6
 74
     0
 42
0.000000001
 43
0.00000001
 40
0.0
 40
0.0
 40
0.0
 40
0.0
 40
0.5
 40
0.5
 40
1.0
 40
1.0
 40
1.0
 40
1.0
 10
291.3563785605574
 20
112.6602746983851
 30
0.0
 10
291.3563785605575
 20
112.7460416978803
 30
0.0
 10
291.3336336604995
 20
112.8334830912698
 30
0.0
 10
291.245605325886
 20
112.9862748562657
 30
0.0
 10
291.1806838958191
 20
113.0503871949618
 30
0.0
 10
291.1063785605575
 20
113.0932874002773
 30
0.0
  0
SPLINE
  5
E0
330
1F
100
AcDbEntity
  8
0
  6
Continuous
 62
     7
370
    25
100
AcDbSpline
210
0.0
220
0.0
230
1.0
 70
    24
 71
     3
 72
    20
 73
    16
 74
     0
 42
0.000000001
 43
0.00000001
 40
0.0
 40
0.0
 40
0.0
 40
0.0
 40
0.1249999999999999
 40
0.1249999999999999
 40
0.2499999999999999
 40
0.2499999999999999
 40
0.5
 40
0.5
 40
0.5625
 40
0.5625
 40
0.6249999999999999
 40
0.6249999999999999
 40
0.75
 40
0.75
 40
1.0
 40
1.0
 40
1.0
 40
1.0
 10
291.3563785605574
 20
86.6795125848519
 30
0.0
 10
291.3563785605574
 20
87.73918323027297
 30
0.0
 10
291.3563785605575
 20
88.81181952645109
 30
0.0
 10
291.3563785605574
 20
90.96500273658425
 30
0.0
 10
291.3563785605574
 20
92.0446921952195
 30
0.0
 10
291.3563785605574
 20
95.29457495189067
 30
0.0
 10
291.3563785605575
 20
97.47579450957957
 30
0.0
 10
291.3563785605574
 20
100.2237967452683
 30
0.0
 10
291.3563785605575
 20
100.7744551476717
 30
0.0
 10
291.3563785605574
 20
101.877895899444
 30
0.0
 10
291.3563785605574
 20
102.4318321680278
 30
0.0
 10
291.3563785605574
 20
104.0880928967761
 30
0.0
 10
291.3563785605574
 20
105.1810395622004
 30
0.0
 10
291.3563785605575
 20
108.430753984192
 30
0.0
 10
291.3563785605574
 20
110.5585715361881
 30
0.0
 10
291.3563785605574
 20
112.6602746983851
 30
0.0
  0
SPLINE
  5
E1
330
1F
100
AcDbEntity
  8
0
  6
Continuous
 62
     7
370
    25
100
AcDbSpline
210
0.0
220
0.0
230
1.0
 70
     8
 71
     3
 72
    10
 73
     6
 74
     0
 42
0.000000001
 43
0.00000001
 40
0.0
 40
0.0
 40
0.0
 40
0.0
 40
0.5
 40
0.5
 40
1.0
 40
1.0
 40
1.0
 40
1.0
 10
291.1063785605575
 20
86.2464998829597
 30
0.0
 10
291.1806549609265
 20
86.28938338270726
 30
0.0
 10
291.245008978915
 20
86.35280174065845
 30
0.0
 10
291.333316361584
 20
86.5054323971846
 30
0.0
 10
291.3563785605574
 20
86.59371217422067
 30
0.0
 10
291.3563785605574
 20
86.67951258485192
 30
0.0
  0
SPLINE
  5
E2
330
1F
100
AcDbEntity
  8
0
  6
Continuous
 62
     7
370
    25
100
AcDbSpline
210
0.0
220
0.0
230
1.0
 70
    24
 71
     3
 72
    18
 73
    14
 74
     0
 42
0.000000001
 43
0.00000001
 40
0.0
 40
0.0
 40
0.0
 40
0.0
 40
0.2499999999999998
 40
0.2499999999999998
 40
0.4999999999999997
 40
0.4999999999999997
 40
0.5624999999999998
 40
0.5624999999999998
 40
0.6249999999999998
 40
0.6249999999999998
 40
0.7499999999999999
 40
0.7499999999999999
 40
1.0
 40
1.0
 40
1.0
 40
1.0
 10
268.6063785605575
 20
73.25611882619313
 30
0.0
 10
270.4436873192655
 20
74.31688953261765
 30
0.0
 10
272.2943354868559
 20
75.38536175035127
 30
0.0
 10
276.033608417655
 20
77.54423198352163
 30
0.0
 10
277.9224981852242
 20
78.63478299929726
 30
0.0
 10
280.3125839567263
 20
80.0146996628603
 30
0.0
 10
280.7929915486416
 20
80.29206311537332
 30
0.0
 10
281.7496596036041
 20
80.84439567443107
 30
0.0
 10
282.2263675656302
 20
81.11962314463162
 30
0.0
 10
283.6518175808981
 20
81.9426070946629
 30
0.0
 10
284.5958749549698
 20
82.48765887371363
 30
0.0
 10
287.4115094869512
 20
84.11326622869271
 30
0.0
 10
289.2666031013966
 20
85.1843050263647
 30
0.0
 10
291.1063785605571
 20
86.24649988295948
 30
0.0
  0
SPLINE
  5
E3
330
1F
100
AcDbEntity
  8
0
  6
Continuous
 62
     7
370
    25
100
AcDbSpline
210
0.0
220
0.0
230
1.0
 70
     8
 71
     3
 72
    10
 73
     6
 74
     0
 42
0.000000001
 43
0.00000001
 40
0.0
 40
0.0
 40
0.0
 40
0.0
 40
0.5
 40
0.5
 40
1.0
 40
1.0
 40
1.0
 40
1.0
 10
268.1063785605575
 20
73.25611882619313
 30
0.0
 10
268.1806549609266
 20
73.21323532644558
 30
0.0
 10
268.2677538789728
 20
73.1892122910076
 30
0.0
 10
268.4440895962553
 20
73.18905118253757
 30
0.0
 10
268.5320732252957
 20
73.21321862087751
 30
0.0
 10
268.6063785605575
 20
73.25611882619313
 30
0.0
  0
SPLINE
  5
E4
330
1F
100
AcDbEntity
  8
0
  6
Continuous
 62
     7
370
    25
100
AcDbSpline
210
0.0
220
0.0
230
1.0
 70
    24
 71
     3
 72
    18
 73
    14
 74
     0
 42
0.000000001
 43
0.00000001
 40
0.0
 40
0.0
 40
0.0
 40
0.0
 40
0.2500000000000001
 40
0.2500000000000001
 40
0.5000000000000001
 40
0.5000000000000001
 40
0.5625000000000001
 40
0.5625000000000001
 40
0.6250000000000001
 40
0.6250000000000001
 40
0.75
 40
0.75
 40
1.0
 40
1.0
 40
1.0
 40
1.0
 10
245.6063785605575
 20
86.24649988295971
 30
0.0
 10
247.4436873192655
 20
85.18572917653519
 30
0.0
 10
249.2943354868559
 20
84.11725695880158
 30
0.0
 10
253.033608417655
 20
81.95838672563121
 30
0.0
 10
254.9224981852242
 20
80.86783570985557
 30
0.0
 10
257.3125839567264
 20
79.48791904629256
 30
0.0
 10
257.7929915486417
 20
79.21055559377952
 30
0.0
 10
258.7496596036042
 20
78.65822303472179
 30
0.0
 10
259.2263675656301
 20
78.38299556452122
 30
0.0
 10
260.6518175808981
 20
77.56001161448992
 30
0.0
 10
261.5958749549697
 20
77.01495983543921
 30
0.0
 10
264.4115094869512
 20
75.3893524804601
 30
0.0
 10
266.2666031013966
 20
74.31831368278813
 30
0.0
 10
268.1063785605571
 20
73.25611882619334
 30
0.0
  0
SPLINE
  5
E5
330
1F
100
AcDbEntity
  8
0
  6
Continuous
 62
     7
370
    25
100
AcDbSpline
210
0.0
220
0.0
230
1.0
 70
     8
 71
     3
 72
    10
 73
     6
 74
     0
 42
0.000000001
 43
0.00000001
 40
0.0
 40
0.0
 40
0.0
 40
0.0
 40
0.5
 40
0.5
 40
1.0
 40
1.0
 40
1.0
 40
1.0
 10
245.3563785605575
 20
86.67951258485193
 30
0.0
 10
245.3563785605575
 20
86.59374558535671
 30
0.0
 10
245.3791234606154
 20
86.50630419196727
 30
0.0
 10
245.4671517952289
 20
86.35351242697129
 30
0.0
 10
245.5320732252957
 20
86.28940008827527
 30
0.0
 10
245.6063785605575
 20
86.24649988295971
 30
0.0
  0
SPLINE
  5
E6
330
1F
100
AcDbEntity
  8
0
  6
Continuous
 62
     7
370
    25
100
AcDbSpline
210
0.0
220
0.0
230
1.0
 70
    24
 71
     3
 72
    20
 73
    16
 74
     0
 42
0.000000001
 43
0.00000001
 40
0.0
 40
0.0
 40
0.0
 40
0.0
 40
0.125
 40
0.125
 40
0.2500000000000001
 40
0.2500000000000001
 40
0.4999999999999999
 40
0.4999999999999999
 40
0.5624999999999999
 40
0.5624999999999999
 40
0.6249999999999999
 40
0.6249999999999999
 40
0.7499999999999999
 40
0.7499999999999999
 40
1.0
 40
1.0
 40
1.0
 40
1.0
 10
245.3563785605575
 20
86.67951258485195
 30
0.0
 10
245.3563785605574
 20
87.739183230273
 30
0.0
 10
245.3563785605575
 20
88.81181952645112
 30
0.0
 10
245.3563785605575
 20
90.96500273658428
 30
0.0
 10
245.3563785605575
 20
92.04469219521953
 30
0.0
 10
245.3563785605575
 20
95.2945749518907
 30
0.0
 10
245.3563785605575
 20
97.47579450957959
 30
0.0
 10
245.3563785605575
 20
100.2237967452684
 30
0.0
 10
245.3563785605575
 20
100.7744551476718
 30
0.0
 10
245.3563785605575
 20
101.8778958994441
 30
0.0
 10
245.3563785605575
 20
102.4318321680278
 30
0.0
 10
245.3563785605575
 20
104.0880928967761
 30
0.0
 10
245.3563785605575
 20
105.1810395622004
 30
0.0
 10
245.3563785605575
 20
108.430753984192
 30
0.0
 10
245.3563785605575
 20
110.5585715361881
 30
0.0
 10
245.3563785605575
 20
112.6602746983851
 30
0.0
  0
INSERT
  5
F2
330
1F
100
AcDbEntity
  8
0
  6
Continuous
 62
     7
370
    18
100
AcDbBlockReference
  2
SW_CENTERMARKSYMBOL_0
 10
268.3563785606
 20
99.6698936416
 30
0.0
  0
INSERT
  5
FE
330
1F
100
AcDbEntity
  8
0
  6
Continuous
 62
     7
370
    18
100
AcDbBlockReference
  2
SW_CENTERMARKSYMBOL_1
 10
268.3563785606
 20
99.6698936416
 30
0.0
  0
LINE
  5
FF
330
1F
100
AcDbEntity
  8
0
  6
Continuous
 62
     7
370
    25
100
AcDbLine
 10
171.9912092535
 20
140.5862774566
 30
0.0
 11
172.1355468208
 21
140.8362774566
 31
0.0
  0
LINE
  5
100
330
1F
100
AcDbEntity
  8
0
  6
Continuous
 62
     7
370
    25
100
AcDbLine
 10
172.1355468208
 20
186.3362774566
 30
0.0
 11
171.9912092535
 21
186.5862774566
 31
0.0
  0
LINE
  5
101
330
1F
100
AcDbEntity
  8
0
  6
Continuous
 62
     7
370
    25
100
AcDbLine
 10
162.2798843881
 20
186.5862774566
 30
0.0
 11
162.1355468208
 21
186.3362774566
 31
0.0
  0
LINE
  5
102
330
1F
100
AcDbEntity
  8
0
  6
Continuous
 62
     7
370
    25
100
AcDbLine
 10
162.1355468208
 20
140.8362774566
 30
0.0
 11
162.2798843881
 21
140.5862774566
 31
0.0
  0
LINE
  5
103
330
1F
100
AcDbEntity
  8
0
  6
Continuous
 62
     7
370
    25
100
AcDbLine
 10
162.1355468208
 20
184.8631524566
 30
0.0
 11
141.134570973
 21
184.2068719614
 31
0.0
  0
LINE
  5
104
330
1F
100
AcDbEntity
  8
0
  6
Continuous
 62
     7
370
    25
100
AcDbLine
 10
141.134570973
 20
142.9656829519
 30
0.0
 11
162.1355468208
 21
142.3094024566
 31
0.0
  0
LINE
  5
105
330
1F
100
AcDbEntity
  8
0
  6
Continuous
 62
     7
370
    25
100
AcDbLine
 10
141.134570973
 20
184.2068719614
 30
0.0
 11
139.1355468208
 21
182.0788785091
 31
0.0
  0
LINE
  5
106
330
1F
100
AcDbEntity
  8
0
  6
Continuous
 62
     7
370
    25
100
AcDbLine
 10
139.1355468208
 20
145.0936764042
 30
0.0
 11
141.134570973
 21
142.9656829519
 31
0.0
  0
LINE
  5
107
330
1F
100
AcDbEntity
  8
0
  6
Continuous
 62
     7
370
    25
100
AcDbLine
 10
207.1355468208
 20
146.5862774566
 30
0.0
 11
215.1355468208
 21
147.5862774566
 31
0.0
  0
LINE
  5
108
330
1F
100
AcDbEntity
  8
0
  6
Continuous
 62
     7
370
    25
100
AcDbLine
 10
215.1355468208
 20
179.5862774566
 30
0.0
 11
207.1355468208
 21
180.5862774566
 31
0.0
  0
LINE
  5
109
330
1F
100
AcDbEntity
  8
0
  6
Continuous
 62
     7
370
    25
100
AcDbLine
 10
183.1355468208
 20
180.5862774566
 30
0.0
 11
172.1355468208
 21
180.5862774566
 31
0.0
  0
LINE
  5
10A
330
1F
100
AcDbEntity
  8
0
  6
Continuous
 62
     7
370
    25
100
AcDbLine
 10
172.1355468208
 20
146.5862774566
 30
0.0
 11
183.1355468208
 21
146.5862774566
 31
0.0
  0
LINE
  5
10B
330
1F
100
AcDbEntity
  8
0
  6
Continuous
 62
     7
370
    25
100
AcDbLine
 10
215.1355468208
 20
146.5862774566
 30
0.0
 11
223.2459783469
 21
147.4874365151
 31
0.0
  0
LINE
  5
10C
330
1F
100
AcDbEntity
  8
0
  6
Continuous
 62
     7
370
    25
100
AcDbLine
 10
223.2459783469
 20
179.6851183982
 30
0.0
 11
215.1355468208
 21
180.5862774566
 31
0.0
  0
LINE
  5
10D
330
1F
100
AcDbEntity
  8
0
  6
Continuous
 62
     7
370
    25
100
AcDbLine
 10
191.1355468208
 20
146.5862774566
 30
0.0
 11
199.1355468208
 21
147.5862774566
 31
0.0
  0
LINE
  5
10E
330
1F
100
AcDbEntity
  8
0
  6
Continuous
 62
     7
370
    25
100
AcDbLine
 10
199.1355468208
 20
179.5862774566
 30
0.0
 11
191.1355468208
 21
180.5862774566
 31
0.0
  0
LINE
  5
10F
330
1F
100
AcDbEntity
  8
0
  6
Continuous
 62
     7
370
    25
100
AcDbLine
 10
183.1355468208
 20
146.5862774566
 30
0.0
 11
191.1355468208
 21
147.5862774566
 31
0.0
  0
LINE
  5
110
330
1F
100
AcDbEntity
  8
0
  6
Continuous
 62
     7
370
    25
100
AcDbLine
 10
191.1355468208
 20
179.5862774566
 30
0.0
 11
183.1355468208
 21
180.5862774566
 31
0.0
  0
LINE
  5
111
330
1F
100
AcDbEntity
  8
0
  6
Continuous
 62
     7
370
    25
100
AcDbLine
 10
199.1355468208
 20
146.5862774566
 30
0.0
 11
207.1355468208
 21
147.5862774566
 31
0.0
  0
LINE
  5
112
330
1F
100
AcDbEntity
  8
0
  6
Continuous
 62
     7
370
    25
100
AcDbLine
 10
207.1355468208
 20
179.5862774566
 30
0.0
 11
199.1355468208
 21
180.5862774566
 31
0.0
  0
ARC
  5
113
330
1F
100
AcDbEntity
  8
0
  6
Continuous
 62
     7
370
    25
100
AcDbCircle
 10
223.1355468208
 20
178.6912346635
 30
0.0
 40
1.000000000000009
100
AcDbArc
 50
0.0
 51
83.6598082541
  0
ARC
  5
114
330
1F
100
AcDbEntity
  8
0
  6
Continuous
 62
     7
370
    25
100
AcDbCircle
 10
223.1355468208
 20
148.4813202498
 30
0.0
 40
1.000000000000009
100
AcDbArc
 50
276.3401917459
 51
0.0
  0
SPLINE
  5
115
330
1F
100
AcDbEntity
  8
0
  6
Continuous
 62
     7
370
    25
100
AcDbSpline
210
0.0
220
0.0
230
1.0
 70
     8
 71
     3
 72
    10
 73
     6
 74
     0
 42
0.000000001
 43
0.00000001
 40
0.0
 40
0.0
 40
0.0
 40
0.0
 40
0.5
 40
0.5
 40
1.0
 40
1.0
 40
1.0
 40
1.0
 10
170.0195824000633
 20
140.8362774566474
 30
0.0
 10
169.9952305726236
 20
140.7620010562783
 30
0.0
 10
169.9816360583516
 20
140.6976470382899
 30
0.0
 10
169.9815447986265
 20
140.6093396556208
 30
0.0
 10
169.9952210861957
 20
140.5862774566474
 30
0.0
 10
170.0195824000606
 20
140.5862774566474
 30
0.0
  0
SPLINE
  5
116
330
1F
100
AcDbEntity
  8
0
  6
Continuous
 62
     7
370
    25
100
AcDbSpline
210
0.0
220
0.0
230
1.0
 70
     8
 71
     3
 72
    18
 73
    14
 74
     0
 42
0.000000001
 43
0.00000001
 40
0.0
 40
0.0
 40
0.0
 40
0.0
 40
0.25
 40
0.25
 40
0.5
 40
0.5
 40
0.5624999999999999
 40
0.5624999999999999
 40
0.6249999999999998
 40
0.6249999999999998
 40
0.7499999999999998
 40
0.7499999999999998
 40
1.0
 40
1.0
 40
1.0
 40
1.0
 10
170.0195824000606
 20
163.3362774566474
 30
0.0
 10
170.6219517343748
 20
161.4989686979394
 30
0.0
 10
171.1170893140495
 20
159.648320530349
 30
0.0
 10
171.8020813068601
 20
155.9090475995498
 30
0.0
 10
171.9898054245072
 20
154.0201578319806
 30
0.0
 10
171.9915502587368
 20
151.6300720604785
 30
0.0
 10
171.9803429597591
 20
151.1496644685632
 30
0.0
 10
171.9351512562311
 20
150.1929964136007
 30
0.0
 10
171.9012200281528
 20
149.7162884515747
 30
0.0
 10
171.7668445777257
 20
148.2908384363068
 30
0.0
 10
171.6337432436138
 20
147.3467810622351
 30
0.0
 10
171.1191549468975
 20
144.5311465302537
 30
0.0
 10
170.6227604523993
 20
142.6760529158083
 30
0.0
 10
170.0195824000608
 20
140.8362774566478
 30
0.0
  0
SPLINE
  5
117
330
1F
100
AcDbEntity
  8
0
  6
Continuous
 62
     7
370
    25
100
AcDbSpline
210
0.0
220
0.0
230
1.0
 70
     8
 71
     3
 72
    10
 73
     6
 74
     0
 42
0.000000001
 43
0.00000001
 40
0.0
 40
0.0
 40
0.0
 40
0.0
 40
0.5
 40
0.5
 40
1.0
 40
1.0
 40
1.0
 40
1.0
 10
170.0195824000633
 20
163.8362774566474
 30
0.0
 10
169.9952305726236
 20
163.7620010562783
 30
0.0
 10
169.9816360583516
 20
163.6749021382321
 30
0.0
 10
169.9815447986265
 20
163.4985664209496
 30
0.0
 10
169.9952210861957
 20
163.4105827919092
 30
0.0
 10
170.0195824000606
 20
163.3362774566474
 30
0.0
  0
SPLINE
  5
118
330
1F
100
AcDbEntity
  8
0
  6
Continuous
 62
     7
370
    25
100
AcDbSpline
210
0.0
220
0.0
230
1.0
 70
     8
 71
     3
 72
    18
 73
    14
 74
     0
 42
0.000000001
 43
0.00000001
 40
0.0
 40
0.0
 40
0.0
 40
0.0
 40
0.2499999999999999
 40
0.2499999999999999
 40
0.5
 40
0.5
 40
0.5625000000000001
 40
0.5625000000000001
 40
0.6250000000000002
 40
0.6250000000000002
 40
0.7500000000000001
 40
0.7500000000000001
 40
1.0
 40
1.0
 40
1.0
 40
1.0
 10
170.0195824000606
 20
186.3362774566474
 30
0.0
 10
170.6219517343748
 20
184.4989686979394
 30
0.0
 10
171.1170893140495
 20
182.648320530349
 30
0.0
 10
171.8020813068601
 20
178.9090475995498
 30
0.0
 10
171.9898054245072
 20
177.0201578319806
 30
0.0
 10
171.9915502587369
 20
174.6300720604785
 30
0.0
 10
171.9803429597591
 20
174.1496644685632
 30
0.0
 10
171.9351512562311
 20
173.1929964136007
 30
0.0
 10
171.9012200281528
 20
172.7162884515747
 30
0.0
 10
171.7668445777257
 20
171.2908384363067
 30
0.0
 10
171.6337432436138
 20
170.3467810622351
 30
0.0
 10
171.1191549468975
 20
167.5311465302536
 30
0.0
 10
170.6227604523993
 20
165.6760529158083
 30
0.0
 10
170.0195824000608
 20
163.8362774566478
 30
0.0
  0
SPLINE
  5
119
330
1F
100
AcDbEntity
  8
0
  6
Continuous
 62
     7
370
    25
100
AcDbSpline
210
0.0
220
0.0
230
1.0
 70
     8
 71
     3
 72
    10
 73
     6
 74
     0
 42
0.000000001
 43
0.00000001
 40
0.0
 40
0.0
 40
0.0
 40
0.0
 40
0.5
 40
0.5
 40
1.0
 40
1.0
 40
1.0
 40
1.0
 10
170.0195824000606
 20
186.5862774566474
 30
0.0
 10
169.9952305726209
 20
186.5862774566474
 30
0.0
 10
169.9816360583515
 20
186.5635325565894
 30
0.0
 10
169.9815447986266
 20
186.475504221976
 30
0.0
 10
169.9952210861958
 20
186.4105827919091
 30
0.0
 10
170.0195824000606
 20
186.3362774566474
 30
0.0
  0
SPLINE
  5
11A
330
1F
100
AcDbEntity
  8
0
  6
Continuous
 62
     7
370
    25
100
AcDbSpline
210
0.0
220
0.0
230
1.0
 70
    24
 71
     3
 72
    13
 73
     9
 74
     0
 42
0.000000001
 43
0.00000001
 40
0.0
 40
0.0
 40
0.0
 40
0.0
 40
0.0901872170697222
 40
0.2232555435525516
 40
0.4160347221708485
 40
0.6094638190722544
 40
0.8045262395907814
 40
1.0
 40
1.0
 40
1.0
 40
1.0
 10
171.9827520535121
 20
186.5862774566474
 30
0.0
 10
171.9826229489418
 20
186.5862774566474
 30
0.0
 10
171.982303354747
 20
186.5862774566474
 30
0.0
 10
171.8793281062885
 20
186.5862774566474
 30
0.0
 10
171.6460511340101
 20
186.5862774566474
 30
0.0
 10
171.2326998309978
 20
186.5862774566474
 30
0.0
 10
170.6958019043105
 20
186.5862774566474
 30
0.0
 10
170.2451471218061
 20
186.5862774566474
 30
0.0
 10
170.0195824000606
 20
186.5862774566474
 30
0.0
  0
SPLINE
  5
11B
330
1F
100
AcDbEntity
  8
0
  6
Continuous
 62
     7
370
    25
100
AcDbSpline
210
0.0
220
0.0
230
1.0
 70
    24
 71
     3
 72
    12
 73
     8
 74
     0
 42
0.000000001
 43
0.00000001
 40
0.0
 40
0.0
 40
0.0
 40
0.0
 40
0.1930684858974376
 40
0.3864956481800411
 40
0.581316565669265
 40
0.7767648458193409
 40
1.0
 40
1.0
 40
1.0
 40
1.0
 10
170.0195824000606
 20
140.5862774566474
 30
0.0
 10
170.2423853315694
 20
140.5862774566474
 30
0.0
 10
170.688405110663
 20
140.5862774566474
 30
0.0
 10
171.2261698240365
 20
140.5862774566474
 30
0.0
 10
171.6386783610285
 20
140.5862774566474
 30
0.0
 10
171.9350150363896
 20
140.5862774566474
 30
0.0
 10
171.9608167886874
 20
140.5862774566474
 30
0.0
 10
171.9745738606898
 20
140.5862774566474
 30
0.0
  0
LINE
  5
11C
330
1F
100
AcDbEntity
  8
0
  6
Continuous
 62
     7
370
    25
100
AcDbLine
 10
172.1355468208
 20
186.3362774566
 30
0.0
 11
172.1355468208
 21
140.8362774566
 31
0.0
  0
SPLINE
  5
11D
330
1F
100
AcDbEntity
  8
0
  6
Continuous
 62
     7
370
    25
100
AcDbSpline
210
0.0
220
0.0
230
1.0
 70
    24
 71
     3
 72
    13
 73
     9
 74
     0
 42
0.000000001
 43
0.00000001
 40
0.0
 40
0.0
 40
0.0
 40
0.0
 40
0.0911799125481837
 40
0.2242149254059738
 40
0.4167603394740046
 40
0.60995285405281
 40
0.8047716189663395
 40
1.0
 40
1.0
 40
1.0
 40
1.0
 10
162.2882296033866
 20
186.5862774566474
 30
0.0
 10
162.2884754556084
 20
186.5862774566474
 30
0.0
 10
162.2890800157143
 20
186.5862774566474
 30
0.0
 10
162.3926961453735
 20
186.5862774566474
 30
0.0
 10
162.626390909453
 20
186.5862774566474
 30
0.0
 10
163.0396429945127
 20
186.5862774566474
 30
0.0
 10
163.5761059147744
 20
186.5862774566474
 30
0.0
 10
164.0262185675763
 20
186.5862774566474
 30
0.0
 10
164.2515112415578
 20
186.5862774566474
 30
0.0
  0
SPLINE
  5
11E
330
1F
100
AcDbEntity
  8
0
  6
Continuous
 62
     7
370
    25
100
AcDbSpline
210
0.0
220
0.0
230
1.0
 70
     8
 71
     3
 72
    10
 73
     6
 74
     0
 42
0.000000001
 43
0.00000001
 40
0.0
 40
0.0
 40
0.0
 40
0.0
 40
0.5
 40
0.5
 40
1.0
 40
1.0
 40
1.0
 40
1.0
 10
164.2515112415578
 20
186.3362774566474
 30
0.0
 10
164.2758630689976
 20
186.4105538570166
 30
0.0
 10
164.2894575832669
 20
186.4749078750053
 30
0.0
 10
164.2895488429918
 20
186.5632152576741
 30
0.0
 10
164.2758725554226
 20
186.5862774566474
 30
0.0
 10
164.2515112415578
 20
186.5862774566474
 30
0.0
  0
SPLINE
  5
11F
330
1F
100
AcDbEntity
  8
0
  6
Continuous
 62
     7
370
    25
100
AcDbSpline
210
0.0
220
0.0
230
1.0
 70
     8
 71
     3
 72
    18
 73
    14
 74
     0
 42
0.000000001
 43
0.00000001
 40
0.0
 40
0.0
 40
0.0
 40
0.0
 40
0.2500000000000002
 40
0.2500000000000002
 40
0.5000000000000006
 40
0.5000000000000006
 40
0.5625000000000006
 40
0.5625000000000006
 40
0.6250000000000007
 40
0.6250000000000007
 40
0.7500000000000004
 40
0.7500000000000004
 40
1.0
 40
1.0
 40
1.0
 40
1.0
 10
164.2515112415578
 20
186.3362774566476
 30
0.0
 10
163.6491419072439
 20
184.4989686979403
 30
0.0
 10
163.1540043275693
 20
182.6483205303505
 30
0.0
 10
162.4690123347587
 20
178.9090475995526
 30
0.0
 10
162.2812882171115
 20
177.0201578319841
 30
0.0
 10
162.2795433828815
 20
174.6300720604828
 30
0.0
 10
162.2907506818591
 20
174.1496644685677
 30
0.0
 10
162.335942385387
 20
173.1929964136054
 30
0.0
 10
162.3698736134652
 20
172.7162884515796
 30
0.0
 10
162.504249063892
 20
171.2908384363122
 30
0.0
 10
162.6373503980037
 20
170.3467810622408
 30
0.0
 10
163.1519386947194
 20
167.5311465302602
 30
0.0
 10
163.6483331892171
 20
165.6760529158154
 30
0.0
 10
164.2515112415551
 20
163.8362774566556
 30
0.0
  0
SPLINE
  5
120
330
1F
100
AcDbEntity
  8
0
  6
Continuous
 62
     7
370
    25
100
AcDbSpline
210
0.0
220
0.0
230
1.0
 70
     8
 71
     3
 72
    10
 73
     6
 74
     0
 42
0.000000001
 43
0.00000001
 40
0.0
 40
0.0
 40
0.0
 40
0.0
 40
0.5
 40
0.5
 40
1.0
 40
1.0
 40
1.0
 40
1.0
 10
164.2515112415578
 20
163.3362774566474
 30
0.0
 10
164.2758630689981
 20
163.410553857018
 30
0.0
 10
164.2894575832674
 20
163.4976527750665
 30
0.0
 10
164.2895488429913
 20
163.6739884923521
 30
0.0
 10
164.275872555423
 20
163.7619721213849
 30
0.0
 10
164.2515112415576
 20
163.8362774566479
 30
0.0
  0
SPLINE
  5
121
330
1F
100
AcDbEntity
  8
0
  6
Continuous
 62
     7
370
    25
100
AcDbSpline
210
0.0
220
0.0
230
1.0
 70
     8
 71
     3
 72
    18
 73
    14
 74
     0
 42
0.000000001
 43
0.00000001
 40
0.0
 40
0.0
 40
0.0
 40
0.0
 40
0.2499999999999999
 40
0.2499999999999999
 40
0.4999999999999998
 40
0.4999999999999998
 40
0.5624999999999999
 40
0.5624999999999999
 40
0.6249999999999999
 40
0.6249999999999999
 40
0.75
 40
0.75
 40
1.0
 40
1.0
 40
1.0
 40
1.0
 10
164.2515112415578
 20
163.3362774566476
 30
0.0
 10
163.6491419072439
 20
161.4989686979402
 30
0.0
 10
163.1540043275693
 20
159.6483205303505
 30
0.0
 10
162.4690123347587
 20
155.9090475995526
 30
0.0
 10
162.2812882171115
 20
154.0201578319841
 30
0.0
 10
162.2795433828815
 20
151.6300720604829
 30
0.0
 10
162.2907506818591
 20
151.1496644685677
 30
0.0
 10
162.335942385387
 20
150.1929964136054
 30
0.0
 10
162.3698736134652
 20
149.7162884515796
 30
0.0
 10
162.504249063892
 20
148.2908384363121
 30
0.0
 10
162.6373503980037
 20
147.3467810622408
 30
0.0
 10
163.1519386947194
 20
144.5311465302602
 30
0.0
 10
163.6483331892171
 20
142.6760529158155
 30
0.0
 10
164.2515112415551
 20
140.8362774566556
 30
0.0
  0
SPLINE
  5
122
330
1F
100
AcDbEntity
  8
0
  6
Continuous
 62
     7
370
    25
100
AcDbSpline
210
0.0
220
0.0
230
1.0
 70
     8
 71
     3
 72
    10
 73
     6
 74
     0
 42
0.000000001
 43
0.00000001
 40
0.0
 40
0.0
 40
0.0
 40
0.0
 40
0.5
 40
0.5
 40
1.0
 40
1.0
 40
1.0
 40
1.0
 10
164.2515112415578
 20
140.5862774566474
 30
0.0
 10
164.275863068998
 20
140.5862774566474
 30
0.0
 10
164.2894575832674
 20
140.6090223567062
 30
0.0
 10
164.2895488429913
 20
140.6970506913228
 30
0.0
 10
164.275872555423
 20
140.7619721213848
 30
0.0
 10
164.2515112415576
 20
140.8362774566479
 30
0.0
  0
SPLINE
  5
123
330
1F
100
AcDbEntity
  8
0
  6
Continuous
 62
     7
370
    25
100
AcDbSpline
210
0.0
220
0.0
230
1.0
 70
    24
 71
     3
 72
    12
 73
     8
 74
     0
 42
0.000000001
 43
0.00000001
 40
0.0
 40
0.0
 40
0.0
 40
0.0
 40
0.1928333944974432
 40
0.3860240401555345
 40
0.5806025525200526
 40
0.7758056425329571
 40
1.0
 40
1.0
 40
1.0
 40
1.0
 10
164.2515112415578
 20
140.5862774566474
 30
0.0
 10
164.0289682343073
 20
140.5862774566474
 30
0.0
 10
163.5834699273824
 20
140.5862774566474
 30
0.0
 10
163.0461576447495
 20
140.5862774566474
 30
0.0
 10
162.6337096078914
 20
140.5862774566474
 30
0.0
 10
162.3365951740128
 20
140.5862774566474
 30
0.0
 10
162.3102010490499
 20
140.5862774566474
 30
0.0
 10
162.2960917264431
 20
140.5862774566474
 30
0.0
  0
LINE
  5
124
330
1F
100
AcDbEntity
  8
0
  6
Continuous
 62
     7
370
    25
100
AcDbLine
 10
162.1355468208
 20
186.3362774566
 30
0.0
 11
162.1355468208
 21
140.8362774566
 31
0.0
  0
LINE
  5
125
330
1F
100
AcDbEntity
  8
0
  6
Continuous
 62
     7
370
    25
100
AcDbLine
 10
170.0195824001
 20
163.3362774566
 30
0.0
 11
164.2515112416
 21
163.3362774566
 31
0.0
  0
LINE
  5
126
330
1F
100
AcDbEntity
  8
0
  6
Continuous
 62
     7
370
    25
100
AcDbLine
 10
164.2515112416
 20
163.8362774567
 30
0.0
 11
170.0195824001
 21
163.8362774566
 31
0.0
  0
LINE
  5
127
330
1F
100
AcDbEntity
  8
0
  6
Continuous
 62
     7
370
    25
100
AcDbLine
 10
164.2515112416
 20
140.8362774567
 30
0.0
 11
170.0195824001
 21
140.8362774566
 31
0.0
  0
LINE
  5
128
330
1F
100
AcDbEntity
  8
0
  6
Continuous
 62
     7
370
    25
100
AcDbLine
 10
170.0195824001
 20
186.3362774566
 30
0.0
 11
164.2515112416
 21
186.3362774566
 31
0.0
  0
LINE
  5
129
330
1F
100
AcDbEntity
  8
0
  6
Continuous
 62
     7
370
    25
100
AcDbLine
 10
141.134570973
 20
184.2068719614
 30
0.0
 11
141.134570973
 21
142.9656829519
 31
0.0
  0
LINE
  5
12A
330
1F
100
AcDbEntity
  8
0
  6
Continuous
 62
     7
370
    25
100
AcDbLine
 10
139.1355468208
 20
145.0936764042
 30
0.0
 11
139.1355468208
 21
182.0788785091
 31
0.0
  0
LINE
  5
12B
330
1F
100
AcDbEntity
  8
0
  6
Continuous
 62
     7
370
    25
100
AcDbLine
 10
207.1355468208
 20
180.5862774566
 30
0.0
 11
207.1355468208
 21
146.5862774566
 31
0.0
  0
LINE
  5
12C
330
1F
100
AcDbEntity
  8
0
  6
Continuous
 62
     7
370
    25
100
AcDbLine
 10
183.1355468208
 20
180.5862774566
 30
0.0
 11
183.1355468208
 21
146.5862774566
 31
0.0
  0
LINE
  5
12D
330
1F
100
AcDbEntity
  8
0
  6
Continuous
 62
     7
370
    25
100
AcDbLine
 10
215.1355468208
 20
180.5862774566
 30
0.0
 11
215.1355468208
 21
146.5862774566
 31
0.0
  0
LINE
  5
12E
330
1F
100
AcDbEntity
  8
0
  6
Continuous
 62
     7
370
    25
100
AcDbLine
 10
191.1355468208
 20
180.5862774566
 30
0.0
 11
191.1355468208
 21
146.5862774566
 31
0.0
  0
LINE
  5
12F
330
1F
100
AcDbEntity
  8
0
  6
Continuous
 62
     7
370
    25
100
AcDbLine
 10
199.1355468208
 20
180.5862774566
 30
0.0
 11
199.1355468208
 21
146.5862774566
 31
0.0
  0
LINE
  5
130
330
1F
100
AcDbEntity
  8
0
  6
Continuous
 62
     7
370
    25
100
AcDbLine
 10
224.1355468208
 20
178.6912346635
 30
0.0
 11
224.1355468208
 21
148.4813202534
 31
0.0
  0
LINE
  5
131
330
1F
100
AcDbEntity
  8
0
  6
Continuous
 62
     7
370
    25
100
AcDbLine
 10
170.0195824001
 20
140.5862774566
 30
0.0
 11
164.2515112416
 21
140.5862774566
 31
0.0
  0
LINE
  5
132
330
1F
100
AcDbEntity
  8
0
  6
Continuous
 62
     7
370
    25
100
AcDbLine
 10
164.2515112416
 20
186.5862774566
 30
0.0
 11
170.0195824001
 21
186.5862774566
 31
0.0
  0
LINE
  5
133
330
1F
100
AcDbEntity
  8
0
  6
Continuous
 62
     8
370
    25
100
AcDbLine
 10
223.2459783469
 20
147.4874365151
 30
0.0
 11
223.2459783469
 21
179.6851183982
 31
0.0
  0
LINE
  5
134
330
1F
100
AcDbEntity
  8
0
  6
Continuous
 62
     7
370
    18
100
AcDbLine
 10
140.0268268279
 20
183.0276604521
 30
0.0
 11
161.6355468208
 21
183.7029329519
 31
0.0
  0
LINE
  5
135
330
1F
100
AcDbEntity
  8
0
  6
Continuous
 62
     7
370
    18
100
AcDbLine
 10
140.0268268279
 20
144.1448944612
 30
0.0
 11
161.6355468208
 21
143.4696219614
 31
0.0
  0
LINE
  5
136
330
1F
100
AcDbEntity
  8
0
  6
Continuous
 62
     7
370
    18
100
AcDbLine
 10
161.6355468208
 20
142.3250274566
 30
0.0
 11
161.6355468208
 21
184.8475274566
 31
0.0
  0
LINE
  5
137
330
1F
100
AcDbEntity
  8
0
  6
CENTERX2
 62
     7
370
    18
100
AcDbLine
 10
226.1355468208
 20
163.5862774566
 30
0.0
 11
137.5690879135
 21
163.5862774566
 31
0.0
  0
ENDSEC
  0
SECTION
  2
OBJECTS
  0
DICTIONARY
  5
C
330
0
100
AcDbDictionary
281
     1
  3
ACAD_GROUP
350
D
  3
ACAD_LAYOUT
350
1A
  3
ACAD_MLINESTYLE
350
17
  3
ACAD_PLOTSETTINGS
350
19
  3
ACAD_PLOTSTYLENAME
350
E
  3
ACAD_SCALELIST
350
47
  0
DICTIONARY
  5
D
102
{ACAD_REACTORS
330
C
102
}
330
C
100
AcDbDictionary
281
     1
  0
DICTIONARY
  5
1A
102
{ACAD_REACTORS
330
C
102
}
330
C
100
AcDbDictionary
281
     1
  3
Layout1
350
1E
  3
Layout2
350
26
  3
Model
350
22
  0
DICTIONARY
  5
17
102
{ACAD_REACTORS
330
C
102
}
330
C
100
AcDbDictionary
281
     1
  3
Standard
350
18
  0
DICTIONARY
  5
19
102
{ACAD_REACTORS
330
C
102
}
330
C
100
AcDbDictionary
281
     1
  0
ACDBDICTIONARYWDFLT
  5
E
102
{ACAD_REACTORS
330
C
102
}
330
C
100
AcDbDictionary
281
     1
  3
Normal
350
F
100
AcDbDictionaryWithDefault
340
F
  0
DICTIONARY
  5
47
102
{ACAD_REACTORS
330
C
102
}
330
C
100
AcDbDictionary
281
     1
  3
A0
350
48
  3
A1
350
49
  3
A2
350
4A
  3
A3
350
4B
  3
A4
350
4C
  3
A5
350
4D
  3
A6
350
4E
  3
A7
350
4F
  3
A8
350
50
  3
A9
350
51
  3
B0
350
52
  3
B1
350
53
  3
B2
350
54
  3
B3
350
55
  3
B4
350
56
  3
B5
350
57
  3
B6
350
58
  3
B7
350
59
  3
B8
350
5A
  3
B9
350
5B
  3
C0
350
5C
  3
C1
350
5D
  3
C2
350
5E
  3
C3
350
5F
  3
C4
350
60
  3
C5
350
61
  3
C6
350
62
  3
C7
350
63
  3
C8
350
64
  3
C9
350
65
  3
D0
350
66
  3
D1
350
67
  3
D2
350
68
  0
LAYOUT
  5
1E
102
{ACAD_REACTORS
330
1A
102
}
330
1A
100
AcDbPlotSettings
  1

  2
none_device
  4

  6

 40
0.0
 41
0.0
 42
0.0
 43
0.0
 44
0.0
 45
0.0
 46
0.0
 47
0.0
 48
0.0
 49
0.0
140
0.0
141
0.0
142
1.0
143
1.0
 70
   688
 72
     1
 73
     0
 74
     5
  7

 75
    16
147
1.0
148
0.0
149
0.0
100
AcDbLayout
  1
Layout1
 70
     1
 71
     1
 10
0.0
 20
0.0
 11
420.0
 21
297.0
 12
0.0
 22
0.0
 32
0.0
 14
1.0000000000E+20
 24
1.0000000000E+20
 34
1.0000000000E+20
 15
-1.0000000000E+20
 25
-1.0000000000E+20
 35
-1.0000000000E+20
146
0.0
 13
0.0
 23
0.0
 33
0.0
 16
1.0
 26
0.0
 36
0.0
 17
0.0
 27
1.0
 37
0.0
 76
     0
330
1B
  0
LAYOUT
  5
26
102
{ACAD_REACTORS
330
1A
102
}
330
1A
100
AcDbPlotSettings
  1

  2
none_device
  4

  6

 40
0.0
 41
0.0
 42
0.0
 43
0.0
 44
0.0
 45
0.0
 46
0.0
 47
0.0
 48
0.0
 49
0.0
140
0.0
141
0.0
142
1.0
143
1.0
 70
   688
 72
     1
 73
     0
 74
     5
  7

 75
    16
147
1.0
148
0.0
149
0.0
100
AcDbLayout
  1
Layout2
 70
     1
 71
     2
 10
0.0
 20
0.0
 11
0.0
 21
0.0
 12
0.0
 22
0.0
 32
0.0
 14
0.0
 24
0.0
 34
0.0
 15
0.0
 25
0.0
 35
0.0
146
0.0
 13
0.0
 23
0.0
 33
0.0
 16
1.0
 26
0.0
 36
0.0
 17
0.0
 27
1.0
 37
0.0
 76
     0
330
23
  0
LAYOUT
  5
22
102
{ACAD_REACTORS
330
1A
102
}
330
1A
100
AcDbPlotSettings
  1

  2
none_device
  4
Letter_(8.50_x_11.00_Inches)
  6

 40
6.35
 41
6.35
 42
6.35000508
 43
6.35000508
 44
215.9
 45
279.4
 46
0.0
 47
0.0
 48
0.0
 49
0.0
140
0.0
141
0.0
142
1.0
143
1.0
 70
  1712
 72
     1
 73
     0
 74
     0
  7

 75
     0
147
1.0
148
0.0
149
0.0
100
AcDbLayout
  1
Model
 70
     1
 71
     0
 10
0.0
 20
0.0
 11
431.8
 21
279.4
 12
0.0
 22
0.0
 32
0.0
 14
0.0
 24
0.0
 34
0.0
 15
431.8
 25
279.4
 35
0.0
146
0.0
 13
0.0
 23
0.0
 33
0.0
 16
1.0
 26
0.0
 36
0.0
 17
0.0
 27
1.0
 37
0.0
 76
     0
330
1F
331
29
  0
MLINESTYLE
  5
18
102
{ACAD_REACTORS
330
17
102
}
330
17
100
AcDbMlineStyle
  2
Standard
 70
     0
  3

 62
   256
 51
90.0
 52
90.0
 71
     2
 49
0.5
 62
   256
  6
BYLAYER
 49
-0.5
 62
   256
  6
BYLAYER
  0
ACDBPLACEHOLDER
  5
F
102
{ACAD_REACTORS
330
E
102
}
330
E
  0
SCALE
  5
48
102
{ACAD_REACTORS
330
47
102
}
330
47
100
AcDbScale
 70
     0
300
1:1
140
1.0
141
1.0
290
     1
  0
SCALE
  5
49
102
{ACAD_REACTORS
330
47
102
}
330
47
100
AcDbScale
 70
     0
300
1:2
140
1.0
141
2.0
290
     0
  0
SCALE
  5
4A
102
{ACAD_REACTORS
330
47
102
}
330
47
100
AcDbScale
 70
     0
300
1:4
140
1.0
141
4.0
290
     0
  0
SCALE
  5
4B
102
{ACAD_REACTORS
330
47
102
}
330
47
100
AcDbScale
 70
     0
300
1:5
140
1.0
141
5.0
290
     0
  0
SCALE
  5
4C
102
{ACAD_REACTORS
330
47
102
}
330
47
100
AcDbScale
 70
     0
300
1:8
140
1.0
141
8.0
290
     0
  0
SCALE
  5
4D
102
{ACAD_REACTORS
330
47
102
}
330
47
100
AcDbScale
 70
     0
300
1:10
140
1.0
141
10.0
290
     0
  0
SCALE
  5
4E
102
{ACAD_REACTORS
330
47
102
}
330
47
100
AcDbScale
 70
     0
300
1:16
140
1.0
141
16.0
290
     0
  0
SCALE
  5
4F
102
{ACAD_REACTORS
330
47
102
}
330
47
100
AcDbScale
 70
     0
300
1:20
140
1.0
141
20.0
290
     0
  0
SCALE
  5
50
102
{ACAD_REACTORS
330
47
102
}
330
47
100
AcDbScale
 70
     0
300
1:30
140
1.0
141
30.0
290
     0
  0
SCALE
  5
51
102
{ACAD_REACTORS
330
47
102
}
330
47
100
AcDbScale
 70
     0
300
1:40
140
1.0
141
40.0
290
     0
  0
SCALE
  5
52
102
{ACAD_REACTORS
330
47
102
}
330
47
100
AcDbScale
 70
     0
300
1:50
140
1.0
141
50.0
290
     0
  0
SCALE
  5
53
102
{ACAD_REACTORS
330
47
102
}
330
47
100
AcDbScale
 70
     0
300
1:100
140
1.0
141
100.0
290
     0
  0
SCALE
  5
54
102
{ACAD_REACTORS
330
47
102
}
330
47
100
AcDbScale
 70
     0
300
2:1
140
2.0
141
1.0
290
     0
  0
SCALE
  5
55
102
{ACAD_REACTORS
330
47
102
}
330
47
100
AcDbScale
 70
     0
300
4:1
140
4.0
141
1.0
290
     0
  0
SCALE
  5
56
102
{ACAD_REACTORS
330
47
102
}
330
47
100
AcDbScale
 70
     0
300
8:1
140
8.0
141
1.0
290
     0
  0
SCALE
  5
57
102
{ACAD_REACTORS
330
47
102
}
330
47
100
AcDbScale
 70
     0
300
10:1
140
10.0
141
1.0
290
     0
  0
SCALE
  5
58
102
{ACAD_REACTORS
330
47
102
}
330
47
100
AcDbScale
 70
     0
300
100:1
140
100.0
141
1.0
290
     0
  0
SCALE
  5
59
102
{ACAD_REACTORS
330
47
102
}
330
47
100
AcDbScale
 70
     0
300
1/128" = 1'-0"
140
0.0078125
141
12.0
290
     0
  0
SCALE
  5
5A
102
{ACAD_REACTORS
330
47
102
}
330
47
100
AcDbScale
 70
     0
300
1/64" = 1'-0"
140
0.015625
141
12.0
290
     0
  0
SCALE
  5
5B
102
{ACAD_REACTORS
330
47
102
}
330
47
100
AcDbScale
 70
     0
300
1/32" = 1'-0"
140
0.03125
141
12.0
290
     0
  0
SCALE
  5
5C
102
{ACAD_REACTORS
330
47
102
}
330
47
100
AcDbScale
 70
     0
300
1/16" = 1'-0"
140
0.0625
141
12.0
290
     0
  0
SCALE
  5
5D
102
{ACAD_REACTORS
330
47
102
}
330
47
100
AcDbScale
 70
     0
300
3/32" = 1'-0"
140
0.09375
141
12.0
290
     0
  0
SCALE
  5
5E
102
{ACAD_REACTORS
330
47
102
}
330
47
100
AcDbScale
 70
     0
300
1/8" = 1'-0"
140
0.125
141
12.0
290
     0
  0
SCALE
  5
5F
102
{ACAD_REACTORS
330
47
102
}
330
47
100
AcDbScale
 70
     0
300
3/16" = 1'-0"
140
0.1875
141
12.0
290
     0
  0
SCALE
  5
60
102
{ACAD_REACTORS
330
47
102
}
330
47
100
AcDbScale
 70
     0
300
1/4" = 1'-0"
140
0.25
141
12.0
290
     0
  0
SCALE
  5
61
102
{ACAD_REACTORS
330
47
102
}
330
47
100
AcDbScale
 70
     0
300
3/8" = 1'-0"
140
0.375
141
12.0
290
     0
  0
SCALE
  5
62
102
{ACAD_REACTORS
330
47
102
}
330
47
100
AcDbScale
 70
     0
300
1/2" = 1'-0"
140
0.5
141
12.0
290
     0
  0
SCALE
  5
63
102
{ACAD_REACTORS
330
47
102
}
330
47
100
AcDbScale
 70
     0
300
3/4" = 1'-0"
140
0.75
141
12.0
290
     0
  0
SCALE
  5
64
102
{ACAD_REACTORS
330
47
102
}
330
47
100
AcDbScale
 70
     0
300
1" = 1'-0"
140
1.0
141
12.0
290
     0
  0
SCALE
  5
65
102
{ACAD_REACTORS
330
47
102
}
330
47
100
AcDbScale
 70
     0
300
1-1/2" = 1'-0"
140
1.5
141
12.0
290
     0
  0
SCALE
  5
66
102
{ACAD_REACTORS
330
47
102
}
330
47
100
AcDbScale
 70
     0
300
3" = 1'-0"
140
3.0
141
12.0
290
     0
  0
SCALE
  5
67
102
{ACAD_REACTORS
330
47
102
}
330
47
100
AcDbScale
 70
     0
300
6" = 1'-0"
140
6.0
141
12.0
290
     0
  0
SCALE
  5
68
102
{ACAD_REACTORS
330
47
102
}
330
47
100
AcDbScale
 70
     0
300
1'-0" = 1'-0"
140
12.0
141
12.0
290
     0
  0
ENDSEC
  0
EOF
