  0
SECTION
  2
HEADER
  9
$ACADVER
  1
AC1015
  9
$ACADMAINTVER
 70
     6
  9
$DWGCODEPAGE
  3
DOS932
  9
$INSBASE
 10
0.0
 20
0.0
 30
0.0
  9
$EXTMIN
 10
0.0
 20
0.0
 30
0.0
  9
$EXTMAX
 10
431.8
 20
279.4
 30
0.0
  9
$LIMMIN
 10
0.0
 20
0.0
  9
$LIMMAX
 10
431.8
 20
279.4
  9
$ORTHOMODE
 70
     0
  9
$REGENMODE
 70
     1
  9
$FILLMODE
 70
     1
  9
$QTEXTMODE
 70
     0
  9
$MIRRTEXT
 70
     1
  9
$LTSCALE
 40
1.0
  9
$ATTMODE
 70
     1
  9
$TEXTSIZE
 40
3.5
  9
$TRACEWID
 40
1.0
  9
$TEXTSTYLE
  7
Standard
  9
$CLAYER
  8
0
  9
$CELTYPE
  6
ByLayer
  9
$CECOLOR
 62
   256
  9
$CELTSCALE
 40
1.0
  9
$DISPSILH
 70
     0
  9
$DIMSCALE
 40
1.0
  9
$DIMASZ
 40
3.556
  9
$DIMEXO
 40
1.0
  9
$DIMDLI
 40
3.75
  9
$DIMRND
 40
0.0
  9
$DIMDLE
 40
0.0
  9
$DIMEXE
 40
1.0
  9
$DIMTP
 40
0.0
  9
$DIMTM
 40
0.0
  9
$DIMTXT
 40
3.5
  9
$DIMCEN
 40
2.5
  9
$DIMTSZ
 40
0.0
  9
$DIMTOL
 70
     0
  9
$DIMLIM
 70
     0
  9
$DIMTIH
 70
     1
  9
$DIMTOH
 70
     1
  9
$DIMSE1
 70
     0
  9
$DIMSE2
 70
     0
  9
$DIMTAD
 70
     1
  9
$DIMZIN
 70
     0
  9
$DIMBLK
  1

  9
$DIMASO
 70
     1
  9
$DIMSHO
 70
     1
  9
$DIMPOST
  1

  9
$DIMAPOST
  1

  9
$DIMALT
 70
     0
  9
$DIMALTD
 70
     3
  9
$DIMALTF
 40
0.0393700787
  9
$DIMLFAC
 40
1.0
  9
$DIMTOFL
 70
     1
  9
$DIMTVP
 40
0.0
  9
$DIMTIX
 70
     0
  9
$DIMSOXD
 70
     0
  9
$DIMSAH
 70
     0
  9
$DIMBLK1
  1

  9
$DIMBLK2
  1

  9
$DIMSTYLE
  2
ISO-25
  9
$DIMCLRD
 70
     0
  9
$DIMCLRE
 70
     0
  9
$DIMCLRT
 70
     0
  9
$DIMTFAC
 40
1.0
  9
$DIMGAP
 40
1.524
  9
$DIMJUST
 70
     0
  9
$DIMSD1
 70
     0
  9
$DIMSD2
 70
     0
  9
$DIMTOLJ
 70
     0
  9
$DIMTZIN
 70
     0
  9
$DIMALTZ
 70
     0
  9
$DIMALTTZ
 70
     0
  9
$DIMUPT
 70
     0
  9
$DIMDEC
 70
     3
  9
$DIMTDEC
 70
     3
  9
$DIMALTU
 70
     2
  9
$DIMALTTD
 70
     3
  9
$DIMTXSTY
  7
Standard
  9
$DIMAUNIT
 70
     0
  9
$DIMADEC
 70
     2
  9
$DIMALTRND
 40
0.0
  9
$DIMAZIN
 70
     0
  9
$DIMDSEP
 70
    44
  9
$DIMATFIT
 70
     3
  9
$DIMFRAC
 70
     0
  9
$DIMLDRBLK
  1

  9
$DIMLUNIT
 70
     2
  9
$DIMLWD
 70
    -2
  9
$DIMLWE
 70
    -2
  9
$DIMTMOVE
 70
     0
  9
$LUNITS
 70
     2
  9
$LUPREC
 70
     3
  9
$SKETCHINC
 40
1.0
  9
$FILLETRAD
 40
0.0
  9
$AUNITS
 70
     0
  9
$AUPREC
 70
     2
  9
$MENU
  1
.
  9
$ELEVATION
 40
0.0
  9
$PELEVATION
 40
0.0
  9
$THICKNESS
 40
0.0
  9
$LIMCHECK
 70
     0
  9
$CHAMFERA
 40
0.0
  9
$CHAMFERB
 40
0.0
  9
$CHAMFERC
 40
0.0
  9
$CHAMFERD
 40
0.0
  9
$SKPOLY
 70
     0
  9
$TDCREATE
 40
2460159.673726111
  9
$TDUCREATE
 40
2460159.298726111
  9
$TDUPDATE
 40
2460159.673727951
  9
$TDUUPDATE
 40
2460159.298727951
  9
$TDINDWG
 40
0.0000000116
  9
$TDUSRTIMER
 40
0.0000000116
  9
$USRTIMER
 70
     1
  9
$ANGBASE
 50
0.0
  9
$ANGDIR
 70
     0
  9
$PDMODE
 70
     0
  9
$PDSIZE
 40
-1.0
  9
$PLINEWID
 40
0.0
  9
$SPLFRAME
 70
     0
  9
$SPLINETYPE
 70
     6
  9
$SPLINESEGS
 70
     8
  9
$HANDSEED
  5
37A
  9
$SURFTAB1
 70
     6
  9
$SURFTAB2
 70
     6
  9
$SURFTYPE
 70
     6
  9
$SURFU
 70
     6
  9
$SURFV
 70
     6
  9
$UCSBASE
  2

  9
$UCSNAME
  2

  9
$UCSORG
 10
0.0
 20
0.0
 30
0.0
  9
$UCSXDIR
 10
1.0
 20
0.0
 30
0.0
  9
$UCSYDIR
 10
0.0
 20
1.0
 30
0.0
  9
$UCSORTHOREF
  2

  9
$UCSORTHOVIEW
 70
     0
  9
$UCSORGTOP
 10
0.0
 20
0.0
 30
0.0
  9
$UCSORGBOTTOM
 10
0.0
 20
0.0
 30
0.0
  9
$UCSORGLEFT
 10
0.0
 20
0.0
 30
0.0
  9
$UCSORGRIGHT
 10
0.0
 20
0.0
 30
0.0
  9
$UCSORGFRONT
 10
0.0
 20
0.0
 30
0.0
  9
$UCSORGBACK
 10
0.0
 20
0.0
 30
0.0
  9
$PUCSBASE
  2

  9
$PUCSNAME
  2

  9
$PUCSORG
 10
0.0
 20
0.0
 30
0.0
  9
$PUCSXDIR
 10
1.0
 20
0.0
 30
0.0
  9
$PUCSYDIR
 10
0.0
 20
1.0
 30
0.0
  9
$PUCSORTHOREF
  2

  9
$PUCSORTHOVIEW
 70
     0
  9
$PUCSORGTOP
 10
0.0
 20
0.0
 30
0.0
  9
$PUCSORGBOTTOM
 10
0.0
 20
0.0
 30
0.0
  9
$PUCSORGLEFT
 10
0.0
 20
0.0
 30
0.0
  9
$PUCSORGRIGHT
 10
0.0
 20
0.0
 30
0.0
  9
$PUCSORGFRONT
 10
0.0
 20
0.0
 30
0.0
  9
$PUCSORGBACK
 10
0.0
 20
0.0
 30
0.0
  9
$USERI1
 70
     0
  9
$USERI2
 70
     0
  9
$USERI3
 70
     0
  9
$USERI4
 70
     0
  9
$USERI5
 70
     0
  9
$USERR1
 40
0.0
  9
$USERR2
 40
0.0
  9
$USERR3
 40
0.0
  9
$USERR4
 40
0.0
  9
$USERR5
 40
0.0
  9
$WORLDVIEW
 70
     1
  9
$SHADEDGE
 70
     3
  9
$SHADEDIF
 70
    70
  9
$TILEMODE
 70
     1
  9
$MAXACTVP
 70
    64
  9
$PINSBASE
 10
0.0
 20
0.0
 30
0.0
  9
$PLIMCHECK
 70
     0
  9
$PEXTMIN
 10
1.0000000000E+20
 20
1.0000000000E+20
 30
1.0000000000E+20
  9
$PEXTMAX
 10
-1.0000000000E+20
 20
-1.0000000000E+20
 30
-1.0000000000E+20
  9
$PLIMMIN
 10
0.0
 20
0.0
  9
$PLIMMAX
 10
420.0
 20
297.0
  9
$UNITMODE
 70
     0
  9
$VISRETAIN
 70
     1
  9
$PLINEGEN
 70
     0
  9
$PSLTSCALE
 70
     1
  9
$TREEDEPTH
 70
  3020
  9
$CMLSTYLE
  2
Standard
  9
$CMLJUST
 70
     0
  9
$CMLSCALE
 40
20.0
  9
$PROXYGRAPHICS
 70
     1
  9
$MEASUREMENT
 70
     1
  9
$CELWEIGHT
370
    -1
  9
$ENDCAPS
280
     0
  9
$JOINSTYLE
280
     0
  9
$LWDISPLAY
290
     1
  9
$INSUNITS
 70
     4
  9
$HYPERLINKBASE
  1

  9
$STYLESHEET
  1

  9
$XEDIT
290
     1
  9
$CEPSNTYPE
380
     0
  9
$PSTYLEMODE
290
     1
  9
$FINGERPRINTGUID
  2
{d470ca83-d1d3-4203-821d-ad09eefce9fb}
  9
$VERSIONGUID
  2
{FAEB1C32-E019-11D5-929B-00C0DF256EC4}
  9
$EXTNAMES
290
     1
  9
$PSVPSCALE
 40
0.0
  9
$OLESTARTUP
290
     0
  0
ENDSEC
  0
SECTION
  2
CLASSES
  0
CLASS
  1
ACDBDICTIONARYWDFLT
  2
AcDbDictionaryWithDefault
  3
ObjectDBX Classes
 90
        0
280
     0
281
     0
  0
CLASS
  1
VISUALSTYLE
  2
AcDbVisualStyle
  3
ObjectDBX Classes
 90
     4095
280
     0
281
     0
  0
CLASS
  1
MATERIAL
  2
AcDbMaterial
  3
ObjectDBX Classes
 90
     1153
280
     0
281
     0
  0
CLASS
  1
SCALE
  2
AcDbScale
  3
ObjectDBX Classes
 90
     1153
280
     0
281
     0
  0
CLASS
  1
TABLESTYLE
  2
AcDbTableStyle
  3
ObjectDBX Classes
 90
     4095
280
     0
281
     0
  0
CLASS
  1
MLEADERSTYLE
  2
AcDbMLeaderStyle
  3
ACDB_MLEADERSTYLE_CLASS
 90
     4095
280
     0
281
     0
  0
CLASS
  1
SUN
  2
AcDbSun
  3
SCENEOE
 90
     1153
280
     0
281
     0
  0
CLASS
  1
ACDBPLACEHOLDER
  2
AcDbPlaceHolder
  3
ObjectDBX Classes
 90
        0
280
     0
281
     0
  0
CLASS
  1
LAYOUT
  2
AcDbLayout
  3
ObjectDBX Classes
 90
        0
280
     0
281
     0
  0
ENDSEC
  0
SECTION
  2
TABLES
  0
TABLE
  2
VPORT
  5
8
330
0
100
AcDbSymbolTable
 70
     1
  0
VPORT
  5
29
330
8
100
AcDbSymbolTableRecord
100
AcDbViewportTableRecord
  2
*Active
 70
     0
 10
0.0
 20
0.0
 11
1.0
 21
1.0
 12
215.9
 22
139.7
 13
0.0
 23
0.0
 14
10.0
 24
10.0
 15
10.0
 25
10.0
 16
0.0
 26
0.0
 36
1.0
 17
0.0
 27
0.0
 37
0.0
 40
279.4
 41
1.5454545455
 42
50.0
 43
0.0
 44
0.0
 50
0.0
 51
0.0
 71
     0
 72
  2000
 73
     1
 74
     3
 75
     0
 76
     0
 77
     0
 78
     0
281
     0
 65
     1
110
0.0
120
0.0
130
0.0
111
1.0
121
0.0
131
0.0
112
0.0
122
1.0
132
0.0
 79
     0
146
0.0
  0
ENDTAB
  0
TABLE
  2
LTYPE
  5
5
330
0
100
AcDbSymbolTable
 70
     6
  0
LTYPE
  5
14
330
5
100
AcDbSymbolTableRecord
100
AcDbLinetypeTableRecord
  2
ByBlock
 70
     0
  3

 72
    65
 73
     0
 40
0.0
  0
LTYPE
  5
15
330
5
100
AcDbSymbolTableRecord
100
AcDbLinetypeTableRecord
  2
ByLayer
 70
     0
  3

 72
    65
 73
     0
 40
0.0
  0
LTYPE
  5
16
330
5
100
AcDbSymbolTableRecord
100
AcDbLinetypeTableRecord
  2
Continuous
 70
     0
  3
Solid line
 72
    65
 73
     0
 40
0.0
  0
LTYPE
  5
5E
330
5
100
AcDbSymbolTableRecord
100
AcDbLinetypeTableRecord
  2
HIDDEN
 70
     0
  3
Hidden __ __ __ __ __ __ __ __ __ __ __ __ __ __
 72
    65
 73
     2
 40
1.905
 49
1.27
 74
     0
 49
-0.635
 74
     0
  0
LTYPE
  5
5F
330
5
100
AcDbSymbolTableRecord
100
AcDbLinetypeTableRecord
  2
PHANTOM
 70
     0
  3
Phantom ______  __  __  ______  __  __  ______
 72
    65
 73
     6
 40
12.7
 49
6.35
 74
     0
 49
-1.27
 74
     0
 49
1.27
 74
     0
 49
-1.27
 74
     0
 49
1.27
 74
     0
 49
-1.27
 74
     0
  0
LTYPE
  5
60
330
5
100
AcDbSymbolTableRecord
100
AcDbLinetypeTableRecord
  2
CENTER
 70
     0
  3
Center ____ _ ____ _ ____ _ ____ _ ____ _ ____
 72
    65
 73
     4
 40
10.16
 49
6.35
 74
     0
 49
-1.27
 74
     0
 49
1.27
 74
     0
 49
-1.27
 74
     0
  0
LTYPE
  5
61
330
5
100
AcDbSymbolTableRecord
100
AcDbLinetypeTableRecord
  2
CENTERX2
 70
     0
  3
Center (2x) ________  __  ________  __  _____
 72
    65
 73
     4
 40
20.32
 49
12.7
 74
     0
 49
-2.54
 74
     0
 49
2.54
 74
     0
 49
-2.54
 74
     0
  0
LTYPE
  5
62
330
5
100
AcDbSymbolTableRecord
100
AcDbLinetypeTableRecord
  2
DOT2
 70
     0
  3
Dot (.5x) ........................................
 72
    65
 73
     2
 40
0.635
 49
0.0
 74
     0
 49
-0.635
 74
     0
  0
ENDTAB
  0
TABLE
  2
LAYER
  5
2
330
0
100
AcDbSymbolTable
 70
     1
  0
LAYER
  5
10
330
2
100
AcDbSymbolTableRecord
100
AcDbLayerTableRecord
  2
0
 70
     0
 62
     7
  6
Continuous
370
    -3
390
F
  0
ENDTAB
  0
TABLE
  2
STYLE
  5
3
330
0
100
AcDbSymbolTable
 70
     2
  0
STYLE
  5
11
330
3
100
AcDbSymbolTableRecord
100
AcDbTextStyleTableRecord
  2
Standard
 70
     0
 40
0.0
 41
1.0
 50
0.0
 71
     0
 42
3.5
  3
txt
  4
bigfont
  0
STYLE
  5
63
330
3
100
AcDbSymbolTableRecord
100
AcDbTextStyleTableRecord
  2
SLDTEXTSTYLE0
 70
     0
 40
0.0
 41
0.7
 50
0.0
 71
     0
 42
3.5
  3
TXT
  4
bigfont
  0
ENDTAB
  0
TABLE
  2
VIEW
  5
6
330
0
100
AcDbSymbolTable
 70
     0
  0
ENDTAB
  0
TABLE
  2
UCS
  5
7
330
0
100
AcDbSymbolTable
 70
     0
  0
ENDTAB
  0
TABLE
  2
APPID
  5
9
330
0
100
AcDbSymbolTable
 70
     1
  0
APPID
  5
12
330
9
100
AcDbSymbolTableRecord
100
AcDbRegAppTableRecord
  2
ACAD
 70
     0
  0
ENDTAB
  0
TABLE
  2
DIMSTYLE
  5
A
330
0
100
AcDbSymbolTable
 70
     1
100
AcDbDimStyleTable
  0
DIMSTYLE
105
27
330
A
100
AcDbSymbolTableRecord
100
AcDbDimStyleTableRecord
  2
ISO-25
 70
     0
 41
2.5
 42
0.625
 43
3.75
 44
1.25
 73
     0
 74
     0
 77
     1
 78
     8
140
2.5
141
2.5
143
0.0393700787
147
0.625
171
     3
172
     1
178
     0
271
     2
272
     2
274
     3
278
    44
283
     0
284
     8
340
11
  0
ENDTAB
  0
TABLE
  2
BLOCK_RECORD
  5
1
330
0
100
AcDbSymbolTable
 70
     3
  0
BLOCK_RECORD
  5
1F
330
1
100
AcDbSymbolTableRecord
100
AcDbBlockTableRecord
  2
*Model_Space
340
22
  0
BLOCK_RECORD
  5
1B
330
1
100
AcDbSymbolTableRecord
100
AcDbBlockTableRecord
  2
*Paper_Space
340
1E
  0
BLOCK_RECORD
  5
23
330
1
100
AcDbSymbolTableRecord
100
AcDbBlockTableRecord
  2
*Paper_Space0
340
26
  0
BLOCK_RECORD
  5
30B
330
1
100
AcDbSymbolTableRecord
100
AcDbBlockTableRecord
  2
SW_CENTERMARKSYMBOL_0
340
0
102
{BLKREFS
331
316
102
}
  0
BLOCK_RECORD
  5
36D
330
1
100
AcDbSymbolTableRecord
100
AcDbBlockTableRecord
  2
SW_CENTERMARKSYMBOL_1
340
0
102
{BLKREFS
331
378
102
}
  0
ENDTAB
  0
ENDSEC
  0
SECTION
  2
BLOCKS
  0
BLOCK
  5
20
330
1F
100
AcDbEntity
  8
0
100
AcDbBlockBegin
  2
*Model_Space
 70
     0
 10
0.0
 20
0.0
 30
0.0
  3
*Model_Space
  1

  0
ENDBLK
  5
21
330
1F
100
AcDbEntity
  8
0
100
AcDbBlockEnd
  0
BLOCK
  5
1C
330
1B
100
AcDbEntity
 67
     1
  8
0
100
AcDbBlockBegin
  2
*Paper_Space
 70
     0
 10
0.0
 20
0.0
 30
0.0
  3
*Paper_Space
  1

  0
ENDBLK
  5
1D
330
1B
100
AcDbEntity
 67
     1
  8
0
100
AcDbBlockEnd
  0
BLOCK
  5
24
330
23
100
AcDbEntity
  8
0
100
AcDbBlockBegin
  2
*Paper_Space0
 70
     0
 10
0.0
 20
0.0
 30
0.0
  3
*Paper_Space0
  1

  0
ENDBLK
  5
25
330
23
100
AcDbEntity
  8
0
100
AcDbBlockEnd
  0
BLOCK
  5
30C
330
30B
100
AcDbEntity
  8
0
100
AcDbBlockBegin
  2
SW_CENTERMARKSYMBOL_0
 70
     0
 10
0.0
 20
0.0
 30
0.0
  3
SW_CENTERMARKSYMBOL_0
  1

  0
LINE
  5
30E
330
30B
100
AcDbEntity
  8
0
  6
Continuous
 62
     0
370
    18
100
AcDbLine
 10
0.0
 20
0.0
 30
0.0
 11
0.0
 21
2.5
 31
0.0
  0
LINE
  5
30F
330
30B
100
AcDbEntity
  8
0
  6
Continuous
 62
     0
370
    18
100
AcDbLine
 10
0.0
 20
0.0
 30
0.0
 11
-2.5
 21
0.0
 31
0.0
  0
LINE
  5
310
330
30B
100
AcDbEntity
  8
0
  6
Continuous
 62
     0
370
    18
100
AcDbLine
 10
0.0
 20
0.0
 30
0.0
 11
0.0
 21
-2.5
 31
0.0
  0
LINE
  5
311
330
30B
100
AcDbEntity
  8
0
  6
Continuous
 62
     0
370
    18
100
AcDbLine
 10
0.0
 20
0.0
 30
0.0
 11
2.5
 21
0.0
 31
0.0
  0
LINE
  5
312
330
30B
100
AcDbEntity
  8
0
  6
Continuous
 62
     0
370
    18
100
AcDbLine
 10
0.0
 20
5.0
 30
0.0
 11
0.0
 21
13.1698392687
 31
0.0
  0
LINE
  5
313
330
30B
100
AcDbEntity
  8
0
  6
Continuous
 62
     0
370
    18
100
AcDbLine
 10
-5.0
 20
0.0
 30
0.0
 11
-70.3719058271
 21
0.0
 31
0.0
  0
LINE
  5
314
330
30B
100
AcDbEntity
  8
0
  6
Continuous
 62
     0
370
    18
100
AcDbLine
 10
0.0
 20
-5.0
 30
0.0
 11
0.0
 21
-12.524473247
 31
0.0
  0
LINE
  5
315
330
30B
100
AcDbEntity
  8
0
  6
Continuous
 62
     0
370
    18
100
AcDbLine
 10
5.0
 20
0.0
 30
0.0
 11
28.7005828964
 21
0.0
 31
0.0
  0
ENDBLK
  5
30D
330
30B
100
AcDbEntity
  8
0
100
AcDbBlockEnd
  0
BLOCK
  5
36E
330
36D
100
AcDbEntity
  8
0
100
AcDbBlockBegin
  2
SW_CENTERMARKSYMBOL_1
 70
     0
 10
0.0
 20
0.0
 30
0.0
  3
SW_CENTERMARKSYMBOL_1
  1

  0
LINE
  5
370
330
36D
100
AcDbEntity
  8
0
  6
Continuous
 62
     0
370
    18
100
AcDbLine
 10
0.0
 20
0.0
 30
0.0
 11
0.0
 21
2.5
 31
0.0
  0
LINE
  5
371
330
36D
100
AcDbEntity
  8
0
  6
Continuous
 62
     0
370
    18
100
AcDbLine
 10
0.0
 20
0.0
 30
0.0
 11
-2.5
 21
0.0
 31
0.0
  0
LINE
  5
372
330
36D
100
AcDbEntity
  8
0
  6
Continuous
 62
     0
370
    18
100
AcDbLine
 10
0.0
 20
0.0
 30
0.0
 11
0.0
 21
-2.5
 31
0.0
  0
LINE
  5
373
330
36D
100
AcDbEntity
  8
0
  6
Continuous
 62
     0
370
    18
100
AcDbLine
 10
0.0
 20
0.0
 30
0.0
 11
2.5
 21
0.0
 31
0.0
  0
LINE
  5
374
330
36D
100
AcDbEntity
  8
0
  6
Continuous
 62
     0
370
    18
100
AcDbLine
 10
0.0
 20
5.0
 30
0.0
 11
0.0
 21
32.5269345069
 31
0.0
  0
LINE
  5
375
330
36D
100
AcDbEntity
  8
0
  6
Continuous
 62
     0
370
    18
100
AcDbLine
 10
-5.0
 20
0.0
 30
0.0
 11
-14.25
 21
0.0
 31
0.0
  0
LINE
  5
376
330
36D
100
AcDbEntity
  8
0
  6
Continuous
 62
     0
370
    18
100
AcDbLine
 10
0.0
 20
-5.0
 30
0.0
 11
0.0
 21
-15.3959460457
 31
0.0
  0
LINE
  5
377
330
36D
100
AcDbEntity
  8
0
  6
Continuous
 62
     0
370
    18
100
AcDbLine
 10
5.0
 20
0.0
 30
0.0
 11
14.25
 21
0.0
 31
0.0
  0
ENDBLK
  5
36F
330
36D
100
AcDbEntity
  8
0
100
AcDbBlockEnd
  0
ENDSEC
  0
SECTION
  2
ENTITIES
  0
MTEXT
  5
64
330
1F
100
AcDbEntity
  8
0
  6
Continuous
 62
     7
370
     0
100
AcDbMText
 10
203.2012557224
 20
116.3059524722
 30
0.0
 40
3.5
 41
0.0
 71
     1
 72
     1
  1
エースボール　BY-2414R
  7
SLDTEXTSTYLE0
 73
     1
 44
1.0
  0
LINE
  5
65
330
1F
100
AcDbEntity
  8
0
  6
Continuous
 62
     7
370
    25
100
AcDbLine
 10
144.8543469972
 20
80.4719076183
 30
0.0
 11
144.3543469972
 21
80.4719076183
 31
0.0
  0
LINE
  5
66
330
1F
100
AcDbEntity
  8
0
  6
Continuous
 62
     7
370
    25
100
AcDbLine
 10
144.3543469972
 20
64.4719076183
 30
0.0
 11
144.8543469972
 21
64.4719076183
 31
0.0
  0
LINE
  5
67
330
1F
100
AcDbEntity
  8
0
  6
Continuous
 62
     7
370
    25
100
AcDbLine
 10
138.3543469972
 20
79.4719076183
 30
0.0
 11
133.8543469972
 21
78.7219076183
 31
0.0
  0
LINE
  5
68
330
1F
100
AcDbEntity
  8
0
  6
Continuous
 62
     7
370
    25
100
AcDbLine
 10
133.8543469972
 20
66.2219076183
 30
0.0
 11
138.3543469972
 21
65.4719076183
 31
0.0
  0
LINE
  5
69
330
1F
100
AcDbEntity
  8
0
  6
Continuous
 62
     7
370
    25
100
AcDbLine
 10
138.3543469972
 20
65.4719076183
 30
0.0
 11
144.3543469972
 21
65.4719076183
 31
0.0
  0
LINE
  5
6A
330
1F
100
AcDbEntity
  8
0
  6
Continuous
 62
     7
370
    25
100
AcDbLine
 10
144.3543469972
 20
79.4719076183
 30
0.0
 11
138.3543469972
 21
79.4719076183
 31
0.0
  0
LINE
  5
6B
330
1F
100
AcDbEntity
  8
0
  6
Continuous
 62
     7
370
    25
100
AcDbLine
 10
120.3543469972
 20
79.4719076183
 30
0.0
 11
114.5497332523
 21
78.8021444939
 31
0.0
  0
LINE
  5
6C
330
1F
100
AcDbEntity
  8
0
  6
Continuous
 62
     7
370
    25
100
AcDbLine
 10
114.5497332523
 20
66.1416707427
 30
0.0
 11
120.3543469972
 21
65.4719076183
 31
0.0
  0
LINE
  5
6D
330
1F
100
AcDbEntity
  8
0
  6
Continuous
 62
     7
370
    25
100
AcDbLine
 10
124.8543469972
 20
79.4719076183
 30
0.0
 11
120.3543469972
 21
78.7219076183
 31
0.0
  0
LINE
  5
6E
330
1F
100
AcDbEntity
  8
0
  6
Continuous
 62
     7
370
    25
100
AcDbLine
 10
120.3543469972
 20
66.2219076183
 30
0.0
 11
124.8543469972
 21
65.4719076183
 31
0.0
  0
LINE
  5
6F
330
1F
100
AcDbEntity
  8
0
  6
Continuous
 62
     7
370
    25
100
AcDbLine
 10
133.8543469972
 20
79.4719076183
 30
0.0
 11
129.3543469972
 21
78.7219076183
 31
0.0
  0
LINE
  5
70
330
1F
100
AcDbEntity
  8
0
  6
Continuous
 62
     7
370
    25
100
AcDbLine
 10
129.3543469972
 20
66.2219076183
 30
0.0
 11
133.8543469972
 21
65.4719076183
 31
0.0
  0
LINE
  5
71
330
1F
100
AcDbEntity
  8
0
  6
Continuous
 62
     7
370
    25
100
AcDbLine
 10
129.3543469972
 20
79.4719076183
 30
0.0
 11
124.8543469972
 21
78.7219076183
 31
0.0
  0
LINE
  5
72
330
1F
100
AcDbEntity
  8
0
  6
Continuous
 62
     7
370
    25
100
AcDbLine
 10
124.8543469972
 20
66.2219076183
 30
0.0
 11
129.3543469972
 21
65.4719076183
 31
0.0
  0
LINE
  5
73
330
1F
100
AcDbEntity
  8
0
  6
Continuous
 62
     7
370
    25
100
AcDbLine
 10
114.5497332523
 20
78.8021444939
 30
0.0
 11
113.8543469972
 21
77.9253531287
 31
0.0
  0
LINE
  5
74
330
1F
100
AcDbEntity
  8
0
  6
Continuous
 62
     7
370
    25
100
AcDbLine
 10
113.8543469972
 20
67.0184621078
 30
0.0
 11
114.5497332523
 21
66.1416707427
 31
0.0
  0
LINE
  5
75
330
1F
100
AcDbEntity
  8
0
  6
Continuous
 62
     7
370
    25
100
AcDbLine
 10
148.0704813342
 20
86.3283140788
 30
0.0
 11
146.8543469972
 21
84.2219076183
 31
0.0
  0
LINE
  5
76
330
1F
100
AcDbEntity
  8
0
  6
Continuous
 62
     7
370
    25
100
AcDbLine
 10
146.8543469972
 20
60.7219076183
 30
0.0
 11
148.0704813342
 21
58.6155011577
 31
0.0
  0
LINE
  5
77
330
1F
100
AcDbEntity
  8
0
  6
Continuous
 62
     7
370
    25
100
AcDbLine
 10
157.6382126602
 20
58.6155011577
 30
0.0
 11
158.8543469972
 21
60.7219076183
 31
0.0
  0
LINE
  5
78
330
1F
100
AcDbEntity
  8
0
  6
Continuous
 62
     7
370
    25
100
AcDbLine
 10
158.8543469972
 20
84.2219076183
 30
0.0
 11
157.6382126602
 21
86.3283140788
 31
0.0
  0
LINE
  5
79
330
1F
100
AcDbEntity
  8
0
  6
Continuous
 62
     7
370
    25
100
AcDbLine
 10
146.8543469972
 20
84.2219076183
 30
0.0
 11
145.3543469972
 21
84.2219076183
 31
0.0
  0
LINE
  5
7A
330
1F
100
AcDbEntity
  8
0
  6
Continuous
 62
     7
370
    25
100
AcDbLine
 10
145.3543469972
 20
60.7219076183
 30
0.0
 11
146.8543469972
 21
60.7219076183
 31
0.0
  0
LINE
  5
7B
330
1F
100
AcDbEntity
  8
0
  6
Continuous
 62
     7
370
    25
100
AcDbLine
 10
158.8543469972
 20
60.7219076183
 30
0.0
 11
160.3543469972
 21
60.7219076183
 31
0.0
  0
LINE
  5
7C
330
1F
100
AcDbEntity
  8
0
  6
Continuous
 62
     7
370
    25
100
AcDbLine
 10
160.3543469972
 20
84.2219076183
 30
0.0
 11
158.8543469972
 21
84.2219076183
 31
0.0
  0
LINE
  5
7D
330
1F
100
AcDbEntity
  8
0
  6
Continuous
 62
     7
370
    25
100
AcDbLine
 10
145.3543469972
 20
84.2219076183
 30
0.0
 11
144.8543469972
 21
83.7219076183
 31
0.0
  0
LINE
  5
7E
330
1F
100
AcDbEntity
  8
0
  6
Continuous
 62
     7
370
    25
100
AcDbLine
 10
144.8543469972
 20
61.2219076183
 30
0.0
 11
145.3543469972
 21
60.7219076183
 31
0.0
  0
LINE
  5
7F
330
1F
100
AcDbEntity
  8
0
  6
Continuous
 62
     7
370
    25
100
AcDbLine
 10
160.3543469972
 20
60.7219076183
 30
0.0
 11
160.8543469972
 21
61.2219076183
 31
0.0
  0
LINE
  5
80
330
1F
100
AcDbEntity
  8
0
  6
Continuous
 62
     7
370
    25
100
AcDbLine
 10
160.8543469972
 20
83.7219076183
 30
0.0
 11
160.3543469972
 21
84.2219076183
 31
0.0
  0
LINE
  5
81
330
1F
100
AcDbEntity
  8
0
  6
Continuous
 62
     7
370
    25
100
AcDbLine
 10
152.7739622395
 20
58.6155011577
 30
0.0
 11
152.8543469972
 21
58.9155011577
 31
0.0
  0
LINE
  5
82
330
1F
100
AcDbEntity
  8
0
  6
Continuous
 62
     7
370
    25
100
AcDbLine
 10
152.8543469972
 20
58.9155011577
 30
0.0
 11
152.934731755
 21
58.6155011577
 31
0.0
  0
LINE
  5
83
330
1F
100
AcDbEntity
  8
0
  6
Continuous
 62
     7
370
    25
100
AcDbLine
 10
152.8543469972
 20
86.0283140788
 30
0.0
 11
152.7739622395
 21
86.3283140788
 31
0.0
  0
LINE
  5
84
330
1F
100
AcDbEntity
  8
0
  6
Continuous
 62
     7
370
    25
100
AcDbLine
 10
152.934731755
 20
86.3283140788
 30
0.0
 11
152.8543469972
 21
86.0283140788
 31
0.0
  0
LINE
  5
85
330
1F
100
AcDbEntity
  8
0
  6
Continuous
 62
     7
370
    25
100
AcDbLine
 10
188.9392834878
 20
84.9719076183
 30
0.0
 11
189.3892834878
 21
92.9719076183
 31
0.0
  0
LINE
  5
86
330
1F
100
AcDbEntity
  8
0
  6
Continuous
 62
     7
370
    25
100
AcDbLine
 10
189.3892834878
 20
92.9719076183
 30
0.0
 11
187.4392834878
 21
100.9719076183
 31
0.0
  0
LINE
  5
87
330
1F
100
AcDbEntity
  8
0
  6
Continuous
 62
     7
370
    25
100
AcDbLine
 10
174.8705380702
 20
86.1940483755
 30
0.0
 11
174.9392834878
 21
84.9719076183
 31
0.0
  0
LINE
  5
88
330
1F
100
AcDbEntity
  8
0
  6
Continuous
 62
     7
370
    25
100
AcDbLine
 10
176.4392834878
 20
100.9719076183
 30
0.0
 11
176.1860519532
 21
99.9330090151
 31
0.0
  0
LINE
  5
89
330
1F
100
AcDbEntity
  8
0
  6
Continuous
 62
     7
370
    25
100
AcDbLine
 10
169.1892834878
 20
83.4719076183
 30
0.0
 11
166.4392834878
 21
83.4719076183
 31
0.0
  0
LINE
  5
8A
330
1F
100
AcDbEntity
  8
0
  6
Continuous
 62
     7
370
    25
100
AcDbLine
 10
166.4392834878
 20
61.4719076183
 30
0.0
 11
169.1892834878
 21
61.4719076183
 31
0.0
  0
LINE
  5
8B
330
1F
100
AcDbEntity
  8
0
  6
Continuous
 62
     7
370
    25
100
AcDbLine
 10
166.4392834878
 20
83.4719076183
 30
0.0
 11
166.1892834878
 21
83.2219076183
 31
0.0
  0
LINE
  5
8C
330
1F
100
AcDbEntity
  8
0
  6
Continuous
 62
     7
370
    25
100
AcDbLine
 10
166.1892834878
 20
61.7219076183
 30
0.0
 11
166.4392834878
 21
61.4719076183
 31
0.0
  0
LINE
  5
8D
330
1F
100
AcDbEntity
  8
0
  6
Continuous
 62
     7
370
    25
100
AcDbLine
 10
166.1892834878
 20
82.9494076183
 30
0.0
 11
160.8543469972
 21
82.9494076183
 31
0.0
  0
LINE
  5
8E
330
1F
100
AcDbEntity
  8
0
  6
Continuous
 62
     7
370
    25
100
AcDbLine
 10
160.8543469972
 20
61.9944076183
 30
0.0
 11
166.1892834878
 21
61.9944076183
 31
0.0
  0
LINE
  5
8F
330
1F
100
AcDbEntity
  8
0
  6
Continuous
 62
     7
370
    25
100
AcDbLine
 10
169.4392834878
 20
60.4719076183
 30
0.0
 11
172.196390269
 21
60.4719076183
 31
0.0
  0
LINE
  5
90
330
1F
100
AcDbEntity
  8
0
  6
Continuous
 62
     7
370
    25
100
AcDbLine
 10
172.196390269
 20
84.4719076183
 30
0.0
 11
169.4392834878
 21
84.4719076183
 31
0.0
  0
LINE
  5
91
330
1F
100
AcDbEntity
  8
0
  6
Continuous
 62
     7
370
    25
100
AcDbLine
 10
194.4392834878
 20
84.4719076183
 30
0.0
 11
191.6821767066
 21
84.4719076183
 31
0.0
  0
LINE
  5
92
330
1F
100
AcDbEntity
  8
0
  6
Continuous
 62
     7
370
    25
100
AcDbLine
 10
191.6821767066
 20
60.4719076183
 30
0.0
 11
194.4392834878
 21
60.4719076183
 31
0.0
  0
LINE
  5
93
330
1F
100
AcDbEntity
  8
0
  6
Continuous
 62
     7
370
    25
100
AcDbLine
 10
169.4392834878
 20
84.4719076183
 30
0.0
 11
169.1892834878
 21
84.2219076183
 31
0.0
  0
LINE
  5
94
330
1F
100
AcDbEntity
  8
0
  6
Continuous
 62
     7
370
    25
100
AcDbLine
 10
169.1892834878
 20
60.7219076183
 30
0.0
 11
169.4392834878
 21
60.4719076183
 31
0.0
  0
LINE
  5
95
330
1F
100
AcDbEntity
  8
0
  6
Continuous
 62
     7
370
    25
100
AcDbLine
 10
194.4392834878
 20
60.4719076183
 30
0.0
 11
194.6892834878
 21
60.7219076183
 31
0.0
  0
LINE
  5
96
330
1F
100
AcDbEntity
  8
0
  6
Continuous
 62
     7
370
    25
100
AcDbLine
 10
194.6892834878
 20
84.2219076183
 30
0.0
 11
194.4392834878
 21
84.4719076183
 31
0.0
  0
LINE
  5
97
330
1F
100
AcDbEntity
  8
0
  6
Continuous
 62
     7
370
    25
100
AcDbLine
 10
191.6821767066
 20
84.4719076183
 30
0.0
 11
191.4393174823
 21
84.229048394
 31
0.0
  0
LINE
  5
98
330
1F
100
AcDbEntity
  8
0
  6
Continuous
 62
     7
370
    25
100
AcDbLine
 10
172.196390269
 20
60.4719076183
 30
0.0
 11
172.4392494932
 21
60.7147668425
 31
0.0
  0
LINE
  5
99
330
1F
100
AcDbEntity
  8
0
  6
Continuous
 62
     7
370
    25
100
AcDbLine
 10
172.4392494932
 20
84.229048394
 30
0.0
 11
172.196390269
 21
84.4719076183
 31
0.0
  0
LINE
  5
9A
330
1F
100
AcDbEntity
  8
0
  6
Continuous
 62
     7
370
    25
100
AcDbLine
 10
191.4393174823
 20
60.7147668425
 30
0.0
 11
191.6821767066
 21
60.4719076183
 31
0.0
  0
LINE
  5
9B
330
1F
100
AcDbEntity
  8
0
  6
Continuous
 62
     7
370
    25
100
AcDbLine
 10
194.6892834878
 20
61.8119076183
 30
0.0
 11
205.9928922148
 21
62.165145391
 31
0.0
  0
LINE
  5
9C
330
1F
100
AcDbEntity
  8
0
  6
Continuous
 62
     7
370
    25
100
AcDbLine
 10
205.9928922148
 20
82.7786698455
 30
0.0
 11
194.6892834878
 21
83.1319076183
 31
0.0
  0
ARC
  5
9D
330
1F
100
AcDbEntity
  8
0
  6
Continuous
 62
     7
370
    25
100
AcDbCircle
 10
171.6892834878
 20
84.2219076183
 30
0.0
 40
0.75
100
AcDbArc
 50
0.0
 51
0.5455233255
  0
ARC
  5
9E
330
1F
100
AcDbEntity
  8
0
  6
Continuous
 62
     7
370
    25
100
AcDbCircle
 10
192.1892834878
 20
84.2219076183
 30
0.0
 40
0.75
100
AcDbArc
 50
179.4544766745
 51
180.0
  0
ARC
  5
9F
330
1F
100
AcDbEntity
  8
0
  6
Continuous
 62
     7
370
    25
100
AcDbCircle
 10
192.1892834878
 20
60.7219076183
 30
0.0
 40
0.75
100
AcDbArc
 50
180.0
 51
180.5455233255
  0
ARC
  5
A0
330
1F
100
AcDbEntity
  8
0
  6
Continuous
 62
     7
370
    25
100
AcDbCircle
 10
171.6892834878
 20
60.7219076183
 30
0.0
 40
0.75
100
AcDbArc
 50
359.4544766745
 51
0.0
  0
LINE
  5
A1
330
1F
100
AcDbEntity
  8
0
  6
Continuous
 62
     7
370
    25
100
AcDbLine
 10
205.9928922148
 20
62.165145391
 30
0.0
 11
208.6892834878
 21
63.7219076183
 31
0.0
  0
LINE
  5
A2
330
1F
100
AcDbEntity
  8
0
  6
Continuous
 62
     7
370
    25
100
AcDbLine
 10
208.6892834878
 20
81.2219076183
 30
0.0
 11
205.9928922148
 21
82.7786698455
 31
0.0
  0
ARC
  5
A3
330
1F
100
AcDbEntity
  8
0
  6
Continuous
 62
     7
370
    25
100
AcDbCircle
 10
191.0392834878
 20
83.8719076183
 30
0.0
 40
0.3999999999999915
100
AcDbArc
 50
270.0
 51
0.0
  0
ARC
  5
A4
330
1F
100
AcDbEntity
  8
0
  6
Continuous
 62
     7
370
    25
100
AcDbCircle
 10
172.8392834878
 20
83.8719076183
 30
0.0
 40
0.3999999999999915
100
AcDbArc
 50
180.0
 51
270.0
  0
ARC
  5
A5
330
1F
100
AcDbEntity
  8
0
  6
Continuous
 62
     7
370
    25
100
AcDbCircle
 10
191.0392834878
 20
61.0719076183
 30
0.0
 40
0.4000000000000057
100
AcDbArc
 50
0.0
 51
90.0
  0
ARC
  5
A6
330
1F
100
AcDbEntity
  8
0
  6
Continuous
 62
     7
370
    25
100
AcDbCircle
 10
172.8392834878
 20
61.0719076183
 30
0.0
 40
0.4000000000000057
100
AcDbArc
 50
90.0
 51
180.0
  0
LINE
  5
A7
330
1F
100
AcDbEntity
  8
0
  6
Continuous
 62
     7
370
    25
100
AcDbLine
 10
175.5637237956
 20
83.4719076183
 30
0.0
 11
172.8392834878
 21
83.4719076183
 31
0.0
  0
LINE
  5
A8
330
1F
100
AcDbEntity
  8
0
  6
Continuous
 62
     7
370
    25
100
AcDbLine
 10
191.0392834878
 20
83.4719076183
 30
0.0
 11
188.3392834878
 21
83.4719076183
 31
0.0
  0
LINE
  5
A9
330
1F
100
AcDbEntity
  8
0
  6
Continuous
 62
     7
370
    25
100
AcDbLine
 10
172.8392834878
 20
61.4719076183
 30
0.0
 11
191.0392834878
 21
61.4719076183
 31
0.0
  0
SPLINE
  5
AA
330
1F
100
AcDbEntity
  8
0
  6
Continuous
 62
     7
370
    25
100
AcDbSpline
210
0.0
220
0.0
230
1.0
 70
     8
 71
     3
 72
    11
 73
     7
 74
     0
 42
0.00000001
 43
0.00000001
 40
0.0
 40
0.0
 40
0.0
 40
0.0
 40
0.250000000000644
 40
0.50000000000063
 40
0.7500000000002925
 40
1.0
 40
1.0
 40
1.0
 40
1.0
 10
188.3392834877624
 20
83.4719076182656
 30
0.0
 10
188.2737649658597
 20
83.47942340465947
 30
0.0
 10
188.1427279220546
 20
83.49445497744718
 30
0.0
 10
187.977455453506
 20
83.61007958400839
 30
0.0
 10
187.8618308469442
 20
83.7753520525567
 30
0.0
 10
187.8467992741558
 20
83.90638909636225
 30
0.0
 10
187.8392834877616
 20
83.97190761826504
 30
0.0
  0
SPLINE
  5
AB
330
1F
100
AcDbEntity
  8
0
  6
Continuous
 62
     7
370
    25
100
AcDbSpline
210
0.0
220
0.0
230
1.0
 70
     8
 71
     3
 72
    11
 73
     7
 74
     0
 42
0.00000001
 43
0.00000001
 40
0.0
 40
0.0
 40
0.0
 40
0.0
 40
0.2500000000000002
 40
0.5000000000000006
 40
0.7499999999999993
 40
1.0
 40
1.0
 40
1.0
 40
1.0
 10
176.0392834877637
 20
83.97190761826629
 30
0.0
 10
176.03176770137
 20
83.90638909636317
 30
0.0
 10
176.0167361285827
 20
83.77535205255693
 30
0.0
 10
175.9011115220215
 20
83.61007958400846
 30
0.0
 10
175.7358390534731
 20
83.49445497744728
 30
0.0
 10
175.6048020096668
 20
83.47942340465994
 30
0.0
 10
175.5392834877637
 20
83.47190761826629
 30
0.0
  0
LINE
  5
AC
330
1F
100
AcDbEntity
  8
0
  6
Continuous
 62
     7
370
    25
100
AcDbLine
 10
187.8392834878
 20
83.9719076183
 30
0.0
 11
187.8392834878
 21
84.9719076183
 31
0.0
  0
LINE
  5
AD
330
1F
100
AcDbEntity
  8
0
  6
Continuous
 62
     7
370
    25
100
AcDbLine
 10
176.0392834878
 20
84.9719076183
 30
0.0
 11
176.0392834878
 21
83.9583240153
 31
0.0
  0
LINE
  5
AE
330
1F
100
AcDbEntity
  8
0
  6
Continuous
 62
     7
370
    25
100
AcDbLine
 10
144.3543469972
 20
75.5362996828
 30
0.0
 11
144.3543469972
 21
80.4719076183
 31
0.0
  0
LINE
  5
AF
330
1F
100
AcDbEntity
  8
0
  6
Continuous
 62
     7
370
    25
100
AcDbLine
 10
144.3543469972
 20
64.4719076183
 30
0.0
 11
144.3543469972
 21
75.5362996828
 31
0.0
  0
LINE
  5
B0
330
1F
100
AcDbEntity
  8
0
  6
Continuous
 62
     7
370
    25
100
AcDbLine
 10
138.3543469972
 20
65.4719076183
 30
0.0
 11
138.3543469972
 21
79.4719076183
 31
0.0
  0
LINE
  5
B1
330
1F
100
AcDbEntity
  8
0
  6
Continuous
 62
     7
370
    25
100
AcDbLine
 10
114.5497332523
 20
78.8021444939
 30
0.0
 11
114.5497332523
 21
66.1416707427
 31
0.0
  0
LINE
  5
B2
330
1F
100
AcDbEntity
  8
0
  6
Continuous
 62
     7
370
    25
100
AcDbLine
 10
120.3543469972
 20
65.4719076183
 30
0.0
 11
120.3543469972
 21
79.4719076183
 31
0.0
  0
LINE
  5
B3
330
1F
100
AcDbEntity
  8
0
  6
Continuous
 62
     7
370
    25
100
AcDbLine
 10
124.8543469972
 20
65.4719076183
 30
0.0
 11
124.8543469972
 21
79.4719076183
 31
0.0
  0
LINE
  5
B4
330
1F
100
AcDbEntity
  8
0
  6
Continuous
 62
     7
370
    25
100
AcDbLine
 10
133.8543469972
 20
65.4719076183
 30
0.0
 11
133.8543469972
 21
79.4719076183
 31
0.0
  0
LINE
  5
B5
330
1F
100
AcDbEntity
  8
0
  6
Continuous
 62
     7
370
    25
100
AcDbLine
 10
129.3543469972
 20
65.4719076183
 30
0.0
 11
129.3543469972
 21
79.4719076183
 31
0.0
  0
LINE
  5
B6
330
1F
100
AcDbEntity
  8
0
  6
Continuous
 62
     7
370
    25
100
AcDbLine
 10
113.8543469972
 20
67.0184621078
 30
0.0
 11
113.8543469972
 21
77.9253531287
 31
0.0
  0
SPLINE
  5
B7
330
1F
100
AcDbEntity
  8
0
  6
Continuous
 62
     7
370
    25
100
AcDbSpline
210
0.0
220
0.0
230
1.0
 70
     8
 71
     3
 72
    14
 73
    10
 74
     0
 42
0.00000001
 43
0.00000001
 40
0.0
 40
0.0
 40
0.0
 40
0.0
 40
0.1121956306219166
 40
0.2379353571105087
 40
0.3636425619937719
 40
0.4924415707993736
 40
0.6212389341361996
 40
0.8095844437884945
 40
1.0
 40
1.0
 40
1.0
 40
1.0
 10
148.0704813342467
 20
65.54370438799089
 30
0.0
 10
147.9309698238249
 20
66.05095594161386
 30
0.0
 10
147.6351051732211
 20
67.12669373003864
 30
0.0
 10
147.2960373892094
 20
68.79904760153872
 30
0.0
 10
147.0600487818903
 20
70.56754934183529
 30
0.0
 10
146.9734473940375
 20
72.36493237472374
 30
0.0
 10
147.0543777262003
 20
74.4559981240817
 30
0.0
 10
147.3846987174557
 20
76.81966148850321
 30
0.0
 10
147.8410557511292
 20
78.53683277085872
 30
0.0
 10
148.0704813342467
 20
79.40011084854194
 30
0.0
  0
SPLINE
  5
B8
330
1F
100
AcDbEntity
  8
0
  6
Continuous
 62
     7
370
    25
100
AcDbSpline
210
0.0
220
0.0
230
1.0
 70
     8
 71
     3
 72
    14
 73
    10
 74
     0
 42
0.00000001
 43
0.00000001
 40
0.0
 40
0.0
 40
0.0
 40
0.0
 40
0.1323186310708847
 40
0.2645998498340819
 40
0.3998403232506496
 40
0.5350563921469097
 40
0.6502565417927725
 40
0.7654746613264888
 40
1.0
 40
1.0
 40
1.0
 40
1.0
 10
148.0704813342467
 20
58.61550115771526
 30
0.0
 10
147.907324787375
 20
58.91482960260037
 30
0.0
 10
147.5810578251769
 20
59.51340185902914
 30
0.0
 10
147.2299648266556
 20
60.43515734432376
 30
0.0
 10
147.0190366948506
 20
61.37426029907341
 30
0.0
 10
146.9767089696618
 20
62.27944026317702
 30
0.0
 10
147.0868680930753
 20
63.13538348507379
 30
0.0
 10
147.3757801327849
 20
64.21706219362113
 30
0.0
 10
147.7916284579344
 20
65.01119056628042
 30
0.0
 10
148.0704813342467
 20
65.54370438799089
 30
0.0
  0
SPLINE
  5
B9
330
1F
100
AcDbEntity
  8
0
  6
Continuous
 62
     7
370
    25
100
AcDbSpline
210
0.0
220
0.0
230
1.0
 70
     8
 71
     3
 72
    14
 73
    10
 74
     0
 42
0.00000001
 43
0.00000001
 40
0.0
 40
0.0
 40
0.0
 40
0.0
 40
0.1323186310708862
 40
0.2645998498340851
 40
0.3998403232506545
 40
0.5350563921469161
 40
0.6502565417927775
 40
0.7654746613264921
 40
1.0
 40
1.0
 40
1.0
 40
1.0
 10
148.0704813342467
 20
79.40011084854194
 30
0.0
 10
147.907324787375
 20
79.69943929342703
 30
0.0
 10
147.5810578251769
 20
80.2980115498558
 30
0.0
 10
147.2299648266556
 20
81.21976703515038
 30
0.0
 10
147.0190366948506
 20
82.15886998990001
 30
0.0
 10
146.9767089696618
 20
83.0640499540036
 30
0.0
 10
147.0868680930753
 20
83.91999317590034
 30
0.0
 10
147.375780132785
 20
85.00167188444765
 30
0.0
 10
147.7916284579344
 20
85.79580025710688
 30
0.0
 10
148.0704813342467
 20
86.3283140788173
 30
0.0
  0
LINE
  5
BA
330
1F
100
AcDbEntity
  8
0
  6
Continuous
 62
     7
370
    25
100
AcDbLine
 10
146.8543469972
 20
72.4719076183
 30
0.0
 11
146.8543469972
 21
84.2219076183
 31
0.0
  0
LINE
  5
BB
330
1F
100
AcDbEntity
  8
0
  6
Continuous
 62
     7
370
    25
100
AcDbLine
 10
146.8543469972
 20
60.7219076183
 30
0.0
 11
146.8543469972
 21
72.4719076183
 31
0.0
  0
LINE
  5
BC
330
1F
100
AcDbEntity
  8
0
  6
Continuous
 62
     7
370
    25
100
AcDbLine
 10
152.7739622395
 20
79.4001108485
 30
0.0
 11
152.8543469972
 21
79.7107954232
 31
0.0
  0
LINE
  5
BD
330
1F
100
AcDbEntity
  8
0
  6
Continuous
 62
     7
370
    25
100
AcDbLine
 10
152.8543469972
 20
79.7107954232
 30
0.0
 11
152.8543469972
 21
78.7787416991
 31
0.0
  0
LINE
  5
BE
330
1F
100
AcDbEntity
  8
0
  6
Continuous
 62
     7
370
    25
100
AcDbLine
 10
152.8543469972
 20
78.7787416991
 30
0.0
 11
152.7739622395
 21
79.4001108485
 31
0.0
  0
LINE
  5
BF
330
1F
100
AcDbEntity
  8
0
  6
Continuous
 62
     7
370
    25
100
AcDbLine
 10
152.8543469972
 20
79.7107954232
 30
0.0
 11
152.934731755
 21
79.4001108485
 31
0.0
  0
LINE
  5
C0
330
1F
100
AcDbEntity
  8
0
  6
Continuous
 62
     7
370
    25
100
AcDbLine
 10
152.934731755
 20
79.4001108485
 30
0.0
 11
152.8543469972
 21
78.7787416991
 31
0.0
  0
SPLINE
  5
C1
330
1F
100
AcDbEntity
  8
0
  6
Continuous
 62
     7
370
    25
100
AcDbSpline
210
0.0
220
0.0
230
1.0
 70
     8
 71
     3
 72
    14
 73
    10
 74
     0
 42
0.00000001
 43
0.00000001
 40
0.0
 40
0.0
 40
0.0
 40
0.0
 40
0.1323186310708863
 40
0.2645998498340851
 40
0.3998403232506546
 40
0.5350563921469161
 40
0.6502565417927775
 40
0.7654746613264921
 40
1.0
 40
1.0
 40
1.0
 40
1.0
 10
157.6382126602029
 20
79.40011084854194
 30
0.0
 10
157.8013692070746
 20
79.69943929342703
 30
0.0
 10
158.1276361692726
 20
80.2980115498558
 30
0.0
 10
158.4787291677939
 20
81.21976703515038
 30
0.0
 10
158.6896572995989
 20
82.15886998990001
 30
0.0
 10
158.7319850247877
 20
83.0640499540036
 30
0.0
 10
158.6218259013743
 20
83.91999317590034
 30
0.0
 10
158.3329138616646
 20
85.00167188444765
 30
0.0
 10
157.9170655365151
 20
85.79580025710688
 30
0.0
 10
157.6382126602029
 20
86.3283140788173
 30
0.0
  0
SPLINE
  5
C2
330
1F
100
AcDbEntity
  8
0
  6
Continuous
 62
     7
370
    25
100
AcDbSpline
210
0.0
220
0.0
230
1.0
 70
     8
 71
     3
 72
    14
 73
    10
 74
     0
 42
0.00000001
 43
0.00000001
 40
0.0
 40
0.0
 40
0.0
 40
0.0
 40
0.1323186310708847
 40
0.2645998498340819
 40
0.3998403232506495
 40
0.5350563921469096
 40
0.6502565417927724
 40
0.7654746613264886
 40
1.0
 40
1.0
 40
1.0
 40
1.0
 10
157.6382126602029
 20
58.61550115771526
 30
0.0
 10
157.8013692070746
 20
58.91482960260036
 30
0.0
 10
158.1276361692726
 20
59.51340185902914
 30
0.0
 10
158.4787291677939
 20
60.43515734432376
 30
0.0
 10
158.6896572995989
 20
61.37426029907341
 30
0.0
 10
158.7319850247878
 20
62.27944026317702
 30
0.0
 10
158.6218259013743
 20
63.1353834850738
 30
0.0
 10
158.3329138616646
 20
64.21706219362115
 30
0.0
 10
157.9170655365152
 20
65.01119056628042
 30
0.0
 10
157.6382126602029
 20
65.54370438799089
 30
0.0
  0
SPLINE
  5
C3
330
1F
100
AcDbEntity
  8
0
  6
Continuous
 62
     7
370
    25
100
AcDbSpline
210
0.0
220
0.0
230
1.0
 70
     8
 71
     3
 72
    14
 73
    10
 74
     0
 42
0.00000001
 43
0.00000001
 40
0.0
 40
0.0
 40
0.0
 40
0.0
 40
0.1121956306219166
 40
0.2379353571105088
 40
0.3636425619937719
 40
0.4924415707993736
 40
0.6212389341361996
 40
0.8095844437884945
 40
1.0
 40
1.0
 40
1.0
 40
1.0
 10
157.6382126602029
 20
65.54370438799089
 30
0.0
 10
157.7777241706246
 20
66.05095594161386
 30
0.0
 10
158.0735888212284
 20
67.12669373003864
 30
0.0
 10
158.4126566052401
 20
68.79904760153872
 30
0.0
 10
158.6486452125592
 20
70.56754934183529
 30
0.0
 10
158.735246600412
 20
72.36493237472374
 30
0.0
 10
158.6543162682492
 20
74.4559981240817
 30
0.0
 10
158.3239952769938
 20
76.81966148850321
 30
0.0
 10
157.8676382433203
 20
78.53683277085872
 30
0.0
 10
157.6382126602029
 20
79.40011084854194
 30
0.0
  0
LINE
  5
C4
330
1F
100
AcDbEntity
  8
0
  6
Continuous
 62
     7
370
    25
100
AcDbLine
 10
158.8543469972
 20
72.4719076183
 30
0.0
 11
158.8543469972
 21
84.2219076183
 31
0.0
  0
LINE
  5
C5
330
1F
100
AcDbEntity
  8
0
  6
Continuous
 62
     7
370
    25
100
AcDbLine
 10
158.8543469972
 20
60.7219076183
 30
0.0
 11
158.8543469972
 21
72.4719076183
 31
0.0
  0
LINE
  5
C6
330
1F
100
AcDbEntity
  8
0
  6
Continuous
 62
     7
370
    25
100
AcDbLine
 10
152.8543469972
 20
65.2330198133
 30
0.0
 11
152.7739622395
 21
65.543704388
 31
0.0
  0
LINE
  5
C7
330
1F
100
AcDbEntity
  8
0
  6
Continuous
 62
     7
370
    25
100
AcDbLine
 10
152.7739622395
 20
65.543704388
 30
0.0
 11
152.8543469972
 21
66.1650735374
 31
0.0
  0
LINE
  5
C8
330
1F
100
AcDbEntity
  8
0
  6
Continuous
 62
     7
370
    25
100
AcDbLine
 10
152.8543469972
 20
66.1650735374
 30
0.0
 11
152.8543469972
 21
65.2330198133
 31
0.0
  0
LINE
  5
C9
330
1F
100
AcDbEntity
  8
0
  6
Continuous
 62
     7
370
    25
100
AcDbLine
 10
152.934731755
 20
65.543704388
 30
0.0
 11
152.8543469972
 21
65.2330198133
 31
0.0
  0
LINE
  5
CA
330
1F
100
AcDbEntity
  8
0
  6
Continuous
 62
     7
370
    25
100
AcDbLine
 10
152.8543469972
 20
66.1650735374
 30
0.0
 11
152.934731755
 21
65.543704388
 31
0.0
  0
LINE
  5
CB
330
1F
100
AcDbEntity
  8
0
  6
Continuous
 62
     7
370
    25
100
AcDbLine
 10
152.934731755
 20
79.4001108485
 30
0.0
 11
157.6382126602
 21
79.4001108485
 31
0.0
  0
LINE
  5
CC
330
1F
100
AcDbEntity
  8
0
  6
Continuous
 62
     7
370
    25
100
AcDbLine
 10
152.934731755
 20
65.543704388
 30
0.0
 11
157.6382126602
 21
65.543704388
 31
0.0
  0
LINE
  5
CD
330
1F
100
AcDbEntity
  8
0
  6
Continuous
 62
     7
370
    25
100
AcDbLine
 10
148.0704813342
 20
65.543704388
 30
0.0
 11
152.7739622395
 21
65.543704388
 31
0.0
  0
LINE
  5
CE
330
1F
100
AcDbEntity
  8
0
  6
Continuous
 62
     7
370
    25
100
AcDbLine
 10
148.0704813342
 20
79.4001108485
 30
0.0
 11
152.7739622395
 21
79.4001108485
 31
0.0
  0
LINE
  5
CF
330
1F
100
AcDbEntity
  8
0
  6
Continuous
 62
     7
370
    25
100
AcDbLine
 10
152.934731755
 20
58.6155011577
 30
0.0
 11
157.6382126602
 21
58.6155011577
 31
0.0
  0
LINE
  5
D0
330
1F
100
AcDbEntity
  8
0
  6
Continuous
 62
     7
370
    25
100
AcDbLine
 10
152.8543469972
 20
58.9261857324
 30
0.0
 11
152.934731755
 21
58.6155011577
 31
0.0
  0
LINE
  5
D1
330
1F
100
AcDbEntity
  8
0
  6
Continuous
 62
     7
370
    25
100
AcDbLine
 10
152.7739622395
 20
58.6155011577
 30
0.0
 11
152.8543469972
 21
58.9261857324
 31
0.0
  0
LINE
  5
D2
330
1F
100
AcDbEntity
  8
0
  6
Continuous
 62
     7
370
    25
100
AcDbLine
 10
148.0704813342
 20
58.6155011577
 30
0.0
 11
152.7739622395
 21
58.6155011577
 31
0.0
  0
LINE
  5
D3
330
1F
100
AcDbEntity
  8
0
  6
Continuous
 62
     7
370
    25
100
AcDbLine
 10
152.934731755
 20
86.3283140788
 30
0.0
 11
157.6382126602
 21
86.3283140788
 31
0.0
  0
LINE
  5
D4
330
1F
100
AcDbEntity
  8
0
  6
Continuous
 62
     7
370
    25
100
AcDbLine
 10
148.0704813342
 20
86.3283140788
 30
0.0
 11
152.7739622395
 21
86.3283140788
 31
0.0
  0
LINE
  5
D5
330
1F
100
AcDbEntity
  8
0
  6
Continuous
 62
     7
370
    25
100
AcDbLine
 10
152.8543469972
 20
86.0176295041
 30
0.0
 11
152.7739622395
 21
86.3283140788
 31
0.0
  0
LINE
  5
D6
330
1F
100
AcDbEntity
  8
0
  6
Continuous
 62
     7
370
    25
100
AcDbLine
 10
152.934731755
 20
86.3283140788
 30
0.0
 11
152.8543469972
 21
86.0176295041
 31
0.0
  0
LINE
  5
D7
330
1F
100
AcDbEntity
  8
0
  6
Continuous
 62
     7
370
    25
100
AcDbLine
 10
145.3543469972
 20
72.4719076183
 30
0.0
 11
145.3543469972
 21
60.7219076183
 31
0.0
  0
LINE
  5
D8
330
1F
100
AcDbEntity
  8
0
  6
Continuous
 62
     7
370
    25
100
AcDbLine
 10
145.3543469972
 20
84.2219076183
 30
0.0
 11
145.3543469972
 21
72.4719076183
 31
0.0
  0
LINE
  5
D9
330
1F
100
AcDbEntity
  8
0
  6
Continuous
 62
     7
370
    25
100
AcDbLine
 10
160.3543469972
 20
60.7219076183
 30
0.0
 11
160.3543469972
 21
84.2219076183
 31
0.0
  0
LINE
  5
DA
330
1F
100
AcDbEntity
  8
0
  6
Continuous
 62
     7
370
    25
100
AcDbLine
 10
144.8543469972
 20
72.4719076183
 30
0.0
 11
144.8543469972
 21
83.7219076183
 31
0.0
  0
LINE
  5
DB
330
1F
100
AcDbEntity
  8
0
  6
Continuous
 62
     7
370
    25
100
AcDbLine
 10
144.8543469972
 20
61.2219076183
 30
0.0
 11
144.8543469972
 21
72.4719076183
 31
0.0
  0
LINE
  5
DC
330
1F
100
AcDbEntity
  8
0
  6
Continuous
 62
     7
370
    25
100
AcDbLine
 10
160.8543469972
 20
83.7219076183
 30
0.0
 11
160.8543469972
 21
61.2219076183
 31
0.0
  0
LINE
  5
DD
330
1F
100
AcDbEntity
  8
0
  6
Continuous
 62
     7
370
    25
100
AcDbLine
 10
152.8543469972
 20
58.9261857324
 30
0.0
 11
152.8543469972
 21
58.9155011577
 31
0.0
  0
LINE
  5
DE
330
1F
100
AcDbEntity
  8
0
  6
Continuous
 62
     7
370
    25
100
AcDbLine
 10
152.8543469972
 20
86.0283140788
 30
0.0
 11
152.8543469972
 21
86.0176295041
 31
0.0
  0
SPLINE
  5
DF
330
1F
100
AcDbEntity
  8
0
  6
Continuous
 62
     7
370
    25
100
AcDbSpline
210
0.0
220
0.0
230
1.0
 70
     8
 71
     3
 72
    15
 73
    11
 74
     0
 42
0.00000001
 43
0.00000001
 40
0.0
 40
0.0
 40
0.0
 40
0.0
 40
0.0090459071881971
 40
0.1032433785236816
 40
0.1542564497735189
 40
0.31331690267151
 40
0.5243720399414428
 40
0.6678060008509183
 40
0.9918332554187028
 40
1.0
 40
1.0
 40
1.0
 40
1.0
 10
187.1783688204218
 20
101.5719076182663
 30
0.0
 10
187.1783631284551
 20
101.5735887168507
 30
0.0
 10
187.1782981645044
 20
101.5927755484063
 30
0.0
 10
187.1763024780684
 20
101.6214698279262
 30
0.0
 10
187.168485481852
 20
101.6721458678981
 30
0.0
 10
187.151315658097
 20
101.730022167475
 30
0.0
 10
187.1247317615295
 20
101.7748876822097
 30
0.0
 10
187.0869024630408
 20
101.8122500654643
 30
0.0
 10
187.0586216830306
 20
101.8217960777337
 30
0.0
 10
187.0387905354993
 20
101.8219049419205
 30
0.0
 10
187.0383030013565
 20
101.8219076182663
 30
0.0
  0
LINE
  5
E0
330
1F
100
AcDbEntity
  8
0
  6
Continuous
 62
     7
370
    25
100
AcDbLine
 10
187.1783688204
 20
101.5719076183
 30
0.0
 11
176.7001981551
 21
101.5719076183
 31
0.0
  0
SPLINE
  5
E1
330
1F
100
AcDbEntity
  8
0
  6
Continuous
 62
     7
370
    25
100
AcDbSpline
210
0.0
220
0.0
230
1.0
 70
     8
 71
     3
 72
    15
 73
    11
 74
     0
 42
0.00000001
 43
0.00000001
 40
0.0
 40
0.0
 40
0.0
 40
0.0
 40
0.0081667445812973
 40
0.3321939991490804
 40
0.475627960058556
 40
0.6866830973284891
 40
0.8457435502264751
 40
0.8967566214763124
 40
0.9909540928118028
 40
1.0
 40
1.0
 40
1.0
 40
1.0
 10
176.8402639741709
 20
101.8219076182663
 30
0.0
 10
176.839776440028
 20
101.8219049419205
 30
0.0
 10
176.8199452924968
 20
101.8217960777337
 30
0.0
 10
176.7916645124865
 20
101.8122500654643
 30
0.0
 10
176.7538352139979
 20
101.7748876822097
 30
0.0
 10
176.7272513174303
 20
101.730022167475
 30
0.0
 10
176.7100814936754
 20
101.6721458678982
 30
0.0
 10
176.7022644974589
 20
101.6214698279262
 30
0.0
 10
176.7002688110231
 20
101.5927755484062
 30
0.0
 10
176.7002038470723
 20
101.5735887168507
 30
0.0
 10
176.7001981551056
 20
101.5719076182663
 30
0.0
  0
LINE
  5
E2
330
1F
100
AcDbEntity
  8
0
  6
Continuous
 62
     7
370
    25
100
AcDbLine
 10
176.8402639742
 20
101.8219076183
 30
0.0
 11
187.0383030014
 21
101.8219076183
 31
0.0
  0
LINE
  5
E3
330
1F
100
AcDbEntity
  8
0
  6
Continuous
 62
     7
370
    25
100
AcDbLine
 10
187.1783688204
 20
100.9719076183
 30
0.0
 11
187.1783688204
 21
101.5719076183
 31
0.0
  0
LINE
  5
E4
330
1F
100
AcDbEntity
  8
0
  6
Continuous
 62
     7
370
    25
100
AcDbLine
 10
176.7001981551
 20
100.9719076183
 30
0.0
 11
187.1783688204
 21
100.9719076183
 31
0.0
  0
LINE
  5
E5
330
1F
100
AcDbEntity
  8
0
  6
Continuous
 62
     7
370
    25
100
AcDbLine
 10
176.7001981551
 20
101.5719076183
 30
0.0
 11
176.7001981551
 21
100.9719076183
 31
0.0
  0
SPLINE
  5
E6
330
1F
100
AcDbEntity
  8
0
  6
Continuous
 62
     7
370
    25
100
AcDbSpline
210
0.0
220
0.0
230
1.0
 70
     8
 71
     3
 72
    15
 73
    11
 74
     0
 42
0.00000001
 43
0.00000001
 40
0.0
 40
0.0
 40
0.0
 40
0.0
 40
0.0080847466189582
 40
0.3310106400648243
 40
0.4750333064304948
 40
0.6874363079215142
 40
0.8468367539418303
 40
0.9000996640391847
 40
0.9910442771984082
 40
1.0
 40
1.0
 40
1.0
 40
1.0
 10
187.0383030013565
 20
101.8219076182663
 30
0.0
 10
187.0395828329006
 20
101.8219049418566
 30
0.0
 10
187.0919824786238
 20
101.8217953626549
 30
0.0
 10
187.167337570079
 20
101.8121162078172
 30
0.0
 10
187.2692566820966
 20
101.7748343843555
 30
0.0
 10
187.3416476270885
 20
101.7301265111721
 30
0.0
 10
187.3893530553534
 20
101.6719908610394
 30
0.0
 10
187.4108885390607
 20
101.6211037875711
 30
0.0
 10
187.4163175550802
 20
101.5923415584637
 30
0.0
 10
187.4164933072367
 20
101.5735887438392
 30
0.0
 10
187.4165090628154
 20
101.5719076182663
 30
0.0
  0
LINE
  5
E7
330
1F
100
AcDbEntity
  8
0
  6
Continuous
 62
     7
370
    25
100
AcDbLine
 10
187.1783688204
 20
101.5719076183
 30
0.0
 11
187.4165090628
 21
101.5719076183
 31
0.0
  0
SPLINE
  5
E8
330
1F
100
AcDbEntity
  8
0
  6
Continuous
 62
     7
370
    25
100
AcDbSpline
210
0.0
220
0.0
230
1.0
 70
     8
 71
     3
 72
    15
 73
    11
 74
     0
 42
0.00000001
 43
0.00000001
 40
0.0
 40
0.0
 40
0.0
 40
0.0
 40
0.0089557228015919
 40
0.0999003359608209
 40
0.1531632460581751
 40
0.3125636920784904
 40
0.5249666935695061
 40
0.6689893599351777
 40
0.991915253381045
 40
1.0
 40
1.0
 40
1.0
 40
1.0
 10
176.462057912712
 20
101.5719076182663
 30
0.0
 10
176.4620736682906
 20
101.5735887438392
 30
0.0
 10
176.4622494204472
 20
101.5923415584636
 30
0.0
 10
176.4676784364667
 20
101.6211037875711
 30
0.0
 10
176.489213920174
 20
101.6719908610394
 30
0.0
 10
176.5369193484389
 20
101.7301265111721
 30
0.0
 10
176.6093102934308
 20
101.7748343843555
 30
0.0
 10
176.7112294054484
 20
101.8121162078172
 30
0.0
 10
176.7865844969035
 20
101.821795362655
 30
0.0
 10
176.8389841426268
 20
101.8219049418566
 30
0.0
 10
176.8402639741709
 20
101.8219076182663
 30
0.0
  0
LINE
  5
E9
330
1F
100
AcDbEntity
  8
0
  6
Continuous
 62
     7
370
    25
100
AcDbLine
 10
176.4620579127
 20
101.5719076183
 30
0.0
 11
176.7001981551
 21
101.5719076183
 31
0.0
  0
LINE
  5
EA
330
1F
100
AcDbEntity
  8
0
  6
Continuous
 62
     7
370
    25
100
AcDbLine
 10
176.4620579127
 20
100.9719076183
 30
0.0
 11
176.4620579127
 21
101.5719076183
 31
0.0
  0
LINE
  5
EB
330
1F
100
AcDbEntity
  8
0
  6
Continuous
 62
     7
370
    25
100
AcDbLine
 10
176.7001981551
 20
100.9719076183
 30
0.0
 11
176.4620579127
 21
100.9719076183
 31
0.0
  0
LINE
  5
EC
330
1F
100
AcDbEntity
  8
0
  6
Continuous
 62
     7
370
    25
100
AcDbLine
 10
187.4165090628
 20
101.5719076183
 30
0.0
 11
187.4165090628
 21
100.9719076183
 31
0.0
  0
LINE
  5
ED
330
1F
100
AcDbEntity
  8
0
  6
Continuous
 62
     7
370
    25
100
AcDbLine
 10
187.4165090628
 20
100.9719076183
 30
0.0
 11
187.1783688204
 21
100.9719076183
 31
0.0
  0
LINE
  5
EE
330
1F
100
AcDbEntity
  8
0
  6
Continuous
 62
     7
370
    25
100
AcDbLine
 10
175.9392834878
 20
100.9719076183
 30
0.0
 11
175.9392834878
 21
101.5719076183
 31
0.0
  0
LINE
  5
EF
330
1F
100
AcDbEntity
  8
0
  6
Continuous
 62
     7
370
    25
100
AcDbLine
 10
175.9392834878
 20
101.5719076183
 30
0.0
 11
176.1892834878
 21
101.5719076183
 31
0.0
  0
LINE
  5
F0
330
1F
100
AcDbEntity
  8
0
  6
Continuous
 62
     7
370
    25
100
AcDbLine
 10
176.1892834878
 20
101.5719076183
 30
0.0
 11
176.1892834878
 21
100.9719076183
 31
0.0
  0
LINE
  5
F1
330
1F
100
AcDbEntity
  8
0
  6
Continuous
 62
     7
370
    25
100
AcDbLine
 10
176.1892834878
 20
100.9719076183
 30
0.0
 11
175.9392834878
 21
100.9719076183
 31
0.0
  0
LINE
  5
F2
330
1F
100
AcDbEntity
  8
0
  6
Continuous
 62
     7
370
    25
100
AcDbLine
 10
187.6892834878
 20
101.5719076183
 30
0.0
 11
187.6892834878
 21
101.8219076183
 31
0.0
  0
LINE
  5
F3
330
1F
100
AcDbEntity
  8
0
  6
Continuous
 62
     7
370
    25
100
AcDbLine
 10
187.6892834878
 20
101.5719076183
 30
0.0
 11
187.4165090628
 21
101.5719076183
 31
0.0
  0
LINE
  5
F4
330
1F
100
AcDbEntity
  8
0
  6
Continuous
 62
     7
370
    25
100
AcDbLine
 10
187.0383030014
 20
101.8219076183
 30
0.0
 11
187.6892834878
 21
101.8219076183
 31
0.0
  0
ARC
  5
F5
330
1F
100
AcDbEntity
  8
0
  6
Continuous
 62
     7
370
    25
100
AcDbCircle
 10
176.1892834878
 20
101.5719076183
 30
0.0
 40
0.25
100
AcDbArc
 50
90.0
 51
180.0
  0
LINE
  5
F6
330
1F
100
AcDbEntity
  8
0
  6
Continuous
 62
     7
370
    25
100
AcDbLine
 10
176.1892834878
 20
101.8219076183
 30
0.0
 11
176.1892834878
 21
101.5719076183
 31
0.0
  0
LINE
  5
F7
330
1F
100
AcDbEntity
  8
0
  6
Continuous
 62
     7
370
    25
100
AcDbLine
 10
176.4620579127
 20
101.5719076183
 30
0.0
 11
176.1892834878
 21
101.5719076183
 31
0.0
  0
LINE
  5
F8
330
1F
100
AcDbEntity
  8
0
  6
Continuous
 62
     7
370
    25
100
AcDbLine
 10
176.1892834878
 20
101.8219076183
 30
0.0
 11
176.8402639742
 21
101.8219076183
 31
0.0
  0
LINE
  5
F9
330
1F
100
AcDbEntity
  8
0
  6
Continuous
 62
     7
370
    25
100
AcDbLine
 10
187.6892834878
 20
100.9719076183
 30
0.0
 11
187.6892834878
 21
101.5719076183
 31
0.0
  0
LINE
  5
FA
330
1F
100
AcDbEntity
  8
0
  6
Continuous
 62
     7
370
    25
100
AcDbLine
 10
187.4165090628
 20
100.9719076183
 30
0.0
 11
187.6892834878
 21
100.9719076183
 31
0.0
  0
LINE
  5
FB
330
1F
100
AcDbEntity
  8
0
  6
Continuous
 62
     7
370
    25
100
AcDbLine
 10
187.6892834878
 20
101.5719076183
 30
0.0
 11
187.9392834878
 21
101.5719076183
 31
0.0
  0
ARC
  5
FC
330
1F
100
AcDbEntity
  8
0
  6
Continuous
 62
     7
370
    25
100
AcDbCircle
 10
187.6892834878
 20
101.5719076183
 30
0.0
 40
0.25
100
AcDbArc
 50
0.0
 51
90.0
  0
LINE
  5
FD
330
1F
100
AcDbEntity
  8
0
  6
Continuous
 62
     7
370
    25
100
AcDbLine
 10
176.1892834878
 20
100.9719076183
 30
0.0
 11
176.4620579127
 21
100.9719076183
 31
0.0
  0
LINE
  5
FE
330
1F
100
AcDbEntity
  8
0
  6
Continuous
 62
     7
370
    25
100
AcDbLine
 10
187.9392834878
 20
101.5719076183
 30
0.0
 11
187.9392834878
 21
100.9719076183
 31
0.0
  0
LINE
  5
FF
330
1F
100
AcDbEntity
  8
0
  6
Continuous
 62
     7
370
    25
100
AcDbLine
 10
187.9392834878
 20
100.9719076183
 30
0.0
 11
187.6892834878
 21
100.9719076183
 31
0.0
  0
LINE
  5
100
330
1F
100
AcDbEntity
  8
0
  6
Continuous
 62
     7
370
    25
100
AcDbLine
 10
186.9392834878
 20
101.8219076183
 30
0.0
 11
186.9392834878
 21
101.8319076183
 31
0.0
  0
LINE
  5
101
330
1F
100
AcDbEntity
  8
0
  6
Continuous
 62
     7
370
    25
100
AcDbLine
 10
176.9392834878
 20
101.8219076183
 30
0.0
 11
176.9392834878
 21
101.8319076183
 31
0.0
  0
LINE
  5
102
330
1F
100
AcDbEntity
  8
0
  6
Continuous
 62
     7
370
    25
100
AcDbLine
 10
176.9392834878
 20
101.8319076183
 30
0.0
 11
186.9392834878
 21
101.8319076183
 31
0.0
  0
LINE
  5
103
330
1F
100
AcDbEntity
  8
0
  6
Continuous
 62
     7
370
    25
100
AcDbLine
 10
179.9392834878
 20
84.9719076183
 30
0.0
 11
188.9392834878
 21
84.9719076183
 31
0.0
  0
LINE
  5
104
330
1F
100
AcDbEntity
  8
0
  6
Continuous
 62
     7
370
    25
100
AcDbLine
 10
179.9392834878
 20
85.0097245421
 30
0.0
 11
179.9392834878
 21
84.9719076183
 31
0.0
  0
SPLINE
  5
105
330
1F
100
AcDbEntity
  8
0
  6
Continuous
 62
     7
370
    25
100
AcDbSpline
210
0.0
220
0.0
230
1.0
 70
     8
 71
     3
 72
     9
 73
     5
 74
     0
 42
0.00000001
 43
0.00000001
 40
0.0
 40
0.0
 40
0.0
 40
0.0
 40
0.4875141023677128
 40
0.9999999999999999
 40
0.9999999999999999
 40
0.9999999999999999
 40
0.9999999999999999
 10
179.7833382373365
 20
84.97190761826636
 30
0.0
 10
179.8096448112591
 20
84.97363496423806
 30
0.0
 10
179.8636054532073
 20
84.97717813552953
 30
0.0
 10
179.9136409839021
 20
84.99869662147884
 30
0.0
 10
179.9392834877637
 20
85.00972454206627
 30
0.0
  0
SPLINE
  5
106
330
1F
100
AcDbEntity
  8
0
  6
Continuous
 62
     7
370
    25
100
AcDbSpline
210
0.0
220
0.0
230
1.0
 70
     8
 71
     3
 72
    17
 73
    13
 74
     0
 42
0.00000001
 43
0.00000001
 40
0.0
 40
0.0
 40
0.0
 40
0.0
 40
0.3241697628029873
 40
0.5422758463620719
 40
0.689509052693928
 40
0.7894036290694505
 40
0.8577090008137825
 40
0.9049823971474137
 40
0.9551712229700868
 40
0.9753097783197817
 40
0.9919572060138848
 40
1.0
 40
1.0
 40
1.0
 40
1.0
 10
177.4647366036815
 20
92.97190761826391
 30
0.0
 10
177.6074519636987
 20
92.05929411565823
 30
0.0
 10
177.8461882726407
 20
90.5326611093969
 30
0.0
 10
178.2257754670923
 20
88.60588820711592
 30
0.0
 10
178.5349096754394
 20
87.31825273618315
 30
0.0
 10
178.7910232036395
 20
86.45910076946143
 30
0.0
 10
179.0053342065345
 20
85.88563288108402
 30
0.0
 10
179.2085684275624
 20
85.46410072705406
 30
0.0
 10
179.393113692105
 20
85.18360818425862
 30
0.0
 10
179.5791847784731
 20
85.02805951567797
 30
0.0
 10
179.6943953777291
 20
84.97744891648045
 30
0.0
 10
179.761484183202
 20
84.97326916467581
 30
0.0
 10
179.7833382373365
 20
84.97190761826636
 30
0.0
  0
LINE
  5
107
330
1F
100
AcDbEntity
  8
0
  6
Continuous
 62
     7
370
    25
100
AcDbLine
 10
177.4647366037
 20
92.9719076183
 30
0.0
 11
189.3892834878
 21
92.9719076182
 31
0.0
  0
LINE
  5
108
330
1F
100
AcDbEntity
  8
0
  6
Continuous
 62
     7
370
    25
100
AcDbLine
 10
178.2249473594
 20
93.9666511962
 30
0.0
 11
177.4647366037
 21
92.9719076183
 31
0.0
  0
LINE
  5
109
330
1F
100
AcDbEntity
  8
0
  6
Continuous
 62
     7
370
    25
100
AcDbLine
 10
176.7154813134
 20
100.9719076183
 30
0.0
 11
174.9873426494
 21
93.9666511962
 31
0.0
  0
LINE
  5
10A
330
1F
100
AcDbEntity
  8
0
  6
Continuous
 62
     7
370
    25
100
AcDbLine
 10
187.1783688204
 20
100.9719076182
 30
0.0
 11
176.7154813134
 21
100.9719076183
 31
0.0
  0
SPLINE
  5
10B
330
1F
100
AcDbEntity
  8
0
  6
Continuous
 62
     7
370
    25
100
AcDbSpline
210
0.0
220
0.0
230
1.0
 70
     8
 71
     3
 72
    11
 73
     7
 74
     0
 42
0.00000001
 43
0.00000001
 40
0.0
 40
0.0
 40
0.0
 40
0.0
 40
0.3151460283626114
 40
0.6300406851636199
 40
0.9511455108347375
 40
1.0
 40
1.0
 40
1.0
 40
1.0
 10
175.4392834877637
 20
84.97190761826629
 30
0.0
 10
175.2852861017298
 20
85.39335292853242
 30
0.0
 10
174.9774141633961
 20
86.23590738945539
 30
0.0
 10
174.0263807555189
 20
87.21317304670934
 30
0.0
 10
173.1728948714602
 20
87.6709035837682
 30
0.0
 10
172.6791923353053
 20
87.81343903838702
 30
0.0
 10
172.613997098326
 20
87.83226136977345
 30
0.0
  0
LINE
  5
10C
330
1F
100
AcDbEntity
  8
0
  6
Continuous
 62
     7
370
    25
100
AcDbLine
 10
172.6139970983
 20
87.8322613698
 30
0.0
 11
166.8342402485
 21
89.4008828103
 31
0.0
  0
SPLINE
  5
10D
330
1F
100
AcDbEntity
  8
0
  6
Continuous
 62
     7
370
    25
100
AcDbSpline
210
0.0
220
0.0
230
1.0
 70
     8
 71
     3
 72
     9
 73
     5
 74
     0
 42
0.00000001
 43
0.00000001
 40
0.0
 40
0.0
 40
0.0
 40
0.0
 40
0.4976931370791441
 40
0.9999999999999999
 40
0.9999999999999999
 40
0.9999999999999999
 40
0.9999999999999999
 10
159.763846626227
 20
90.72408331124184
 30
0.0
 10
160.9524835900083
 20
90.57463643024138
 30
0.0
 10
163.3407764460382
 20
90.27435726248449
 30
0.0
 10
165.666176062226
 20
89.69293513509707
 30
0.0
 10
166.8342402484708
 20
89.40088281025632
 30
0.0
  0
LINE
  5
10E
330
1F
100
AcDbEntity
  8
0
  6
Continuous
 62
     7
370
    25
100
AcDbLine
 10
159.7638466262
 20
90.7240833112
 30
0.0
 11
159.7638466262
 21
93.9666511963
 31
0.0
  0
LINE
  5
10F
330
1F
100
AcDbEntity
  8
0
  6
Continuous
 62
     7
370
    25
100
AcDbLine
 10
159.7638466262
 20
93.9666511963
 30
0.0
 11
178.2249473594
 21
93.9666511962
 31
0.0
  0
LINE
  5
110
330
1F
100
AcDbEntity
  8
0
  6
Continuous
 62
     7
370
    25
100
AcDbLine
 10
179.7833382373
 20
84.9719076183
 30
0.0
 11
175.4392834878
 21
84.9719076183
 31
0.0
  0
LINE
  5
111
330
1F
100
AcDbEntity
  8
0
  6
Continuous
 62
     7
370
    25
100
AcDbLine
 10
179.9392834878
 20
85.0097245421
 30
0.0
 11
179.9324841298
 21
84.9719076183
 31
0.0
  0
LINE
  5
112
330
1F
100
AcDbEntity
  8
0
  6
Continuous
 62
     7
370
    25
100
AcDbLine
 10
179.9392834878
 20
84.9719076183
 30
0.0
 11
179.9324841298
 21
84.9719076183
 31
0.0
  0
LINE
  5
113
330
1F
100
AcDbEntity
  8
0
  6
Continuous
 62
     7
370
    25
100
AcDbLine
 10
179.9324841298
 20
84.9719076183
 30
0.0
 11
179.7833382373
 21
84.9719076183
 31
0.0
  0
LINE
  5
114
330
1F
100
AcDbEntity
  8
0
  6
Continuous
 62
     7
370
    25
100
AcDbLine
 10
141.9392834878
 20
102.9719076183
 30
0.0
 11
159.7638466262
 21
102.9719076183
 31
0.0
  0
LINE
  5
115
330
1F
100
AcDbEntity
  8
0
  6
Continuous
 62
     7
370
    25
100
AcDbLine
 10
159.7638466262
 20
102.9719076183
 30
0.0
 11
159.7638466262
 21
93.9666511963
 31
0.0
  0
LINE
  5
116
330
1F
100
AcDbEntity
  8
0
  6
Continuous
 62
     7
370
    25
100
AcDbLine
 10
155.04761563
 20
90.9719076183
 30
0.0
 11
146.9392834878
 21
90.9719076183
 31
0.0
  0
ARC
  5
117
330
1F
100
AcDbEntity
  8
0
  6
Continuous
 62
     7
370
    25
100
AcDbCircle
 10
146.9392834878
 20
95.9719076183
 30
0.0
 40
5.0
100
AcDbArc
 50
180.0
 51
270.0
  0
LINE
  5
118
330
1F
100
AcDbEntity
  8
0
  6
Continuous
 62
     7
370
    25
100
AcDbLine
 10
141.9392834878
 20
95.9719076183
 30
0.0
 11
141.9392834878
 21
102.9719076183
 31
0.0
  0
ARC
  5
119
330
1F
100
AcDbEntity
  8
0
  6
Continuous
 62
     7
370
    25
100
AcDbCircle
 10
155.04761563
 20
45.9717783641
 30
0.0
 40
45.00012925418375
100
AcDbArc
 50
83.9840777705
 51
90.0
  0
LINE
  5
11A
330
1F
100
AcDbEntity
  8
0
  6
Continuous
 62
     7
370
    25
100
AcDbLine
 10
159.7638466262
 20
102.9719076183
 30
0.0
 11
161.9392834878
 21
102.9719076183
 31
0.0
  0
LINE
  5
11B
330
1F
100
AcDbEntity
  8
0
  6
Continuous
 62
     7
370
    25
100
AcDbLine
 10
161.9392834878
 20
102.9719076183
 30
0.0
 11
161.9392834878
 21
100.9908631416
 31
0.0
  0
ARC
  5
11C
330
1F
100
AcDbEntity
  8
0
  6
Continuous
 62
     7
370
    25
100
AcDbCircle
 10
167.9392834878
 20
100.9908631416
 30
0.0
 40
6.000000000000005
100
AcDbArc
 50
180.0
 51
275.5801667845
  0
ARC
  5
11D
330
1F
100
AcDbEntity
  8
0
  6
Continuous
 62
     7
370
    25
100
AcDbCircle
 10
167.5503299235
 20
104.9719076183
 30
0.0
 40
10.00000000000848
100
AcDbArc
 50
275.5801667845
 51
336.4218215217
  0
LINE
  5
11E
330
1F
100
AcDbEntity
  8
0
  6
Continuous
 62
     7
370
    25
100
AcDbLine
 10
175.4392834878
 20
84.9719076183
 30
0.0
 11
174.9392834878
 21
84.9719076183
 31
0.0
  0
LINE
  5
11F
330
1F
100
AcDbEntity
  8
0
  6
Continuous
 62
     7
370
    25
100
AcDbLine
 10
166.4392834878
 20
71.1258867118
 30
0.0
 11
166.4392834878
 21
61.4719076183
 31
0.0
  0
LINE
  5
120
330
1F
100
AcDbEntity
  8
0
  6
Continuous
 62
     7
370
    25
100
AcDbLine
 10
166.4392834878
 20
83.4719076183
 30
0.0
 11
166.4392834878
 21
71.1258867118
 31
0.0
  0
LINE
  5
121
330
1F
100
AcDbEntity
  8
0
  6
Continuous
 62
     7
370
    25
100
AcDbLine
 10
166.1892834878
 20
71.1564780961
 30
0.0
 11
166.1892834878
 21
83.2219076183
 31
0.0
  0
LINE
  5
122
330
1F
100
AcDbEntity
  8
0
  6
Continuous
 62
     7
370
    25
100
AcDbLine
 10
166.1892834878
 20
61.7219076183
 30
0.0
 11
166.1892834878
 21
71.1564780961
 31
0.0
  0
LINE
  5
123
330
1F
100
AcDbEntity
  8
0
  6
Continuous
 62
     7
370
    25
100
AcDbLine
 10
169.4392834878
 20
72.4719076183
 30
0.0
 11
169.4392834878
 21
60.4719076183
 31
0.0
  0
LINE
  5
124
330
1F
100
AcDbEntity
  8
0
  6
Continuous
 62
     7
370
    25
100
AcDbLine
 10
169.4392834878
 20
84.4719076183
 30
0.0
 11
169.4392834878
 21
72.4719076183
 31
0.0
  0
LINE
  5
125
330
1F
100
AcDbEntity
  8
0
  6
Continuous
 62
     7
370
    25
100
AcDbLine
 10
172.196390269
 20
77.9816669886
 30
0.0
 11
172.196390269
 21
84.4719076183
 31
0.0
  0
SPLINE
  5
126
330
1F
100
AcDbEntity
  8
0
  6
Continuous
 62
     7
370
    25
100
AcDbSpline
210
0.0
220
0.0
230
1.0
 70
     8
 71
     3
 72
    13
 73
     9
 74
     0
 42
0.00000001
 43
0.00000001
 40
0.0
 40
0.0
 40
0.0
 40
0.0
 40
0.123409203972734
 40
0.2495635406297123
 40
0.5004511475233475
 40
0.749483003608821
 40
0.8735723371285005
 40
1.0
 40
1.0
 40
1.0
 40
1.0
 10
172.3679902634249
 20
77.50964037097047
 30
0.0
 10
172.353457221507
 20
77.52607922079856
 30
0.0
 10
172.3240678625255
 20
77.55932258867479
 30
0.0
 10
172.2761416459936
 20
77.6328565531161
 30
0.0
 10
172.2317473557818
 20
77.7318347085383
 30
0.0
 10
172.2075719710719
 20
77.8351837769938
 30
0.0
 10
172.1977383745491
 20
77.91863218691456
 30
0.0
 10
172.196842425085
 20
77.96052504515484
 30
0.0
 10
172.1963902689502
 20
77.98166698855438
 30
0.0
  0
SPLINE
  5
127
330
1F
100
AcDbEntity
  8
0
  6
Continuous
 62
     7
370
    25
100
AcDbSpline
210
0.0
220
0.0
230
1.0
 70
     8
 71
     3
 72
    14
 73
    10
 74
     0
 42
0.00000001
 43
0.00000001
 40
0.0
 40
0.0
 40
0.0
 40
0.0
 40
0.0833728361874164
 40
0.1651391830231223
 40
0.2505782922901014
 40
0.3661552980483097
 40
0.5013015333863843
 40
0.7511277814203854
 40
1.0
 40
1.0
 40
1.0
 40
1.0
 10
172.4623052063477
 20
77.21350683060119
 30
0.0
 10
172.468417684139
 20
77.22101901354786
 30
0.0
 10
172.4805248599874
 20
77.23589862915483
 30
0.0
 10
172.4903036351649
 20
77.26290887715803
 30
0.0
 10
172.4930670386793
 20
77.29460474578154
 30
0.0
 10
172.4862313427298
 20
77.33193386131413
 30
0.0
 10
172.4647160052757
 20
77.38425521697769
 30
0.0
 10
172.4254087689084
 20
77.44538121680777
 30
0.0
 10
172.3871053399391
 20
77.4882479881801
 30
0.0
 10
172.3679902634249
 20
77.50964037097049
 30
0.0
  0
SPLINE
  5
128
330
1F
100
AcDbEntity
  8
0
  6
Continuous
 62
     7
370
    25
100
AcDbSpline
210
0.0
220
0.0
230
1.0
 70
     8
 71
     3
 72
    17
 73
    13
 74
     0
 42
0.00000001
 43
0.00000001
 40
0.0
 40
0.0
 40
0.0
 40
0.0
 40
0.1308472312971285
 40
0.2501712416478232
 40
0.5002181447817603
 40
0.5625722445347702
 40
0.6248529024619178
 40
0.7493346422976469
 40
0.8746411565565786
 40
0.9373094462329892
 40
0.9700546542881243
 40
1.0
 40
1.0
 40
1.0
 40
1.0
 10
172.1963902689502
 20
75.42203035495496
 30
0.0
 10
172.1966415667683
 20
75.50377579714254
 30
0.0
 10
172.1971220315558
 20
75.66006766949162
 30
0.0
 10
172.2032217101637
 20
75.97032493765998
 30
0.0
 10
172.2150502254318
 20
76.2358291690784
 30
0.0
 10
172.2354713032654
 20
76.46350384585602
 30
0.0
 10
172.2526018390385
 20
76.61404196329414
 30
0.0
 10
172.2822712227707
 20
76.80062755418757
 30
0.0
 10
172.3303114526065
 20
76.98343769639936
 30
0.0
 10
172.3853065971388
 20
77.10519665123998
 30
0.0
 10
172.4253138336956
 20
77.17024518581096
 30
0.0
 10
172.4503474291938
 20
77.19952213442404
 30
0.0
 10
172.4623052063477
 20
77.21350683060119
 30
0.0
  0
LINE
  5
129
330
1F
100
AcDbEntity
  8
0
  6
Continuous
 62
     7
370
    25
100
AcDbLine
 10
172.196390269
 20
69.5217848816
 30
0.0
 11
172.196390269
 21
75.422030355
 31
0.0
  0
SPLINE
  5
12A
330
1F
100
AcDbEntity
  8
0
  6
Continuous
 62
     7
370
    25
100
AcDbSpline
210
0.0
220
0.0
230
1.0
 70
     8
 71
     3
 72
    18
 73
    14
 74
     0
 42
0.00000001
 43
0.00000001
 40
0.0
 40
0.0
 40
0.0
 40
0.0
 40
0.029737591773436
 40
0.0622585994667435
 40
0.1245690829008355
 40
0.1747355398271628
 40
0.2498061834276713
 40
0.375180360281337
 40
0.4377454186259961
 40
0.5002333231924232
 40
0.7499313720644836
 40
0.8691943481471814
 40
1.0
 40
1.0
 40
1.0
 40
1.0
 10
172.4623052063415
 20
67.73030840593808
 30
0.0
 10
172.4504257292638
 20
67.74419441953624
 30
0.0
 10
172.4255548651103
 20
67.77326616701953
 30
0.0
 10
172.3857285470089
 20
67.83786815669927
 30
0.0
 10
172.3493962158483
 20
67.91778898427457
 30
0.0
 10
172.313624056125
 20
68.02508645137137
 30
0.0
 10
172.2775530817548
 20
68.17197939780341
 30
0.0
 10
172.2526604018444
 20
68.32938618067199
 30
0.0
 10
172.2354247759328
 20
68.48070824321074
 30
0.0
 10
172.2150311171432
 20
68.70845832968973
 30
0.0
 10
172.2032136999789
 20
68.97381274730186
 30
0.0
 10
172.19712124235
 20
69.28381778513203
 30
0.0
 10
172.1966413109794
 20
69.44005859335711
 30
0.0
 10
172.1963902689502
 20
69.52178488159493
 30
0.0
  0
SPLINE
  5
12B
330
1F
100
AcDbEntity
  8
0
  6
Continuous
 62
     7
370
    25
100
AcDbSpline
210
0.0
220
0.0
230
1.0
 70
     8
 71
     3
 72
    13
 73
     9
 74
     0
 42
0.00000001
 43
0.00000001
 40
0.0
 40
0.0
 40
0.0
 40
0.0
 40
0.2491824652873907
 40
0.4987738521015481
 40
0.6338602399676626
 40
0.7494868859159842
 40
0.8759187542423453
 40
1.0
 40
1.0
 40
1.0
 40
1.0
 10
172.3679902634168
 20
67.43417486556669
 30
0.0
 10
172.3871158474321
 20
67.4555803602699
 30
0.0
 10
172.4253984015515
 20
67.49842647721862
 30
0.0
 10
172.4646515728505
 20
67.55946070083971
 30
0.0
 10
172.4862163102538
 20
67.61179448528709
 30
0.0
 10
172.4937693694147
 20
67.65338665716762
 30
0.0
 10
172.4886456973335
 20
67.69543961321257
 30
0.0
 10
172.4710302734757
 20
67.7187584102495
 30
0.0
 10
172.4623052063478
 20
67.73030840593134
 30
0.0
  0
SPLINE
  5
12C
330
1F
100
AcDbEntity
  8
0
  6
Continuous
 62
     7
370
    25
100
AcDbSpline
210
0.0
220
0.0
230
1.0
 70
     8
 71
     3
 72
    13
 73
     9
 74
     0
 42
0.00000001
 43
0.00000001
 40
0.0
 40
0.0
 40
0.0
 40
0.0
 40
0.126696314384486
 40
0.2513113397888735
 40
0.5007108425294119
 40
0.7510525732451946
 40
0.876867377471871
 40
1.0
 40
1.0
 40
1.0
 40
1.0
 10
172.1963902689503
 20
66.96214824799291
 30
0.0
 10
172.1968427835833
 20
66.98333528544151
 30
0.0
 10
172.1977403792179
 20
67.02536131274334
 30
0.0
 10
172.2076331528376
 20
67.10900236670936
 30
0.0
 10
172.2318874097146
 20
67.21240128321395
 30
0.0
 10
172.2763227392045
 20
67.31126900323667
 30
0.0
 10
172.324166961005
 20
67.3846160026276
 30
0.0
 10
172.3534877977184
 20
67.41777432816588
 30
0.0
 10
172.367990263425
 20
67.43417486556204
 30
0.0
  0
LINE
  5
12D
330
1F
100
AcDbEntity
  8
0
  6
Continuous
 62
     7
370
    25
100
AcDbLine
 10
172.196390269
 20
60.4719076183
 30
0.0
 11
172.196390269
 21
66.962148248
 31
0.0
  0
LINE
  5
12E
330
1F
100
AcDbEntity
  8
0
  6
Continuous
 62
     7
370
    25
100
AcDbLine
 10
172.4392494932
 20
75.3623249783
 30
0.0
 11
172.4392494932
 21
69.5814902582
 31
0.0
  0
LINE
  5
12F
330
1F
100
AcDbEntity
  8
0
  6
Continuous
 62
     7
370
    25
100
AcDbLine
 10
172.4392494932
 20
69.5814902582
 30
0.0
 11
172.196390269
 21
69.5217848816
 31
0.0
  0
LINE
  5
130
330
1F
100
AcDbEntity
  8
0
  6
Continuous
 62
     7
370
    25
100
AcDbLine
 10
172.196390269
 20
75.4220303549
 30
0.0
 11
172.4392494932
 21
75.3623249783
 31
0.0
  0
LINE
  5
131
330
1F
100
AcDbEntity
  8
0
  6
Continuous
 62
     7
370
    25
100
AcDbLine
 10
191.4393174823
 20
69.5814902582
 30
0.0
 11
191.4393174823
 21
75.3623249783
 31
0.0
  0
LINE
  5
132
330
1F
100
AcDbEntity
  8
0
  6
Continuous
 62
     7
370
    25
100
AcDbLine
 10
191.4393174823
 20
75.3623249783
 30
0.0
 11
191.6821767066
 21
75.4220303549
 31
0.0
  0
LINE
  5
133
330
1F
100
AcDbEntity
  8
0
  6
Continuous
 62
     7
370
    25
100
AcDbLine
 10
191.6821767066
 20
75.4220303549
 30
0.0
 11
191.6821767066
 21
69.5217848816
 31
0.0
  0
LINE
  5
134
330
1F
100
AcDbEntity
  8
0
  6
Continuous
 62
     7
370
    25
100
AcDbLine
 10
191.6821767066
 20
69.5217848816
 30
0.0
 11
191.4393174823
 21
69.5814902582
 31
0.0
  0
SPLINE
  5
135
330
1F
100
AcDbEntity
  8
0
  6
Continuous
 62
     7
370
    25
100
AcDbSpline
210
0.0
220
0.0
230
1.0
 70
     8
 71
     3
 72
    14
 73
    10
 74
     0
 42
0.00000001
 43
0.00000001
 40
0.0
 40
0.0
 40
0.0
 40
0.0
 40
0.0833728361793554
 40
0.1651391830151492
 40
0.2505782922889906
 40
0.366155298026219
 40
0.5013015333857042
 40
0.7511277814200346
 40
1.0
 40
1.0
 40
1.0
 40
1.0
 10
191.4162617691796
 20
67.73030840593137
 30
0.0
 10
191.410149291389
 20
67.72279622298535
 30
0.0
 10
191.3980421155414
 20
67.70791660737896
 30
0.0
 10
191.3882633403647
 20
67.68090635937585
 30
0.0
 10
191.3854999368472
 20
67.6492104907542
 30
0.0
 10
191.3923356327969
 20
67.6118813752207
 30
0.0
 10
191.4138509702502
 20
67.55956001955687
 30
0.0
 10
191.453158206619
 20
67.49843401972475
 30
0.0
 10
191.4914616355883
 20
67.45556724835242
 30
0.0
 10
191.5105767121024
 20
67.43417486556206
 30
0.0
  0
SPLINE
  5
136
330
1F
100
AcDbEntity
  8
0
  6
Continuous
 62
     7
370
    25
100
AcDbSpline
210
0.0
220
0.0
230
1.0
 70
     8
 71
     3
 72
    17
 73
    13
 74
     0
 42
0.00000001
 43
0.00000001
 40
0.0
 40
0.0
 40
0.0
 40
0.0
 40
0.1308472312969632
 40
0.2501712416478237
 40
0.5002181447817658
 40
0.5625722445347804
 40
0.6248529024619248
 40
0.749334642297656
 40
0.8746411565565848
 40
0.9373094462329951
 40
0.9700546542885856
 40
1.0
 40
1.0
 40
1.0
 40
1.0
 10
191.6821767065771
 20
69.52178488157762
 30
0.0
 10
191.681925408759
 20
69.44003943939013
 30
0.0
 10
191.6814449439715
 20
69.28374756704105
 30
0.0
 10
191.6753452653637
 20
68.97349029887269
 30
0.0
 10
191.6635167500955
 20
68.70798606745417
 30
0.0
 10
191.6430956722619
 20
68.48031139067652
 30
0.0
 10
191.6259651364888
 20
68.3297732732384
 30
0.0
 10
191.5962957527567
 20
68.14318768234496
 30
0.0
 10
191.5482555229208
 20
67.96037754013321
 30
0.0
 10
191.4932603783885
 20
67.83861858529227
 30
0.0
 10
191.4532531418314
 20
67.77357005072146
 30
0.0
 10
191.4282195463333
 20
67.7442931021083
 30
0.0
 10
191.4162617691796
 20
67.73030840593137
 30
0.0
  0
SPLINE
  5
137
330
1F
100
AcDbEntity
  8
0
  6
Continuous
 62
     7
370
    25
100
AcDbSpline
210
0.0
220
0.0
230
1.0
 70
     8
 71
     3
 72
    18
 73
    14
 74
     0
 42
0.00000001
 43
0.00000001
 40
0.0
 40
0.0
 40
0.0
 40
0.0
 40
0.0297375917713133
 40
0.06225859946667
 40
0.1245690829005796
 40
0.1747355398269516
 40
0.2498061834274989
 40
0.3751803602811941
 40
0.4377454186258753
 40
0.5002333231923115
 40
0.7499313720644271
 40
0.8691943481067824
 40
0.9999999999999999
 40
0.9999999999999999
 40
0.9999999999999999
 40
0.9999999999999999
 10
191.4162617691796
 20
77.21350683060119
 30
0.0
 10
191.4281412462566
 20
77.19962081700407
 30
0.0
 10
191.4530121104106
 20
77.17054906952097
 30
0.0
 10
191.4928384285144
 20
77.10594707984225
 30
0.0
 10
191.529170759676
 20
77.02602625226557
 30
0.0
 10
191.5649429194003
 20
76.9187287851686
 30
0.0
 10
191.6010138937712
 20
76.77183583873588
 30
0.0
 10
191.6259065736822
 20
76.61442905586657
 30
0.0
 10
191.643142199594
 20
76.46310699332707
 30
0.0
 10
191.663535858384
 20
76.23535690684697
 30
0.0
 10
191.6753532755464
 20
75.9700024892583
 30
0.0
 10
191.6814457331786
 20
75.65999745142693
 30
0.0
 10
191.6819256645484
 20
75.5037566432011
 30
0.0
 10
191.6821767065771
 20
75.42203035493766
 30
0.0
  0
SPLINE
  5
138
330
1F
100
AcDbEntity
  8
0
  6
Continuous
 62
     7
370
    25
100
AcDbSpline
210
0.0
220
0.0
230
1.0
 70
     8
 71
     3
 72
    13
 73
     9
 74
     0
 42
0.00000001
 43
0.00000001
 40
0.0
 40
0.0
 40
0.0
 40
0.0
 40
0.2491824652873909
 40
0.4987738521015305
 40
0.6338602399633625
 40
0.749486885916647
 40
0.8759187542469947
 40
1.0
 40
1.0
 40
1.0
 40
1.0
 10
191.5105767121106
 20
77.50964037096584
 30
0.0
 10
191.4914511280952
 20
77.48823487626265
 30
0.0
 10
191.4531685739755
 20
77.445388759314
 30
0.0
 10
191.4139154026784
 20
77.38435453569286
 30
0.0
 10
191.3923506652716
 20
77.33202075124645
 30
0.0
 10
191.3847976061129
 20
77.29042857936489
 30
0.0
 10
191.3899212781949
 20
77.24837562331975
 30
0.0
 10
191.4075367020522
 20
77.22505682628268
 30
0.0
 10
191.4162617691796
 20
77.21350683060119
 30
0.0
  0
SPLINE
  5
139
330
1F
100
AcDbEntity
  8
0
  6
Continuous
 62
     7
370
    25
100
AcDbSpline
210
0.0
220
0.0
230
1.0
 70
     8
 71
     3
 72
    13
 73
     9
 74
     0
 42
0.00000001
 43
0.00000001
 40
0.0
 40
0.0
 40
0.0
 40
0.0
 40
0.1266963143628506
 40
0.2513113397887842
 40
0.5007108425293414
 40
0.7510525732451352
 40
0.8768673774688646
 40
1.0
 40
1.0
 40
1.0
 40
1.0
 10
191.6821767065771
 20
77.98166698853957
 30
0.0
 10
191.6817241919437
 20
77.96047995109463
 30
0.0
 10
191.6808265963084
 20
77.91845392379285
 30
0.0
 10
191.6709338226913
 20
77.83481286982665
 30
0.0
 10
191.6466795658126
 20
77.73141395331857
 30
0.0
 10
191.602244236323
 20
77.6325462332964
 30
0.0
 10
191.5544000145229
 20
77.55919923390519
 30
0.0
 10
191.5250791778094
 20
77.526040908367
 30
0.0
 10
191.5105767121024
 20
77.50964037097049
 30
0.0
  0
LINE
  5
13A
330
1F
100
AcDbEntity
  8
0
  6
Continuous
 62
     7
370
    25
100
AcDbLine
 10
191.6821767066
 20
84.4719076183
 30
0.0
 11
191.6821767066
 21
77.9816669885
 31
0.0
  0
LINE
  5
13B
330
1F
100
AcDbEntity
  8
0
  6
Continuous
 62
     7
370
    25
100
AcDbLine
 10
191.6821767066
 20
66.962148248
 30
0.0
 11
191.6821767066
 21
60.4719076183
 31
0.0
  0
SPLINE
  5
13C
330
1F
100
AcDbEntity
  8
0
  6
Continuous
 62
     7
370
    25
100
AcDbSpline
210
0.0
220
0.0
230
1.0
 70
     8
 71
     3
 72
    13
 73
     9
 74
     0
 42
0.00000001
 43
0.00000001
 40
0.0
 40
0.0
 40
0.0
 40
0.0
 40
0.1234092039886535
 40
0.2495635406298181
 40
0.5004511475233587
 40
0.7494830036087242
 40
0.8735723370857859
 40
1.0
 40
1.0
 40
1.0
 40
1.0
 10
191.5105767121024
 20
67.43417486556206
 30
0.0
 10
191.5251097540226
 20
67.41773601573207
 30
0.0
 10
191.5544991130048
 20
67.3844926478563
 30
0.0
 10
191.602425329534
 20
67.31095868341355
 30
0.0
 10
191.6468196197463
 20
67.21198052799453
 30
0.0
 10
191.6709950044522
 20
67.10863145954579
 30
0.0
 10
191.6808286009802
 20
67.02518304962547
 30
0.0
 10
191.6817245504429
 20
66.9832901913851
 30
0.0
 10
191.6821767065771
 20
66.96214824797836
 30
0.0
  0
LINE
  5
13D
330
1F
100
AcDbEntity
  8
0
  6
Continuous
 62
     7
370
    25
100
AcDbLine
 10
194.4392834878
 20
60.4719076183
 30
0.0
 11
194.4392834878
 21
84.4719076183
 31
0.0
  0
LINE
  5
13E
330
1F
100
AcDbEntity
  8
0
  6
Continuous
 62
     7
370
    25
100
AcDbLine
 10
169.1892834878
 20
72.4719076183
 30
0.0
 11
169.1892834878
 21
84.2219076183
 31
0.0
  0
LINE
  5
13F
330
1F
100
AcDbEntity
  8
0
  6
Continuous
 62
     7
370
    25
100
AcDbLine
 10
169.1892834878
 20
60.7219076183
 30
0.0
 11
169.1892834878
 21
72.4719076183
 31
0.0
  0
LINE
  5
140
330
1F
100
AcDbEntity
  8
0
  6
Continuous
 62
     7
370
    25
100
AcDbLine
 10
194.6892834878
 20
84.2219076183
 30
0.0
 11
194.6892834878
 21
60.7219076183
 31
0.0
  0
LINE
  5
141
330
1F
100
AcDbEntity
  8
0
  6
Continuous
 62
     7
370
    25
100
AcDbLine
 10
191.4392834878
 20
69.6254185528
 30
0.0
 11
191.4392834878
 21
75.3183966838
 31
0.0
  0
SPLINE
  5
142
330
1F
100
AcDbEntity
  8
0
  6
Continuous
 62
     7
370
    25
100
AcDbSpline
210
0.0
220
0.0
230
1.0
 70
     8
 71
     3
 72
     8
 73
     4
 74
     0
 42
0.00000001
 43
0.00000001
 40
0.0
 40
0.0
 40
0.0
 40
0.0
 40
1.0
 40
1.0
 40
1.0
 40
1.0
 10
191.4393174823196
 20
75.3623249783296
 30
0.0
 10
191.4392946444609
 20
75.34768410044042
 30
0.0
 10
191.4392834877637
 20
75.33304132267136
 30
0.0
 10
191.4392834877637
 20
75.31839668376433
 30
0.0
  0
SPLINE
  5
143
330
1F
100
AcDbEntity
  8
0
  6
Continuous
 62
     7
370
    25
100
AcDbSpline
210
0.0
220
0.0
230
1.0
 70
     8
 71
     3
 72
     8
 73
     4
 74
     0
 42
0.00000001
 43
0.00000001
 40
0.0
 40
0.0
 40
0.0
 40
0.0
 40
1.0
 40
1.0
 40
1.0
 40
1.0
 10
191.4392834877637
 20
69.62541855276825
 30
0.0
 10
191.4392834877637
 20
69.61077479455028
 30
0.0
 10
191.4392946430698
 20
69.59613202793064
 30
0.0
 10
191.4393174823196
 20
69.58149025819687
 30
0.0
  0
LINE
  5
144
330
1F
100
AcDbEntity
  8
0
  6
Continuous
 62
     7
370
    25
100
AcDbLine
 10
172.4392834878
 20
75.3183966838
 30
0.0
 11
172.4392834878
 21
69.6254185528
 31
0.0
  0
SPLINE
  5
145
330
1F
100
AcDbEntity
  8
0
  6
Continuous
 62
     7
370
    25
100
AcDbSpline
210
0.0
220
0.0
230
1.0
 70
     8
 71
     3
 72
     8
 73
     4
 74
     0
 42
0.00000001
 43
0.00000001
 40
0.0
 40
0.0
 40
0.0
 40
0.0
 40
1.0
 40
1.0
 40
1.0
 40
1.0
 10
172.4392494932078
 20
69.58149025820299
 30
0.0
 10
172.4392723310664
 20
69.59613113609215
 30
0.0
 10
172.4392834877637
 20
69.61077391386122
 30
0.0
 10
172.4392834877637
 20
69.62541855276825
 30
0.0
  0
SPLINE
  5
146
330
1F
100
AcDbEntity
  8
0
  6
Continuous
 62
     7
370
    25
100
AcDbSpline
210
0.0
220
0.0
230
1.0
 70
     8
 71
     3
 72
     8
 73
     4
 74
     0
 42
0.00000001
 43
0.00000001
 40
0.0
 40
0.0
 40
0.0
 40
0.0
 40
1.0
 40
1.0
 40
1.0
 40
1.0
 10
172.4392834877637
 20
75.31839668376432
 30
0.0
 10
172.4392834877637
 20
75.33304044198229
 30
0.0
 10
172.4392723324576
 20
75.34768320860192
 30
0.0
 10
172.4392494932078
 20
75.36232497833569
 30
0.0
  0
SPLINE
  5
147
330
1F
100
AcDbEntity
  8
0
  6
Continuous
 62
     7
370
    25
100
AcDbSpline
210
0.0
220
0.0
230
1.0
 70
     8
 71
     3
 72
    16
 73
    12
 74
     0
 42
0.00000001
 43
0.00000001
 40
0.0
 40
0.0
 40
0.0
 40
0.0
 40
0.1358424563116765
 40
0.2585567702391718
 40
0.5157338482649941
 40
0.6432966940859199
 40
0.7692102787433489
 40
0.8342664718575957
 40
0.8905766424087742
 40
0.9515952837307082
 40
1.0
 40
1.0
 40
1.0
 40
1.0
 10
172.4392494932078
 20
69.58149025820299
 30
0.0
 10
172.4392111074615
 20
69.49996301621438
 30
0.0
 10
172.4391380456598
 20
69.34478752139911
 30
0.0
 10
172.4398685972886
 20
69.03608261999659
 30
0.0
 10
172.4419340195479
 20
68.73327882332647
 30
0.0
 10
172.449373820324
 20
68.42991481762215
 30
0.0
 10
172.4587256386161
 20
68.24143286640492
 30
0.0
 10
172.4720535502039
 20
68.09586484356976
 30
0.0
 10
172.487569856733
 20
67.9895659055171
 30
0.0
 10
172.5069888959785
 20
67.89335476450852
 30
0.0
 10
172.5338714071431
 20
67.83465755421014
 30
0.0
 10
172.5457632038688
 20
67.80869214908242
 30
0.0
  0
LINE
  5
148
330
1F
100
AcDbEntity
  8
0
  6
Continuous
 62
     7
370
    25
100
AcDbLine
 10
172.5457632039
 20
67.8086921491
 30
0.0
 11
172.4623052063
 21
67.7303084059
 31
0.0
  0
SPLINE
  5
149
330
1F
100
AcDbEntity
  8
0
  6
Continuous
 62
     7
370
    25
100
AcDbSpline
210
0.0
220
0.0
230
1.0
 70
     8
 71
     3
 72
    16
 73
    12
 74
     0
 42
0.00000001
 43
0.00000001
 40
0.0
 40
0.0
 40
0.0
 40
0.0
 40
0.1358424561507865
 40
0.2585567702396487
 40
0.5157338482659685
 40
0.6432966940871401
 40
0.769210278744815
 40
0.8342664723165241
 40
0.890576642411649
 40
0.9515952839414612
 40
1.0
 40
1.0
 40
1.0
 40
1.0
 10
191.4393174823196
 20
75.3623249783296
 30
0.0
 10
191.4393558680656
 20
75.4438522202212
 30
0.0
 10
191.4394289298668
 20
75.59902771503594
 30
0.0
 10
191.4386983782407
 20
75.90773261644081
 30
0.0
 10
191.4366329559732
 20
76.21053641320431
 30
0.0
 10
191.4291931552138
 20
76.51390041891382
 30
0.0
 10
191.4198413368669
 20
76.70238237038915
 30
0.0
 10
191.406513425348
 20
76.84795039324858
 30
0.0
 10
191.3909971187376
 20
76.95424933140777
 30
0.0
 10
191.3715780794033
 20
77.05046047209716
 30
0.0
 10
191.3446955683016
 20
77.10915768242694
 30
0.0
 10
191.3328037716551
 20
77.1351230874562
 30
0.0
  0
LINE
  5
14A
330
1F
100
AcDbEntity
  8
0
  6
Continuous
 62
     7
370
    25
100
AcDbLine
 10
191.3328037717
 20
77.1351230875
 30
0.0
 11
191.4162617692
 21
77.2135068306
 31
0.0
  0
LINE
  5
14B
330
1F
100
AcDbEntity
  8
0
  6
Continuous
 62
     7
370
    25
100
AcDbLine
 10
172.4623052063
 20
77.2135068306
 30
0.0
 11
172.5457632039
 21
77.1351230875
 31
0.0
  0
SPLINE
  5
14C
330
1F
100
AcDbEntity
  8
0
  6
Continuous
 62
     7
370
    25
100
AcDbSpline
210
0.0
220
0.0
230
1.0
 70
     8
 71
     3
 72
    18
 73
    14
 74
     0
 42
0.00000001
 43
0.00000001
 40
0.0
 40
0.0
 40
0.0
 40
0.0
 40
0.0228877262659284
 40
0.0487507054349101
 40
0.0778154834700411
 40
0.1102364830155919
 40
0.1666044227654431
 40
0.231774208579201
 40
0.3567811110102737
 40
0.4838932701832798
 40
0.741382445805996
 40
0.8641064613662746
 40
1.0
 40
1.0
 40
1.0
 40
1.0
 10
172.5457632038722
 20
77.13512308745598
 30
0.0
 10
172.5395997379472
 20
77.12312063709938
 30
0.0
 10
172.5264715963276
 20
77.09755549729329
 30
0.0
 10
172.511609692695
 20
77.05414010464298
 30
0.0
 10
172.4983068536193
 20
77.00448980952362
 30
0.0
 10
172.4846240989473
 20
76.93641512632496
 30
0.0
 10
172.4720010647952
 20
76.84646337044225
 30
0.0
 10
172.4586100241849
 20
76.70139098766141
 30
0.0
 10
172.4493927472037
 20
76.51358398877338
 30
0.0
 10
172.4419236251857
 20
76.21083171365282
 30
0.0
 10
172.4398717506802
 20
75.9080712231065
 30
0.0
 10
172.4391375901945
 20
75.59911665304334
 30
0.0
 10
172.4392109470256
 20
75.4438903872178
 30
0.0
 10
172.4392494932078
 20
75.36232497833568
 30
0.0
  0
LINE
  5
14D
330
1F
100
AcDbEntity
  8
0
  6
Continuous
 62
     7
370
    25
100
AcDbLine
 10
191.4162617692
 20
67.7303084059
 30
0.0
 11
191.3328037717
 21
67.8086921491
 31
0.0
  0
SPLINE
  5
14E
330
1F
100
AcDbEntity
  8
0
  6
Continuous
 62
     7
370
    25
100
AcDbSpline
210
0.0
220
0.0
230
1.0
 70
     8
 71
     3
 72
    18
 73
    14
 74
     0
 42
0.00000001
 43
0.00000001
 40
0.0
 40
0.0
 40
0.0
 40
0.0
 40
0.0228877262623231
 40
0.0487507054304767
 40
0.0778154834678066
 40
0.110236483018699
 40
0.1666044227684945
 40
0.2317742085819108
 40
0.356781111012564
 40
0.4838932701851294
 40
0.7413824458069321
 40
0.864106461437923
 40
1.0
 40
1.0
 40
1.0
 40
1.0
 10
191.332803771653
 20
67.80869214907482
 30
0.0
 10
191.3389672375784
 20
67.82069459942882
 30
0.0
 10
191.3520953791995
 20
67.84625973923107
 30
0.0
 10
191.3669572828319
 20
67.88967513188027
 30
0.0
 10
191.3802601219082
 20
67.93932542700375
 30
0.0
 10
191.3939428765796
 20
68.00740011020739
 30
0.0
 10
191.4065659107315
 20
68.09735186609332
 30
0.0
 10
191.4199569513431
 20
68.24242424887348
 30
0.0
 10
191.4291742283236
 20
68.43023124776134
 30
0.0
 10
191.4366433503417
 20
68.73298352288133
 30
0.0
 10
191.4386952248476
 20
69.0357440134693
 30
0.0
 10
191.4394293853326
 20
69.34469858353273
 30
0.0
 10
191.4393560285016
 20
69.49992484935774
 30
0.0
 10
191.4393174823196
 20
69.58149025819688
 30
0.0
  0
SPLINE
  5
14F
330
1F
100
AcDbEntity
  8
0
  6
Continuous
 62
     7
370
    25
100
AcDbSpline
210
0.0
220
0.0
230
1.0
 70
     8
 71
     3
 72
    10
 73
     6
 74
     0
 42
0.00000001
 43
0.00000001
 40
0.0
 40
0.0
 40
0.0
 40
0.0
 40
0.4999999999999996
 40
0.4999999999999996
 40
1.0
 40
1.0
 40
1.0
 40
1.0
 10
172.7205883531789
 20
76.97956427305371
 30
0.0
 10
172.7701304176031
 20
76.70648747760639
 30
0.0
 10
172.7987366108536
 20
76.43068805584974
 30
0.0
 10
172.8334769202167
 20
75.87616680858578
 30
0.0
 10
172.8392834877637
 20
75.59717465729383
 30
0.0
 10
172.8392834877637
 20
75.31839668376432
 30
0.0
  0
LINE
  5
150
330
1F
100
AcDbEntity
  8
0
  6
Continuous
 62
     7
370
    25
100
AcDbLine
 10
172.4392834878
 20
75.3183966838
 30
0.0
 11
172.8392834878
 21
75.3183966838
 31
0.0
  0
SPLINE
  5
151
330
1F
100
AcDbEntity
  8
0
  6
Continuous
 62
     7
370
    25
100
AcDbSpline
210
0.0
220
0.0
230
1.0
 70
     8
 71
     3
 72
     8
 73
     4
 74
     0
 42
0.00000001
 43
0.00000001
 40
0.0
 40
0.0
 40
0.0
 40
0.0
 40
1.0
 40
1.0
 40
1.0
 40
1.0
 10
172.7205883531823
 20
76.9795642730608
 30
0.0
 10
172.6481883830206
 20
77.01407421474286
 30
0.0
 10
172.5937581654304
 20
77.07358831610401
 30
0.0
 10
172.5457632038692
 20
77.1351230874553
 30
0.0
  0
SPLINE
  5
152
330
1F
100
AcDbEntity
  8
0
  6
Continuous
 62
     7
370
    25
100
AcDbSpline
210
0.0
220
0.0
230
1.0
 70
     8
 71
     3
 72
    10
 73
     6
 74
     0
 42
0.00000001
 43
0.00000001
 40
0.0
 40
0.0
 40
0.0
 40
0.0
 40
0.5000000000000004
 40
0.5000000000000004
 40
1.0
 40
1.0
 40
1.0
 40
1.0
 10
191.1579786223485
 20
67.9642509634788
 30
0.0
 10
191.1084365579243
 20
68.23732775892613
 30
0.0
 10
191.0798303646738
 20
68.51312718068279
 30
0.0
 10
191.0450900553107
 20
69.06764842794676
 30
0.0
 10
191.0392834877637
 20
69.34664057923872
 30
0.0
 10
191.0392834877637
 20
69.62541855276825
 30
0.0
  0
LINE
  5
153
330
1F
100
AcDbEntity
  8
0
  6
Continuous
 62
     7
370
    25
100
AcDbLine
 10
191.0392834878
 20
69.6254185528
 30
0.0
 11
191.4392834878
 21
69.6254185528
 31
0.0
  0
SPLINE
  5
154
330
1F
100
AcDbEntity
  8
0
  6
Continuous
 62
     7
370
    25
100
AcDbSpline
210
0.0
220
0.0
230
1.0
 70
     8
 71
     3
 72
     8
 73
     4
 74
     0
 42
0.00000001
 43
0.00000001
 40
0.0
 40
0.0
 40
0.0
 40
0.0
 40
1.0
 40
1.0
 40
1.0
 40
1.0
 10
191.1579786223452
 20
67.96425096347171
 30
0.0
 10
191.2303785925066
 20
67.92974102178955
 30
0.0
 10
191.284808810097
 20
67.87022692042854
 30
0.0
 10
191.3328037716581
 20
67.80869214907727
 30
0.0
  0
LINE
  5
155
330
1F
100
AcDbEntity
  8
0
  6
Continuous
 62
     7
370
    25
100
AcDbLine
 10
191.0392834878
 20
75.3183966838
 30
0.0
 11
191.4392834878
 21
75.3183966838
 31
0.0
  0
SPLINE
  5
156
330
1F
100
AcDbEntity
  8
0
  6
Continuous
 62
     7
370
    25
100
AcDbSpline
210
0.0
220
0.0
230
1.0
 70
     8
 71
     3
 72
    10
 73
     6
 74
     0
 42
0.00000001
 43
0.00000001
 40
0.0
 40
0.0
 40
0.0
 40
0.0
 40
0.5000000000000004
 40
0.5000000000000004
 40
1.0
 40
1.0
 40
1.0
 40
1.0
 10
191.0392834877637
 20
75.31839668376433
 30
0.0
 10
191.0392834877637
 20
75.59742844451276
 30
0.0
 10
191.0450821099286
 20
75.87582399289357
 30
0.0
 10
191.0797788037299
 20
76.43008066768031
 30
0.0
 10
191.1083441814164
 20
76.70597829655175
 30
0.0
 10
191.1579786223502
 20
76.97956427306322
 30
0.0
  0
SPLINE
  5
157
330
1F
100
AcDbEntity
  8
0
  6
Continuous
 62
     7
370
    25
100
AcDbSpline
210
0.0
220
0.0
230
1.0
 70
     8
 71
     3
 72
     8
 73
     4
 74
     0
 42
0.00000001
 43
0.00000001
 40
0.0
 40
0.0
 40
0.0
 40
0.0
 40
1.0
 40
1.0
 40
1.0
 40
1.0
 10
191.1579786223502
 20
76.97956427306322
 30
0.0
 10
191.2303785925093
 20
77.01407421474602
 30
0.0
 10
191.284808810098
 20
77.0735883161054
 30
0.0
 10
191.3328037716581
 20
77.13512308745527
 30
0.0
  0
LINE
  5
158
330
1F
100
AcDbEntity
  8
0
  6
Continuous
 62
     7
370
    25
100
AcDbLine
 10
172.4392834878
 20
69.6254185528
 30
0.0
 11
172.8392834878
 21
69.6254185528
 31
0.0
  0
SPLINE
  5
159
330
1F
100
AcDbEntity
  8
0
  6
Continuous
 62
     7
370
    25
100
AcDbSpline
210
0.0
220
0.0
230
1.0
 70
     8
 71
     3
 72
    10
 73
     6
 74
     0
 42
0.00000001
 43
0.00000001
 40
0.0
 40
0.0
 40
0.0
 40
0.0
 40
0.5
 40
0.5
 40
1.0
 40
1.0
 40
1.0
 40
1.0
 10
172.8392834877637
 20
69.62541855276825
 30
0.0
 10
172.8392834877637
 20
69.3463867920198
 30
0.0
 10
172.8334848655987
 20
69.067991243639
 30
0.0
 10
172.7987881717974
 20
68.51373456885223
 30
0.0
 10
172.770222794111
 20
68.23783693998077
 30
0.0
 10
172.7205883531771
 20
67.96425096346928
 30
0.0
  0
SPLINE
  5
15A
330
1F
100
AcDbEntity
  8
0
  6
Continuous
 62
     7
370
    25
100
AcDbSpline
210
0.0
220
0.0
230
1.0
 70
     8
 71
     3
 72
     8
 73
     4
 74
     0
 42
0.00000001
 43
0.00000001
 40
0.0
 40
0.0
 40
0.0
 40
0.0
 40
1.0
 40
1.0
 40
1.0
 40
1.0
 10
172.7205883531771
 20
67.96425096346928
 30
0.0
 10
172.6481883830181
 20
67.9297410217865
 30
0.0
 10
172.5937581654292
 20
67.87022692042689
 30
0.0
 10
172.5457632038693
 20
67.80869214907727
 30
0.0
  0
LINE
  5
15B
330
1F
100
AcDbEntity
  8
0
  6
Continuous
 62
     7
370
    25
100
AcDbLine
 10
191.0392834878
 20
69.6254185528
 30
0.0
 11
191.0392834878
 21
75.3183966838
 31
0.0
  0
LINE
  5
15C
330
1F
100
AcDbEntity
  8
0
  6
Continuous
 62
     7
370
    25
100
AcDbLine
 10
172.8392834878
 20
75.3183966838
 30
0.0
 11
172.8392834878
 21
69.6254185528
 31
0.0
  0
LINE
  5
15D
330
1F
100
AcDbEntity
  8
0
  6
Continuous
 62
     7
370
    25
100
AcDbLine
 10
191.0929725383
 20
77.475310576
 30
0.0
 11
191.1579786224
 21
76.9795642731
 31
0.0
  0
SPLINE
  5
15E
330
1F
100
AcDbEntity
  8
0
  6
Continuous
 62
     7
370
    25
100
AcDbSpline
210
0.0
220
0.0
230
1.0
 70
     8
 71
     3
 72
    10
 73
     6
 74
     0
 42
0.00000001
 43
0.00000001
 40
0.0
 40
0.0
 40
0.0
 40
0.0
 40
0.5
 40
0.5
 40
1.0
 40
1.0
 40
1.0
 40
1.0
 10
191.0929725382719
 20
77.47531057595381
 30
0.0
 10
191.1526012678734
 20
77.48310500174696
 30
0.0
 10
191.2027755596809
 20
77.50305200271771
 30
0.0
 10
191.2828406654218
 20
77.54255024943843
 30
0.0
 10
191.3155554548371
 20
77.56289583042023
 30
0.0
 10
191.3476646945967
 20
77.58246009142546
 30
0.0
  0
SPLINE
  5
15F
330
1F
100
AcDbEntity
  8
0
  6
Continuous
 62
     7
370
    25
100
AcDbSpline
210
0.0
220
0.0
230
1.0
 70
     8
 71
     3
 72
    16
 73
    12
 74
     0
 42
0.00000001
 43
0.00000001
 40
0.0
 40
0.0
 40
0.0
 40
0.0
 40
0.0761065009119658
 40
0.1494790931191914
 40
0.2974911001276648
 40
0.43372190704806
 40
0.5582000385649448
 40
0.6744773661246064
 40
0.7859690394832595
 40
0.8939353462389478
 40
1.0
 40
1.0
 40
1.0
 40
1.0
 10
191.3328037716538
 20
77.13512308745447
 30
0.0
 10
191.3253874006171
 20
77.14718216144958
 30
0.0
 10
191.310821070494
 20
77.17086712164414
 30
0.0
 10
191.2886022821715
 20
77.22005123546731
 30
0.0
 10
191.2712487740095
 20
77.28038928980104
 30
0.0
 10
191.2649440360807
 20
77.3475637901151
 30
0.0
 10
191.269039451094
 20
77.4063903519598
 30
0.0
 10
191.2805674004442
 20
77.45803518488599
 30
0.0
 10
191.2979903036736
 20
77.50392822227813
 30
0.0
 10
191.3200077118957
 20
77.54549236823738
 30
0.0
 10
191.338500469398
 20
77.57021072409468
 30
0.0
 10
191.3476646945963
 20
77.58246009142553
 30
0.0
  0
LINE
  5
160
330
1F
100
AcDbEntity
  8
0
  6
Continuous
 62
     7
370
    25
100
AcDbLine
 10
172.7205883532
 20
67.9642509635
 30
0.0
 11
172.7855944373
 21
67.4685046606
 31
0.0
  0
SPLINE
  5
161
330
1F
100
AcDbEntity
  8
0
  6
Continuous
 62
     7
370
    25
100
AcDbSpline
210
0.0
220
0.0
230
1.0
 70
     8
 71
     3
 72
    10
 73
     6
 74
     0
 42
0.00000001
 43
0.00000001
 40
0.0
 40
0.0
 40
0.0
 40
0.0
 40
0.5
 40
0.5
 40
1.0
 40
1.0
 40
1.0
 40
1.0
 10
172.7855944372555
 20
67.46850466057869
 30
0.0
 10
172.7259657076547
 20
67.46071023478558
 30
0.0
 10
172.6757914158477
 20
67.44076323381526
 30
0.0
 10
172.5957263101073
 20
67.40126498709503
 30
0.0
 10
172.5630115206922
 20
67.38091940611349
 30
0.0
 10
172.5309022809329
 20
67.36135514510845
 30
0.0
  0
SPLINE
  5
162
330
1F
100
AcDbEntity
  8
0
  6
Continuous
 62
     7
370
    25
100
AcDbSpline
210
0.0
220
0.0
230
1.0
 70
     8
 71
     3
 72
    16
 73
    12
 74
     0
 42
0.00000001
 43
0.00000001
 40
0.0
 40
0.0
 40
0.0
 40
0.0
 40
0.0761065007485801
 40
0.1494790931135697
 40
0.2974911001213134
 40
0.4337219070412502
 40
0.5582000385578058
 40
0.674477366117787
 40
0.7859690394750588
 40
0.893935346230082
 40
1.0
 40
1.0
 40
1.0
 40
1.0
 10
172.5457632038713
 20
67.80869214907514
 30
0.0
 10
172.5531795748957
 20
67.79663307510832
 30
0.0
 10
172.5677459050254
 20
67.77294811491937
 30
0.0
 10
172.5899646933439
 20
67.72376400109194
 30
0.0
 10
172.6073182015185
 20
67.66342594673482
 30
0.0
 10
172.6136229394462
 20
67.59625144642001
 30
0.0
 10
172.6095275244344
 20
67.53742488457576
 30
0.0
 10
172.5979995750822
 20
67.48578005164866
 30
0.0
 10
172.580576671856
 20
67.43988701425772
 30
0.0
 10
172.5585592636311
 20
67.39832286829595
 30
0.0
 10
172.5400665061307
 20
67.3736045124393
 30
0.0
 10
172.5309022809331
 20
67.3613551451082
 30
0.0
  0
LINE
  5
163
330
1F
100
AcDbEntity
  8
0
  6
Continuous
 62
     7
370
    25
100
AcDbLine
 10
172.7855944373
 20
77.475310576
 30
0.0
 11
172.7205883532
 21
76.9795642731
 31
0.0
  0
SPLINE
  5
164
330
1F
100
AcDbEntity
  8
0
  6
Continuous
 62
     7
370
    25
100
AcDbSpline
210
0.0
220
0.0
230
1.0
 70
     8
 71
     3
 72
    20
 73
    16
 74
     0
 42
0.00000001
 43
0.00000001
 40
0.0
 40
0.0
 40
0.0
 40
0.0
 40
0.1060317657589631
 40
0.2138409733617976
 40
0.268906061948247
 40
0.3251014539057976
 40
0.382786348557697
 40
0.4420118601150135
 40
0.5669442188443142
 40
0.6333957081061092
 40
0.703032338607854
 40
0.7761748201543405
 40
0.8511692721701473
 40
0.9263894086762869
 40
1.0
 40
1.0
 40
1.0
 40
1.0
 10
172.5309022809331
 20
77.58246009142431
 30
0.0
 10
172.5400684755902
 20
77.57021096530806
 30
0.0
 10
172.5585545205359
 20
77.54550737735234
 30
0.0
 10
172.5767363185923
 20
77.51113908000212
 30
0.0
 10
172.589036469774
 20
77.4817304870769
 30
0.0
 10
172.5969952176498
 20
77.45821077215484
 30
0.0
 10
172.603521966403
 20
77.43327624819004
 30
0.0
 10
172.6101798975562
 20
77.39728697859728
 30
0.0
 10
172.6128813797522
 20
77.35812043469825
 30
0.0
 10
172.6106271884269
 20
77.3158233522118
 30
0.0
 10
172.6057511007388
 20
77.28122787606883
 30
0.0
 10
172.5971447014524
 20
77.24477253947092
 30
0.0
 10
172.584270876175
 20
77.2073934270171
 30
0.0
 10
172.5675012459982
 20
77.17035262770122
 30
0.0
 10
172.5529567870674
 20
77.14678129600773
 30
0.0
 10
172.5457632038741
 20
77.13512308745399
 30
0.0
  0
SPLINE
  5
165
330
1F
100
AcDbEntity
  8
0
  6
Continuous
 62
     7
370
    25
100
AcDbSpline
210
0.0
220
0.0
230
1.0
 70
     8
 71
     3
 72
    10
 73
     6
 74
     0
 42
0.00000001
 43
0.00000001
 40
0.0
 40
0.0
 40
0.0
 40
0.0
 40
0.5
 40
0.5
 40
1.0
 40
1.0
 40
1.0
 40
1.0
 10
172.7855944372568
 20
77.47531057595364
 30
0.0
 10
172.7259657076551
 20
77.48310500174665
 30
0.0
 10
172.6757914158483
 20
77.50305200271696
 30
0.0
 10
172.5957263101076
 20
77.54255024943731
 30
0.0
 10
172.5630115206923
 20
77.56289583041895
 30
0.0
 10
172.5309022809329
 20
77.58246009142407
 30
0.0
  0
LINE
  5
166
330
1F
100
AcDbEntity
  8
0
  6
Continuous
 62
     7
370
    25
100
AcDbLine
 10
191.1579786223
 20
67.9642509635
 30
0.0
 11
191.0929725383
 21
67.4685046606
 31
0.0
  0
SPLINE
  5
167
330
1F
100
AcDbEntity
  8
0
  6
Continuous
 62
     7
370
    25
100
AcDbSpline
210
0.0
220
0.0
230
1.0
 70
     8
 71
     3
 72
    20
 73
    16
 74
     0
 42
0.00000001
 43
0.00000001
 40
0.0
 40
0.0
 40
0.0
 40
0.0
 40
0.1060317657586693
 40
0.2138409733609931
 40
0.2689060619472279
 40
0.325101453904546
 40
0.3827863485561649
 40
0.4420118601131947
 40
0.5669442188418145
 40
0.6333957081032219
 40
0.703032338604481
 40
0.7761748201505866
 40
0.8511692721659514
 40
0.9263894086719594
 40
0.9999999999999999
 40
0.9999999999999999
 40
0.9999999999999999
 40
0.9999999999999999
 10
191.3476646945943
 20
67.36135514510822
 30
0.0
 10
191.3384984999373
 20
67.37360427122438
 30
0.0
 10
191.3200124549916
 20
67.39830785917997
 30
0.0
 10
191.3018306569352
 20
67.43267615653002
 30
0.0
 10
191.2895305057536
 20
67.46208474945503
 30
0.0
 10
191.2815717578778
 20
67.48560446437696
 30
0.0
 10
191.2750450091246
 20
67.5105389883416
 30
0.0
 10
191.2683870779713
 20
67.54652825793407
 30
0.0
 10
191.2656855957752
 20
67.58569480183279
 30
0.0
 10
191.2679397871003
 20
67.62799188431887
 30
0.0
 10
191.2728158747881
 20
67.66258736046156
 30
0.0
 10
191.2814222740742
 20
67.69904269705921
 30
0.0
 10
191.2942960993515
 20
67.7364218095127
 30
0.0
 10
191.3110657295275
 20
67.77346260882972
 30
0.0
 10
191.3256101884603
 20
67.79703394052267
 30
0.0
 10
191.3328037716549
 20
67.8086921490765
 30
0.0
  0
SPLINE
  5
168
330
1F
100
AcDbEntity
  8
0
  6
Continuous
 62
     7
370
    25
100
AcDbSpline
210
0.0
220
0.0
230
1.0
 70
     8
 71
     3
 72
    10
 73
     6
 74
     0
 42
0.00000001
 43
0.00000001
 40
0.0
 40
0.0
 40
0.0
 40
0.0
 40
0.5
 40
0.5
 40
1.0
 40
1.0
 40
1.0
 40
1.0
 10
191.0929725382681
 20
67.46850466057917
 30
0.0
 10
191.1526012678704
 20
67.46071023478646
 30
0.0
 10
191.2027755596778
 20
67.44076323381609
 30
0.0
 10
191.2828406654193
 20
67.4012649870955
 30
0.0
 10
191.3155554548348
 20
67.38091940611369
 30
0.0
 10
191.3476646945944
 20
67.36135514510845
 30
0.0
  0
LINE
  5
169
330
1F
100
AcDbEntity
  8
0
  6
Continuous
 62
     7
370
    25
100
AcDbLine
 10
172.5309022809
 20
67.3613551451
 30
0.0
 11
172.3679902634
 21
67.4341748656
 31
0.0
  0
LINE
  5
16A
330
1F
100
AcDbEntity
  8
0
  6
Continuous
 62
     7
370
    25
100
AcDbLine
 10
191.3476646946
 20
77.5824600914
 30
0.0
 11
191.5105767121
 21
77.509640371
 31
0.0
  0
LINE
  5
16B
330
1F
100
AcDbEntity
  8
0
  6
Continuous
 62
     7
370
    25
100
AcDbLine
 10
172.3679902634
 20
77.509640371
 30
0.0
 11
172.5309022809
 21
77.5824600914
 31
0.0
  0
LINE
  5
16C
330
1F
100
AcDbEntity
  8
0
  6
Continuous
 62
     7
370
    25
100
AcDbLine
 10
191.5105767121
 20
67.4341748656
 30
0.0
 11
191.3476646946
 21
67.3613551451
 31
0.0
  0
SPLINE
  5
16D
330
1F
100
AcDbEntity
  8
0
  6
Continuous
 62
     7
370
    25
100
AcDbSpline
210
0.0
220
0.0
230
1.0
 70
     8
 71
     3
 72
     8
 73
     4
 74
     0
 42
0.00000001
 43
0.00000001
 40
0.0
 40
0.0
 40
0.0
 40
0.0
 40
0.0000524698222138
 40
0.0000524698222138
 40
0.0000524698222138
 40
0.0000524698222138
 10
191.0407069672051
 20
77.47190761826627
 30
0.0
 10
191.0581704021773
 20
77.47190761826627
 30
0.0
 10
191.0756662264174
 20
77.47304836502958
 30
0.0
 10
191.092972538272
 20
77.47531057595383
 30
0.0
  0
SPLINE
  5
16E
330
1F
100
AcDbEntity
  8
0
  6
Continuous
 62
     7
370
    25
100
AcDbSpline
210
0.0
220
0.0
230
1.0
 70
     8
 71
     3
 72
     8
 73
     4
 74
     0
 42
0.00000001
 43
0.00000001
 40
0.0
 40
0.0
 40
0.0
 40
0.0
 40
0.0001175213404591
 40
0.0001175213404591
 40
0.0001175213404591
 40
0.0001175213404591
 10
191.1579786223502
 20
76.97956427306322
 30
0.0
 10
191.1191373467435
 20
76.97447110501926
 30
0.0
 10
191.0798807473575
 20
76.97190761826623
 30
0.0
 10
191.0407069672045
 20
76.97190761826627
 30
0.0
  0
LINE
  5
16F
330
1F
100
AcDbEntity
  8
0
  6
Continuous
 62
     7
370
    25
100
AcDbLine
 10
191.0407069672
 20
77.4719076183
 30
0.0
 11
191.0407069672
 21
76.9719076183
 31
0.0
  0
SPLINE
  5
170
330
1F
100
AcDbEntity
  8
0
  6
Continuous
 62
     7
370
    25
100
AcDbSpline
210
0.0
220
0.0
230
1.0
 70
     8
 71
     3
 72
     8
 73
     4
 74
     0
 42
0.00000001
 43
0.00000001
 40
0.0
 40
0.0
 40
0.0
 40
0.0
 40
0.0001175213404538
 40
0.0001175213404538
 40
0.0001175213404538
 40
0.0001175213404538
 10
191.0407069672044
 20
67.97190761826621
 30
0.0
 10
191.0798807473557
 20
67.97190761826627
 30
0.0
 10
191.11913734674
 20
67.96934413151348
 30
0.0
 10
191.1579786223449
 20
67.96425096346998
 30
0.0
  0
LINE
  5
171
330
1F
100
AcDbEntity
  8
0
  6
Continuous
 62
     7
370
    25
100
AcDbLine
 10
172.8378600083
 20
67.9719076183
 30
0.0
 11
191.0407069672
 21
67.9719076183
 31
0.0
  0
SPLINE
  5
172
330
1F
100
AcDbEntity
  8
0
  6
Continuous
 62
     7
370
    25
100
AcDbSpline
210
0.0
220
0.0
230
1.0
 70
     8
 71
     3
 72
     8
 73
     4
 74
     0
 42
0.00000001
 43
0.00000001
 40
0.0
 40
0.0
 40
0.0
 40
0.0
 40
0.0001175213404591
 40
0.0001175213404591
 40
0.0001175213404591
 40
0.0001175213404591
 10
172.7205883531771
 20
67.96425096346928
 30
0.0
 10
172.7594296287838
 20
67.96934413151325
 30
0.0
 10
172.7986862281699
 20
67.97190761826627
 30
0.0
 10
172.8378600083229
 20
67.97190761826623
 30
0.0
  0
SPLINE
  5
173
330
1F
100
AcDbEntity
  8
0
  6
Continuous
 62
     7
370
    25
100
AcDbSpline
210
0.0
220
0.0
230
1.0
 70
     8
 71
     3
 72
     8
 73
     4
 74
     0
 42
0.00000001
 43
0.00000001
 40
0.0
 40
0.0
 40
0.0
 40
0.0
 40
0.0001175213404538
 40
0.0001175213404538
 40
0.0001175213404538
 40
0.0001175213404538
 10
172.8378600083229
 20
76.97190761826627
 30
0.0
 10
172.7986862281717
 20
76.97190761826623
 30
0.0
 10
172.7594296287874
 20
76.974471105019
 30
0.0
 10
172.7205883531824
 20
76.97956427306252
 30
0.0
  0
LINE
  5
174
330
1F
100
AcDbEntity
  8
0
  6
Continuous
 62
     7
370
    25
100
AcDbLine
 10
191.0407069672
 20
76.9719076183
 30
0.0
 11
172.8378600083
 21
76.9719076183
 31
0.0
  0
LINE
  5
175
330
1F
100
AcDbEntity
  8
0
  6
Continuous
 62
     7
370
    25
100
AcDbLine
 10
184.6523878894
 20
72.0740193052
 30
0.0
 11
185.0511587339
 21
72.4727901497
 31
0.0
  0
ARC
  5
176
330
1F
100
AcDbEntity
  8
0
  6
Continuous
 62
     7
370
    25
100
AcDbCircle
 10
183.9877698153
 20
71.4094012311
 30
0.0
 40
1.503859030837032
100
AcDbArc
 50
45.0
 51
315.0
  0
LINE
  5
177
330
1F
100
AcDbEntity
  8
0
  6
Continuous
 62
     7
370
    25
100
AcDbLine
 10
185.0511587339
 20
70.3460123124
 30
0.0
 11
184.6523878894
 21
70.7447831569
 31
0.0
  0
ARC
  5
178
330
1F
100
AcDbEntity
  8
0
  6
Continuous
 62
     7
370
    25
100
AcDbCircle
 10
183.9877698153
 20
71.4094012311
 30
0.0
 40
0.9399118942731335
100
AcDbArc
 50
45.0
 51
315.0
  0
ARC
  5
179
330
1F
100
AcDbEntity
  8
0
  6
Continuous
 62
     7
370
    25
100
AcDbCircle
 10
187.1129872564
 20
71.4202397941
 30
0.0
 40
1.503859030837023
100
AcDbArc
 50
44.056556937
 51
315.943443063
  0
LINE
  5
17A
330
1F
100
AcDbEntity
  8
0
  6
Continuous
 62
     7
370
    25
100
AcDbLine
 10
188.1937411875
 20
70.3745042037
 30
0.0
 11
187.7948838238
 21
70.7733615673
 31
0.0
  0
ARC
  5
17B
330
1F
100
AcDbEntity
  8
0
  6
Continuous
 62
     7
370
    25
100
AcDbCircle
 10
187.1129872564
 20
71.4202397941
 30
0.0
 40
0.9399118942730735
100
AcDbArc
 50
197.4576031237
 51
316.5096153457
  0
LINE
  5
17C
330
1F
100
AcDbEntity
  8
0
  6
Continuous
 62
     7
370
    25
100
AcDbLine
 10
186.2163684546
 20
71.1382662258
 30
0.0
 11
188.1937411875
 21
71.1382662258
 31
0.0
  0
LINE
  5
17D
330
1F
100
AcDbEntity
  8
0
  6
Continuous
 62
     7
370
    25
100
AcDbLine
 10
188.1937411875
 20
71.1382662258
 30
0.0
 11
188.1937411875
 21
71.7022133624
 31
0.0
  0
LINE
  5
17E
330
1F
100
AcDbEntity
  8
0
  6
Continuous
 62
     7
370
    25
100
AcDbLine
 10
188.1937411875
 20
71.7022133624
 30
0.0
 11
186.2163684546
 21
71.7022133624
 31
0.0
  0
ARC
  5
17F
330
1F
100
AcDbEntity
  8
0
  6
Continuous
 62
     7
370
    25
100
AcDbCircle
 10
187.1129872564
 20
71.4202397941
 30
0.0
 40
0.9399118942731713
100
AcDbArc
 50
43.4903846543
 51
162.5423968763
  0
LINE
  5
180
330
1F
100
AcDbEntity
  8
0
  6
Continuous
 62
     7
370
    25
100
AcDbLine
 10
187.7948838238
 20
72.0671180209
 30
0.0
 11
188.1937411875
 21
72.4659753845
 31
0.0
  0
ELLIPSE
  5
181
330
1F
100
AcDbEntity
  8
0
  6
Continuous
 62
     7
370
    25
100
AcDbEllipse
 10
177.0429551603
 20
69.8784148388
 30
0.0
 11
0.08368089225510289
 21
0.0
 31
0.0
210
0.0
220
0.0
230
1.0
 40
0.9531667975
 41
3.605240262590408
 42
5.462183310215305
  0
ELLIPSE
  5
182
330
1F
100
AcDbEntity
  8
0
  6
Continuous
 62
     7
370
    25
100
AcDbEllipse
 10
179.0275045809
 20
67.8470782343
 30
0.0
 11
2.827839379124981
 21
-3.126388037344441E-13
 31
0.0
210
0.0
220
0.0
230
1.0
 40
0.9535197248
 41
0.8208171341484192
 42
2.320775519441616
  0
ELLIPSE
  5
183
330
1F
100
AcDbEntity
  8
0
  6
Continuous
 62
     7
370
    25
100
AcDbEllipse
 10
181.0120540015
 20
69.8784148388
 30
0.0
 11
0.08368089225504605
 21
1.421085471520200E-14
 31
0.0
210
0.0
220
0.0
230
1.0
 40
0.9531667975
 41
3.96259465056797
 42
5.819537698167092
  0
LINE
  5
184
330
1F
100
AcDbEntity
  8
0
  6
Continuous
 62
     7
370
    25
100
AcDbLine
 10
181.0869004669
 20
69.8427442559
 30
0.0
 11
181.8726457521
 21
71.3406368902
 31
0.0
  0
LINE
  5
185
330
1F
100
AcDbEntity
  8
0
  6
Continuous
 62
     7
370
    25
100
AcDbLine
 10
181.8726457521
 20
71.3406368902
 30
0.0
 11
181.8315642085
 21
71.3171499423
 31
0.0
  0
ELLIPSE
  5
186
330
1F
100
AcDbEntity
  8
0
  6
Continuous
 62
     7
370
    25
100
AcDbEllipse
 10
181.4873312913
 20
71.8644230659
 30
0.0
 11
-0.6694471380407663
 21
-9.947598300641403E-14
 31
0.0
210
0.0
220
0.0
230
1.0
 40
0.9531667975
 41
0.3285531705512478
 42
2.110876526947159
  0
LINE
  5
187
330
1F
100
AcDbEntity
  8
0
  6
Continuous
 62
     7
370
    25
100
AcDbLine
 10
180.8536927547
 20
71.6585265154
 30
0.0
 11
179.610685536
 21
75.1339199312
 31
0.0
  0
ELLIPSE
  5
188
330
1F
100
AcDbEntity
  8
0
  6
Continuous
 62
     7
370
    25
100
AcDbEllipse
 10
179.0275137464
 20
74.8750837835
 30
0.0
 11
0.6432968592110626
 21
6.536993168992921E-13
 31
0.0
210
0.0
220
0.0
230
1.0
 40
0.9531667975
 41
0.435791898754265
 42
2.705800754833596
  0
LINE
  5
189
330
1F
100
AcDbEntity
  8
0
  6
Continuous
 62
     7
370
    25
100
AcDbLine
 10
178.4443419568
 20
75.1339199312
 30
0.0
 11
177.2016244043
 21
71.6593364094
 31
0.0
  0
ELLIPSE
  5
18A
330
1F
100
AcDbEntity
  8
0
  6
Continuous
 62
     7
370
    25
100
AcDbEllipse
 10
176.5679858677
 20
71.8652329598
 30
0.0
 11
-0.6694471380407947
 21
5.684341886080801E-14
 31
0.0
210
0.0
220
0.0
230
1.0
 40
0.9531667975
 41
1.04719755119671
 42
2.813039483038424
  0
LINE
  5
18B
330
1F
100
AcDbEntity
  8
0
  6
Continuous
 62
     7
370
    25
100
AcDbLine
 10
176.2332622987
 20
71.3126266663
 30
0.0
 11
176.1823634097
 21
71.3406368902
 31
0.0
  0
LINE
  5
18C
330
1F
100
AcDbEntity
  8
0
  6
Continuous
 62
     7
370
    25
100
AcDbLine
 10
176.1823634097
 20
71.3406368902
 30
0.0
 11
176.9681086949
 21
69.8427442559
 31
0.0
  0
LINE
  5
18D
330
1F
100
AcDbEntity
  8
0
  6
Continuous
 62
     7
370
    25
100
AcDbLine
 10
172.8378600083
 20
67.9719076183
 30
0.0
 11
172.8378600083
 21
67.4719076183
 31
0.0
  0
SPLINE
  5
18E
330
1F
100
AcDbEntity
  8
0
  6
Continuous
 62
     7
370
    25
100
AcDbSpline
210
0.0
220
0.0
230
1.0
 70
     8
 71
     3
 72
     8
 73
     4
 74
     0
 42
0.00000001
 43
0.00000001
 40
0.0
 40
0.0
 40
0.0
 40
0.0
 40
0.0000524698222138
 40
0.0000524698222138
 40
0.0000524698222138
 40
0.0000524698222138
 10
172.8378600083223
 20
67.47190761826623
 30
0.0
 10
172.8203965733501
 20
67.47190761826623
 30
0.0
 10
172.80290074911
 20
67.47076687150293
 30
0.0
 10
172.7855944372554
 20
67.46850466057867
 30
0.0
  0
LINE
  5
18F
330
1F
100
AcDbEntity
  8
0
  6
Continuous
 62
     7
370
    25
100
AcDbLine
 10
191.0407069672
 20
67.9719076183
 30
0.0
 11
191.0407069672
 21
67.4719076183
 31
0.0
  0
LINE
  5
190
330
1F
100
AcDbEntity
  8
0
  6
Continuous
 62
     7
370
    25
100
AcDbLine
 10
191.0407069672
 20
67.4719076183
 30
0.0
 11
172.8378600083
 21
67.4719076183
 31
0.0
  0
SPLINE
  5
191
330
1F
100
AcDbEntity
  8
0
  6
Continuous
 62
     7
370
    25
100
AcDbSpline
210
0.0
220
0.0
230
1.0
 70
     8
 71
     3
 72
     8
 73
     4
 74
     0
 42
0.00000001
 43
0.00000001
 40
0.0
 40
0.0
 40
0.0
 40
0.0
 40
0.0000524698222089
 40
0.0000524698222089
 40
0.0000524698222089
 40
0.0000524698222089
 10
191.0929725382681
 20
67.46850466057917
 30
0.0
 10
191.0756662264143
 20
67.47076687150317
 30
0.0
 10
191.0581704021744
 20
67.47190761826634
 30
0.0
 10
191.0407069672031
 20
67.47190761826623
 30
0.0
  0
ELLIPSE
  5
192
330
1F
100
AcDbEntity
  8
0
  6
Continuous
 62
     7
370
    25
100
AcDbEllipse
 10
179.0275137484
 20
72.5392011324
 30
0.0
 11
0.08368089225507447
 21
0.0
 31
0.0
210
0.0
220
0.0
230
1.0
 40
0.9531667975
 41
0.3430239404205378
 42
2.798568713169484
  0
LINE
  5
193
330
1F
100
AcDbEntity
  8
0
  6
Continuous
 62
     7
370
    25
100
AcDbLine
 10
179.4059804143
 20
71.7662729431
 30
0.0
 11
179.1063195518
 21
72.566027945
 31
0.0
  0
ELLIPSE
  5
194
330
1F
100
AcDbEntity
  8
0
  6
Continuous
 62
     7
370
    25
100
AcDbEllipse
 10
179.3271746109
 20
71.7394461307
 30
0.0
 11
0.08368089225510289
 21
0.0
 31
0.0
210
0.0
220
0.0
230
1.0
 40
0.9531667975
 41
4.712388980384703
 42
6.626209245739125
  0
LINE
  5
195
330
1F
100
AcDbEntity
  8
0
  6
Continuous
 62
     7
370
    25
100
AcDbLine
 10
178.7278528824
 20
71.6596842826
 30
0.0
 11
179.3271746109
 21
71.6596842826
 31
0.0
  0
LINE
  5
196
330
1F
100
AcDbEntity
  8
0
  6
Continuous
 62
     7
370
    25
100
AcDbLine
 10
178.9487079449
 20
72.566027945
 30
0.0
 11
178.649047079
 21
71.7662729434
 31
0.0
  0
ELLIPSE
  5
197
330
1F
100
AcDbEntity
  8
0
  6
Continuous
 62
     7
370
    25
100
AcDbEllipse
 10
178.7278528824
 20
71.7394461307
 30
0.0
 11
-0.08368089225510289
 21
0.0
 31
0.0
210
0.0
220
0.0
230
1.0
 40
0.9531667975
 41
5.940161364898582
 42
7.853981633974483
  0
SPLINE
  5
198
330
1F
100
AcDbEntity
  8
0
  6
Continuous
 62
     7
370
    25
100
AcDbSpline
210
0.0
220
0.0
230
1.0
 70
     8
 71
     3
 72
     8
 73
     4
 74
     0
 42
0.00000001
 43
0.00000001
 40
0.0
 40
0.0
 40
0.0
 40
0.0
 40
0.0000524698222113
 40
0.0000524698222113
 40
0.0000524698222113
 40
0.0000524698222113
 10
172.7855944372568
 20
77.47531057595364
 30
0.0
 10
172.8029007491114
 20
77.4730483650293
 30
0.0
 10
172.8203965733521
 20
77.47190761826617
 30
0.0
 10
172.8378600083243
 20
77.47190761826627
 30
0.0
  0
LINE
  5
199
330
1F
100
AcDbEntity
  8
0
  6
Continuous
 62
     7
370
    25
100
AcDbLine
 10
172.8378600083
 20
77.4719076183
 30
0.0
 11
172.8378600083
 21
76.9719076183
 31
0.0
  0
LINE
  5
19A
330
1F
100
AcDbEntity
  8
0
  6
Continuous
 62
     7
370
    25
100
AcDbLine
 10
172.8378600083
 20
77.4719076183
 30
0.0
 11
191.0407069672
 21
77.4719076183
 31
0.0
  0
SPLINE
  5
19B
330
1F
100
AcDbEntity
  8
0
  6
Continuous
 62
     7
370
    25
100
AcDbSpline
210
0.0
220
0.0
230
1.0
 70
     8
 71
     3
 72
    14
 73
    10
 74
     0
 42
0.00000001
 43
0.00000001
 40
0.0
 40
0.0
 40
0.0
 40
0.0
 40
0.11064147088684
 40
0.2239563677466561
 40
0.4666597346472056
 40
0.5947565812497213
 40
0.726555932925035
 40
0.8618634099899128
 40
1.0
 40
1.0
 40
1.0
 40
1.0
 10
172.530902280933
 20
67.36135514510835
 30
0.0
 10
172.5222198830465
 20
67.35113056687189
 30
0.0
 10
172.5046452947985
 20
67.33043435427435
 30
0.0
 10
172.4774096058366
 20
67.28466733493299
 30
0.0
 10
172.4593272365544
 20
67.23653511956583
 30
0.0
 10
172.4482921919761
 20
67.18775307353295
 30
0.0
 10
172.4427956787621
 20
67.149994798927
 30
0.0
 10
172.4396540066002
 20
67.11185307782786
 30
0.0
 10
172.43938525785
 20
67.0864760371295
 30
0.0
 10
172.4392494932078
 20
67.07365623853553
 30
0.0
  0
LINE
  5
19C
330
1F
100
AcDbEntity
  8
0
  6
Continuous
 62
     7
370
    25
100
AcDbLine
 10
172.4392494932
 20
67.0736562385
 30
0.0
 11
172.196390269
 21
66.962148248
 31
0.0
  0
LINE
  5
19D
330
1F
100
AcDbEntity
  8
0
  6
Continuous
 62
     7
370
    25
100
AcDbLine
 10
172.196390269
 20
77.9816669885
 30
0.0
 11
172.4392494932
 21
77.870158998
 31
0.0
  0
SPLINE
  5
19E
330
1F
100
AcDbEntity
  8
0
  6
Continuous
 62
     7
370
    25
100
AcDbSpline
210
0.0
220
0.0
230
1.0
 70
     8
 71
     3
 72
    14
 73
    10
 74
     0
 42
0.00000001
 43
0.00000001
 40
0.0
 40
0.0
 40
0.0
 40
0.0
 40
0.1377327108983413
 40
0.2725942884998932
 40
0.4041400602171393
 40
0.5321680644070492
 40
0.7754693061725265
 40
0.8890599100113705
 40
0.9999999999999999
 40
0.9999999999999999
 40
0.9999999999999999
 40
0.9999999999999999
 10
172.4392494932079
 20
77.87015899799887
 30
0.0
 10
172.4393843266579
 20
77.85737665750939
 30
0.0
 10
172.4396511828618
 20
77.83207843322869
 30
0.0
 10
172.4427730051071
 20
77.79404403484719
 30
0.0
 10
172.448239269066
 20
77.75636146270206
 30
0.0
 10
172.4592391257769
 20
77.70756250971174
 30
0.0
 10
172.4773067983609
 20
77.6593503605596
 30
0.0
 10
172.5045802478561
 20
77.6134639439348
 30
0.0
 10
172.522197592301
 20
77.59271305637209
 30
0.0
 10
172.530902280933
 20
77.58246009142417
 30
0.0
  0
SPLINE
  5
19F
330
1F
100
AcDbEntity
  8
0
  6
Continuous
 62
     7
370
    25
100
AcDbSpline
210
0.0
220
0.0
230
1.0
 70
     8
 71
     3
 72
    14
 73
    10
 74
     0
 42
0.00000001
 43
0.00000001
 40
0.0
 40
0.0
 40
0.0
 40
0.0
 40
0.1106414710656435
 40
0.2239563677554478
 40
0.4666597346536896
 40
0.5947565812547271
 40
0.726555932928469
 40
0.8618634099916662
 40
1.0
 40
1.0
 40
1.0
 40
1.0
 10
191.3476646945944
 20
77.58246009142417
 30
0.0
 10
191.3563470924928
 20
77.59268466967659
 30
0.0
 10
191.3739216807372
 20
77.61338088227383
 30
0.0
 10
191.4011573697011
 20
77.65914790162115
 30
0.0
 10
191.4192397389731
 20
77.70728011696863
 30
0.0
 10
191.4302747835517
 20
77.75606216300126
 30
0.0
 10
191.4357712967654
 20
77.79382043760658
 30
0.0
 10
191.4389129689272
 20
77.83196215870521
 30
0.0
 10
191.4391817176774
 20
77.85733919940319
 30
0.0
 10
191.4393174823196
 20
77.87015899799697
 30
0.0
  0
LINE
  5
1A0
330
1F
100
AcDbEntity
  8
0
  6
Continuous
 62
     7
370
    25
100
AcDbLine
 10
191.4393174823
 20
77.870158998
 30
0.0
 11
191.6821767066
 21
77.9816669885
 31
0.0
  0
LINE
  5
1A1
330
1F
100
AcDbEntity
  8
0
  6
Continuous
 62
     7
370
    25
100
AcDbLine
 10
191.6821767066
 20
66.962148248
 30
0.0
 11
191.4393174823
 21
67.0736562385
 31
0.0
  0
SPLINE
  5
1A2
330
1F
100
AcDbEntity
  8
0
  6
Continuous
 62
     7
370
    25
100
AcDbSpline
210
0.0
220
0.0
230
1.0
 70
     8
 71
     3
 72
    14
 73
    10
 74
     0
 42
0.00000001
 43
0.00000001
 40
0.0
 40
0.0
 40
0.0
 40
0.0
 40
0.1377327108985503
 40
0.2725942885000418
 40
0.4041400602172888
 40
0.5321680644071739
 40
0.7754693061726297
 40
0.8890599100180714
 40
1.0
 40
1.0
 40
1.0
 40
1.0
 10
191.4393174823195
 20
67.07365623853366
 30
0.0
 10
191.4391826488694
 20
67.08643857902321
 30
0.0
 10
191.4389157926655
 20
67.11173680330397
 30
0.0
 10
191.4357939704203
 20
67.14977120168541
 30
0.0
 10
191.4303277064614
 20
67.18745377383057
 30
0.0
 10
191.4193278497504
 20
67.23625272682085
 30
0.0
 10
191.4012601771664
 20
67.2844648759735
 30
0.0
 10
191.3739867276706
 20
67.33035129259855
 30
0.0
 10
191.3563693832258
 20
67.3511021801611
 30
0.0
 10
191.3476646945944
 20
67.36135514510835
 30
0.0
  0
ARC
  5
1A3
330
1F
100
AcDbEntity
  8
0
  6
Continuous
 62
     7
370
    25
100
AcDbCircle
 10
172.8392834878
 20
77.8719076183
 30
0.0
 40
0.4000000000000199
100
AcDbArc
 50
180.0
 51
270.0
  0
SPLINE
  5
1A4
330
1F
100
AcDbEntity
  8
0
  6
Continuous
 62
     7
370
    25
100
AcDbSpline
210
0.0
220
0.0
230
1.0
 70
    24
 71
     3
 72
     8
 73
     4
 74
     0
 42
0.00000001
 43
0.00000001
 40
0.0
 40
0.0
 40
0.0
 40
0.0
 40
1.0
 40
1.0
 40
1.0
 40
1.0
 10
172.8392834877637
 20
77.47190761826627
 30
0.0
 10
172.8392834877637
 20
77.47190761826627
 30
0.0
 10
172.838806708371
 20
77.47190761826627
 30
0.0
 10
172.8378600083219
 20
77.47190761826627
 30
0.0
  0
SPLINE
  5
1A5
330
1F
100
AcDbEntity
  8
0
  6
Continuous
 62
     7
370
    25
100
AcDbSpline
210
0.0
220
0.0
230
1.0
 70
     8
 71
     3
 72
     8
 73
     4
 74
     0
 42
0.00000001
 43
0.00000001
 40
0.0
 40
0.0
 40
0.0
 40
0.0
 40
1.0
 40
1.0
 40
1.0
 40
1.0
 10
172.4392494932077
 20
77.87015899799388
 30
0.0
 10
172.4392721508186
 20
77.8707411761482
 30
0.0
 10
172.4392834877637
 20
77.87132404892924
 30
0.0
 10
172.4392834877637
 20
77.87190761826629
 30
0.0
  0
ARC
  5
1A6
330
1F
100
AcDbEntity
  8
0
  6
Continuous
 62
     7
370
    25
100
AcDbCircle
 10
191.0392834878
 20
67.0719076183
 30
0.0
 40
0.4000000000000057
100
AcDbArc
 50
0.0
 51
90.0
  0
SPLINE
  5
1A7
330
1F
100
AcDbEntity
  8
0
  6
Continuous
 62
     7
370
    25
100
AcDbSpline
210
0.0
220
0.0
230
1.0
 70
    24
 71
     3
 72
     8
 73
     4
 74
     0
 42
0.00000001
 43
0.00000001
 40
0.0
 40
0.0
 40
0.0
 40
0.0
 40
1.0
 40
1.0
 40
1.0
 40
1.0
 10
191.0392834877637
 20
67.47190761826623
 30
0.0
 10
191.0392834877637
 20
67.47190761826623
 30
0.0
 10
191.0397602671563
 20
67.47190761826623
 30
0.0
 10
191.0407069672056
 20
67.47190761826623
 30
0.0
  0
SPLINE
  5
1A8
330
1F
100
AcDbEntity
  8
0
  6
Continuous
 62
     7
370
    25
100
AcDbSpline
210
0.0
220
0.0
230
1.0
 70
     8
 71
     3
 72
     8
 73
     4
 74
     0
 42
0.00000001
 43
0.00000001
 40
0.0
 40
0.0
 40
0.0
 40
0.0
 40
1.0
 40
1.0
 40
1.0
 40
1.0
 10
191.4393174823196
 20
67.0736562385355
 30
0.0
 10
191.4392948247087
 20
67.07307406038223
 30
0.0
 10
191.4392834877637
 20
67.07249118760221
 30
0.0
 10
191.4392834877637
 20
67.07190761826622
 30
0.0
  0
SPLINE
  5
1A9
330
1F
100
AcDbEntity
  8
0
  6
Continuous
 62
     7
370
    25
100
AcDbSpline
210
0.0
220
0.0
230
1.0
 70
    24
 71
     3
 72
     8
 73
     4
 74
     0
 42
0.00000001
 43
0.00000001
 40
0.0
 40
0.0
 40
0.0
 40
0.0
 40
1.0
 40
1.0
 40
1.0
 40
1.0
 10
172.8378600083223
 20
67.47190761826623
 30
0.0
 10
172.8388067083712
 20
67.47190761826623
 30
0.0
 10
172.8392834877637
 20
67.47190761826623
 30
0.0
 10
172.8392834877637
 20
67.47190761826623
 30
0.0
  0
ARC
  5
1AA
330
1F
100
AcDbEntity
  8
0
  6
Continuous
 62
     7
370
    25
100
AcDbCircle
 10
172.8392834878
 20
67.0719076183
 30
0.0
 40
0.4000000000000057
100
AcDbArc
 50
90.0
 51
180.0
  0
SPLINE
  5
1AB
330
1F
100
AcDbEntity
  8
0
  6
Continuous
 62
     7
370
    25
100
AcDbSpline
210
0.0
220
0.0
230
1.0
 70
     8
 71
     3
 72
     8
 73
     4
 74
     0
 42
0.00000001
 43
0.00000001
 40
0.0
 40
0.0
 40
0.0
 40
0.0
 40
1.0
 40
1.0
 40
1.0
 40
1.0
 10
172.4392834877637
 20
67.07190761826622
 30
0.0
 10
172.4392834877637
 20
67.07249118760205
 30
0.0
 10
172.4392721508187
 20
67.0730740603819
 30
0.0
 10
172.4392494932078
 20
67.07365623853502
 30
0.0
  0
SPLINE
  5
1AC
330
1F
100
AcDbEntity
  8
0
  6
Continuous
 62
     7
370
    25
100
AcDbSpline
210
0.0
220
0.0
230
1.0
 70
    24
 71
     3
 72
     8
 73
     4
 74
     0
 42
0.00000001
 43
0.00000001
 40
0.0
 40
0.0
 40
0.0
 40
0.0
 40
1.0
 40
1.0
 40
1.0
 40
1.0
 10
191.0407069672051
 20
77.47190761826627
 30
0.0
 10
191.0397602671562
 20
77.47190761826627
 30
0.0
 10
191.0392834877637
 20
77.47190761826627
 30
0.0
 10
191.0392834877637
 20
77.47190761826627
 30
0.0
  0
ARC
  5
1AD
330
1F
100
AcDbEntity
  8
0
  6
Continuous
 62
     7
370
    25
100
AcDbCircle
 10
191.0392834878
 20
77.8719076183
 30
0.0
 40
0.4000000000000199
100
AcDbArc
 50
270.0
 51
0.0
  0
SPLINE
  5
1AE
330
1F
100
AcDbEntity
  8
0
  6
Continuous
 62
     7
370
    25
100
AcDbSpline
210
0.0
220
0.0
230
1.0
 70
     8
 71
     3
 72
     8
 73
     4
 74
     0
 42
0.00000001
 43
0.00000001
 40
0.0
 40
0.0
 40
0.0
 40
0.0
 40
1.0
 40
1.0
 40
1.0
 40
1.0
 10
191.4392834877637
 20
77.87190761826629
 30
0.0
 10
191.4392834877637
 20
77.87132404893029
 30
0.0
 10
191.4392948247087
 20
77.87074117615028
 30
0.0
 10
191.4393174823196
 20
77.87015899799701
 30
0.0
  0
LINE
  5
1AF
330
1F
100
AcDbEntity
  8
0
  6
Continuous
 62
     7
370
    25
100
AcDbLine
 10
191.4393174823
 20
77.870158998
 30
0.0
 11
191.4393174823
 21
84.229048394
 31
0.0
  0
LINE
  5
1B0
330
1F
100
AcDbEntity
  8
0
  6
Continuous
 62
     7
370
    25
100
AcDbLine
 10
172.4392494932
 20
67.0736562385
 30
0.0
 11
172.439249493
 21
60.7147668425
 31
0.0
  0
LINE
  5
1B1
330
1F
100
AcDbEntity
  8
0
  6
Continuous
 62
     7
370
    25
100
AcDbLine
 10
172.4392494936
 20
84.229048394
 30
0.0
 11
172.4392494932
 21
77.870158998
 31
0.0
  0
LINE
  5
1B2
330
1F
100
AcDbEntity
  8
0
  6
Continuous
 62
     7
370
    25
100
AcDbLine
 10
191.4393174825
 20
60.7147668425
 30
0.0
 11
191.4393174823
 21
67.0736562385
 31
0.0
  0
LINE
  5
1B3
330
1F
100
AcDbEntity
  8
0
  6
Continuous
 62
     7
370
    25
100
AcDbLine
 10
205.9928922148
 20
72.4719076183
 30
0.0
 11
205.9928922148
 21
62.165145391
 31
0.0
  0
LINE
  5
1B4
330
1F
100
AcDbEntity
  8
0
  6
Continuous
 62
     7
370
    25
100
AcDbLine
 10
205.9928922148
 20
82.7786698455
 30
0.0
 11
205.9928922148
 21
72.4719076183
 31
0.0
  0
LINE
  5
1B5
330
1F
100
AcDbEntity
  8
0
  6
Continuous
 62
     7
370
    25
100
AcDbLine
 10
172.4392834878
 20
84.2219076183
 30
0.0
 11
172.4392834878
 21
77.8719076183
 31
0.0
  0
LINE
  5
1B6
330
1F
100
AcDbEntity
  8
0
  6
Continuous
 62
     7
370
    25
100
AcDbLine
 10
191.4392834878
 20
77.8719076183
 30
0.0
 11
191.4392834878
 21
84.2219076183
 31
0.0
  0
LINE
  5
1B7
330
1F
100
AcDbEntity
  8
0
  6
Continuous
 62
     7
370
    25
100
AcDbLine
 10
191.4392834878
 20
60.7219076183
 30
0.0
 11
191.4392834878
 21
67.0719076183
 31
0.0
  0
LINE
  5
1B8
330
1F
100
AcDbEntity
  8
0
  6
Continuous
 62
     7
370
    25
100
AcDbLine
 10
172.4392834878
 20
67.0719076183
 30
0.0
 11
172.4392834878
 21
60.7219076183
 31
0.0
  0
LINE
  5
1B9
330
1F
100
AcDbEntity
  8
0
  6
Continuous
 62
     7
370
    25
100
AcDbLine
 10
208.6892834878
 20
81.2219076183
 30
0.0
 11
208.6892834878
 21
63.7219076183
 31
0.0
  0
LINE
  5
1BA
330
1F
100
AcDbEntity
  8
0
  6
Continuous
 62
     7
370
    25
100
AcDbLine
 10
172.8392834878
 20
77.4719076183
 30
0.0
 11
172.8392834878
 21
77.7327771835
 31
0.0
  0
LINE
  5
1BB
330
1F
100
AcDbEntity
  8
0
  6
Continuous
 62
     7
370
    25
100
AcDbLine
 10
172.8392834878
 20
77.7327771835
 30
0.0
 11
191.0392834878
 21
77.7327771835
 31
0.0
  0
LINE
  5
1BC
330
1F
100
AcDbEntity
  8
0
  6
Continuous
 62
     7
370
    25
100
AcDbLine
 10
191.0392834878
 20
77.4719076183
 30
0.0
 11
191.0392834878
 21
77.7327771835
 31
0.0
  0
LWPOLYLINE
  5
1BD
330
1F
100
AcDbEntity
  8
0
  6
Continuous
 62
     7
370
    25
100
AcDbPolyline
 90
        9
 70
   128
 43
0.0
 10
172.4392834878
 20
77.9240815313
 10
172.4469693756
 20
77.8867599045
 10
172.4697316748
 20
77.8508725269
 10
172.5066956428
 20
77.8177985302
 10
172.5564407753
 20
77.7888089297
 10
172.6170553946
 20
77.7650177794
 10
172.6862101148
 20
77.7473393599
 10
172.761247359
 20
77.7364530429
 10
172.8392834878
 20
77.7327771835
  0
LWPOLYLINE
  5
1BE
330
1F
100
AcDbEntity
  8
0
  6
Continuous
 62
     7
370
    25
100
AcDbPolyline
 90
        9
 70
   128
 43
0.0
 10
191.0392834878
 20
77.7327771835
 10
191.1173196166
 20
77.7364530429
 10
191.1923568607
 20
77.7473393599
 10
191.261511581
 20
77.7650177794
 10
191.3221262002
 20
77.7888089297
 10
191.3718713327
 20
77.8177985302
 10
191.4088353008
 20
77.8508725269
 10
191.4315975999
 20
77.8867599045
 10
191.4392834878
 20
77.9240815313
  0
LINE
  5
1BF
330
1F
100
AcDbEntity
  8
0
  6
Continuous
 62
     7
370
    25
100
AcDbLine
 10
172.8392834878
 20
67.211038053
 30
0.0
 11
172.8392834878
 21
67.4719076183
 31
0.0
  0
LWPOLYLINE
  5
1C0
330
1F
100
AcDbEntity
  8
0
  6
Continuous
 62
     7
370
    25
100
AcDbPolyline
 90
        9
 70
   128
 43
0.0
 10
172.8392834878
 20
67.211038053
 10
172.761247359
 20
67.2073621936
 10
172.6862101148
 20
67.1964758767
 10
172.6170553946
 20
67.1787974571
 10
172.5564407753
 20
67.1550063068
 10
172.5066956428
 20
67.1260167063
 10
172.4697316748
 20
67.0929427097
 10
172.4469693756
 20
67.057055332
 10
172.4392834878
 20
67.0197337052
  0
LWPOLYLINE
  5
1C1
330
1F
100
AcDbEntity
  8
0
  6
Continuous
 62
     7
370
    25
100
AcDbPolyline
 90
        9
 70
   128
 43
0.0
 10
191.4392834878
 20
67.0197337052
 10
191.4315975999
 20
67.057055332
 10
191.4088353008
 20
67.0929427097
 10
191.3718713327
 20
67.1260167063
 10
191.3221262002
 20
67.1550063068
 10
191.261511581
 20
67.1787974571
 10
191.1923568607
 20
67.1964758767
 10
191.1173196166
 20
67.2073621936
 10
191.0392834878
 20
67.211038053
  0
LINE
  5
1C2
330
1F
100
AcDbEntity
  8
0
  6
Continuous
 62
     7
370
    25
100
AcDbLine
 10
191.0392834878
 20
67.211038053
 30
0.0
 11
191.0392834878
 21
67.4719076183
 31
0.0
  0
LINE
  5
1C3
330
1F
100
AcDbEntity
  8
0
  6
Continuous
 62
     7
370
    25
100
AcDbLine
 10
191.0392834878
 20
67.211038053
 30
0.0
 11
172.8392834878
 21
67.211038053
 31
0.0
  0
SPLINE
  5
1C4
330
1F
100
AcDbEntity
  8
0
  6
Continuous
 62
     7
370
    25
100
AcDbSpline
210
0.0
220
0.0
230
1.0
 70
    11
 71
     3
 72
    26
 73
    22
 74
     0
 42
0.00000001
 43
0.00000001
 40
0.0
 40
0.0
 40
0.0
 40
0.0
 40
0.1249999999999999
 40
0.1249999999999999
 40
0.1874999999999999
 40
0.1874999999999999
 40
0.2499999999999999
 40
0.2499999999999999
 40
0.3124999999999999
 40
0.3124999999999999
 40
0.3749999999999999
 40
0.3749999999999999
 40
0.4999999999999999
 40
0.4999999999999999
 40
0.6249999999999999
 40
0.6249999999999999
 40
0.7499999999999999
 40
0.7499999999999999
 40
0.8749999999999999
 40
0.8749999999999999
 40
1.0
 40
1.0
 40
1.0
 40
1.0
 10
182.4526024566121
 20
83.47190761826629
 30
0.0
 10
182.4526024566121
 20
83.6110266494951
 30
0.0
 10
182.3998064854631
 20
83.74675435247059
 30
0.0
 10
182.2583508955858
 20
83.89977308896636
 30
0.0
 10
182.2017969592139
 20
83.94127598998689
 30
0.0
 10
182.0762528077705
 20
83.99847588378057
 30
0.0
 10
182.0071011946625
 20
84.0137598725249
 30
0.0
 10
181.869942819919
 20
84.01353899876126
 30
0.0
 10
181.8008282371129
 20
83.9979789374736
 30
0.0
 10
181.6760684684818
 20
83.94077310297959
 30
0.0
 10
181.6194373801473
 20
83.89902167571265
 30
0.0
 10
181.4793237536244
 20
83.7471808074292
 30
0.0
 10
181.4260032196778
 20
83.61112848016134
 30
0.0
 10
181.4259258611017
 20
83.33299578645797
 30
0.0
 10
181.4796142431234
 20
83.196193776438
 30
0.0
 10
181.6663090574311
 20
82.99412497277294
 30
0.0
 10
181.8021902667946
 20
82.92995521308738
 30
0.0
 10
182.0778214008331
 20
82.9303762658884
 30
0.0
 10
182.2127964392468
 20
82.9946449483117
 30
0.0
 10
182.3986439163128
 20
83.19592249953584
 30
0.0
 10
182.4526024566121
 20
83.33278858703747
 30
0.0
 10
182.4526024566121
 20
83.47190761826629
 30
0.0
  0
SPLINE
  5
1C5
330
1F
100
AcDbEntity
  8
0
  6
Continuous
 62
     7
370
    25
100
AcDbSpline
210
0.0
220
0.0
230
1.0
 70
    11
 71
     3
 72
    38
 73
    34
 74
     0
 42
0.00000001
 43
0.00000001
 40
0.0
 40
0.0
 40
0.0
 40
0.0
 40
0.0625
 40
0.0625
 40
0.125
 40
0.125
 40
0.1875
 40
0.1875
 40
0.25
 40
0.25
 40
0.3125
 40
0.3125
 40
0.375
 40
0.375
 40
0.4375
 40
0.4375
 40
0.5
 40
0.5
 40
0.5625
 40
0.5625
 40
0.625
 40
0.625
 40
0.6875
 40
0.6875
 40
0.75
 40
0.75
 40
0.8125
 40
0.8125
 40
0.875
 40
0.875
 40
0.9375
 40
0.9375
 40
1.0
 40
1.0
 40
1.0
 40
1.0
 10
180.9392834877637
 20
83.4719076182663
 30
0.0
 10
180.9392834877637
 20
83.33952170335598
 30
0.0
 10
180.9654320389065
 20
83.20963437687728
 30
0.0
 10
181.0658977083643
 20
82.96755538229141
 30
0.0
 10
181.1401825747609
 20
82.85677402823538
 30
0.0
 10
181.3243317544956
 20
82.67266674812961
 30
0.0
 10
181.4357073770899
 20
82.59819807683363
 30
0.0
 10
181.6762558816237
 20
82.49837090070493
 30
0.0
 10
181.8080137776112
 20
82.47198298063162
 30
0.0
 10
182.069402469775
 20
82.4718325869448
 30
0.0
 10
182.2005745403667
 20
82.49777240735484
 30
0.0
 10
182.4430122263664
 20
82.5981400397801
 30
0.0
 10
182.553066394516
 20
82.67152894292535
 30
0.0
 10
182.7393197119269
 20
82.85767840975488
 30
0.0
 10
182.81274603982
 20
82.9677169271549
 30
0.0
 10
182.9131107874489
 20
83.20959964424355
 30
0.0
 10
182.9392320517451
 20
83.34087416275487
 30
0.0
 10
182.9393347692304
 20
83.60215481212741
 30
0.0
 10
182.9130911411366
 20
83.73397021564031
 30
0.0
 10
182.8134227843385
 20
83.97475813372179
 30
0.0
 10
182.73914199237
 20
84.08609033511979
 30
0.0
 10
182.5549552519364
 20
84.27062053031479
 30
0.0
 10
182.4445316778738
 20
84.34480685958856
 30
0.0
 10
182.2021469626338
 20
84.44562811855873
 30
0.0
 10
182.0722227830674
 20
84.47180234786374
 30
0.0
 10
181.8079326735506
 20
84.47201225785066
 30
0.0
 10
181.6776989148885
 20
84.44592453548749
 30
0.0
 10
181.4358062437178
 20
84.3457760915089
 30
0.0
 10
181.3247903183112
 20
84.27148979634373
 30
0.0
 10
181.1406225823312
 20
84.08759769690695
 30
0.0
 10
181.0660239108291
 20
83.97626754635293
 30
0.0
 10
180.9659730972839
 20
83.7357790065443
 30
0.0
 10
180.9392834877637
 20
83.6042935331766
 30
0.0
 10
180.9392834877637
 20
83.4719076182663
 30
0.0
  0
LINE
  5
1C6
330
1F
100
AcDbEntity
  8
0
  6
Continuous
 62
     7
370
    25
100
AcDbLine
 10
191.0392834878
 20
77.7327771835
 30
0.0
 11
191.0392834878
 21
83.4719076183
 31
0.0
  0
LINE
  5
1C7
330
1F
100
AcDbEntity
  8
0
  6
Continuous
 62
     7
370
    25
100
AcDbLine
 10
172.8392834878
 20
83.4719076183
 30
0.0
 11
172.8392834878
 21
77.7327771835
 31
0.0
  0
LINE
  5
1C8
330
1F
100
AcDbEntity
  8
0
  6
Continuous
 62
     7
370
    25
100
AcDbLine
 10
191.0392834878
 20
61.4719076183
 30
0.0
 11
191.0392834878
 21
67.211038053
 31
0.0
  0
LINE
  5
1C9
330
1F
100
AcDbEntity
  8
0
  6
Continuous
 62
     7
370
    25
100
AcDbLine
 10
172.8392834878
 20
67.211038053
 30
0.0
 11
172.8392834878
 21
61.4719076183
 31
0.0
  0
SPLINE
  5
1CA
330
1F
100
AcDbEntity
  8
0
  6
Continuous
 62
     7
370
    25
100
AcDbSpline
210
0.0
220
0.0
230
1.0
 70
     8
 71
     3
 72
    27
 73
    23
 74
     0
 42
0.00000001
 43
0.00000001
 40
0.0
 40
0.0
 40
0.0
 40
0.0
 40
0.052088347672161
 40
0.0967664661362626
 40
0.1426761620705039
 40
0.1906141109233644
 40
0.2396976278085277
 40
0.29405822117764
 40
0.3498617184067265
 40
0.4064975248049067
 40
0.465201564505842
 40
0.513976062209054
 40
0.5643298531308104
 40
0.6086241239611844
 40
0.6538874177435013
 40
0.7029431028011776
 40
0.7530618599495593
 40
0.8081385210793349
 40
0.864893018061929
 40
0.9179658980604393
 40
0.9731376494338139
 40
1.0
 40
1.0
 40
1.0
 40
1.0
 10
188.3392834877637
 20
83.47190761826629
 30
0.0
 10
188.3213187160388
 20
83.46229381738615
 30
0.0
 10
188.2879448895986
 20
83.44443390093873
 30
0.0
 10
188.0393290540032
 20
83.31399593343465
 30
0.0
 10
187.6809617185388
 20
83.13245524644542
 30
0.0
 10
187.186760879531
 20
82.89521063034614
 30
0.0
 10
186.5487114881542
 20
82.61298789610392
 30
0.0
 10
185.764282769044
 20
82.30618757369487
 30
0.0
 10
184.8340316701111
 20
82.00701930444248
 30
0.0
 10
183.7839214770055
 20
81.76060018340806
 30
0.0
 10
182.707099040854
 20
81.62116371076664
 30
0.0
 10
181.646441340984
 20
81.59865204135988
 30
0.0
 10
180.6911108885684
 20
81.6746527796378
 30
0.0
 10
179.7952292146304
 20
81.82745325881056
 30
0.0
 10
178.9576009180581
 20
82.03585107573262
 30
0.0
 10
178.1531742300941
 20
82.29415160518174
 30
0.0
 10
177.3836291991601
 20
82.5901221292594
 30
0.0
 10
176.690503639188
 20
82.89457313943322
 30
0.0
 10
176.1262705685441
 20
83.16737376199988
 30
0.0
 10
175.7397602377283
 20
83.36545574591646
 30
0.0
 10
175.5451663708608
 20
83.46876684554701
 30
0.0
 10
175.5591460886202
 20
83.46134493248562
 30
0.0
 10
175.5637237955785
 20
83.4589146013695
 30
0.0
  0
LWPOLYLINE
  5
1CB
330
1F
100
AcDbEntity
  8
0
  6
Continuous
 62
     7
370
    25
100
AcDbPolyline
 90
       23
 70
   128
 43
0.0
 10
176.0618143845
 20
83.9583240169
 10
176.0622153582
 20
83.9580825946
 10
176.245512733
 20
83.8487017383
 10
176.5979748352
 20
83.6459845298
 10
177.1183808912
 20
83.3638565434
 10
177.7779497103
 20
83.0391257166
 10
178.4572832102
 20
82.7459690714
 10
179.2211542545
 20
82.4710840547
 10
179.9652041439
 20
82.2637822837
 10
180.7577806393
 20
82.1120619734
 10
181.6652993124
 20
82.0321497666
 10
182.5823594515
 20
82.0519185464
 10
183.5531209153
 20
82.1863181159
 10
184.4649305552
 20
82.4115189613
 10
184.5978915518
 20
82.4522362197
 10
185.4482236535
 20
82.756745463
 10
186.1938385614
 20
83.0827155867
 10
186.7588517961
 20
83.3632143003
 10
187.2192051272
 20
83.6116022817
 10
187.5438637753
 20
83.7965977651
 10
187.7534736638
 20
83.9203667565
 10
187.8392834878
 20
83.9719076183
 10
187.8392834878
 20
83.9719076183
  0
LINE
  5
1CC
330
1F
100
AcDbEntity
  8
0
  6
Continuous
 62
     7
370
    18
100
AcDbLine
 10
195.1892834878
 20
62.8187948455
 30
0.0
 11
207.8080574568
 21
63.2131315321
 31
0.0
  0
LINE
  5
1CD
330
1F
100
AcDbEntity
  8
0
  6
Continuous
 62
     7
370
    18
100
AcDbLine
 10
207.8080574568
 20
81.7306837045
 30
0.0
 11
195.1892834878
 21
82.125020391
 31
0.0
  0
LINE
  5
1CE
330
1F
100
AcDbEntity
  8
0
  6
Continuous
 62
     7
370
    18
100
AcDbLine
 10
165.6892834878
 20
81.7719076183
 30
0.0
 11
160.8543469972
 21
81.7719076183
 31
0.0
  0
LINE
  5
1CF
330
1F
100
AcDbEntity
  8
0
  6
Continuous
 62
     7
370
    18
100
AcDbLine
 10
160.8543469972
 20
63.1719076183
 30
0.0
 11
165.6892834878
 21
63.1719076183
 31
0.0
  0
LINE
  5
1D0
330
1F
100
AcDbEntity
  8
0
  6
Continuous
 62
     7
370
    25
100
AcDbLine
 10
165.6892834878
 20
72.4719076183
 30
0.0
 11
165.6892834878
 21
71.4119165246
 31
0.0
  0
SPLINE
  5
1D1
330
1F
100
AcDbEntity
  8
0
  6
Continuous
 62
     7
370
     0
100
AcDbSpline
210
0.0
220
0.0
230
1.0
 70
     8
 71
     3
 72
    22
 73
    18
 74
     0
 42
0.00000001
 43
0.00000001
 40
0.0
 40
0.0
 40
0.0
 40
0.0
 40
0.0689647538885972
 40
0.1379295076895039
 40
0.2068942614904119
 40
0.2758590152913185
 40
0.344823769092226
 40
0.4137885228931334
 40
0.4827532766940409
 40
0.5517180304949479
 40
0.620682784295855
 40
0.6896475380967623
 40
0.7586122918976697
 40
0.8275770456985768
 40
0.8965417994994841
 40
0.9655065533003914
 40
1.0
 40
1.0
 40
1.0
 40
1.0
 10
165.68922996521
 20
71.41191652464296
 30
0.0
 10
165.6892834877637
 20
70.36280237403734
 30
0.0
 10
165.6892834877637
 20
69.33533049731292
 30
0.0
 10
165.6892834877637
 20
68.34004414631647
 30
0.0
 10
165.6892834877637
 20
67.38715630584687
 30
0.0
 10
165.6892834877637
 20
66.48644489461059
 30
0.0
 10
165.6892834877637
 20
65.64715243054418
 30
0.0
 10
165.6892834877637
 20
64.87789119007316
 30
0.0
 10
165.6892834877637
 20
64.18655483450154
 30
0.0
 10
165.6892834877637
 20
63.58023741036502
 30
0.0
 10
165.6892834877637
 20
63.06516055491382
 30
0.0
 10
165.6892834877637
 20
62.64660965369523
 30
0.0
 10
165.6892834877637
 20
62.32887960534562
 30
0.0
 10
165.6892834877637
 20
62.11523075011849
 30
0.0
 10
165.6892834877637
 20
62.00785541438157
 30
0.0
 10
165.6892834877637
 20
61.99440761826629
 30
0.0
 10
165.6892834877636
 20
61.99712192476013
 30
0.0
 10
165.6892834877637
 20
61.99440761826629
 30
0.0
  0
SPLINE
  5
1D2
330
1F
100
AcDbEntity
  8
0
  6
Continuous
 62
     7
370
     0
100
AcDbSpline
210
0.0
220
0.0
230
1.0
 70
     8
 71
     3
 72
    23
 73
    19
 74
     0
 42
0.00000001
 43
0.00000001
 40
0.0
 40
0.0
 40
0.0
 40
0.0
 40
0.0322680862483683
 40
0.0967835471651444
 40
0.1612990080819204
 40
0.2258144689986963
 40
0.2903299299154724
 40
0.3548453908322481
 40
0.4193608517490246
 40
0.4838763126658005
 40
0.5483917735825763
 40
0.6129072344993526
 40
0.6774226954161285
 40
0.7419381563329043
 40
0.8064536172496807
 40
0.8709690781664567
 40
0.9354845390832324
 40
1.0
 40
1.0
 40
1.0
 40
1.0
 10
165.68922996521
 20
82.94940761826629
 30
0.0
 10
165.6892834877637
 20
82.93595982215102
 30
0.0
 10
165.6892834877637
 20
82.82858448641407
 30
0.0
 10
165.6892834877637
 20
82.61493563118694
 30
0.0
 10
165.6892834877637
 20
82.29720558283731
 30
0.0
 10
165.6892834877637
 20
81.8786546816187
 30
0.0
 10
165.6892834877637
 20
81.3635778261675
 30
0.0
 10
165.6892834877637
 20
80.75726040203097
 30
0.0
 10
165.6892834877637
 20
80.06592404645932
 30
0.0
 10
165.6892834877637
 20
79.29666280598829
 30
0.0
 10
165.6892834877637
 20
78.45737034192187
 30
0.0
 10
165.6892834877637
 20
77.55665893068559
 30
0.0
 10
165.6892834877637
 20
76.60377109021597
 30
0.0
 10
165.6892834877637
 20
75.60848473921952
 30
0.0
 10
165.6892834877637
 20
74.58101286249509
 30
0.0
 10
165.6892834877637
 20
73.53189871188948
 30
0.0
 10
165.6892834877637
 20
72.47190761826629
 30
0.0
 10
165.6892834877638
 20
72.82584329264574
 30
0.0
 10
165.6892834877637
 20
72.47190761826629
 30
0.0
  0
LINE
  5
1D3
330
1F
100
AcDbEntity
  8
0
  6
CENTERX2
 62
     7
370
    18
100
AcDbLine
 10
111.8543469972
 20
72.4719076183
 30
0.0
 11
210.5832950889
 21
72.4719076183
 31
0.0
  0
LINE
  5
1D4
330
1F
100
AcDbEntity
  8
0
  6
CENTERX2
 62
     7
370
    18
100
AcDbLine
 10
181.9392834878
 20
59.4300094898
 30
0.0
 11
181.9392834878
 21
103.4766557573
 31
0.0
  0
LINE
  5
1D5
330
1F
100
AcDbEntity
  8
0
  6
Continuous
 62
     7
370
    25
100
AcDbLine
 10
144.8543469972
 20
141.7764618938
 30
0.0
 11
144.3543469972
 21
141.7764618938
 31
0.0
  0
LINE
  5
1D6
330
1F
100
AcDbEntity
  8
0
  6
Continuous
 62
     7
370
    25
100
AcDbLine
 10
144.3543469972
 20
125.7764618938
 30
0.0
 11
144.8543469972
 21
125.7764618938
 31
0.0
  0
LINE
  5
1D7
330
1F
100
AcDbEntity
  8
0
  6
Continuous
 62
     7
370
    25
100
AcDbLine
 10
138.3543469972
 20
126.7764618938
 30
0.0
 11
144.3543469972
 21
126.7764618938
 31
0.0
  0
LINE
  5
1D8
330
1F
100
AcDbEntity
  8
0
  6
Continuous
 62
     7
370
    25
100
AcDbLine
 10
144.3543469972
 20
140.7764618938
 30
0.0
 11
138.3543469972
 21
140.7764618938
 31
0.0
  0
LINE
  5
1D9
330
1F
100
AcDbEntity
  8
0
  6
Continuous
 62
     7
370
    25
100
AcDbLine
 10
138.3543469972
 20
140.7764618938
 30
0.0
 11
133.8543469972
 21
140.0264618938
 31
0.0
  0
LINE
  5
1DA
330
1F
100
AcDbEntity
  8
0
  6
Continuous
 62
     7
370
    25
100
AcDbLine
 10
133.8543469972
 20
127.5264618938
 30
0.0
 11
138.3543469972
 21
126.7764618938
 31
0.0
  0
LINE
  5
1DB
330
1F
100
AcDbEntity
  8
0
  6
Continuous
 62
     7
370
    25
100
AcDbLine
 10
133.8543469972
 20
140.7764618938
 30
0.0
 11
129.3543469972
 21
140.0264618938
 31
0.0
  0
LINE
  5
1DC
330
1F
100
AcDbEntity
  8
0
  6
Continuous
 62
     7
370
    25
100
AcDbLine
 10
129.3543469972
 20
127.5264618938
 30
0.0
 11
133.8543469972
 21
126.7764618938
 31
0.0
  0
LINE
  5
1DD
330
1F
100
AcDbEntity
  8
0
  6
Continuous
 62
     7
370
    25
100
AcDbLine
 10
129.3543469972
 20
140.7764618938
 30
0.0
 11
124.8543469972
 21
140.0264618938
 31
0.0
  0
LINE
  5
1DE
330
1F
100
AcDbEntity
  8
0
  6
Continuous
 62
     7
370
    25
100
AcDbLine
 10
124.8543469972
 20
127.5264618938
 30
0.0
 11
129.3543469972
 21
126.7764618938
 31
0.0
  0
LINE
  5
1DF
330
1F
100
AcDbEntity
  8
0
  6
Continuous
 62
     7
370
    25
100
AcDbLine
 10
124.8543469972
 20
140.7764618938
 30
0.0
 11
120.3543469972
 21
140.0264618938
 31
0.0
  0
LINE
  5
1E0
330
1F
100
AcDbEntity
  8
0
  6
Continuous
 62
     7
370
    25
100
AcDbLine
 10
120.3543469972
 20
127.5264618938
 30
0.0
 11
124.8543469972
 21
126.7764618938
 31
0.0
  0
LINE
  5
1E1
330
1F
100
AcDbEntity
  8
0
  6
Continuous
 62
     7
370
    25
100
AcDbLine
 10
120.3543469972
 20
140.7764618938
 30
0.0
 11
114.5497332523
 21
140.1066987694
 31
0.0
  0
LINE
  5
1E2
330
1F
100
AcDbEntity
  8
0
  6
Continuous
 62
     7
370
    25
100
AcDbLine
 10
114.5497332523
 20
127.4462250182
 30
0.0
 11
120.3543469972
 21
126.7764618938
 31
0.0
  0
LINE
  5
1E3
330
1F
100
AcDbEntity
  8
0
  6
Continuous
 62
     7
370
    25
100
AcDbLine
 10
114.5497332523
 20
140.1066987694
 30
0.0
 11
113.8543469972
 21
139.2299074042
 31
0.0
  0
LINE
  5
1E4
330
1F
100
AcDbEntity
  8
0
  6
Continuous
 62
     7
370
    25
100
AcDbLine
 10
113.8543469972
 20
128.3230163833
 30
0.0
 11
114.5497332523
 21
127.4462250182
 31
0.0
  0
LINE
  5
1E5
330
1F
100
AcDbEntity
  8
0
  6
Continuous
 62
     7
370
    25
100
AcDbLine
 10
146.9986845645
 20
145.7764618938
 30
0.0
 11
146.8543469972
 21
145.5264618938
 31
0.0
  0
LINE
  5
1E6
330
1F
100
AcDbEntity
  8
0
  6
Continuous
 62
     7
370
    25
100
AcDbLine
 10
146.8543469972
 20
122.0264618938
 30
0.0
 11
146.9986845645
 21
121.7764618938
 31
0.0
  0
LINE
  5
1E7
330
1F
100
AcDbEntity
  8
0
  6
Continuous
 62
     7
370
    25
100
AcDbLine
 10
158.7100094299
 20
121.7764618938
 30
0.0
 11
158.8543469972
 21
122.0264618938
 31
0.0
  0
LINE
  5
1E8
330
1F
100
AcDbEntity
  8
0
  6
Continuous
 62
     7
370
    25
100
AcDbLine
 10
158.8543469972
 20
145.5264618938
 30
0.0
 11
158.7100094299
 21
145.7764618938
 31
0.0
  0
LINE
  5
1E9
330
1F
100
AcDbEntity
  8
0
  6
Continuous
 62
     7
370
    25
100
AcDbLine
 10
146.8543469972
 20
145.5264618938
 30
0.0
 11
145.3543469972
 21
145.5264618938
 31
0.0
  0
LINE
  5
1EA
330
1F
100
AcDbEntity
  8
0
  6
Continuous
 62
     7
370
    25
100
AcDbLine
 10
145.3543469972
 20
122.0264618938
 30
0.0
 11
146.8543469972
 21
122.0264618938
 31
0.0
  0
LINE
  5
1EB
330
1F
100
AcDbEntity
  8
0
  6
Continuous
 62
     7
370
    25
100
AcDbLine
 10
158.8543469972
 20
122.0264618938
 30
0.0
 11
160.3543469972
 21
122.0264618938
 31
0.0
  0
LINE
  5
1EC
330
1F
100
AcDbEntity
  8
0
  6
Continuous
 62
     7
370
    25
100
AcDbLine
 10
160.3543469972
 20
145.5264618938
 30
0.0
 11
158.8543469972
 21
145.5264618938
 31
0.0
  0
LINE
  5
1ED
330
1F
100
AcDbEntity
  8
0
  6
Continuous
 62
     7
370
    25
100
AcDbLine
 10
160.3543469972
 20
122.0264618938
 30
0.0
 11
160.8543469972
 21
122.5264618938
 31
0.0
  0
LINE
  5
1EE
330
1F
100
AcDbEntity
  8
0
  6
Continuous
 62
     7
370
    25
100
AcDbLine
 10
160.8543469972
 20
145.0264618938
 30
0.0
 11
160.3543469972
 21
145.5264618938
 31
0.0
  0
LINE
  5
1EF
330
1F
100
AcDbEntity
  8
0
  6
Continuous
 62
     7
370
    25
100
AcDbLine
 10
145.3543469972
 20
145.5264618938
 30
0.0
 11
144.8543469972
 21
145.0264618938
 31
0.0
  0
LINE
  5
1F0
330
1F
100
AcDbEntity
  8
0
  6
Continuous
 62
     7
370
    25
100
AcDbLine
 10
144.8543469972
 20
122.5264618938
 30
0.0
 11
145.3543469972
 21
122.0264618938
 31
0.0
  0
LINE
  5
1F1
330
1F
100
AcDbEntity
  8
0
  6
Continuous
 62
     7
370
    25
100
AcDbLine
 10
169.1892834878
 20
144.7764618938
 30
0.0
 11
166.4392834878
 21
144.7764618938
 31
0.0
  0
LINE
  5
1F2
330
1F
100
AcDbEntity
  8
0
  6
Continuous
 62
     7
370
    25
100
AcDbLine
 10
166.4392834878
 20
122.7764618938
 30
0.0
 11
169.1892834878
 21
122.7764618938
 31
0.0
  0
LINE
  5
1F3
330
1F
100
AcDbEntity
  8
0
  6
Continuous
 62
     7
370
    25
100
AcDbLine
 10
166.4392834878
 20
144.7764618938
 30
0.0
 11
166.1892834878
 21
144.5264618938
 31
0.0
  0
LINE
  5
1F4
330
1F
100
AcDbEntity
  8
0
  6
Continuous
 62
     7
370
    25
100
AcDbLine
 10
166.1892834878
 20
123.0264618938
 30
0.0
 11
166.4392834878
 21
122.7764618938
 31
0.0
  0
LINE
  5
1F5
330
1F
100
AcDbEntity
  8
0
  6
Continuous
 62
     7
370
    25
100
AcDbLine
 10
166.1892834878
 20
144.2539618938
 30
0.0
 11
160.8543469972
 21
144.2539618938
 31
0.0
  0
LINE
  5
1F6
330
1F
100
AcDbEntity
  8
0
  6
Continuous
 62
     7
370
    25
100
AcDbLine
 10
160.8543469972
 20
123.2989618938
 30
0.0
 11
166.1892834878
 21
123.2989618938
 31
0.0
  0
LINE
  5
1F7
330
1F
100
AcDbEntity
  8
0
  6
Continuous
 62
     7
370
    25
100
AcDbLine
 10
169.4392834878
 20
121.7764618938
 30
0.0
 11
172.196390269
 21
121.7764618938
 31
0.0
  0
LINE
  5
1F8
330
1F
100
AcDbEntity
  8
0
  6
Continuous
 62
     7
370
    25
100
AcDbLine
 10
172.196390269
 20
145.7764618938
 30
0.0
 11
169.4392834878
 21
145.7764618938
 31
0.0
  0
LINE
  5
1F9
330
1F
100
AcDbEntity
  8
0
  6
Continuous
 62
     7
370
    25
100
AcDbLine
 10
194.4392834878
 20
145.7764618938
 30
0.0
 11
191.6821767066
 21
145.7764618938
 31
0.0
  0
LINE
  5
1FA
330
1F
100
AcDbEntity
  8
0
  6
Continuous
 62
     7
370
    25
100
AcDbLine
 10
191.6821767066
 20
121.7764618938
 30
0.0
 11
194.4392834878
 21
121.7764618938
 31
0.0
  0
LINE
  5
1FB
330
1F
100
AcDbEntity
  8
0
  6
Continuous
 62
     7
370
    25
100
AcDbLine
 10
169.4392834878
 20
145.7764618938
 30
0.0
 11
169.1892834878
 21
145.5264618938
 31
0.0
  0
LINE
  5
1FC
330
1F
100
AcDbEntity
  8
0
  6
Continuous
 62
     7
370
    25
100
AcDbLine
 10
169.1892834878
 20
122.0264618938
 30
0.0
 11
169.4392834878
 21
121.7764618938
 31
0.0
  0
LINE
  5
1FD
330
1F
100
AcDbEntity
  8
0
  6
Continuous
 62
     7
370
    25
100
AcDbLine
 10
194.4392834878
 20
121.7764618938
 30
0.0
 11
194.6892834878
 21
122.0264618938
 31
0.0
  0
LINE
  5
1FE
330
1F
100
AcDbEntity
  8
0
  6
Continuous
 62
     7
370
    25
100
AcDbLine
 10
194.6892834878
 20
145.5264618938
 30
0.0
 11
194.4392834878
 21
145.7764618938
 31
0.0
  0
LINE
  5
1FF
330
1F
100
AcDbEntity
  8
0
  6
Continuous
 62
     7
370
    25
100
AcDbLine
 10
194.6892834878
 20
123.1164618938
 30
0.0
 11
205.9928922148
 21
123.4696996665
 31
0.0
  0
LINE
  5
200
330
1F
100
AcDbEntity
  8
0
  6
Continuous
 62
     7
370
    25
100
AcDbLine
 10
205.9928922148
 20
144.083224121
 30
0.0
 11
194.6892834878
 21
144.4364618938
 31
0.0
  0
LINE
  5
201
330
1F
100
AcDbEntity
  8
0
  6
Continuous
 62
     7
370
    25
100
AcDbLine
 10
205.9928922148
 20
123.4696996665
 30
0.0
 11
208.6892834878
 21
125.0264618938
 31
0.0
  0
LINE
  5
202
330
1F
100
AcDbEntity
  8
0
  6
Continuous
 62
     7
370
    25
100
AcDbLine
 10
208.6892834878
 20
142.5264618938
 30
0.0
 11
205.9928922148
 21
144.083224121
 31
0.0
  0
LINE
  5
203
330
1F
100
AcDbEntity
  8
0
  6
Continuous
 62
     7
370
    25
100
AcDbLine
 10
191.6821767066
 20
145.7764618938
 30
0.0
 11
191.4393174823
 21
145.5336026695
 31
0.0
  0
LINE
  5
204
330
1F
100
AcDbEntity
  8
0
  6
Continuous
 62
     7
370
    25
100
AcDbLine
 10
172.196390269
 20
121.7764618938
 30
0.0
 11
172.4392494932
 21
122.019321118
 31
0.0
  0
LINE
  5
205
330
1F
100
AcDbEntity
  8
0
  6
Continuous
 62
     7
370
    25
100
AcDbLine
 10
191.4393174823
 20
122.019321118
 30
0.0
 11
191.6821767066
 21
121.7764618938
 31
0.0
  0
LINE
  5
206
330
1F
100
AcDbEntity
  8
0
  6
Continuous
 62
     7
370
    25
100
AcDbLine
 10
172.4392494932
 20
145.5336026695
 30
0.0
 11
172.196390269
 21
145.7764618938
 31
0.0
  0
ARC
  5
207
330
1F
100
AcDbEntity
  8
0
  6
Continuous
 62
     7
370
    25
100
AcDbCircle
 10
192.1892834878
 20
145.5264618938
 30
0.0
 40
0.75
100
AcDbArc
 50
179.4544766745
 51
180.0
  0
ARC
  5
208
330
1F
100
AcDbEntity
  8
0
  6
Continuous
 62
     7
370
    25
100
AcDbCircle
 10
171.6892834878
 20
122.0264618938
 30
0.0
 40
0.75
100
AcDbArc
 50
359.4544766745
 51
0.0
  0
ARC
  5
209
330
1F
100
AcDbEntity
  8
0
  6
Continuous
 62
     7
370
    25
100
AcDbCircle
 10
171.6892834878
 20
145.5264618938
 30
0.0
 40
0.75
100
AcDbArc
 50
0.0
 51
0.5455233255
  0
LINE
  5
20A
330
1F
100
AcDbEntity
  8
0
  6
Continuous
 62
     7
370
    25
100
AcDbLine
 10
144.3543469972
 20
126.386637723
 30
0.0
 11
144.3543469972
 21
130.2764618938
 31
0.0
  0
LINE
  5
20B
330
1F
100
AcDbEntity
  8
0
  6
Continuous
 62
     7
370
    25
100
AcDbLine
 10
144.3543469972
 20
137.2764618938
 30
0.0
 11
144.3543469972
 21
141.7764618938
 31
0.0
  0
LINE
  5
20C
330
1F
100
AcDbEntity
  8
0
  6
Continuous
 62
     7
370
    25
100
AcDbLine
 10
144.3543469972
 20
125.7764618938
 30
0.0
 11
144.3543469972
 21
126.386637723
 31
0.0
  0
LINE
  5
20D
330
1F
100
AcDbEntity
  8
0
  6
Continuous
 62
     7
370
    25
100
AcDbLine
 10
138.3543469972
 20
136.4578049502
 30
0.0
 11
138.3543469972
 21
140.7764618938
 31
0.0
  0
LINE
  5
20E
330
1F
100
AcDbEntity
  8
0
  6
Continuous
 62
     7
370
    25
100
AcDbLine
 10
138.3543469972
 20
126.7764618938
 30
0.0
 11
138.3543469972
 21
136.4578049502
 31
0.0
  0
LINE
  5
20F
330
1F
100
AcDbEntity
  8
0
  6
Continuous
 62
     7
370
    25
100
AcDbLine
 10
133.8543469972
 20
136.4578049502
 30
0.0
 11
133.8543469972
 21
140.7764618938
 31
0.0
  0
LINE
  5
210
330
1F
100
AcDbEntity
  8
0
  6
Continuous
 62
     7
370
    25
100
AcDbLine
 10
133.8543469972
 20
126.7764618938
 30
0.0
 11
133.8543469972
 21
136.4578049502
 31
0.0
  0
LINE
  5
211
330
1F
100
AcDbEntity
  8
0
  6
Continuous
 62
     7
370
    25
100
AcDbLine
 10
129.3543469972
 20
136.4578049502
 30
0.0
 11
129.3543469972
 21
140.7764618938
 31
0.0
  0
LINE
  5
212
330
1F
100
AcDbEntity
  8
0
  6
Continuous
 62
     7
370
    25
100
AcDbLine
 10
129.3543469972
 20
126.7764618938
 30
0.0
 11
129.3543469972
 21
136.4578049502
 31
0.0
  0
LINE
  5
213
330
1F
100
AcDbEntity
  8
0
  6
Continuous
 62
     7
370
    25
100
AcDbLine
 10
124.8543469972
 20
136.4578049502
 30
0.0
 11
124.8543469972
 21
140.7764618938
 31
0.0
  0
LINE
  5
214
330
1F
100
AcDbEntity
  8
0
  6
Continuous
 62
     7
370
    25
100
AcDbLine
 10
124.8543469972
 20
126.7764618938
 30
0.0
 11
124.8543469972
 21
136.4578049502
 31
0.0
  0
LINE
  5
215
330
1F
100
AcDbEntity
  8
0
  6
Continuous
 62
     7
370
    25
100
AcDbLine
 10
114.5497332523
 20
136.2012528498
 30
0.0
 11
114.5497332523
 21
127.4462250182
 31
0.0
  0
LINE
  5
216
330
1F
100
AcDbEntity
  8
0
  6
Continuous
 62
     7
370
    25
100
AcDbLine
 10
114.5497332523
 20
140.1066987694
 30
0.0
 11
114.5497332523
 21
136.2012528498
 31
0.0
  0
LINE
  5
217
330
1F
100
AcDbEntity
  8
0
  6
Continuous
 62
     7
370
    25
100
AcDbLine
 10
120.3543469972
 20
136.4578049502
 30
0.0
 11
120.3543469972
 21
140.7764618938
 31
0.0
  0
LINE
  5
218
330
1F
100
AcDbEntity
  8
0
  6
Continuous
 62
     7
370
    25
100
AcDbLine
 10
120.3543469972
 20
126.7764618938
 30
0.0
 11
120.3543469972
 21
136.4578049502
 31
0.0
  0
LINE
  5
219
330
1F
100
AcDbEntity
  8
0
  6
Continuous
 62
     7
370
    25
100
AcDbLine
 10
113.8543469972
 20
135.8653987871
 30
0.0
 11
113.8543469972
 21
139.2299074042
 31
0.0
  0
LINE
  5
21A
330
1F
100
AcDbEntity
  8
0
  6
Continuous
 62
     7
370
    25
100
AcDbLine
 10
113.8543469972
 20
128.3230163833
 30
0.0
 11
113.8543469972
 21
135.8653987871
 31
0.0
  0
LINE
  5
21B
330
1F
100
AcDbEntity
  8
0
  6
Continuous
 62
     7
370
    25
100
AcDbLine
 10
152.934731755
 20
145.7764618938
 30
0.0
 11
157.6382126602
 21
145.7764618938
 31
0.0
  0
SPLINE
  5
21C
330
1F
100
AcDbEntity
  8
0
  6
Continuous
 62
     7
370
    25
100
AcDbSpline
210
0.0
220
0.0
230
1.0
 70
     8
 71
     3
 72
    12
 73
     8
 74
     0
 42
0.00000001
 43
0.00000001
 40
0.0
 40
0.0
 40
0.0
 40
0.0
 40
0.1498014014769299
 40
0.3413512784964269
 40
0.5045461907388654
 40
0.6677665594957289
 40
1.0
 40
1.0
 40
1.0
 40
1.0
 10
158.4984735655631
 20
137.2764618937641
 30
0.0
 10
158.5608456318216
 20
137.7025870210569
 30
0.0
 10
158.7029723699553
 20
138.6735950060739
 30
0.0
 10
158.7294981270034
 20
140.1228580704956
 30
0.0
 10
158.6224303106727
 20
141.6050627188372
 30
0.0
 10
158.3325713003893
 20
143.4786870554741
 30
0.0
 10
157.9169280325109
 20
144.8541356887325
 30
0.0
 10
157.6382126602029
 20
145.7764618937642
 30
0.0
  0
SPLINE
  5
21D
330
1F
100
AcDbEntity
  8
0
  6
Continuous
 62
     7
370
    25
100
AcDbSpline
210
0.0
220
0.0
230
1.0
 70
     8
 71
     3
 72
    12
 73
     8
 74
     0
 42
0.00000001
 43
0.00000001
 40
0.0
 40
0.0
 40
0.0
 40
0.0
 40
0.1498014014769298
 40
0.341351278496427
 40
0.5045461907388654
 40
0.667766559495729
 40
1.0
 40
1.0
 40
1.0
 40
1.0
 10
147.2102204288864
 20
137.2764618937641
 30
0.0
 10
147.147848362628
 20
137.7025870210569
 30
0.0
 10
147.0057216244942
 20
138.6735950060739
 30
0.0
 10
146.9791958674461
 20
140.1228580704956
 30
0.0
 10
147.0862636837768
 20
141.6050627188372
 30
0.0
 10
147.3761226940603
 20
143.4786870554741
 30
0.0
 10
147.7917659619386
 20
144.8541356887325
 30
0.0
 10
148.0704813342467
 20
145.7764618937642
 30
0.0
  0
LINE
  5
21E
330
1F
100
AcDbEntity
  8
0
  6
Continuous
 62
     7
370
    25
100
AcDbLine
 10
148.0704813342
 20
145.7764618938
 30
0.0
 11
152.7739622395
 21
145.7764618938
 31
0.0
  0
LINE
  5
21F
330
1F
100
AcDbEntity
  8
0
  6
Continuous
 62
     7
370
    25
100
AcDbLine
 10
152.8543469972
 20
145.2383404253
 30
0.0
 11
152.7739622395
 21
145.7764618938
 31
0.0
  0
LINE
  5
220
330
1F
100
AcDbEntity
  8
0
  6
Continuous
 62
     7
370
    25
100
AcDbLine
 10
152.934731755
 20
145.7764618938
 30
0.0
 11
152.8543469972
 21
145.2383404253
 31
0.0
  0
SPLINE
  5
221
330
1F
100
AcDbEntity
  8
0
  6
Continuous
 62
     7
370
    25
100
AcDbSpline
210
0.0
220
0.0
230
1.0
 70
    24
 71
     3
 72
    10
 73
     6
 74
     0
 42
0.00000001
 43
0.00000001
 40
0.0
 40
0.0
 40
0.0
 40
0.0
 40
0.2424770255829536
 40
0.6191684639294867
 40
1.0
 40
1.0
 40
1.0
 40
1.0
 10
147.0037009597252
 20
121.7764618937642
 30
0.0
 10
147.0159878451968
 20
121.7764618937642
 30
0.0
 10
147.0473625784758
 20
121.7764618937642
 30
0.0
 10
147.3882468115975
 20
121.7764618937642
 30
0.0
 10
147.8422427505479
 20
121.7764618937642
 30
0.0
 10
148.0704813342467
 20
121.7764618937642
 30
0.0
  0
SPLINE
  5
222
330
1F
100
AcDbEntity
  8
0
  6
Continuous
 62
     7
370
    25
100
AcDbSpline
210
0.0
220
0.0
230
1.0
 70
    24
 71
     3
 72
    10
 73
     6
 74
     0
 42
0.00000001
 43
0.00000001
 40
0.0
 40
0.0
 40
0.0
 40
0.0
 40
0.3770187739062978
 40
0.7575192504387066
 40
1.0
 40
1.0
 40
1.0
 40
1.0
 10
148.0704813342467
 20
145.7764618937642
 30
0.0
 10
147.8442862541757
 20
145.7764618937642
 30
0.0
 10
147.3898072219171
 20
145.7764618937642
 30
0.0
 10
147.0484152238923
 20
145.7764618937642
 30
0.0
 10
147.0148638111781
 20
145.7764618937642
 30
0.0
 10
147.0018047150722
 20
145.7764618937642
 30
0.0
  0
SPLINE
  5
223
330
1F
100
AcDbEntity
  8
0
  6
Continuous
 62
     7
370
    25
100
AcDbSpline
210
0.0
220
0.0
230
1.0
 70
     8
 71
     3
 72
    13
 73
     9
 74
     0
 42
0.00000001
 43
0.00000001
 40
0.0
 40
0.0
 40
0.0
 40
0.0
 40
0.1874187359411414
 40
0.3747844803469362
 40
0.5663417717931893
 40
0.7578644961923808
 40
0.9210362751937147
 40
1.0
 40
1.0
 40
1.0
 40
1.0
 10
148.0704813342467
 20
121.7764618937642
 30
0.0
 10
147.9072954236306
 20
122.2949177074909
 30
0.0
 10
147.5809697422464
 20
123.3316827446395
 30
0.0
 10
147.2303203251444
 20
124.9281535938449
 30
0.0
 10
147.0176703192948
 20
126.5549468799966
 30
0.0
 10
146.981486454007
 20
128.121982238861
 30
0.0
 10
147.0572351985843
 20
129.3654894339617
 30
0.0
 10
147.1729801867485
 20
130.0524383763845
 30
0.0
 10
147.21072622254
 20
130.2764618937641
 30
0.0
  0
LINE
  5
224
330
1F
100
AcDbEntity
  8
0
  6
Continuous
 62
     7
370
    25
100
AcDbLine
 10
146.8543469972
 20
122.0264618938
 30
0.0
 11
146.8543469972
 21
130.2764618938
 31
0.0
  0
LINE
  5
225
330
1F
100
AcDbEntity
  8
0
  6
Continuous
 62
     7
370
    25
100
AcDbLine
 10
146.8543469972
 20
137.2764618938
 30
0.0
 11
146.8543469972
 21
145.5264618938
 31
0.0
  0
SPLINE
  5
226
330
1F
100
AcDbEntity
  8
0
  6
Continuous
 62
     7
370
    25
100
AcDbSpline
210
0.0
220
0.0
230
1.0
 70
     8
 71
     3
 72
    13
 73
     9
 74
     0
 42
0.00000001
 43
0.00000001
 40
0.0
 40
0.0
 40
0.0
 40
0.0
 40
0.1874187359411415
 40
0.3747844803469363
 40
0.5663417717931893
 40
0.7578644961923809
 40
0.9210362751937147
 40
1.0
 40
1.0
 40
1.0
 40
1.0
 10
157.6382126602029
 20
121.7764618937642
 30
0.0
 10
157.8013985708189
 20
122.2949177074909
 30
0.0
 10
158.1277242522031
 20
123.3316827446395
 30
0.0
 10
158.4783736693052
 20
124.9281535938449
 30
0.0
 10
158.6910236751548
 20
126.5549468799966
 30
0.0
 10
158.7272075404426
 20
128.121982238861
 30
0.0
 10
158.6514587958653
 20
129.3654894339617
 30
0.0
 10
158.535713807701
 20
130.0524383763845
 30
0.0
 10
158.4979677719095
 20
130.2764618937641
 30
0.0
  0
SPLINE
  5
227
330
1F
100
AcDbEntity
  8
0
  6
Continuous
 62
     7
370
    25
100
AcDbSpline
210
0.0
220
0.0
230
1.0
 70
    24
 71
     3
 72
    10
 73
     6
 74
     0
 42
0.00000001
 43
0.00000001
 40
0.0
 40
0.0
 40
0.0
 40
0.0
 40
0.377018773906298
 40
0.7575192504387067
 40
1.0
 40
1.0
 40
1.0
 40
1.0
 10
157.6382126602029
 20
145.7764618937642
 30
0.0
 10
157.8644077402738
 20
145.7764618937642
 30
0.0
 10
158.3188867725324
 20
145.7764618937642
 30
0.0
 10
158.6602787705572
 20
145.7764618937642
 30
0.0
 10
158.6938301832714
 20
145.7764618937642
 30
0.0
 10
158.7068892793774
 20
145.7764618937642
 30
0.0
  0
SPLINE
  5
228
330
1F
100
AcDbEntity
  8
0
  6
Continuous
 62
     7
370
    25
100
AcDbSpline
210
0.0
220
0.0
230
1.0
 70
    24
 71
     3
 72
    10
 73
     6
 74
     0
 42
0.00000001
 43
0.00000001
 40
0.0
 40
0.0
 40
0.0
 40
0.0
 40
0.2424770255829535
 40
0.6191684639294867
 40
1.0
 40
1.0
 40
1.0
 40
1.0
 10
158.7049930347243
 20
121.7764618937642
 30
0.0
 10
158.6927061492527
 20
121.7764618937642
 30
0.0
 10
158.6613314159737
 20
121.7764618937642
 30
0.0
 10
158.320447182852
 20
121.7764618937642
 30
0.0
 10
157.8664512439017
 20
121.7764618937642
 30
0.0
 10
157.6382126602029
 20
121.7764618937642
 30
0.0
  0
LINE
  5
229
330
1F
100
AcDbEntity
  8
0
  6
Continuous
 62
     7
370
    25
100
AcDbLine
 10
158.8543469972
 20
122.0264618938
 30
0.0
 11
158.8543469972
 21
130.2764618938
 31
0.0
  0
LINE
  5
22A
330
1F
100
AcDbEntity
  8
0
  6
Continuous
 62
     7
370
    25
100
AcDbLine
 10
158.8543469972
 20
137.2764618938
 30
0.0
 11
158.8543469972
 21
145.5264618938
 31
0.0
  0
LINE
  5
22B
330
1F
100
AcDbEntity
  8
0
  6
Continuous
 62
     7
370
    25
100
AcDbLine
 10
152.934731755
 20
121.7764618938
 30
0.0
 11
157.6382126602
 21
121.7764618938
 31
0.0
  0
LINE
  5
22C
330
1F
100
AcDbEntity
  8
0
  6
Continuous
 62
     7
370
    25
100
AcDbLine
 10
152.8543469972
 20
122.3145833623
 30
0.0
 11
152.934731755
 21
121.7764618938
 31
0.0
  0
LINE
  5
22D
330
1F
100
AcDbEntity
  8
0
  6
Continuous
 62
     7
370
    25
100
AcDbLine
 10
152.7739622395
 20
121.7764618938
 30
0.0
 11
152.8543469972
 21
122.3145833623
 31
0.0
  0
LINE
  5
22E
330
1F
100
AcDbEntity
  8
0
  6
Continuous
 62
     7
370
    25
100
AcDbLine
 10
148.0704813342
 20
121.7764618938
 30
0.0
 11
152.7739622395
 21
121.7764618938
 31
0.0
  0
LINE
  5
22F
330
1F
100
AcDbEntity
  8
0
  6
Continuous
 62
     7
370
    25
100
AcDbLine
 10
145.3543469972
 20
145.5264618938
 30
0.0
 11
145.3543469972
 21
137.2764618938
 31
0.0
  0
LINE
  5
230
330
1F
100
AcDbEntity
  8
0
  6
Continuous
 62
     7
370
    25
100
AcDbLine
 10
145.3543469972
 20
130.2764618938
 30
0.0
 11
145.3543469972
 21
122.0264618938
 31
0.0
  0
LINE
  5
231
330
1F
100
AcDbEntity
  8
0
  6
Continuous
 62
     7
370
    25
100
AcDbLine
 10
160.3543469972
 20
122.0264618938
 30
0.0
 11
160.3543469972
 21
130.2737796024
 31
0.0
  0
LINE
  5
232
330
1F
100
AcDbEntity
  8
0
  6
Continuous
 62
     7
370
    25
100
AcDbLine
 10
160.3543469972
 20
137.2791441852
 30
0.0
 11
160.3543469972
 21
145.5264618938
 31
0.0
  0
LINE
  5
233
330
1F
100
AcDbEntity
  8
0
  6
Continuous
 62
     7
370
    25
100
AcDbLine
 10
160.8543469972
 20
145.0264618938
 30
0.0
 11
160.8543469972
 21
137.2856101611
 31
0.0
  0
LINE
  5
234
330
1F
100
AcDbEntity
  8
0
  6
Continuous
 62
     7
370
    25
100
AcDbLine
 10
160.8543469972
 20
130.2673136265
 30
0.0
 11
160.8543469972
 21
122.5264618938
 31
0.0
  0
LINE
  5
235
330
1F
100
AcDbEntity
  8
0
  6
Continuous
 62
     7
370
    25
100
AcDbLine
 10
144.8543469972
 20
122.5264618938
 30
0.0
 11
144.8543469972
 21
130.2764618938
 31
0.0
  0
LINE
  5
236
330
1F
100
AcDbEntity
  8
0
  6
Continuous
 62
     7
370
    25
100
AcDbLine
 10
144.8543469972
 20
137.2764618938
 30
0.0
 11
144.8543469972
 21
145.0264618938
 31
0.0
  0
LINE
  5
237
330
1F
100
AcDbEntity
  8
0
  6
Continuous
 62
     7
370
    25
100
AcDbLine
 10
152.934731755
 20
121.7764618938
 30
0.0
 11
152.8543469972
 21
121.7764618938
 31
0.0
  0
LINE
  5
238
330
1F
100
AcDbEntity
  8
0
  6
Continuous
 62
     7
370
    25
100
AcDbLine
 10
152.8543469972
 20
122.3145833623
 30
0.0
 11
152.8543469972
 21
121.7764618938
 31
0.0
  0
LINE
  5
239
330
1F
100
AcDbEntity
  8
0
  6
Continuous
 62
     7
370
    25
100
AcDbLine
 10
152.8543469972
 20
121.7764618938
 30
0.0
 11
152.7739622395
 21
121.7764618938
 31
0.0
  0
LINE
  5
23A
330
1F
100
AcDbEntity
  8
0
  6
Continuous
 62
     7
370
    25
100
AcDbLine
 10
152.8543469972
 20
145.7764618938
 30
0.0
 11
152.8543469972
 21
145.2383404253
 31
0.0
  0
LINE
  5
23B
330
1F
100
AcDbEntity
  8
0
  6
Continuous
 62
     7
370
    25
100
AcDbLine
 10
152.8543469972
 20
145.7764618938
 30
0.0
 11
152.934731755
 21
145.7764618938
 31
0.0
  0
LINE
  5
23C
330
1F
100
AcDbEntity
  8
0
  6
Continuous
 62
     7
370
    25
100
AcDbLine
 10
152.7739622395
 20
145.7764618938
 30
0.0
 11
152.8543469972
 21
145.7764618938
 31
0.0
  0
SPLINE
  5
23D
330
1F
100
AcDbEntity
  8
0
  6
Continuous
 62
     7
370
    25
100
AcDbSpline
210
0.0
220
0.0
230
1.0
 70
     8
 71
     3
 72
    15
 73
    11
 74
     0
 42
0.00000001
 43
0.00000001
 40
0.0
 40
0.0
 40
0.0
 40
0.0
 40
0.0081667445812695
 40
0.3321939991490083
 40
0.4756279600585602
 40
0.6866830973284899
 40
0.8457435502264811
 40
0.8967566214763185
 40
0.9909540928118029
 40
1.0
 40
1.0
 40
1.0
 40
1.0
 10
187.0383030013565
 20
135.0264618937642
 30
0.0
 10
187.0387905354993
 20
135.0278993567032
 30
0.0
 10
187.0586216830314
 20
135.0863702146549
 30
0.0
 10
187.0869024630407
 20
135.1707953923744
 30
0.0
 10
187.1247317615295
 20
135.2853744643968
 30
0.0
 10
187.151315658097
 20
135.3667453515934
 30
0.0
 10
187.168485481852
 20
135.4197643435951
 30
0.0
 10
187.1763024780684
 20
135.4439662754392
 30
0.0
 10
187.1782981645043
 20
135.4501558961054
 30
0.0
 10
187.1783631284551
 20
135.450357291518
 30
0.0
 10
187.1783688204218
 20
135.4503749372424
 30
0.0
  0
ARC
  5
23E
330
1F
100
AcDbEntity
  8
0
  6
Continuous
 62
     7
370
    25
100
AcDbCircle
 10
181.9392834878
 20
133.7764618938
 30
0.0
 40
5.250000000000009
100
AcDbArc
 50
13.774146998
 51
166.225853002
  0
SPLINE
  5
23F
330
1F
100
AcDbEntity
  8
0
  6
Continuous
 62
     7
370
    25
100
AcDbSpline
210
0.0
220
0.0
230
1.0
 70
     8
 71
     3
 72
    15
 73
    11
 74
     0
 42
0.00000001
 43
0.00000001
 40
0.0
 40
0.0
 40
0.0
 40
0.0
 40
0.0090459071881971
 40
0.1032433785236874
 40
0.1542564497735246
 40
0.313316902671511
 40
0.5243720399414428
 40
0.6678060008509903
 40
0.9918332554187292
 40
1.0
 40
1.0
 40
1.0
 40
1.0
 10
176.7001981551056
 20
135.4503749372424
 30
0.0
 10
176.7002038470723
 20
135.450357291518
 30
0.0
 10
176.700268811023
 20
135.4501558961054
 30
0.0
 10
176.7022644974589
 20
135.4439662754392
 30
0.0
 10
176.7100814936754
 20
135.4197643435951
 30
0.0
 10
176.7272513174304
 20
135.3667453515934
 30
0.0
 10
176.7538352139978
 20
135.2853744643968
 30
0.0
 10
176.7916645124867
 20
135.1707953923744
 30
0.0
 10
176.8199452924959
 20
135.0863702146549
 30
0.0
 10
176.839776440028
 20
135.0278993567032
 30
0.0
 10
176.8402639741709
 20
135.0264618937642
 30
0.0
  0
ARC
  5
240
330
1F
100
AcDbEntity
  8
0
  6
Continuous
 62
     7
370
    25
100
AcDbCircle
 10
181.9392834878
 20
133.7764618938
 30
0.0
 40
5.500000000000029
100
AcDbArc
 50
17.7189318734
 51
162.2810681266
  0
ARC
  5
241
330
1F
100
AcDbEntity
  8
0
  6
Continuous
 62
     7
370
    25
100
AcDbCircle
 10
176.4620579127
 20
135.5264618938
 30
0.0
 40
0.25
100
AcDbArc
 50
270.0
 51
342.2810681266
  0
SPLINE
  5
242
330
1F
100
AcDbEntity
  8
0
  6
Continuous
 62
     7
370
    25
100
AcDbSpline
210
0.0
220
0.0
230
1.0
 70
     8
 71
     3
 72
    15
 73
    11
 74
     0
 42
0.00000001
 43
0.00000001
 40
0.0
 40
0.0
 40
0.0
 40
0.0
 40
0.0080847466189818
 40
0.3310106400647567
 40
0.4750333064304972
 40
0.6874363079215137
 40
0.8468367539418253
 40
0.9000996640391794
 40
0.9910442771984082
 40
1.0
 40
1.0
 40
1.0
 40
1.0
 10
176.8402639741709
 20
135.0264618937642
 30
0.0
 10
176.8389841426267
 20
135.0272778297524
 30
0.0
 10
176.786584496903
 20
135.0606843799461
 30
0.0
 10
176.7112294054485
 20
135.109497944681
 30
0.0
 10
176.6093102934308
 20
135.1768684169491
 30
0.0
 10
176.5369193484389
 20
135.2254524572926
 30
0.0
 10
176.489213920174
 20
135.2579013187511
 30
0.0
 10
176.4676784364667
 20
135.2726123598174
 30
0.0
 10
176.4622494204472
 20
135.2763308107355
 30
0.0
 10
176.4620736682906
 20
135.276451109401
 30
0.0
 10
176.462057912712
 20
135.2764618937642
 30
0.0
  0
SPLINE
  5
243
330
1F
100
AcDbEntity
  8
0
  6
Continuous
 62
     7
370
    25
100
AcDbSpline
210
0.0
220
0.0
230
1.0
 70
     8
 71
     3
 72
    15
 73
    11
 74
     0
 42
0.00000001
 43
0.00000001
 40
0.0
 40
0.0
 40
0.0
 40
0.0
 40
0.0090459071881971
 40
0.1032433785236816
 40
0.1542564497735189
 40
0.31331690267151
 40
0.5243720399414428
 40
0.6678060008509183
 40
0.9918332554187028
 40
1.0
 40
1.0
 40
1.0
 40
1.0
 10
187.1783688204218
 20
132.1025488502859
 30
0.0
 10
187.1783631284551
 20
132.1025664960104
 30
0.0
 10
187.1782981645044
 20
132.1027678914229
 30
0.0
 10
187.1763024780684
 20
132.1089575120891
 30
0.0
 10
187.168485481852
 20
132.1331594439332
 30
0.0
 10
187.151315658097
 20
132.1861784359349
 30
0.0
 10
187.1247317615295
 20
132.2675493231315
 30
0.0
 10
187.0869024630408
 20
132.382128395154
 30
0.0
 10
187.0586216830306
 20
132.4665535728731
 30
0.0
 10
187.0387905354993
 20
132.5250244308251
 30
0.0
 10
187.0383030013565
 20
132.5264618937642
 30
0.0
  0
SPLINE
  5
244
330
1F
100
AcDbEntity
  8
0
  6
Continuous
 62
     7
370
    25
100
AcDbSpline
210
0.0
220
0.0
230
1.0
 70
     8
 71
     3
 72
    15
 73
    11
 74
     0
 42
0.00000001
 43
0.00000001
 40
0.0
 40
0.0
 40
0.0
 40
0.0
 40
0.0080847466189582
 40
0.3310106400648243
 40
0.4750333064304948
 40
0.6874363079215142
 40
0.8468367539418303
 40
0.9000996640391847
 40
0.9910442771984082
 40
1.0
 40
1.0
 40
1.0
 40
1.0
 10
187.0383030013565
 20
132.5264618937642
 30
0.0
 10
187.0395828329006
 20
132.5256459577759
 30
0.0
 10
187.0919824786238
 20
132.4922394075813
 30
0.0
 10
187.167337570079
 20
132.4434258428475
 30
0.0
 10
187.2692566820966
 20
132.3760553705792
 30
0.0
 10
187.3416476270885
 20
132.3274713302358
 30
0.0
 10
187.3893530553534
 20
132.2950224687772
 30
0.0
 10
187.4108885390607
 20
132.2803114277109
 30
0.0
 10
187.4163175550802
 20
132.2765929767928
 30
0.0
 10
187.4164933072367
 20
132.2764726781273
 30
0.0
 10
187.4165090628154
 20
132.2764618937642
 30
0.0
  0
ARC
  5
245
330
1F
100
AcDbEntity
  8
0
  6
Continuous
 62
     7
370
    25
100
AcDbCircle
 10
187.4165090628
 20
132.0264618938
 30
0.0
 40
0.25
100
AcDbArc
 50
90.0
 51
162.2810681266
  0
ARC
  5
246
330
1F
100
AcDbEntity
  8
0
  6
Continuous
 62
     7
370
    25
100
AcDbCircle
 10
187.4165090628
 20
135.5264618938
 30
0.0
 40
0.25
100
AcDbArc
 50
197.7189318734
 51
270.0
  0
SPLINE
  5
247
330
1F
100
AcDbEntity
  8
0
  6
Continuous
 62
     7
370
    25
100
AcDbSpline
210
0.0
220
0.0
230
1.0
 70
     8
 71
     3
 72
    15
 73
    11
 74
     0
 42
0.00000001
 43
0.00000001
 40
0.0
 40
0.0
 40
0.0
 40
0.0
 40
0.0089557228015919
 40
0.0999003359608148
 40
0.153163246058169
 40
0.3125636920784848
 40
0.5249666935694999
 40
0.6689893599352451
 40
0.9919152533810159
 40
1.0
 40
1.0
 40
1.0
 40
1.0
 10
187.4165090628154
 20
135.2764618937642
 30
0.0
 10
187.4164933072367
 20
135.276451109401
 30
0.0
 10
187.4163175550802
 20
135.2763308107355
 30
0.0
 10
187.4108885390607
 20
135.2726123598174
 30
0.0
 10
187.3893530553534
 20
135.2579013187511
 30
0.0
 10
187.3416476270885
 20
135.2254524572926
 30
0.0
 10
187.2692566820966
 20
135.1768684169491
 30
0.0
 10
187.1673375700788
 20
135.109497944681
 30
0.0
 10
187.0919824786243
 20
135.0606843799461
 30
0.0
 10
187.0395828329006
 20
135.0272778297524
 30
0.0
 10
187.0383030013565
 20
135.0264618937642
 30
0.0
  0
ARC
  5
248
330
1F
100
AcDbEntity
  8
0
  6
Continuous
 62
     7
370
    25
100
AcDbCircle
 10
181.9392834878
 20
133.7764618938
 30
0.0
 40
5.50000000000002
100
AcDbArc
 50
197.7189318734
 51
342.2810681266
  0
SPLINE
  5
249
330
1F
100
AcDbEntity
  8
0
  6
Continuous
 62
     7
370
    25
100
AcDbSpline
210
0.0
220
0.0
230
1.0
 70
     8
 71
     3
 72
    15
 73
    11
 74
     0
 42
0.00000001
 43
0.00000001
 40
0.0
 40
0.0
 40
0.0
 40
0.0
 40
0.0081667445812973
 40
0.3321939991490804
 40
0.475627960058556
 40
0.6866830973284891
 40
0.8457435502264751
 40
0.8967566214763124
 40
0.9909540928118028
 40
1.0
 40
1.0
 40
1.0
 40
1.0
 10
176.8402639741709
 20
132.5264618937642
 30
0.0
 10
176.839776440028
 20
132.5250244308251
 30
0.0
 10
176.8199452924968
 20
132.4665535728731
 30
0.0
 10
176.7916645124865
 20
132.382128395154
 30
0.0
 10
176.7538352139979
 20
132.2675493231315
 30
0.0
 10
176.7272513174303
 20
132.1861784359349
 30
0.0
 10
176.7100814936754
 20
132.1331594439332
 30
0.0
 10
176.7022644974589
 20
132.1089575120891
 30
0.0
 10
176.7002688110231
 20
132.1027678914229
 30
0.0
 10
176.7002038470723
 20
132.1025664960104
 30
0.0
 10
176.7001981551056
 20
132.1025488502859
 30
0.0
  0
ARC
  5
24A
330
1F
100
AcDbEntity
  8
0
  6
Continuous
 62
     7
370
    25
100
AcDbCircle
 10
181.9392834878
 20
133.7764618938
 30
0.0
 40
5.250000000000009
100
AcDbArc
 50
193.774146998
 51
346.225853002
  0
SPLINE
  5
24B
330
1F
100
AcDbEntity
  8
0
  6
Continuous
 62
     7
370
    25
100
AcDbSpline
210
0.0
220
0.0
230
1.0
 70
     8
 71
     3
 72
    15
 73
    11
 74
     0
 42
0.00000001
 43
0.00000001
 40
0.0
 40
0.0
 40
0.0
 40
0.0
 40
0.0089557228015919
 40
0.0999003359608209
 40
0.1531632460581751
 40
0.3125636920784904
 40
0.5249666935695061
 40
0.6689893599351777
 40
0.991915253381045
 40
1.0
 40
1.0
 40
1.0
 40
1.0
 10
176.462057912712
 20
132.2764618937642
 30
0.0
 10
176.4620736682906
 20
132.2764726781273
 30
0.0
 10
176.4622494204472
 20
132.2765929767928
 30
0.0
 10
176.4676784364667
 20
132.2803114277109
 30
0.0
 10
176.489213920174
 20
132.2950224687772
 30
0.0
 10
176.5369193484389
 20
132.3274713302358
 30
0.0
 10
176.6093102934308
 20
132.3760553705792
 30
0.0
 10
176.7112294054484
 20
132.4434258428475
 30
0.0
 10
176.7865844969035
 20
132.4922394075814
 30
0.0
 10
176.8389841426268
 20
132.5256459577759
 30
0.0
 10
176.8402639741709
 20
132.5264618937642
 30
0.0
  0
ARC
  5
24C
330
1F
100
AcDbEntity
  8
0
  6
Continuous
 62
     7
370
    25
100
AcDbCircle
 10
176.4620579127
 20
132.0264618938
 30
0.0
 40
0.25
100
AcDbArc
 50
17.7189318734
 51
90.0
  0
LINE
  5
24D
330
1F
100
AcDbEntity
  8
0
  6
Continuous
 62
     7
370
    25
100
AcDbLine
 10
176.9392834878
 20
133.1764618938
 30
0.0
 11
186.9392834878
 21
133.1764618938
 31
0.0
  0
LINE
  5
24E
330
1F
100
AcDbEntity
  8
0
  6
Continuous
 62
     7
370
    25
100
AcDbLine
 10
176.9392834878
 20
134.3764618938
 30
0.0
 11
176.9392834878
 21
133.1764618938
 31
0.0
  0
LINE
  5
24F
330
1F
100
AcDbEntity
  8
0
  6
Continuous
 62
     7
370
    25
100
AcDbLine
 10
186.9392834878
 20
134.3764618938
 30
0.0
 11
176.9392834878
 21
134.3764618938
 31
0.0
  0
LINE
  5
250
330
1F
100
AcDbEntity
  8
0
  6
Continuous
 62
     7
370
    25
100
AcDbLine
 10
186.9392834878
 20
133.1764618938
 30
0.0
 11
186.9392834878
 21
134.3764618938
 31
0.0
  0
LINE
  5
251
330
1F
100
AcDbEntity
  8
0
  6
Continuous
 62
     7
370
    25
100
AcDbLine
 10
187.6892834878
 20
135.0264618938
 30
0.0
 11
187.0383030014
 21
135.0264618938
 31
0.0
  0
LINE
  5
252
330
1F
100
AcDbEntity
  8
0
  6
Continuous
 62
     7
370
    25
100
AcDbLine
 10
187.6892834878
 20
132.5264618938
 30
0.0
 11
187.6892834878
 21
135.0264618938
 31
0.0
  0
LINE
  5
253
330
1F
100
AcDbEntity
  8
0
  6
Continuous
 62
     7
370
    25
100
AcDbLine
 10
187.0383030014
 20
132.5264618938
 30
0.0
 11
187.6892834878
 21
132.5264618938
 31
0.0
  0
LINE
  5
254
330
1F
100
AcDbEntity
  8
0
  6
Continuous
 62
     7
370
    25
100
AcDbLine
 10
176.1892834878
 20
132.5264618938
 30
0.0
 11
176.8402639742
 21
132.5264618938
 31
0.0
  0
LINE
  5
255
330
1F
100
AcDbEntity
  8
0
  6
Continuous
 62
     7
370
    25
100
AcDbLine
 10
176.1892834878
 20
135.0264618938
 30
0.0
 11
176.1892834878
 21
132.5264618938
 31
0.0
  0
LINE
  5
256
330
1F
100
AcDbEntity
  8
0
  6
Continuous
 62
     7
370
    25
100
AcDbLine
 10
176.8402639742
 20
135.0264618938
 30
0.0
 11
176.1892834878
 21
135.0264618938
 31
0.0
  0
LINE
  5
257
330
1F
100
AcDbEntity
  8
0
  6
Continuous
 62
     7
370
    25
100
AcDbLine
 10
176.1892834878
 20
135.2764618938
 30
0.0
 11
176.1892834878
 21
135.0264618938
 31
0.0
  0
LINE
  5
258
330
1F
100
AcDbEntity
  8
0
  6
Continuous
 62
     7
370
    25
100
AcDbLine
 10
176.1892834878
 20
135.2764618938
 30
0.0
 11
176.4620579127
 21
135.2764618938
 31
0.0
  0
LINE
  5
259
330
1F
100
AcDbEntity
  8
0
  6
Continuous
 62
     7
370
    25
100
AcDbLine
 10
176.1892834878
 20
135.0264618938
 30
0.0
 11
175.9392834878
 21
135.0264618938
 31
0.0
  0
ARC
  5
25A
330
1F
100
AcDbEntity
  8
0
  6
Continuous
 62
     7
370
    25
100
AcDbCircle
 10
176.1892834878
 20
135.0264618938
 30
0.0
 40
0.25
100
AcDbArc
 50
90.0
 51
180.0
  0
ARC
  5
25B
330
1F
100
AcDbEntity
  8
0
  6
Continuous
 62
     7
370
    25
100
AcDbCircle
 10
187.6892834878
 20
135.0264618938
 30
0.0
 40
0.25
100
AcDbArc
 50
0.0
 51
90.0
  0
LINE
  5
25C
330
1F
100
AcDbEntity
  8
0
  6
Continuous
 62
     7
370
    25
100
AcDbLine
 10
187.9392834878
 20
135.0264618938
 30
0.0
 11
187.6892834878
 21
135.0264618938
 31
0.0
  0
LINE
  5
25D
330
1F
100
AcDbEntity
  8
0
  6
Continuous
 62
     7
370
    25
100
AcDbLine
 10
187.6892834878
 20
135.0264618938
 30
0.0
 11
187.6892834878
 21
135.2764618938
 31
0.0
  0
LINE
  5
25E
330
1F
100
AcDbEntity
  8
0
  6
Continuous
 62
     7
370
    25
100
AcDbLine
 10
187.4165090628
 20
135.2764618938
 30
0.0
 11
187.6892834878
 21
135.2764618938
 31
0.0
  0
LINE
  5
25F
330
1F
100
AcDbEntity
  8
0
  6
Continuous
 62
     7
370
    25
100
AcDbLine
 10
187.9392834878
 20
135.0264618938
 30
0.0
 11
187.9392834878
 21
132.5264618938
 31
0.0
  0
LINE
  5
260
330
1F
100
AcDbEntity
  8
0
  6
Continuous
 62
     7
370
    25
100
AcDbLine
 10
187.6892834878
 20
132.5264618938
 30
0.0
 11
187.9392834878
 21
132.5264618938
 31
0.0
  0
LINE
  5
261
330
1F
100
AcDbEntity
  8
0
  6
Continuous
 62
     7
370
    25
100
AcDbLine
 10
175.9392834878
 20
132.5264618938
 30
0.0
 11
176.1892834878
 21
132.5264618938
 31
0.0
  0
LINE
  5
262
330
1F
100
AcDbEntity
  8
0
  6
Continuous
 62
     7
370
    25
100
AcDbLine
 10
175.9392834878
 20
132.5264618938
 30
0.0
 11
175.9392834878
 21
135.0264618938
 31
0.0
  0
LINE
  5
263
330
1F
100
AcDbEntity
  8
0
  6
Continuous
 62
     7
370
    25
100
AcDbLine
 10
176.4620579127
 20
132.2764618938
 30
0.0
 11
176.1892834878
 21
132.2764618938
 31
0.0
  0
LINE
  5
264
330
1F
100
AcDbEntity
  8
0
  6
Continuous
 62
     7
370
    25
100
AcDbLine
 10
176.1892834878
 20
132.5264618938
 30
0.0
 11
176.1892834878
 21
132.2764618938
 31
0.0
  0
LINE
  5
265
330
1F
100
AcDbEntity
  8
0
  6
Continuous
 62
     7
370
    25
100
AcDbLine
 10
187.6892834878
 20
132.2764618938
 30
0.0
 11
187.6892834878
 21
132.5264618938
 31
0.0
  0
LINE
  5
266
330
1F
100
AcDbEntity
  8
0
  6
Continuous
 62
     7
370
    25
100
AcDbLine
 10
187.6892834878
 20
132.2764618938
 30
0.0
 11
187.4165090628
 21
132.2764618938
 31
0.0
  0
ARC
  5
267
330
1F
100
AcDbEntity
  8
0
  6
Continuous
 62
     7
370
    25
100
AcDbCircle
 10
176.1892834878
 20
132.5264618938
 30
0.0
 40
0.25
100
AcDbArc
 50
180.0
 51
270.0
  0
ARC
  5
268
330
1F
100
AcDbEntity
  8
0
  6
Continuous
 62
     7
370
    25
100
AcDbCircle
 10
187.6892834878
 20
132.5264618938
 30
0.0
 40
0.25
100
AcDbArc
 50
270.0
 51
0.0
  0
LINE
  5
269
330
1F
100
AcDbEntity
  8
0
  6
Continuous
 62
     7
370
    25
100
AcDbLine
 10
161.9392834878
 20
137.0481611578
 30
0.0
 11
159.7638466262
 21
137.2764618938
 31
0.0
  0
LINE
  5
26A
330
1F
100
AcDbEntity
  8
0
  6
Continuous
 62
     7
370
    25
100
AcDbLine
 10
161.9392834878
 20
130.5047626297
 30
0.0
 11
161.9392834878
 21
137.0481611578
 31
0.0
  0
LINE
  5
26B
330
1F
100
AcDbEntity
  8
0
  6
Continuous
 62
     7
370
    25
100
AcDbLine
 10
159.7638466262
 20
130.2764618938
 30
0.0
 11
161.9392834878
 21
130.5047626297
 31
0.0
  0
LINE
  5
26C
330
1F
100
AcDbEntity
  8
0
  6
Continuous
 62
     7
370
    25
100
AcDbLine
 10
141.9392834878
 20
130.2764618938
 30
0.0
 11
159.7638466262
 21
130.2764618938
 31
0.0
  0
LINE
  5
26D
330
1F
100
AcDbEntity
  8
0
  6
Continuous
 62
     7
370
    25
100
AcDbLine
 10
159.7638466262
 20
137.2764618938
 30
0.0
 11
141.9392834878
 21
137.2764618938
 31
0.0
  0
LINE
  5
26E
330
1F
100
AcDbEntity
  8
0
  6
Continuous
 62
     7
370
    25
100
AcDbLine
 10
141.9392834878
 20
137.2764618938
 30
0.0
 11
141.9392834878
 21
130.2764618938
 31
0.0
  0
LINE
  5
26F
330
1F
100
AcDbEntity
  8
0
  6
Continuous
 62
     7
370
    25
100
AcDbLine
 10
176.7154813134
 20
135.4974763746
 30
0.0
 11
176.6189169961
 21
135.3380770543
 31
0.0
  0
LINE
  5
270
330
1F
100
AcDbEntity
  8
0
  6
Continuous
 62
     7
370
    25
100
AcDbLine
 10
176.5966396155
 20
132.2312442264
 30
0.0
 11
176.7154813134
 21
132.055447413
 31
0.0
  0
LINE
  5
271
330
1F
100
AcDbEntity
  8
0
  6
Continuous
 62
     7
370
    25
100
AcDbLine
 10
168.5227138342
 20
136.3572645293
 30
0.0
 11
168.5227138342
 21
131.1956592582
 31
0.0
  0
LINE
  5
272
330
1F
100
AcDbEntity
  8
0
  6
Continuous
 62
     7
370
    25
100
AcDbLine
 10
176.7154813134
 20
132.0554474129
 30
0.0
 11
168.5227138342
 21
131.1956592582
 31
0.0
  0
LINE
  5
273
330
1F
100
AcDbEntity
  8
0
  6
Continuous
 62
     7
370
    25
100
AcDbLine
 10
168.5227138342
 20
136.3572645293
 30
0.0
 11
176.7154813134
 21
135.4974763746
 31
0.0
  0
LINE
  5
274
330
1F
100
AcDbEntity
  8
0
  6
Continuous
 62
     7
370
    25
100
AcDbLine
 10
168.5227138342
 20
131.1956592582
 30
0.0
 11
161.9392834878
 21
130.5047626297
 31
0.0
  0
LINE
  5
275
330
1F
100
AcDbEntity
  8
0
  6
Continuous
 62
     7
370
    25
100
AcDbLine
 10
161.9392834878
 20
137.0481611578
 30
0.0
 11
168.5227138342
 21
136.3572645293
 31
0.0
  0
ARC
  5
276
330
1F
100
AcDbEntity
  8
0
  6
Continuous
 62
     7
370
    25
100
AcDbCircle
 10
181.9392834878
 20
133.7764618938
 30
0.0
 40
7.450000000000656
100
AcDbArc
 50
233.0863788866
 51
126.9136211134
  0
ARC
  5
277
330
1F
100
AcDbEntity
  8
0
  6
Continuous
 62
     7
370
    25
100
AcDbCircle
 10
181.9392834878
 20
133.7764618938
 30
0.0
 40
7.207531252870791
100
AcDbArc
 50
195.3041237151
 51
238.9797515565
  0
ARC
  5
278
330
1F
100
AcDbEntity
  8
0
  6
Continuous
 62
     7
370
    25
100
AcDbCircle
 10
181.9392834878
 20
133.7764618938
 30
0.0
 40
7.207531252872434
100
AcDbArc
 50
121.0202484435
 51
164.6958762849
  0
ARC
  5
279
330
1F
100
AcDbEntity
  8
0
  6
Continuous
 62
     7
370
    25
100
AcDbCircle
 10
159.7638466262
 20
202.2764618938
 30
0.0
 40
65.0
100
AcDbArc
 50
270.0
 51
286.5000949923
  0
ARC
  5
27A
330
1F
100
AcDbEntity
  8
0
  6
Continuous
 62
     7
370
    25
100
AcDbCircle
 10
159.7638466262
 20
65.2764618938
 30
0.0
 40
65.00000000000001
100
AcDbArc
 50
73.4999050077
 51
90.0
  0
LINE
  5
27B
330
1F
100
AcDbEntity
  8
0
  6
Continuous
 62
     7
370
    25
100
AcDbLine
 10
166.4392834878
 20
144.7764618938
 30
0.0
 11
166.4392834878
 21
137.6201509666
 31
0.0
  0
LINE
  5
27C
330
1F
100
AcDbEntity
  8
0
  6
Continuous
 62
     7
370
    25
100
AcDbLine
 10
166.4392834878
 20
129.9327728209
 30
0.0
 11
166.4392834878
 21
122.7764618938
 31
0.0
  0
LINE
  5
27D
330
1F
100
AcDbEntity
  8
0
  6
Continuous
 62
     7
370
    25
100
AcDbLine
 10
166.1892834878
 20
123.0264618938
 30
0.0
 11
166.1892834878
 21
129.9580957718
 31
0.0
  0
LINE
  5
27E
330
1F
100
AcDbEntity
  8
0
  6
Continuous
 62
     7
370
    25
100
AcDbLine
 10
166.1892834878
 20
137.5948280157
 30
0.0
 11
166.1892834878
 21
144.5264618938
 31
0.0
  0
LINE
  5
27F
330
1F
100
AcDbEntity
  8
0
  6
Continuous
 62
     7
370
    25
100
AcDbLine
 10
169.4392834878
 20
145.7764618938
 30
0.0
 11
169.4392834878
 21
138.0006038945
 31
0.0
  0
LINE
  5
280
330
1F
100
AcDbEntity
  8
0
  6
Continuous
 62
     7
370
    25
100
AcDbLine
 10
169.4392834878
 20
129.552319893
 30
0.0
 11
169.4392834878
 21
121.7764618938
 31
0.0
  0
LINE
  5
281
330
1F
100
AcDbEntity
  8
0
  6
Continuous
 62
     7
370
    25
100
AcDbLine
 10
172.196390269
 20
145.4081761199
 30
0.0
 11
172.196390269
 21
145.7764618938
 31
0.0
  0
SPLINE
  5
282
330
1F
100
AcDbEntity
  8
0
  6
Continuous
 62
     7
370
    25
100
AcDbSpline
210
0.0
220
0.0
230
1.0
 70
     8
 71
     3
 72
    18
 73
    14
 74
     0
 42
0.00000001
 43
0.00000001
 40
0.0
 40
0.0
 40
0.0
 40
0.0
 40
0.0297375917713251
 40
0.0622585994666694
 40
0.1245690829005809
 40
0.1747355398269535
 40
0.2498061834274977
 40
0.3751803602811958
 40
0.437745418625877
 40
0.5002333231923135
 40
0.74993137206443
 40
0.8691943481444401
 40
1.0
 40
1.0
 40
1.0
 40
1.0
 10
172.4623052063477
 20
144.7999475906563
 30
0.0
 10
172.4504257292707
 20
144.8059033125938
 30
0.0
 10
172.4255548651167
 20
144.8183722075027
 30
0.0
 10
172.3857285470129
 20
144.8456936095216
 30
0.0
 10
172.3493962158513
 20
144.8788753224043
 30
0.0
 10
172.3136240561271
 20
144.9223306894976
 30
0.0
 10
172.2775530817561
 20
144.9801662109988
 30
0.0
 10
172.2526604018452
 20
145.0392701736988
 30
0.0
 10
172.2354247759334
 20
145.0934906420583
 30
0.0
 10
172.2150311171434
 20
145.1725402767802
 30
0.0
 10
172.2032136999791
 20
145.2570824183602
 30
0.0
 10
172.1971212423499
 20
145.3462799147937
 30
0.0
 10
172.1966413109793
 20
145.3869187814946
 30
0.0
 10
172.1963902689502
 20
145.4081761199036
 30
0.0
  0
SPLINE
  5
283
330
1F
100
AcDbEntity
  8
0
  6
Continuous
 62
     7
370
    25
100
AcDbSpline
210
0.0
220
0.0
230
1.0
 70
     8
 71
     3
 72
    13
 73
     9
 74
     0
 42
0.00000001
 43
0.00000001
 40
0.0
 40
0.0
 40
0.0
 40
0.0
 40
0.2491824652871812
 40
0.498773852101127
 40
0.6338602399483602
 40
0.7494868859161712
 40
0.8759187542426342
 40
1.0
 40
1.0
 40
1.0
 40
1.0
 10
172.3679902634168
 20
144.6678001362566
 30
0.0
 10
172.3871158474322
 20
144.6776592819103
 30
0.0
 10
172.4253984015519
 20
144.6973937525941
 30
0.0
 10
172.4646515728478
 20
144.7249433170671
 30
0.0
 10
172.4862163102557
 20
144.748242253024
 30
0.0
 10
172.4937693694142
 20
144.7665722403373
 30
0.0
 10
172.4886456973337
 20
144.7849171091944
 30
0.0
 10
172.4710302734758
 20
144.7949688695006
 30
0.0
 10
172.4623052063477
 20
144.7999475906563
 30
0.0
  0
SPLINE
  5
284
330
1F
100
AcDbEntity
  8
0
  6
Continuous
 62
     7
370
    25
100
AcDbSpline
210
0.0
220
0.0
230
1.0
 70
     8
 71
     3
 72
    13
 73
     9
 74
     0
 42
0.00000001
 43
0.00000001
 40
0.0
 40
0.0
 40
0.0
 40
0.0
 40
0.1266963143627904
 40
0.2513113397887914
 40
0.5007108425293433
 40
0.7510525732451319
 40
0.8768673774687907
 40
1.0
 40
1.0
 40
1.0
 40
1.0
 10
172.1963902689503
 20
144.4367879526465
 30
0.0
 10
172.1968427835836
 20
144.4476920780862
 30
0.0
 10
172.1977403792189
 20
144.4693212027161
 30
0.0
 10
172.2076331528361
 20
144.5115816190545
 30
0.0
 10
172.2318874097148
 20
144.562743978795
 30
0.0
 10
172.2763227392043
 20
144.6102385089494
 30
0.0
 10
172.3241669610045
 20
144.6448020450811
 30
0.0
 10
172.353487797718
 20
144.6601893673223
 30
0.0
 10
172.3679902634249
 20
144.6678001362545
 30
0.0
  0
LINE
  5
285
330
1F
100
AcDbEntity
  8
0
  6
Continuous
 62
     7
370
    25
100
AcDbLine
 10
172.196390269
 20
123.1161358349
 30
0.0
 11
172.196390269
 21
129.0763980894
 31
0.0
  0
LINE
  5
286
330
1F
100
AcDbEntity
  8
0
  6
Continuous
 62
     7
370
    25
100
AcDbLine
 10
172.196390269
 20
138.4765256981
 30
0.0
 11
172.196390269
 21
144.4367879526
 31
0.0
  0
SPLINE
  5
287
330
1F
100
AcDbEntity
  8
0
  6
Continuous
 62
     7
370
    25
100
AcDbSpline
210
0.0
220
0.0
230
1.0
 70
     8
 71
     3
 72
    13
 73
     9
 74
     0
 42
0.00000001
 43
0.00000001
 40
0.0
 40
0.0
 40
0.0
 40
0.0
 40
0.123409203972734
 40
0.2495635406297123
 40
0.5004511475233475
 40
0.749483003608821
 40
0.8735723371285005
 40
1.0
 40
1.0
 40
1.0
 40
1.0
 10
172.3679902634249
 20
122.8851236512739
 30
0.0
 10
172.353457221507
 20
122.8927522567714
 30
0.0
 10
172.3240678625255
 20
122.9081791596015
 30
0.0
 10
172.2761416459936
 20
122.9428323943443
 30
0.0
 10
172.2317473557818
 20
122.9903846214777
 30
0.0
 10
172.2075719710719
 20
123.0415282022122
 30
0.0
 10
172.1977383745491
 20
123.0836940150405
 30
0.0
 10
172.196842425085
 20
123.1052548120072
 30
0.0
 10
172.1963902689502
 20
123.1161358348895
 30
0.0
  0
SPLINE
  5
288
330
1F
100
AcDbEntity
  8
0
  6
Continuous
 62
     7
370
    25
100
AcDbSpline
210
0.0
220
0.0
230
1.0
 70
     8
 71
     3
 72
    14
 73
    10
 74
     0
 42
0.00000001
 43
0.00000001
 40
0.0
 40
0.0
 40
0.0
 40
0.0
 40
0.0833728361874164
 40
0.1651391830231223
 40
0.2505782922901014
 40
0.3661552980483097
 40
0.5013015333863843
 40
0.7511277814203854
 40
1.0
 40
1.0
 40
1.0
 40
1.0
 10
172.4623052063477
 20
122.752976196872
 30
0.0
 10
172.468417684139
 20
122.7562121546896
 30
0.0
 10
172.4805248599874
 20
122.7626217175009
 30
0.0
 10
172.4903036351649
 20
122.7743436251676
 30
0.0
 10
172.4930670386793
 20
122.7881929140507
 30
0.0
 10
172.4862313427298
 20
122.8046426420904
 30
0.0
 10
172.4647160052757
 20
122.8279360590476
 30
0.0
 10
172.4254087689084
 20
122.8555262941877
 30
0.0
 10
172.3871053399391
 20
122.8752704560269
 30
0.0
 10
172.3679902634249
 20
122.8851236512739
 30
0.0
  0
SPLINE
  5
289
330
1F
100
AcDbEntity
  8
0
  6
Continuous
 62
     7
370
    25
100
AcDbSpline
210
0.0
220
0.0
230
1.0
 70
     8
 71
     3
 72
    17
 73
    13
 74
     0
 42
0.00000001
 43
0.00000001
 40
0.0
 40
0.0
 40
0.0
 40
0.0
 40
0.1308472312971285
 40
0.2501712416478232
 40
0.5002181447817603
 40
0.5625722445347702
 40
0.6248529024619178
 40
0.7493346422976469
 40
0.8746411565565786
 40
0.9373094462329892
 40
0.9700546542881243
 40
1.0
 40
1.0
 40
1.0
 40
1.0
 10
172.1963902689502
 20
122.1447476676291
 30
0.0
 10
172.1966415667683
 20
122.166010130158
 30
0.0
 10
172.1971220315558
 20
122.2066625505311
 30
0.0
 10
172.2032217101637
 20
122.2959356187901
 30
0.0
 10
172.2150502254318
 20
122.3805375256096
 30
0.0
 10
172.2354713032654
 20
122.4595743238508
 30
0.0
 10
172.2526018390385
 20
122.5135188113029
 30
0.0
 10
172.2822712227707
 20
122.58355434272
 30
0.0
 10
172.3303114526065
 20
122.6563732411829
 30
0.0
 10
172.3853065971388
 20
122.7069148584548
 30
0.0
 10
172.4253138336956
 20
122.7344215817521
 30
0.0
 10
172.4503474291938
 20
122.7469782590591
 30
0.0
 10
172.4623052063477
 20
122.752976196872
 30
0.0
  0
LINE
  5
28A
330
1F
100
AcDbEntity
  8
0
  6
Continuous
 62
     7
370
    25
100
AcDbLine
 10
172.196390269
 20
121.7764618938
 30
0.0
 11
172.196390269
 21
122.1447476676
 31
0.0
  0
LINE
  5
28B
330
1F
100
AcDbEntity
  8
0
  6
Continuous
 62
     7
370
    25
100
AcDbLine
 10
191.6821767066
 20
122.1447476676
 30
0.0
 11
191.6821767066
 21
121.7764618938
 31
0.0
  0
SPLINE
  5
28C
330
1F
100
AcDbEntity
  8
0
  6
Continuous
 62
     7
370
    25
100
AcDbSpline
210
0.0
220
0.0
230
1.0
 70
     8
 71
     3
 72
    18
 73
    14
 74
     0
 42
0.00000001
 43
0.00000001
 40
0.0
 40
0.0
 40
0.0
 40
0.0
 40
0.0297375917713133
 40
0.06225859946667
 40
0.1245690829005796
 40
0.1747355398269516
 40
0.2498061834274989
 40
0.3751803602811941
 40
0.4377454186258753
 40
0.5002333231923115
 40
0.7499313720644271
 40
0.8691943481067824
 40
0.9999999999999999
 40
0.9999999999999999
 40
0.9999999999999999
 40
0.9999999999999999
 10
191.4162617691796
 20
122.752976196872
 30
0.0
 10
191.4281412462566
 20
122.7470204749346
 30
0.0
 10
191.4530121104106
 20
122.7345515800256
 30
0.0
 10
191.4928384285144
 20
122.7072301780067
 30
0.0
 10
191.529170759676
 20
122.6740484651241
 30
0.0
 10
191.5649429194003
 20
122.6305930980307
 30
0.0
 10
191.6010138937712
 20
122.5727575765296
 30
0.0
 10
191.6259065736822
 20
122.5136536138295
 30
0.0
 10
191.643142199594
 20
122.45943314547
 30
0.0
 10
191.663535858384
 20
122.3803835107482
 30
0.0
 10
191.6753532755464
 20
122.2958413691755
 30
0.0
 10
191.6814457331786
 20
122.2066438727411
 30
0.0
 10
191.6819256645484
 20
122.1660050060399
 30
0.0
 10
191.6821767065771
 20
122.1447476676247
 30
0.0
  0
SPLINE
  5
28D
330
1F
100
AcDbEntity
  8
0
  6
Continuous
 62
     7
370
    25
100
AcDbSpline
210
0.0
220
0.0
230
1.0
 70
     8
 71
     3
 72
    13
 73
     9
 74
     0
 42
0.00000001
 43
0.00000001
 40
0.0
 40
0.0
 40
0.0
 40
0.0
 40
0.2491824652873909
 40
0.4987738521015305
 40
0.6338602399633625
 40
0.749486885916647
 40
0.8759187542469947
 40
1.0
 40
1.0
 40
1.0
 40
1.0
 10
191.5105767121106
 20
122.8851236512717
 30
0.0
 10
191.4914511280952
 20
122.875264505618
 30
0.0
 10
191.4531685739755
 20
122.8555300349342
 30
0.0
 10
191.4139154026784
 20
122.8279804704606
 30
0.0
 10
191.3923506652716
 20
122.8046815345036
 30
0.0
 10
191.3847976061129
 20
122.7863515471901
 30
0.0
 10
191.3899212781949
 20
122.7680066783338
 30
0.0
 10
191.4075367020522
 20
122.7579549180276
 30
0.0
 10
191.4162617691796
 20
122.752976196872
 30
0.0
  0
SPLINE
  5
28E
330
1F
100
AcDbEntity
  8
0
  6
Continuous
 62
     7
370
    25
100
AcDbSpline
210
0.0
220
0.0
230
1.0
 70
     8
 71
     3
 72
    13
 73
     9
 74
     0
 42
0.00000001
 43
0.00000001
 40
0.0
 40
0.0
 40
0.0
 40
0.0
 40
0.1266963143628506
 40
0.2513113397887842
 40
0.5007108425293414
 40
0.7510525732451352
 40
0.8768673774688646
 40
1.0
 40
1.0
 40
1.0
 40
1.0
 10
191.6821767065771
 20
123.1161358348818
 30
0.0
 10
191.6817241919437
 20
123.1052317094421
 30
0.0
 10
191.6808265963084
 20
123.0836025848123
 30
0.0
 10
191.6709338226913
 20
123.0413421684738
 30
0.0
 10
191.6466795658126
 20
122.9901798087333
 30
0.0
 10
191.602244236323
 20
122.9426852785789
 30
0.0
 10
191.5544000145229
 20
122.9081217424472
 30
0.0
 10
191.5250791778094
 20
122.892734420206
 30
0.0
 10
191.5105767121024
 20
122.8851236512739
 30
0.0
  0
LINE
  5
28F
330
1F
100
AcDbEntity
  8
0
  6
Continuous
 62
     7
370
    25
100
AcDbLine
 10
191.6821767066
 20
144.4367879526
 30
0.0
 11
191.6821767066
 21
123.1161358349
 31
0.0
  0
SPLINE
  5
290
330
1F
100
AcDbEntity
  8
0
  6
Continuous
 62
     7
370
    25
100
AcDbSpline
210
0.0
220
0.0
230
1.0
 70
     8
 71
     3
 72
    13
 73
     9
 74
     0
 42
0.00000001
 43
0.00000001
 40
0.0
 40
0.0
 40
0.0
 40
0.0
 40
0.123409203982248
 40
0.2495635406298056
 40
0.5004511475234075
 40
0.7494830036088448
 40
0.8735723371263543
 40
1.0
 40
1.0
 40
1.0
 40
1.0
 10
191.5105767121024
 20
144.6678001362544
 30
0.0
 10
191.5251097540218
 20
144.6601715307564
 30
0.0
 10
191.5544991130036
 20
144.6447446279264
 30
0.0
 10
191.6024253295339
 20
144.6100913931833
 30
0.0
 10
191.6468196197457
 20
144.5625391660507
 30
0.0
 10
191.6709950044552
 20
144.5113955853163
 30
0.0
 10
191.6808286009783
 20
144.4692297724881
 30
0.0
 10
191.6817245504423
 20
144.4476689755215
 30
0.0
 10
191.6821767065771
 20
144.436787952639
 30
0.0
  0
SPLINE
  5
291
330
1F
100
AcDbEntity
  8
0
  6
Continuous
 62
     7
370
    25
100
AcDbSpline
210
0.0
220
0.0
230
1.0
 70
     8
 71
     3
 72
    14
 73
    10
 74
     0
 42
0.00000001
 43
0.00000001
 40
0.0
 40
0.0
 40
0.0
 40
0.0
 40
0.0833728361833459
 40
0.1651391830191044
 40
0.2505782922895461
 40
0.366155298038779
 40
0.5013015333860809
 40
0.7511277814202357
 40
0.9999999999999999
 40
0.9999999999999999
 40
0.9999999999999999
 40
0.9999999999999999
 10
191.4162617691796
 20
144.7999475906563
 30
0.0
 10
191.4101492913887
 20
144.7967116328388
 30
0.0
 10
191.3980421155407
 20
144.7903020700277
 30
0.0
 10
191.3882633403636
 20
144.778580162361
 30
0.0
 10
191.3854999368477
 20
144.7647308734782
 30
0.0
 10
191.3923356327971
 20
144.7482811454383
 30
0.0
 10
191.4138509702512
 20
144.7249877284811
 30
0.0
 10
191.453158206619
 20
144.6973974933406
 30
0.0
 10
191.4914616355883
 20
144.6776533315014
 30
0.0
 10
191.5105767121024
 20
144.6678001362544
 30
0.0
  0
SPLINE
  5
292
330
1F
100
AcDbEntity
  8
0
  6
Continuous
 62
     7
370
    25
100
AcDbSpline
210
0.0
220
0.0
230
1.0
 70
     8
 71
     3
 72
    17
 73
    13
 74
     0
 42
0.00000001
 43
0.00000001
 40
0.0
 40
0.0
 40
0.0
 40
0.0
 40
0.1308472312969622
 40
0.2501712416478231
 40
0.5002181447817602
 40
0.5625722445347695
 40
0.6248529024619175
 40
0.7493346422976452
 40
0.8746411565565774
 40
0.9373094462329884
 40
0.9700546542881242
 40
0.9999999999999999
 40
0.9999999999999999
 40
0.9999999999999999
 40
0.9999999999999999
 10
191.6821767065771
 20
145.4081761198992
 30
0.0
 10
191.681925408759
 20
145.3869136573703
 30
0.0
 10
191.6814449439715
 20
145.3462612369972
 30
0.0
 10
191.6753452653637
 20
145.2569881687382
 30
0.0
 10
191.6635167500955
 20
145.1723862619187
 30
0.0
 10
191.643095672262
 20
145.0933494636776
 30
0.0
 10
191.6259651364888
 20
145.0394049762255
 30
0.0
 10
191.5962957527567
 20
144.9693694448084
 30
0.0
 10
191.5482555229209
 20
144.8965505463454
 30
0.0
 10
191.4932603783886
 20
144.8460089290735
 30
0.0
 10
191.4532531418317
 20
144.8185022057762
 30
0.0
 10
191.4282195463336
 20
144.8059455284692
 30
0.0
 10
191.4162617691796
 20
144.7999475906563
 30
0.0
  0
LINE
  5
293
330
1F
100
AcDbEntity
  8
0
  6
Continuous
 62
     7
370
    25
100
AcDbLine
 10
191.6821767066
 20
145.7764618938
 30
0.0
 11
191.6821767066
 21
145.4081761199
 31
0.0
  0
LINE
  5
294
330
1F
100
AcDbEntity
  8
0
  6
Continuous
 62
     7
370
    25
100
AcDbLine
 10
194.4392834878
 20
121.7764618938
 30
0.0
 11
194.4392834878
 21
145.7764618938
 31
0.0
  0
LINE
  5
295
330
1F
100
AcDbEntity
  8
0
  6
Continuous
 62
     7
370
    25
100
AcDbLine
 10
172.196390269
 20
144.4367879526
 30
0.0
 11
172.4392494932
 21
144.2210414096
 31
0.0
  0
LINE
  5
296
330
1F
100
AcDbEntity
  8
0
  6
Continuous
 62
     7
370
    25
100
AcDbLine
 10
172.4392494932
 20
144.2210414096
 30
0.0
 11
172.4392494936
 21
138.5243312458
 31
0.0
  0
LINE
  5
297
330
1F
100
AcDbEntity
  8
0
  6
Continuous
 62
     7
370
    25
100
AcDbLine
 10
172.4392494936
 20
129.0285925417
 30
0.0
 11
172.4392494932
 21
123.331882378
 31
0.0
  0
LINE
  5
298
330
1F
100
AcDbEntity
  8
0
  6
Continuous
 62
     7
370
    25
100
AcDbLine
 10
172.196390269
 20
123.1161358349
 30
0.0
 11
172.4392494932
 21
123.331882378
 31
0.0
  0
LINE
  5
299
330
1F
100
AcDbEntity
  8
0
  6
Continuous
 62
     7
370
    25
100
AcDbLine
 10
191.4393174823
 20
123.331882378
 30
0.0
 11
191.4393174823
 21
144.2210414096
 31
0.0
  0
LINE
  5
29A
330
1F
100
AcDbEntity
  8
0
  6
Continuous
 62
     7
370
    25
100
AcDbLine
 10
191.4393174823
 20
144.2210414096
 30
0.0
 11
191.6821767066
 21
144.4367879526
 31
0.0
  0
LINE
  5
29B
330
1F
100
AcDbEntity
  8
0
  6
Continuous
 62
     7
370
    25
100
AcDbLine
 10
191.4393174823
 20
123.331882378
 30
0.0
 11
191.6821767066
 21
123.1161358349
 31
0.0
  0
LINE
  5
29C
330
1F
100
AcDbEntity
  8
0
  6
Continuous
 62
     7
370
    25
100
AcDbLine
 10
169.1892834878
 20
122.0264618938
 30
0.0
 11
169.1892834878
 21
129.5894554485
 31
0.0
  0
LINE
  5
29D
330
1F
100
AcDbEntity
  8
0
  6
Continuous
 62
     7
370
    25
100
AcDbLine
 10
169.1892834878
 20
137.963468339
 30
0.0
 11
169.1892834878
 21
145.5264618938
 31
0.0
  0
LINE
  5
29E
330
1F
100
AcDbEntity
  8
0
  6
Continuous
 62
     7
370
    25
100
AcDbLine
 10
194.6892834878
 20
145.5264618938
 30
0.0
 11
194.6892834878
 21
122.0264618938
 31
0.0
  0
LINE
  5
29F
330
1F
100
AcDbEntity
  8
0
  6
Continuous
 62
     7
370
    25
100
AcDbLine
 10
172.4392834878
 20
144.2120979549
 30
0.0
 11
172.4392834878
 21
138.5243380047
 31
0.0
  0
LINE
  5
2A0
330
1F
100
AcDbEntity
  8
0
  6
Continuous
 62
     7
370
    25
100
AcDbLine
 10
172.4392834878
 20
129.0285857828
 30
0.0
 11
172.4392834878
 21
123.3408258327
 31
0.0
  0
SPLINE
  5
2A1
330
1F
100
AcDbEntity
  8
0
  6
Continuous
 62
     7
370
    25
100
AcDbSpline
210
0.0
220
0.0
230
1.0
 70
     8
 71
     3
 72
     8
 73
     4
 74
     0
 42
0.00000001
 43
0.00000001
 40
0.0
 40
0.0
 40
0.0
 40
0.0
 40
1.0
 40
1.0
 40
1.0
 40
1.0
 10
172.4392494932077
 20
123.3318823779483
 30
0.0
 10
172.4392721508186
 20
123.3348619564414
 30
0.0
 10
172.4392834877637
 20
123.3378431073145
 30
0.0
 10
172.4392834877637
 20
123.3408258326512
 30
0.0
  0
SPLINE
  5
2A2
330
1F
100
AcDbEntity
  8
0
  6
Continuous
 62
     7
370
    25
100
AcDbSpline
210
0.0
220
0.0
230
1.0
 70
     8
 71
     3
 72
     8
 73
     4
 74
     0
 42
0.00000001
 43
0.00000001
 40
0.0
 40
0.0
 40
0.0
 40
0.0
 40
1.0
 40
1.0
 40
1.0
 40
1.0
 10
172.4392834877637
 20
144.212097954877
 30
0.0
 10
172.4392834877637
 20
144.2150806802085
 30
0.0
 10
172.4392721508187
 20
144.2180618310762
 30
0.0
 10
172.4392494932078
 20
144.2210414095639
 30
0.0
  0
LINE
  5
2A3
330
1F
100
AcDbEntity
  8
0
  6
Continuous
 62
     7
370
    25
100
AcDbLine
 10
191.4392834878
 20
123.3408258327
 30
0.0
 11
191.4392834878
 21
144.2120979549
 31
0.0
  0
SPLINE
  5
2A4
330
1F
100
AcDbEntity
  8
0
  6
Continuous
 62
     7
370
    25
100
AcDbSpline
210
0.0
220
0.0
230
1.0
 70
     8
 71
     3
 72
     8
 73
     4
 74
     0
 42
0.00000001
 43
0.00000001
 40
0.0
 40
0.0
 40
0.0
 40
0.0
 40
1.0
 40
1.0
 40
1.0
 40
1.0
 10
191.4393174823196
 20
144.221041409564
 30
0.0
 10
191.4392948247087
 20
144.2180618310763
 30
0.0
 10
191.4392834877637
 20
144.2150806802085
 30
0.0
 10
191.4392834877637
 20
144.2120979548771
 30
0.0
  0
SPLINE
  5
2A5
330
1F
100
AcDbEntity
  8
0
  6
Continuous
 62
     7
370
    25
100
AcDbSpline
210
0.0
220
0.0
230
1.0
 70
     8
 71
     3
 72
     8
 73
     4
 74
     0
 42
0.00000001
 43
0.00000001
 40
0.0
 40
0.0
 40
0.0
 40
0.0
 40
1.0
 40
1.0
 40
1.0
 40
1.0
 10
191.4392834877637
 20
123.3408258326512
 30
0.0
 10
191.4392834877637
 20
123.3378431073199
 30
0.0
 10
191.4392948247087
 20
123.3348619564521
 30
0.0
 10
191.4393174823196
 20
123.3318823779644
 30
0.0
  0
ARC
  5
2A6
330
1F
100
AcDbEntity
  8
0
  6
Continuous
 62
     7
370
    25
100
AcDbCircle
 10
172.8164101418
 20
123.7387335521
 30
0.0
 40
0.3780249527301531
100
AcDbArc
 50
86.5310565283
 51
176.0493021852
  0
ARC
  5
2A7
330
1F
100
AcDbEntity
  8
0
  6
Continuous
 62
     7
370
    25
100
AcDbCircle
 10
172.8164101418
 20
143.8141902354
 30
0.0
 40
0.3780249527300974
100
AcDbArc
 50
183.9506978148
 51
273.4689434717
  0
ARC
  5
2A8
330
1F
100
AcDbEntity
  8
0
  6
Continuous
 62
     7
370
    25
100
AcDbCircle
 10
191.0621568337
 20
143.8141902354
 30
0.0
 40
0.3780249527301864
100
AcDbArc
 50
266.5310565283
 51
356.0493021852
  0
ARC
  5
2A9
330
1F
100
AcDbEntity
  8
0
  6
Continuous
 62
     7
370
    25
100
AcDbCircle
 10
191.0621568337
 20
123.7387335521
 30
0.0
 40
0.378024952730161
100
AcDbArc
 50
3.9506978148
 51
93.4689434717
  0
LINE
  5
2AA
330
1F
100
AcDbEntity
  8
0
  6
Continuous
 62
     7
370
    25
100
AcDbLine
 10
191.0392834878
 20
124.1160658658
 30
0.0
 11
191.0392834878
 21
143.4368579218
 31
0.0
  0
LINE
  5
2AB
330
1F
100
AcDbEntity
  8
0
  6
Continuous
 62
     7
370
    25
100
AcDbLine
 10
191.0392834878
 20
143.4368579218
 30
0.0
 11
172.8392834878
 21
143.4368579218
 31
0.0
  0
LINE
  5
2AC
330
1F
100
AcDbEntity
  8
0
  6
Continuous
 62
     7
370
    25
100
AcDbLine
 10
172.8392834878
 20
124.1160658658
 30
0.0
 11
191.0392834878
 21
124.1160658658
 31
0.0
  0
LINE
  5
2AD
330
1F
100
AcDbEntity
  8
0
  6
Continuous
 62
     7
370
    25
100
AcDbLine
 10
205.9928922148
 20
144.083224121
 30
0.0
 11
205.9928922148
 21
123.4696996665
 31
0.0
  0
LINE
  5
2AE
330
1F
100
AcDbEntity
  8
0
  6
Continuous
 62
     7
370
    25
100
AcDbLine
 10
208.6892834878
 20
142.5264618938
 30
0.0
 11
208.6892834878
 21
125.0264618938
 31
0.0
  0
SPLINE
  5
2AF
330
1F
100
AcDbEntity
  8
0
  6
Continuous
 62
     7
370
    25
100
AcDbSpline
210
0.0
220
0.0
230
1.0
 70
     8
 71
     3
 72
    14
 73
    10
 74
     0
 42
0.00000001
 43
0.00000001
 40
0.0
 40
0.0
 40
0.0
 40
0.0
 40
0.1377327108983413
 40
0.2725942884998932
 40
0.4041400602171393
 40
0.5321680644070492
 40
0.7754693061725265
 40
0.8890599100113705
 40
0.9999999999999999
 40
0.9999999999999999
 40
0.9999999999999999
 40
0.9999999999999999
 10
172.4392494932079
 20
123.331882377974
 30
0.0
 10
172.4393843266579
 20
123.318152716061
 30
0.0
 10
172.4396511828618
 20
123.2909795965013
 30
0.0
 10
172.4427730051071
 20
123.2512887167422
 30
0.0
 10
172.448239269066
 20
123.2133560428438
 30
0.0
 10
172.4592391257769
 20
123.1665452830399
 30
0.0
 10
172.4773067983609
 20
123.1244461766897
 30
0.0
 10
172.5045802478561
 20
123.089147768906
 30
0.0
 10
172.522197592301
 20
123.0750993740103
 30
0.0
 10
172.530902280933
 20
123.0681580949925
 30
0.0
  0
LINE
  5
2B0
330
1F
100
AcDbEntity
  8
0
  6
Continuous
 62
     7
370
    25
100
AcDbLine
 10
172.3679902634
 20
122.8851236513
 30
0.0
 11
172.5309022809
 21
123.068158095
 31
0.0
  0
SPLINE
  5
2B1
330
1F
100
AcDbEntity
  8
0
  6
Continuous
 62
     7
370
    25
100
AcDbSpline
210
0.0
220
0.0
230
1.0
 70
     8
 71
     3
 72
    14
 73
    10
 74
     0
 42
0.00000001
 43
0.00000001
 40
0.0
 40
0.0
 40
0.0
 40
0.0
 40
0.1377327108987162
 40
0.2725942885004416
 40
0.4041400602177524
 40
0.5321680644078574
 40
0.7754693061737634
 40
0.8890599099299614
 40
0.9999999999999999
 40
0.9999999999999999
 40
0.9999999999999999
 40
0.9999999999999999
 10
191.4393174823195
 20
144.2210414095545
 30
0.0
 10
191.4391826488694
 20
144.2347710714675
 30
0.0
 10
191.4389157926655
 20
144.2619441910271
 30
0.0
 10
191.4357939704203
 20
144.3016350707862
 30
0.0
 10
191.4303277064615
 20
144.3395677446848
 30
0.0
 10
191.41932784975
 20
144.3863785044877
 30
0.0
 10
191.4012601771724
 20
144.4284776108365
 30
0.0
 10
191.3739867276724
 20
144.4637760186082
 30
0.0
 10
191.356369383231
 20
144.4778244135099
 30
0.0
 10
191.3476646945944
 20
144.4847656925358
 30
0.0
  0
LINE
  5
2B2
330
1F
100
AcDbEntity
  8
0
  6
Continuous
 62
     7
370
    25
100
AcDbLine
 10
191.3476646946
 20
144.4847656925
 30
0.0
 11
191.5105767121
 21
144.6678001363
 31
0.0
  0
LINE
  5
2B3
330
1F
100
AcDbEntity
  8
0
  6
Continuous
 62
     7
370
    25
100
AcDbLine
 10
172.3679902634
 20
144.6678001363
 30
0.0
 11
172.5309022809
 21
144.4847656925
 31
0.0
  0
SPLINE
  5
2B4
330
1F
100
AcDbEntity
  8
0
  6
Continuous
 62
     7
370
    25
100
AcDbSpline
210
0.0
220
0.0
230
1.0
 70
     8
 71
     3
 72
    14
 73
    10
 74
     0
 42
0.00000001
 43
0.00000001
 40
0.0
 40
0.0
 40
0.0
 40
0.0
 40
0.1106414710202212
 40
0.2239563677549811
 40
0.4666597346533721
 40
0.5947565812544914
 40
0.7265559329283156
 40
0.8618634099915925
 40
0.9999999999999999
 40
0.9999999999999999
 40
0.9999999999999999
 40
0.9999999999999999
 10
172.530902280933
 20
144.4847656925357
 30
0.0
 10
172.5222198830385
 20
144.4778436410945
 30
0.0
 10
172.5046452947949
 20
144.4638322809426
 30
0.0
 10
172.4774096058268
 20
144.428642123512
 30
0.0
 10
172.4593272365545
 20
144.386632847596
 30
0.0
 10
172.4482921919757
 20
144.3398668494003
 30
0.0
 10
172.4427956787621
 20
144.3018648944848
 30
0.0
 10
172.4396540066002
 20
144.2620694630787
 30
0.0
 10
172.43938525785
 20
144.2348114332756
 30
0.0
 10
172.4392494932078
 20
144.2210414095641
 30
0.0
  0
SPLINE
  5
2B5
330
1F
100
AcDbEntity
  8
0
  6
Continuous
 62
     7
370
    25
100
AcDbSpline
210
0.0
220
0.0
230
1.0
 70
     8
 71
     3
 72
    14
 73
    10
 74
     0
 42
0.00000001
 43
0.00000001
 40
0.0
 40
0.0
 40
0.0
 40
0.0
 40
0.1106414710656435
 40
0.2239563677554478
 40
0.4666597346536896
 40
0.5947565812547271
 40
0.726555932928469
 40
0.8618634099916662
 40
1.0
 40
1.0
 40
1.0
 40
1.0
 10
191.3476646945944
 20
123.0681580949926
 30
0.0
 10
191.3563470924928
 20
123.0750801464358
 30
0.0
 10
191.3739216807372
 20
123.0890915065858
 30
0.0
 10
191.4011573697011
 20
123.1242816640222
 30
0.0
 10
191.4192397389731
 20
123.166290939932
 30
0.0
 10
191.4302747835517
 20
123.2130569381281
 30
0.0
 10
191.4357712967654
 20
123.2510588930435
 30
0.0
 10
191.4389129689272
 20
123.2908543244496
 30
0.0
 10
191.4391817176774
 20
123.3181123542527
 30
0.0
 10
191.4393174823196
 20
123.3318823779642
 30
0.0
  0
LINE
  5
2B6
330
1F
100
AcDbEntity
  8
0
  6
Continuous
 62
     7
370
    25
100
AcDbLine
 10
191.3476646946
 20
123.068158095
 30
0.0
 11
191.5105767121
 21
122.8851236513
 31
0.0
  0
LINE
  5
2B7
330
1F
100
AcDbEntity
  8
0
  6
Continuous
 62
     7
370
    25
100
AcDbLine
 10
172.4392834878
 20
143.8759668321
 30
0.0
 11
172.8392834878
 21
143.8759668321
 31
0.0
  0
LINE
  5
2B8
330
1F
100
AcDbEntity
  8
0
  6
Continuous
 62
     7
370
    25
100
AcDbLine
 10
172.8392834878
 20
143.4368579218
 30
0.0
 11
172.8392834878
 21
143.8759668321
 31
0.0
  0
LINE
  5
2B9
330
1F
100
AcDbEntity
  8
0
  6
Continuous
 62
     7
370
    25
100
AcDbLine
 10
191.0392834878
 20
143.4368579218
 30
0.0
 11
191.0392834878
 21
143.8759668321
 31
0.0
  0
LINE
  5
2BA
330
1F
100
AcDbEntity
  8
0
  6
Continuous
 62
     7
370
    25
100
AcDbLine
 10
191.0392834878
 20
143.8759668321
 30
0.0
 11
191.4392834878
 21
143.8759668321
 31
0.0
  0
LINE
  5
2BB
330
1F
100
AcDbEntity
  8
0
  6
Continuous
 62
     7
370
    25
100
AcDbLine
 10
172.8392834878
 20
123.6769569554
 30
0.0
 11
172.8392834878
 21
124.1160658658
 31
0.0
  0
LINE
  5
2BC
330
1F
100
AcDbEntity
  8
0
  6
Continuous
 62
     7
370
    25
100
AcDbLine
 10
172.8392834878
 20
123.6769569554
 30
0.0
 11
172.4392834878
 21
123.6769569554
 31
0.0
  0
LINE
  5
2BD
330
1F
100
AcDbEntity
  8
0
  6
Continuous
 62
     7
370
    25
100
AcDbLine
 10
191.4392834878
 20
123.6769569554
 30
0.0
 11
191.0392834878
 21
123.6769569554
 31
0.0
  0
LINE
  5
2BE
330
1F
100
AcDbEntity
  8
0
  6
Continuous
 62
     7
370
    25
100
AcDbLine
 10
191.0392834878
 20
123.6769569554
 30
0.0
 11
191.0392834878
 21
124.1160658658
 31
0.0
  0
SPLINE
  5
2BF
330
1F
100
AcDbEntity
  8
0
  6
Continuous
 62
     7
370
    25
100
AcDbSpline
210
0.0
220
0.0
230
1.0
 70
     8
 71
     3
 72
     8
 73
     4
 74
     0
 42
0.00000001
 43
0.00000001
 40
0.0
 40
0.0
 40
0.0
 40
0.0
 40
0.0000524698222138
 40
0.0000524698222138
 40
0.0000524698222138
 40
0.0000524698222138
 10
172.8378600083223
 20
144.2764618937535
 30
0.0
 10
172.8203965733501
 20
144.277424424785
 30
0.0
 10
172.80290074911
 20
144.2784665081798
 30
0.0
 10
172.7855944372554
 20
144.279594337396
 30
0.0
  0
SPLINE
  5
2C0
330
1F
100
AcDbEntity
  8
0
  6
Continuous
 62
     7
370
    25
100
AcDbSpline
210
0.0
220
0.0
230
1.0
 70
     8
 71
     3
 72
     8
 73
     4
 74
     0
 42
0.00000001
 43
0.00000001
 40
0.0
 40
0.0
 40
0.0
 40
0.0
 40
1.0
 40
1.0
 40
1.0
 40
1.0
 10
172.8378600083223
 20
144.2764618937535
 30
0.0
 10
172.8388067083712
 20
144.2550859688293
 30
0.0
 10
172.8392834877637
 20
144.2336317036759
 30
0.0
 10
172.8392834877637
 20
144.212097954877
 30
0.0
  0
LINE
  5
2C1
330
1F
100
AcDbEntity
  8
0
  6
Continuous
 62
     7
370
    25
100
AcDbLine
 10
172.4392834878
 20
144.2120979549
 30
0.0
 11
172.8392834878
 21
144.2120979549
 31
0.0
  0
SPLINE
  5
2C2
330
1F
100
AcDbEntity
  8
0
  6
Continuous
 62
     7
370
    25
100
AcDbSpline
210
0.0
220
0.0
230
1.0
 70
     8
 71
     3
 72
    10
 73
     6
 74
     0
 42
0.00000001
 43
0.00000001
 40
0.0
 40
0.0
 40
0.0
 40
0.0
 40
0.5
 40
0.5
 40
1.0
 40
1.0
 40
1.0
 40
1.0
 10
172.7855944372555
 20
144.2795943373981
 30
0.0
 10
172.725965707654
 20
144.2834802620211
 30
0.0
 10
172.6757914158465
 20
144.3172159115244
 30
0.0
 10
172.5957263101056
 20
144.3948240657931
 30
0.0
 10
172.5630115206903
 20
144.4393661812277
 30
0.0
 10
172.5309022809307
 20
144.4847656925391
 30
0.0
  0
LINE
  5
2C3
330
1F
100
AcDbEntity
  8
0
  6
Continuous
 62
     7
370
    25
100
AcDbLine
 10
191.0392834878
 20
144.2120979549
 30
0.0
 11
191.4392834878
 21
144.2120979549
 31
0.0
  0
SPLINE
  5
2C4
330
1F
100
AcDbEntity
  8
0
  6
Continuous
 62
     7
370
    25
100
AcDbSpline
210
0.0
220
0.0
230
1.0
 70
     8
 71
     3
 72
     8
 73
     4
 74
     0
 42
0.00000001
 43
0.00000001
 40
0.0
 40
0.0
 40
0.0
 40
0.0
 40
1.0
 40
1.0
 40
1.0
 40
1.0
 10
191.0392834877637
 20
144.212097954877
 30
0.0
 10
191.0392834877637
 20
144.2336317036794
 30
0.0
 10
191.0397602671563
 20
144.2550859688361
 30
0.0
 10
191.0407069672056
 20
144.2764618937636
 30
0.0
  0
SPLINE
  5
2C5
330
1F
100
AcDbEntity
  8
0
  6
Continuous
 62
     7
370
    25
100
AcDbSpline
210
0.0
220
0.0
230
1.0
 70
     8
 71
     3
 72
     8
 73
     4
 74
     0
 42
0.00000001
 43
0.00000001
 40
0.0
 40
0.0
 40
0.0
 40
0.0
 40
0.0000524698222113
 40
0.0000524698222113
 40
0.0000524698222113
 40
0.0000524698222113
 10
191.0929725382705
 20
144.279594337396
 30
0.0
 10
191.0756662264159
 20
144.2784665081799
 30
0.0
 10
191.0581704021753
 20
144.2774244247958
 30
0.0
 10
191.0407069672031
 20
144.276461893764
 30
0.0
  0
SPLINE
  5
2C6
330
1F
100
AcDbEntity
  8
0
  6
Continuous
 62
     7
370
    25
100
AcDbSpline
210
0.0
220
0.0
230
1.0
 70
     8
 71
     3
 72
    10
 73
     6
 74
     0
 42
0.00000001
 43
0.00000001
 40
0.0
 40
0.0
 40
0.0
 40
0.0
 40
0.5
 40
0.5
 40
1.0
 40
1.0
 40
1.0
 40
1.0
 10
191.0929725382705
 20
144.279594337396
 30
0.0
 10
191.1526012678723
 20
144.2834802620185
 30
0.0
 10
191.2027755596791
 20
144.3172159115231
 30
0.0
 10
191.2828406654198
 20
144.3948240657907
 30
0.0
 10
191.315555454835
 20
144.4393661812249
 30
0.0
 10
191.3476646945944
 20
144.4847656925359
 30
0.0
  0
LINE
  5
2C7
330
1F
100
AcDbEntity
  8
0
  6
Continuous
 62
     7
370
    25
100
AcDbLine
 10
172.4392834878
 20
123.3408258327
 30
0.0
 11
172.8392834878
 21
123.3408258327
 31
0.0
  0
SPLINE
  5
2C8
330
1F
100
AcDbEntity
  8
0
  6
Continuous
 62
     7
370
    25
100
AcDbSpline
210
0.0
220
0.0
230
1.0
 70
     8
 71
     3
 72
     8
 73
     4
 74
     0
 42
0.00000001
 43
0.00000001
 40
0.0
 40
0.0
 40
0.0
 40
0.0
 40
1.0
 40
1.0
 40
1.0
 40
1.0
 10
172.8392834877637
 20
123.3408258326512
 30
0.0
 10
172.8392834877637
 20
123.319292083849
 30
0.0
 10
172.838806708371
 20
123.2978378186922
 30
0.0
 10
172.8378600083219
 20
123.2764618937647
 30
0.0
  0
SPLINE
  5
2C9
330
1F
100
AcDbEntity
  8
0
  6
Continuous
 62
     7
370
    25
100
AcDbSpline
210
0.0
220
0.0
230
1.0
 70
     8
 71
     3
 72
     8
 73
     4
 74
     0
 42
0.00000001
 43
0.00000001
 40
0.0
 40
0.0
 40
0.0
 40
0.0
 40
0.0000524698222113
 40
0.0000524698222113
 40
0.0000524698222113
 40
0.0000524698222113
 10
172.7855944372568
 20
123.2733294501323
 30
0.0
 10
172.8029007491114
 20
123.2744572793484
 30
0.0
 10
172.8203965733521
 20
123.2754993627326
 30
0.0
 10
172.8378600083243
 20
123.2764618937643
 30
0.0
  0
SPLINE
  5
2CA
330
1F
100
AcDbEntity
  8
0
  6
Continuous
 62
     7
370
    25
100
AcDbSpline
210
0.0
220
0.0
230
1.0
 70
     8
 71
     3
 72
    10
 73
     6
 74
     0
 42
0.00000001
 43
0.00000001
 40
0.0
 40
0.0
 40
0.0
 40
0.0
 40
0.5
 40
0.5
 40
1.0
 40
1.0
 40
1.0
 40
1.0
 10
172.7855944372568
 20
123.2733294501323
 30
0.0
 10
172.7259657076551
 20
123.2694435255098
 30
0.0
 10
172.6757914158483
 20
123.2357078760052
 30
0.0
 10
172.5957263101076
 20
123.1580997217376
 30
0.0
 10
172.5630115206923
 20
123.1135576063034
 30
0.0
 10
172.5309022809329
 20
123.0681580949924
 30
0.0
  0
SPLINE
  5
2CB
330
1F
100
AcDbEntity
  8
0
  6
Continuous
 62
     7
370
    25
100
AcDbSpline
210
0.0
220
0.0
230
1.0
 70
     8
 71
     3
 72
     8
 73
     4
 74
     0
 42
0.00000001
 43
0.00000001
 40
0.0
 40
0.0
 40
0.0
 40
0.0
 40
0.0000524698222138
 40
0.0000524698222138
 40
0.0000524698222138
 40
0.0000524698222138
 10
191.0407069672051
 20
123.2764618937749
 30
0.0
 10
191.0581704021773
 20
123.2754993627434
 30
0.0
 10
191.0756662264174
 20
123.2744572793485
 30
0.0
 10
191.092972538272
 20
123.2733294501323
 30
0.0
  0
SPLINE
  5
2CC
330
1F
100
AcDbEntity
  8
0
  6
Continuous
 62
     7
370
    25
100
AcDbSpline
210
0.0
220
0.0
230
1.0
 70
     8
 71
     3
 72
     8
 73
     4
 74
     0
 42
0.00000001
 43
0.00000001
 40
0.0
 40
0.0
 40
0.0
 40
0.0
 40
1.0
 40
1.0
 40
1.0
 40
1.0
 10
191.0407069672051
 20
123.2764618937749
 30
0.0
 10
191.0397602671562
 20
123.297837818699
 30
0.0
 10
191.0392834877637
 20
123.3192920838524
 30
0.0
 10
191.0392834877637
 20
123.3408258326512
 30
0.0
  0
LINE
  5
2CD
330
1F
100
AcDbEntity
  8
0
  6
Continuous
 62
     7
370
    25
100
AcDbLine
 10
191.0392834878
 20
123.3408258327
 30
0.0
 11
191.4392834878
 21
123.3408258327
 31
0.0
  0
SPLINE
  5
2CE
330
1F
100
AcDbEntity
  8
0
  6
Continuous
 62
     7
370
    25
100
AcDbSpline
210
0.0
220
0.0
230
1.0
 70
     8
 71
     3
 72
    10
 73
     6
 74
     0
 42
0.00000001
 43
0.00000001
 40
0.0
 40
0.0
 40
0.0
 40
0.0
 40
0.5
 40
0.5
 40
1.0
 40
1.0
 40
1.0
 40
1.0
 10
191.0929725382719
 20
123.2733294501302
 30
0.0
 10
191.1526012678734
 20
123.269443525507
 30
0.0
 10
191.2027755596809
 20
123.2357078760039
 30
0.0
 10
191.2828406654218
 20
123.1580997217352
 30
0.0
 10
191.3155554548371
 20
123.1135576063005
 30
0.0
 10
191.3476646945967
 20
123.0681580949892
 30
0.0
  0
LINE
  5
2CF
330
1F
100
AcDbEntity
  8
0
  6
Continuous
 62
     7
370
    25
100
AcDbLine
 10
172.8392834878
 20
144.2120979549
 30
0.0
 11
172.8392834878
 21
143.8759668321
 31
0.0
  0
LINE
  5
2D0
330
1F
100
AcDbEntity
  8
0
  6
Continuous
 62
     7
370
    25
100
AcDbLine
 10
191.0392834878
 20
143.8759668321
 30
0.0
 11
191.0392834878
 21
144.2120979549
 31
0.0
  0
LINE
  5
2D1
330
1F
100
AcDbEntity
  8
0
  6
Continuous
 62
     7
370
    25
100
AcDbLine
 10
191.0392834878
 20
123.3408258327
 30
0.0
 11
191.0392834878
 21
123.6769569554
 31
0.0
  0
LINE
  5
2D2
330
1F
100
AcDbEntity
  8
0
  6
Continuous
 62
     7
370
    25
100
AcDbLine
 10
172.8392834878
 20
123.6769569554
 30
0.0
 11
172.8392834878
 21
123.3408258327
 31
0.0
  0
LINE
  5
2D3
330
1F
100
AcDbEntity
  8
0
  6
Continuous
 62
     7
370
    25
100
AcDbLine
 10
172.8392834878
 20
143.8759668321
 30
0.0
 11
191.0392834878
 21
143.8759668321
 31
0.0
  0
LINE
  5
2D4
330
1F
100
AcDbEntity
  8
0
  6
Continuous
 62
     7
370
    25
100
AcDbLine
 10
191.0392834878
 20
123.6769569554
 30
0.0
 11
172.8392834878
 21
123.6769569554
 31
0.0
  0
ARC
  5
2D5
330
1F
100
AcDbEntity
  8
0
  6
Continuous
 62
     7
370
    25
100
AcDbCircle
 10
171.7833567367
 20
144.4011559704
 30
0.0
 40
1.009582903495878
100
AcDbArc
 50
353.0843628815
 51
21.8231862158
  0
SPLINE
  5
2D6
330
1F
100
AcDbEntity
  8
0
  6
Continuous
 62
     7
370
    25
100
AcDbSpline
210
0.0
220
0.0
230
1.0
 70
     8
 71
     3
 72
    16
 73
    12
 74
     0
 42
0.00000001
 43
0.00000001
 40
0.0
 40
0.0
 40
0.0
 40
0.0
 40
0.0761065009127368
 40
0.149479093119197
 40
0.2974911001276658
 40
0.4337219070480748
 40
0.5582000385649541
 40
0.6744773661246137
 40
0.7859690394832728
 40
0.8939353462389598
 40
1.0
 40
1.0
 40
1.0
 40
1.0
 10
172.5457632038736
 20
144.8020567703169
 30
0.0
 10
172.5531795749103
 20
144.7979599279502
 30
0.0
 10
172.5677459050334
 20
144.7899134105796
 30
0.0
 10
172.5899646933559
 20
144.7694969894225
 30
0.0
 10
172.6073182015179
 20
144.7392326800798
 30
0.0
 10
172.6136229394466
 20
144.697270050095
 30
0.0
 10
172.6095275244334
 20
144.6539897622677
 30
0.0
 10
172.5979995750832
 20
144.6108042094371
 30
0.0
 10
172.5805766718537
 20
144.5681423487075
 30
0.0
 10
172.5585592636317
 20
144.5260777746194
 30
0.0
 10
172.5400665061293
 20
144.4984545763797
 30
0.0
 10
172.530902280931
 20
144.4847656925378
 30
0.0
  0
SPLINE
  5
2D7
330
1F
100
AcDbEntity
  8
0
  6
Continuous
 62
     7
370
    25
100
AcDbSpline
210
0.0
220
0.0
230
1.0
 70
     8
 71
     3
 72
     8
 73
     4
 74
     0
 42
0.00000001
 43
0.00000001
 40
0.0
 40
0.0
 40
0.0
 40
0.0
 40
1.0
 40
1.0
 40
1.0
 40
1.0
 10
172.7205883531772
 20
144.7764618937642
 30
0.0
 10
172.6481883830181
 20
144.7764618937642
 30
0.0
 10
172.5937581654291
 20
144.7894421372854
 30
0.0
 10
172.5457632038692
 20
144.8020567703111
 30
0.0
  0
ARC
  5
2D8
330
1F
100
AcDbEntity
  8
0
  6
Continuous
 62
     7
370
    25
100
AcDbCircle
 10
192.0952102388
 20
123.1517678171
 30
0.0
 40
1.009582903481038
100
AcDbArc
 50
173.0843628813
 51
201.823186216
  0
SPLINE
  5
2D9
330
1F
100
AcDbEntity
  8
0
  6
Continuous
 62
     7
370
    25
100
AcDbSpline
210
0.0
220
0.0
230
1.0
 70
     8
 71
     3
 72
    16
 73
    12
 74
     0
 42
0.00000001
 43
0.00000001
 40
0.0
 40
0.0
 40
0.0
 40
0.0
 40
0.0761065009119658
 40
0.1494790931191914
 40
0.2974911001276648
 40
0.43372190704806
 40
0.5582000385649448
 40
0.6744773661246064
 40
0.7859690394832595
 40
0.8939353462389478
 40
1.0
 40
1.0
 40
1.0
 40
1.0
 10
191.3328037716538
 20
122.7508670172115
 30
0.0
 10
191.3253874006171
 20
122.754963859578
 30
0.0
 10
191.310821070494
 20
122.7630103769487
 30
0.0
 10
191.2886022821715
 20
122.7834267981058
 30
0.0
 10
191.2712487740095
 20
122.8136911074485
 30
0.0
 10
191.2649440360807
 20
122.8556537374333
 30
0.0
 10
191.269039451094
 20
122.8989340252606
 30
0.0
 10
191.2805674004442
 20
122.9421195780912
 30
0.0
 10
191.2979903036736
 20
122.9847814388208
 30
0.0
 10
191.3200077118957
 20
123.0268460129089
 30
0.0
 10
191.338500469398
 20
123.0544692111487
 30
0.0
 10
191.3476646945963
 20
123.0681580949905
 30
0.0
  0
SPLINE
  5
2DA
330
1F
100
AcDbEntity
  8
0
  6
Continuous
 62
     7
370
    25
100
AcDbSpline
210
0.0
220
0.0
230
1.0
 70
     8
 71
     3
 72
     8
 73
     4
 74
     0
 42
0.00000001
 43
0.00000001
 40
0.0
 40
0.0
 40
0.0
 40
0.0
 40
1.0
 40
1.0
 40
1.0
 40
1.0
 10
191.1579786223502
 20
122.7764618937642
 30
0.0
 10
191.2303785925093
 20
122.7764618937642
 30
0.0
 10
191.284808810098
 20
122.7634816502429
 30
0.0
 10
191.3328037716581
 20
122.7508670172172
 30
0.0
  0
ARC
  5
2DB
330
1F
100
AcDbEntity
  8
0
  6
Continuous
 62
     7
370
    25
100
AcDbCircle
 10
192.0952102388
 20
144.4011559704
 30
0.0
 40
1.009582903518331
100
AcDbArc
 50
158.1768137846
 51
186.9156371183
  0
SPLINE
  5
2DC
330
1F
100
AcDbEntity
  8
0
  6
Continuous
 62
     7
370
    25
100
AcDbSpline
210
0.0
220
0.0
230
1.0
 70
     8
 71
     3
 72
     8
 73
     4
 74
     0
 42
0.00000001
 43
0.00000001
 40
0.0
 40
0.0
 40
0.0
 40
0.0
 40
1.0
 40
1.0
 40
1.0
 40
1.0
 10
191.1579786223451
 20
144.7764618937642
 30
0.0
 10
191.2303785925068
 20
144.7764618937632
 30
0.0
 10
191.284808810097
 20
144.7894421372851
 30
0.0
 10
191.3328037716581
 20
144.8020567703111
 30
0.0
  0
SPLINE
  5
2DD
330
1F
100
AcDbEntity
  8
0
  6
Continuous
 62
     7
370
    25
100
AcDbSpline
210
0.0
220
0.0
230
1.0
 70
     8
 71
     3
 72
    20
 73
    16
 74
     0
 42
0.00000001
 43
0.00000001
 40
0.0
 40
0.0
 40
0.0
 40
0.0
 40
0.1060317657589072
 40
0.2138409733617611
 40
0.2689060619482261
 40
0.3251014539057803
 40
0.3827863485576709
 40
0.4420118601149838
 40
0.5669442188442908
 40
0.6333957081060815
 40
0.7030323386078302
 40
0.7761748201543358
 40
0.8511692721701356
 40
0.92638940867628
 40
1.0
 40
1.0
 40
1.0
 40
1.0
 10
191.3476646945943
 20
144.484765692535
 30
0.0
 10
191.3384984999372
 20
144.4984560720879
 30
0.0
 10
191.3200124549915
 20
144.5260663270744
 30
0.0
 10
191.301830656935
 20
144.5608358829981
 30
0.0
 10
191.2895305057534
 20
144.5887900488418
 30
0.0
 10
191.2815717578776
 20
144.6100825008728
 30
0.0
 10
191.2750450091244
 20
144.6315066353844
 30
0.0
 10
191.2683870779712
 20
144.6606990335393
 30
0.0
 10
191.2656855957752
 20
144.6894948956445
 30
0.0
 10
191.2679397871005
 20
144.7170940977455
 30
0.0
 10
191.2728158747886
 20
144.7376617223158
 30
0.0
 10
191.2814222740749
 20
144.7571395725977
 30
0.0
 10
191.2942960993524
 20
144.774767930456
 30
0.0
 10
191.3110657295291
 20
144.7900997173984
 30
0.0
 10
191.3256101884599
 20
144.798099925702
 30
0.0
 10
191.3328037716533
 20
144.8020567703168
 30
0.0
  0
ARC
  5
2DE
330
1F
100
AcDbEntity
  8
0
  6
Continuous
 62
     7
370
    25
100
AcDbCircle
 10
171.7833567367
 20
123.1517678171
 30
0.0
 40
1.009582903458742
100
AcDbArc
 50
338.1768137837
 51
6.9156371192
  0
SPLINE
  5
2DF
330
1F
100
AcDbEntity
  8
0
  6
Continuous
 62
     7
370
    25
100
AcDbSpline
210
0.0
220
0.0
230
1.0
 70
     8
 71
     3
 72
     8
 73
     4
 74
     0
 42
0.00000001
 43
0.00000001
 40
0.0
 40
0.0
 40
0.0
 40
0.0
 40
1.0
 40
1.0
 40
1.0
 40
1.0
 10
172.7205883531823
 20
122.7764618937642
 30
0.0
 10
172.6481883830206
 20
122.7764618937652
 30
0.0
 10
172.5937581654304
 20
122.7634816502432
 30
0.0
 10
172.5457632038692
 20
122.7508670172172
 30
0.0
  0
SPLINE
  5
2E0
330
1F
100
AcDbEntity
  8
0
  6
Continuous
 62
     7
370
    25
100
AcDbSpline
210
0.0
220
0.0
230
1.0
 70
     8
 71
     3
 72
    20
 73
    16
 74
     0
 42
0.00000001
 43
0.00000001
 40
0.0
 40
0.0
 40
0.0
 40
0.0
 40
0.1060317657589631
 40
0.2138409733617976
 40
0.268906061948247
 40
0.3251014539057976
 40
0.382786348557697
 40
0.4420118601150135
 40
0.5669442188443142
 40
0.6333957081061092
 40
0.703032338607854
 40
0.7761748201543405
 40
0.8511692721701473
 40
0.9263894086762869
 40
1.0
 40
1.0
 40
1.0
 40
1.0
 10
172.5309022809331
 20
123.0681580949933
 30
0.0
 10
172.5400684755902
 20
123.0544677154404
 30
0.0
 10
172.5585545205359
 20
123.0268574604539
 30
0.0
 10
172.5767363185923
 20
122.9920879045302
 30
0.0
 10
172.589036469774
 20
122.9641337386865
 30
0.0
 10
172.5969952176498
 20
122.9428412866555
 30
0.0
 10
172.603521966403
 20
122.9214171521439
 30
0.0
 10
172.6101798975562
 20
122.892224753989
 30
0.0
 10
172.6128813797522
 20
122.8634288918838
 30
0.0
 10
172.6106271884269
 20
122.8358296897828
 30
0.0
 10
172.6057511007388
 20
122.8152620652125
 30
0.0
 10
172.5971447014524
 20
122.7957842149307
 30
0.0
 10
172.584270876175
 20
122.7781558570723
 30
0.0
 10
172.5675012459982
 20
122.7628240701299
 30
0.0
 10
172.5529567870674
 20
122.7548238618264
 30
0.0
 10
172.5457632038741
 20
122.7508670172115
 30
0.0
  0
LINE
  5
2E1
330
1F
100
AcDbEntity
  8
0
  6
Continuous
 62
     7
370
    25
100
AcDbLine
 10
172.4623052063
 20
144.7999475907
 30
0.0
 11
172.5457632039
 21
144.8020567703
 31
0.0
  0
LINE
  5
2E2
330
1F
100
AcDbEntity
  8
0
  6
Continuous
 62
     7
370
    25
100
AcDbLine
 10
191.3328037717
 20
122.7508670172
 30
0.0
 11
191.4162617692
 21
122.7529761969
 31
0.0
  0
LINE
  5
2E3
330
1F
100
AcDbEntity
  8
0
  6
Continuous
 62
     7
370
    25
100
AcDbLine
 10
191.3328037717
 20
144.8020567703
 30
0.0
 11
191.4162617692
 21
144.7999475907
 31
0.0
  0
LINE
  5
2E4
330
1F
100
AcDbEntity
  8
0
  6
Continuous
 62
     7
370
    25
100
AcDbLine
 10
172.4623052063
 20
122.7529761969
 30
0.0
 11
172.5457632039
 21
122.7508670172
 31
0.0
  0
SPLINE
  5
2E5
330
1F
100
AcDbEntity
  8
0
  6
Continuous
 62
     7
370
    25
100
AcDbSpline
210
0.0
220
0.0
230
1.0
 70
    24
 71
     3
 72
     8
 73
     4
 74
     0
 42
0.00000001
 43
0.00000001
 40
0.0
 40
0.0
 40
0.0
 40
0.0
 40
0.0001175213404591
 40
0.0001175213404591
 40
0.0001175213404591
 40
0.0001175213404591
 10
172.7205883531772
 20
144.7764618937642
 30
0.0
 10
172.7594296287838
 20
144.7764618937642
 30
0.0
 10
172.7986862281699
 20
144.7764618937642
 30
0.0
 10
172.8378600083229
 20
144.7764618937642
 30
0.0
  0
LINE
  5
2E6
330
1F
100
AcDbEntity
  8
0
  6
Continuous
 62
     7
370
    25
100
AcDbLine
 10
172.8378600083
 20
144.7764618938
 30
0.0
 11
172.8378600083
 21
144.2764618938
 31
0.0
  0
SPLINE
  5
2E7
330
1F
100
AcDbEntity
  8
0
  6
Continuous
 62
     7
370
    25
100
AcDbSpline
210
0.0
220
0.0
230
1.0
 70
    24
 71
     3
 72
     8
 73
     4
 74
     0
 42
0.00000001
 43
0.00000001
 40
0.0
 40
0.0
 40
0.0
 40
0.0
 40
0.0001175213404591
 40
0.0001175213404591
 40
0.0001175213404591
 40
0.0001175213404591
 10
191.1579786223502
 20
122.7764618937642
 30
0.0
 10
191.1191373467435
 20
122.7764618937642
 30
0.0
 10
191.0798807473575
 20
122.7764618937642
 30
0.0
 10
191.0407069672045
 20
122.7764618937642
 30
0.0
  0
LINE
  5
2E8
330
1F
100
AcDbEntity
  8
0
  6
Continuous
 62
     7
370
    25
100
AcDbLine
 10
191.0407069672
 20
123.2764618938
 30
0.0
 11
191.0407069672
 21
122.7764618938
 31
0.0
  0
SPLINE
  5
2E9
330
1F
100
AcDbEntity
  8
0
  6
Continuous
 62
     7
370
    25
100
AcDbSpline
210
0.0
220
0.0
230
1.0
 70
    24
 71
     3
 72
     8
 73
     4
 74
     0
 42
0.00000001
 43
0.00000001
 40
0.0
 40
0.0
 40
0.0
 40
0.0
 40
0.0001175213404538
 40
0.0001175213404538
 40
0.0001175213404538
 40
0.0001175213404538
 10
191.0407069672044
 20
144.7764618937642
 30
0.0
 10
191.0798807473557
 20
144.7764618937642
 30
0.0
 10
191.11913734674
 20
144.7764618937642
 30
0.0
 10
191.1579786223449
 20
144.7764618937642
 30
0.0
  0
LINE
  5
2EA
330
1F
100
AcDbEntity
  8
0
  6
Continuous
 62
     7
370
    25
100
AcDbLine
 10
191.0407069672
 20
144.7764618938
 30
0.0
 11
191.0407069672
 21
144.2764618938
 31
0.0
  0
LINE
  5
2EB
330
1F
100
AcDbEntity
  8
0
  6
Continuous
 62
     7
370
    25
100
AcDbLine
 10
172.8378600083
 20
123.2764618938
 30
0.0
 11
172.8378600083
 21
122.7764618938
 31
0.0
  0
SPLINE
  5
2EC
330
1F
100
AcDbEntity
  8
0
  6
Continuous
 62
     7
370
    25
100
AcDbSpline
210
0.0
220
0.0
230
1.0
 70
    24
 71
     3
 72
     8
 73
     4
 74
     0
 42
0.00000001
 43
0.00000001
 40
0.0
 40
0.0
 40
0.0
 40
0.0
 40
0.0001175213404538
 40
0.0001175213404538
 40
0.0001175213404538
 40
0.0001175213404538
 10
172.8378600083229
 20
122.7764618937642
 30
0.0
 10
172.7986862281717
 20
122.7764618937642
 30
0.0
 10
172.7594296287874
 20
122.7764618937642
 30
0.0
 10
172.7205883531824
 20
122.7764618937642
 30
0.0
  0
LINE
  5
2ED
330
1F
100
AcDbEntity
  8
0
  6
Continuous
 62
     7
370
    25
100
AcDbLine
 10
172.8378600083
 20
144.7764618938
 30
0.0
 11
191.0407069672
 21
144.7764618938
 31
0.0
  0
LINE
  5
2EE
330
1F
100
AcDbEntity
  8
0
  6
Continuous
 62
     7
370
    25
100
AcDbLine
 10
191.0407069672
 20
144.2764618938
 30
0.0
 11
172.8378600083
 21
144.2764618938
 31
0.0
  0
LINE
  5
2EF
330
1F
100
AcDbEntity
  8
0
  6
Continuous
 62
     7
370
    25
100
AcDbLine
 10
172.8378600083
 20
123.2764618938
 30
0.0
 11
191.0407069672
 21
123.2764618938
 31
0.0
  0
LINE
  5
2F0
330
1F
100
AcDbEntity
  8
0
  6
Continuous
 62
     7
370
    25
100
AcDbLine
 10
191.0407069672
 20
122.7764618938
 30
0.0
 11
172.8378600083
 21
122.7764618938
 31
0.0
  0
LINE
  5
2F1
330
1F
100
AcDbEntity
  8
0
  6
Continuous
 62
     7
370
    25
100
AcDbLine
 10
172.196390269
 20
145.4081761199
 30
0.0
 11
172.4392494932
 21
145.1727703621
 31
0.0
  0
SPLINE
  5
2F2
330
1F
100
AcDbEntity
  8
0
  6
Continuous
 62
     7
370
    25
100
AcDbSpline
210
0.0
220
0.0
230
1.0
 70
     8
 71
     3
 72
    16
 73
    12
 74
     0
 42
0.00000001
 43
0.00000001
 40
0.0
 40
0.0
 40
0.0
 40
0.0
 40
0.1358424562093261
 40
0.2585567702396716
 40
0.5157338482660032
 40
0.6432966940871808
 40
0.7692102787448635
 40
0.8342664723226236
 40
0.8905766424117051
 40
0.9515952839433239
 40
1.0
 40
1.0
 40
1.0
 40
1.0
 10
172.4392494932078
 20
145.1727703620869
 30
0.0
 10
172.4392111074617
 20
145.1597608452886
 30
0.0
 10
172.4391380456604
 20
145.1349990827319
 30
0.0
 10
172.439868597287
 20
145.0807199245184
 30
0.0
 10
172.4419340195541
 20
145.0220122862486
 30
0.0
 10
172.4493738203136
 20
144.9568466210545
 30
0.0
 10
172.4587256386607
 20
144.913574876197
 30
0.0
 10
172.4720535501796
 20
144.8782328198483
 30
0.0
 10
172.4875698567903
 20
144.851366377377
 30
0.0
 10
172.5069888961253
 20
144.8260761979763
 30
0.0
 10
172.5338714072265
 20
144.8094233531363
 30
0.0
 10
172.5457632038723
 20
144.8020567703172
 30
0.0
  0
SPLINE
  5
2F3
330
1F
100
AcDbEntity
  8
0
  6
Continuous
 62
     7
370
    25
100
AcDbSpline
210
0.0
220
0.0
230
1.0
 70
     8
 71
     3
 72
    18
 73
    14
 74
     0
 42
0.00000001
 43
0.00000001
 40
0.0
 40
0.0
 40
0.0
 40
0.0
 40
0.0228877262673261
 40
0.048750705436772
 40
0.0778154834714485
 40
0.1102364830156528
 40
0.1666044227785899
 40
0.23177420857927
 40
0.3567811110103338
 40
0.4838932701833289
 40
0.7413824458060223
 40
0.864106461387071
 40
1.0
 40
1.0
 40
1.0
 40
1.0
 10
191.3328037716552
 20
144.8020567703172
 30
0.0
 10
191.3389672375806
 20
144.8055032132337
 30
0.0
 10
191.3520953792008
 20
144.8128441138311
 30
0.0
 10
191.3669572828339
 20
144.8248010353117
 30
0.0
 10
191.3802601219093
 20
144.8381229436665
 30
0.0
 10
191.3939428765811
 20
144.8558974645663
 30
0.0
 10
191.4065659107343
 20
144.8785947587037
 30
0.0
 10
191.419956951342
 20
144.9138075376697
 30
0.0
 10
191.4291742283239
 20
144.9569102008521
 30
0.0
 10
191.4366433503415
 20
145.021952815028
 30
0.0
 10
191.4386952248473
 20
145.0806587122919
 30
0.0
 10
191.4394293853328
 20
145.1349850742083
 30
0.0
 10
191.4393560285017
 20
145.1597548181109
 30
0.0
 10
191.4393174823196
 20
145.1727703620864
 30
0.0
  0
LINE
  5
2F4
330
1F
100
AcDbEntity
  8
0
  6
Continuous
 62
     7
370
    25
100
AcDbLine
 10
191.4393174823
 20
145.1727703621
 30
0.0
 11
191.6821767066
 21
145.4081761199
 31
0.0
  0
SPLINE
  5
2F5
330
1F
100
AcDbEntity
  8
0
  6
Continuous
 62
     7
370
    25
100
AcDbSpline
210
0.0
220
0.0
230
1.0
 70
     8
 71
     3
 72
    18
 73
    14
 74
     0
 42
0.00000001
 43
0.00000001
 40
0.0
 40
0.0
 40
0.0
 40
0.0
 40
0.0228877262659284
 40
0.0487507054349101
 40
0.0778154834700411
 40
0.1102364830155919
 40
0.1666044227654431
 40
0.231774208579201
 40
0.3567811110102737
 40
0.4838932701832798
 40
0.741382445805996
 40
0.8641064613662746
 40
1.0
 40
1.0
 40
1.0
 40
1.0
 10
172.5457632038722
 20
122.7508670172111
 30
0.0
 10
172.5395997379472
 20
122.7474205742948
 30
0.0
 10
172.5264715963276
 20
122.7400796736978
 30
0.0
 10
172.511609692695
 20
122.7281227522177
 30
0.0
 10
172.4983068536193
 20
122.7148008438628
 30
0.0
 10
172.4846240989473
 20
122.6970263229638
 30
0.0
 10
172.4720010647952
 20
122.6743290288276
 30
0.0
 10
172.4586100241849
 20
122.6391162498597
 30
0.0
 10
172.4493927472037
 20
122.5960135866764
 30
0.0
 10
172.4419236251857
 20
122.5309709725001
 30
0.0
 10
172.4398717506802
 20
122.4722650752392
 30
0.0
 10
172.4391375901945
 20
122.4179387133214
 30
0.0
 10
172.4392109470256
 20
122.3931689694192
 30
0.0
 10
172.4392494932078
 20
122.3801534254419
 30
0.0
  0
LINE
  5
2F6
330
1F
100
AcDbEntity
  8
0
  6
Continuous
 62
     7
370
    25
100
AcDbLine
 10
172.196390269
 20
122.1447476676
 30
0.0
 11
172.4392494932
 21
122.3801534254
 31
0.0
  0
SPLINE
  5
2F7
330
1F
100
AcDbEntity
  8
0
  6
Continuous
 62
     7
370
    25
100
AcDbSpline
210
0.0
220
0.0
230
1.0
 70
     8
 71
     3
 72
    16
 73
    12
 74
     0
 42
0.00000001
 43
0.00000001
 40
0.0
 40
0.0
 40
0.0
 40
0.0
 40
0.1358424561507865
 40
0.2585567702396487
 40
0.5157338482659685
 40
0.6432966940871401
 40
0.769210278744815
 40
0.8342664723165241
 40
0.890576642411649
 40
0.9515952839414612
 40
1.0
 40
1.0
 40
1.0
 40
1.0
 10
191.4393174823196
 20
122.3801534254414
 30
0.0
 10
191.4393558680656
 20
122.3931629422347
 30
0.0
 10
191.4394289298668
 20
122.4179247047925
 30
0.0
 10
191.4386983782407
 20
122.4722038630019
 30
0.0
 10
191.4366329559732
 20
122.53091150128
 30
0.0
 10
191.4291931552138
 20
122.5960771664738
 30
0.0
 10
191.4198413368669
 20
122.6393489113305
 30
0.0
 10
191.406513425348
 20
122.6746909676792
 30
0.0
 10
191.3909971187376
 20
122.7015574101502
 30
0.0
 10
191.3715780794033
 20
122.7268475895512
 30
0.0
 10
191.3446955683016
 20
122.7435004343916
 30
0.0
 10
191.3328037716551
 20
122.7508670172111
 30
0.0
  0
LINE
  5
2F8
330
1F
100
AcDbEntity
  8
0
  6
Continuous
 62
     7
370
    25
100
AcDbLine
 10
191.4393174823
 20
122.3801534254
 30
0.0
 11
191.6821767066
 21
122.1447476676
 31
0.0
  0
ARC
  5
2F9
330
1F
100
AcDbEntity
  8
0
  6
Continuous
 62
     7
370
    25
100
AcDbCircle
 10
191.0392834878
 20
145.1764618938
 30
0.0
 40
0.3999999999999773
100
AcDbArc
 50
270.0
 51
0.0
  0
SPLINE
  5
2FA
330
1F
100
AcDbEntity
  8
0
  6
Continuous
 62
     7
370
    25
100
AcDbSpline
210
0.0
220
0.0
230
1.0
 70
     8
 71
     3
 72
     8
 73
     4
 74
     0
 42
0.00000001
 43
0.00000001
 40
0.0
 40
0.0
 40
0.0
 40
0.0
 40
1.0
 40
1.0
 40
1.0
 40
1.0
 10
191.4392834877637
 20
145.1764618937642
 30
0.0
 10
191.4392834877637
 20
145.1752397837666
 30
0.0
 10
191.4392946430698
 20
145.1740092577027
 30
0.0
 10
191.4393174823196
 20
145.1727703620864
 30
0.0
  0
ARC
  5
2FB
330
1F
100
AcDbEntity
  8
0
  6
Continuous
 62
     7
370
    25
100
AcDbCircle
 10
172.8392834878
 20
145.1764618938
 30
0.0
 40
0.3999999999999773
100
AcDbArc
 50
180.0
 51
270.0
  0
SPLINE
  5
2FC
330
1F
100
AcDbEntity
  8
0
  6
Continuous
 62
     7
370
    25
100
AcDbSpline
210
0.0
220
0.0
230
1.0
 70
     8
 71
     3
 72
     8
 73
     4
 74
     0
 42
0.00000001
 43
0.00000001
 40
0.0
 40
0.0
 40
0.0
 40
0.0
 40
1.0
 40
1.0
 40
1.0
 40
1.0
 10
172.4392494932078
 20
145.1727703620869
 30
0.0
 10
172.4392723310664
 20
145.1740091822408
 30
0.0
 10
172.4392834877637
 20
145.1752397102678
 30
0.0
 10
172.4392834877637
 20
145.1764618937642
 30
0.0
  0
ARC
  5
2FD
330
1F
100
AcDbEntity
  8
0
  6
Continuous
 62
     7
370
    25
100
AcDbCircle
 10
172.8392834878
 20
122.3764618938
 30
0.0
 40
0.3999999999999915
100
AcDbArc
 50
90.0
 51
180.0
  0
SPLINE
  5
2FE
330
1F
100
AcDbEntity
  8
0
  6
Continuous
 62
     7
370
    25
100
AcDbSpline
210
0.0
220
0.0
230
1.0
 70
     8
 71
     3
 72
     8
 73
     4
 74
     0
 42
0.00000001
 43
0.00000001
 40
0.0
 40
0.0
 40
0.0
 40
0.0
 40
1.0
 40
1.0
 40
1.0
 40
1.0
 10
172.4392834877637
 20
122.3764618937642
 30
0.0
 10
172.4392834877637
 20
122.3776840037617
 30
0.0
 10
172.4392723324576
 20
122.3789145298257
 30
0.0
 10
172.4392494932078
 20
122.3801534254419
 30
0.0
  0
ARC
  5
2FF
330
1F
100
AcDbEntity
  8
0
  6
Continuous
 62
     7
370
    25
100
AcDbCircle
 10
191.0392834878
 20
122.3764618938
 30
0.0
 40
0.3999999999999915
100
AcDbArc
 50
0.0
 51
90.0
  0
SPLINE
  5
300
330
1F
100
AcDbEntity
  8
0
  6
Continuous
 62
     7
370
    25
100
AcDbSpline
210
0.0
220
0.0
230
1.0
 70
     8
 71
     3
 72
     8
 73
     4
 74
     0
 42
0.00000001
 43
0.00000001
 40
0.0
 40
0.0
 40
0.0
 40
0.0
 40
1.0
 40
1.0
 40
1.0
 40
1.0
 10
191.4393174823196
 20
122.3801534254414
 30
0.0
 10
191.4392946444609
 20
122.3789146052875
 30
0.0
 10
191.4392834877637
 20
122.3776840772605
 30
0.0
 10
191.4392834877637
 20
122.3764618937642
 30
0.0
  0
LINE
  5
301
330
1F
100
AcDbEntity
  8
0
  6
Continuous
 62
     7
370
    25
100
AcDbLine
 10
191.4393174823
 20
145.1727703621
 30
0.0
 11
191.4393174823
 21
145.5336026695
 31
0.0
  0
LINE
  5
302
330
1F
100
AcDbEntity
  8
0
  6
Continuous
 62
     7
370
    25
100
AcDbLine
 10
172.4392494932
 20
122.3801534254
 30
0.0
 11
172.4392494932
 21
122.019321118
 31
0.0
  0
LINE
  5
303
330
1F
100
AcDbEntity
  8
0
  6
Continuous
 62
     7
370
    25
100
AcDbLine
 10
191.4393174823
 20
122.019321118
 30
0.0
 11
191.4393174823
 21
122.3801534254
 31
0.0
  0
LINE
  5
304
330
1F
100
AcDbEntity
  8
0
  6
Continuous
 62
     7
370
    25
100
AcDbLine
 10
172.4392494932
 20
145.5336026695
 30
0.0
 11
172.4392494932
 21
145.1727703621
 31
0.0
  0
LINE
  5
305
330
1F
100
AcDbEntity
  8
0
  6
Continuous
 62
     7
370
    25
100
AcDbLine
 10
191.4392834878
 20
145.1764618938
 30
0.0
 11
191.4392834878
 21
145.5264618938
 31
0.0
  0
LINE
  5
306
330
1F
100
AcDbEntity
  8
0
  6
Continuous
 62
     7
370
    25
100
AcDbLine
 10
172.4392834878
 20
122.3764618938
 30
0.0
 11
172.4392834878
 21
122.0264618938
 31
0.0
  0
LINE
  5
307
330
1F
100
AcDbEntity
  8
0
  6
Continuous
 62
     7
370
    25
100
AcDbLine
 10
172.4392834878
 20
145.5264618938
 30
0.0
 11
172.4392834878
 21
145.1764618938
 31
0.0
  0
LINE
  5
308
330
1F
100
AcDbEntity
  8
0
  6
Continuous
 62
     7
370
    25
100
AcDbLine
 10
191.4392834878
 20
122.0264618938
 30
0.0
 11
191.4392834878
 21
122.3764618938
 31
0.0
  0
LINE
  5
309
330
1F
100
AcDbEntity
  8
0
  6
Continuous
 62
     7
370
    25
100
AcDbLine
 10
172.8392834878
 20
143.4368579218
 30
0.0
 11
172.8392834878
 21
138.6051736166
 31
0.0
  0
LINE
  5
30A
330
1F
100
AcDbEntity
  8
0
  6
Continuous
 62
     7
370
    25
100
AcDbLine
 10
172.8392834878
 20
128.947750171
 30
0.0
 11
172.8392834878
 21
124.1160658658
 31
0.0
  0
INSERT
  5
316
330
1F
100
AcDbEntity
  8
0
  6
Continuous
 62
     7
370
    18
100
AcDbBlockReference
  2
SW_CENTERMARKSYMBOL_0
 10
181.9392834878
 20
133.7764618938
 30
0.0
  0
LINE
  5
317
330
1F
100
AcDbEntity
  8
0
  6
Continuous
 62
     7
370
    18
100
AcDbLine
 10
195.1892834878
 20
124.123349121
 30
0.0
 11
207.8080574568
 21
124.5176858076
 31
0.0
  0
LINE
  5
318
330
1F
100
AcDbEntity
  8
0
  6
Continuous
 62
     7
370
    18
100
AcDbLine
 10
207.8080574568
 20
143.03523798
 30
0.0
 11
195.1892834878
 21
143.4295746665
 31
0.0
  0
LINE
  5
319
330
1F
100
AcDbEntity
  8
0
  6
Continuous
 62
     7
370
    18
100
AcDbLine
 10
165.6892834878
 20
143.0764618938
 30
0.0
 11
160.8543469972
 21
143.0764618938
 31
0.0
  0
LINE
  5
31A
330
1F
100
AcDbEntity
  8
0
  6
Continuous
 62
     7
370
    18
100
AcDbLine
 10
160.8543469972
 20
124.4764618938
 30
0.0
 11
165.6892834878
 21
124.4764618938
 31
0.0
  0
LINE
  5
31B
330
1F
100
AcDbEntity
  8
0
  6
Continuous
 62
     7
370
    25
100
AcDbLine
 10
165.6892834878
 20
144.2539618938
 30
0.0
 11
165.6892834878
 21
144.2002052296
 31
0.0
  0
SPLINE
  5
31C
330
1F
100
AcDbEntity
  8
0
  6
Continuous
 62
     7
370
     0
100
AcDbSpline
210
0.0
220
0.0
230
1.0
 70
     8
 71
     3
 72
    18
 73
    14
 74
     0
 42
0.00000001
 43
0.00000001
 40
0.0
 40
0.0
 40
0.0
 40
0.0
 40
0.0920180371561158
 40
0.1840360741952292
 40
0.2760541112343413
 40
0.3680721482734541
 40
0.4600901853125669
 40
0.5521082223516803
 40
0.6441262593907934
 40
0.7361442964299055
 40
0.8281623334690189
 40
0.9201803705081321
 40
1.0
 40
1.0
 40
1.0
 40
1.0
 10
165.68922996521
 20
144.2002052296027
 30
0.0
 10
165.6892834877637
 20
144.0394868532372
 30
0.0
 10
165.6892834877637
 20
143.7734559526956
 30
0.0
 10
165.6892834877637
 20
143.4048423650151
 30
0.0
 10
165.6892834877637
 20
142.937428564419
 30
0.0
 10
165.6892834877637
 20
142.3760108490134
 30
0.0
 10
165.6892834877637
 20
141.7263501242778
 30
0.0
 10
165.6892834877637
 20
140.9951127883796
 30
0.0
 10
165.6892834877637
 20
140.1898023259072
 30
0.0
 10
165.6892834877637
 20
139.3186823119648
 30
0.0
 10
165.6892834877637
 20
138.3906916167092
 30
0.0
 10
165.6892834877637
 20
137.5471084441896
 30
0.0
 10
165.6892834877381
 20
137.8306829758163
 30
0.0
 10
165.6892834877637
 20
137.5471084441896
 30
0.0
  0
SPLINE
  5
31D
330
1F
100
AcDbEntity
  8
0
  6
Continuous
 62
     7
370
     0
100
AcDbSpline
210
0.0
220
0.0
230
1.0
 70
     8
 71
     3
 72
    19
 73
    15
 74
     0
 42
0.00000001
 43
0.00000001
 40
0.0
 40
0.0
 40
0.0
 40
0.0
 40
0.0730936916041043
 40
0.1573579014582787
 40
0.2416221113124516
 40
0.3258863211666255
 40
0.4101505310207983
 40
0.4944147408749721
 40
0.5786789507291452
 40
0.6629431605833183
 40
0.7472073704374916
 40
0.831471580291665
 40
0.9157357901458383
 40
1.0
 40
1.0
 40
1.0
 40
1.0
 10
165.68922996521
 20
130.0058153433386
 30
0.0
 10
165.6892834877637
 20
129.1622321708189
 30
0.0
 10
165.6892834877637
 20
128.2342414755633
 30
0.0
 10
165.6892834877637
 20
127.3631214616209
 30
0.0
 10
165.6892834877637
 20
126.5578109991485
 30
0.0
 10
165.6892834877637
 20
125.8265736632503
 30
0.0
 10
165.6892834877637
 20
125.1769129385148
 30
0.0
 10
165.6892834877637
 20
124.6154952231092
 30
0.0
 10
165.6892834877637
 20
124.1480814225131
 30
0.0
 10
165.6892834877637
 20
123.7794678348326
 30
0.0
 10
165.6892834877637
 20
123.5134369342911
 30
0.0
 10
165.6892834877637
 20
123.3527185579255
 30
0.0
 10
165.6892834877637
 20
123.2989618937642
 30
0.0
 10
165.6892834877742
 20
123.3093250910764
 30
0.0
 10
165.6892834877637
 20
123.2989618937642
 30
0.0
  0
ARC
  5
31E
330
1F
100
AcDbEntity
  8
0
  6
Continuous
 62
     7
370
    25
100
AcDbCircle
 10
239.9078706697
 20
101.5719076183
 30
0.0
 40
0.25
100
AcDbArc
 50
0.0
 51
90.0
  0
ARC
  5
31F
330
1F
100
AcDbEntity
  8
0
  6
Continuous
 62
     7
370
    25
100
AcDbCircle
 10
229.4078706697
 20
101.5719076183
 30
0.0
 40
0.25
100
AcDbArc
 50
90.0
 51
180.0
  0
LINE
  5
320
330
1F
100
AcDbEntity
  8
0
  6
Continuous
 62
     7
370
    25
100
AcDbLine
 10
240.1578706697
 20
100.9719076183
 30
0.0
 11
240.1578706697
 21
101.5719076183
 31
0.0
  0
LINE
  5
321
330
1F
100
AcDbEntity
  8
0
  6
Continuous
 62
     7
370
    25
100
AcDbLine
 10
229.1578706697
 20
101.5719076183
 30
0.0
 11
229.1578706697
 21
100.9719076183
 31
0.0
  0
LINE
  5
322
330
1F
100
AcDbEntity
  8
0
  6
Continuous
 62
     7
370
    25
100
AcDbLine
 10
242.1078706697
 20
92.9719076183
 30
0.0
 11
240.1578706697
 21
100.9719076183
 31
0.0
  0
LINE
  5
323
330
1F
100
AcDbEntity
  8
0
  6
Continuous
 62
     7
370
    25
100
AcDbLine
 10
229.1578706698
 20
100.9719076183
 30
0.0
 11
227.2078706697
 21
92.9719076183
 31
0.0
  0
LINE
  5
324
330
1F
100
AcDbEntity
  8
0
  6
Continuous
 62
     7
370
    25
100
AcDbLine
 10
227.2078706697
 20
92.9719076183
 30
0.0
 11
227.6578706697
 21
84.9719076183
 31
0.0
  0
LINE
  5
325
330
1F
100
AcDbEntity
  8
0
  6
Continuous
 62
     7
370
    25
100
AcDbLine
 10
241.6578706697
 20
84.9719076183
 30
0.0
 11
242.1078706697
 21
92.9719076183
 31
0.0
  0
LINE
  5
326
330
1F
100
AcDbEntity
  8
0
  6
Continuous
 62
     7
370
    25
100
AcDbLine
 10
240.5578706697
 20
84.4700012886
 30
0.0
 11
240.5578706697
 21
84.9719076183
 31
0.0
  0
LINE
  5
327
330
1F
100
AcDbEntity
  8
0
  6
Continuous
 62
     7
370
    25
100
AcDbLine
 10
228.7578706697
 20
84.9719076183
 30
0.0
 11
228.7578706697
 21
82.9219474906
 31
0.0
  0
ARC
  5
328
330
1F
100
AcDbEntity
  8
0
  6
Continuous
 62
     7
370
    25
100
AcDbCircle
 10
240.3578706697
 20
84.0136500486
 30
0.0
 40
0.5000000000000135
100
AcDbArc
 50
359.992141364
 51
66.3930114207
  0
ARC
  5
329
330
1F
100
AcDbEntity
  8
0
  6
Continuous
 62
     7
370
    25
100
AcDbCircle
 10
240.3578714928
 20
82.930165606
 30
0.0
 40
0.4999991769719865
100
AcDbArc
 50
340.5137157892
 51
0.0032902054
  0
CIRCLE
  5
32A
330
1F
100
AcDbEntity
  8
0
  6
Continuous
 62
     7
370
    25
100
AcDbCircle
 10
234.6578706697
 20
72.4719076183
 30
0.0
 40
5.453445510451161
  0
CIRCLE
  5
32B
330
1F
100
AcDbEntity
  8
0
  6
Continuous
 62
     7
370
    25
100
AcDbCircle
 10
234.6578706697
 20
72.4719076183
 30
0.0
 40
5.199999999999974
  0
CIRCLE
  5
32C
330
1F
100
AcDbEntity
  8
0
  6
Continuous
 62
     7
370
    25
100
AcDbCircle
 10
234.6578706697
 20
72.4719076183
 30
0.0
 40
4.999999999999997
  0
CIRCLE
  5
32D
330
1F
100
AcDbEntity
  8
0
  6
Continuous
 62
     7
370
    25
100
AcDbCircle
 10
234.6578706697
 20
72.4719076183
 30
0.0
 40
6.3302368755896
  0
CIRCLE
  5
32E
330
1F
100
AcDbEntity
  8
0
  6
Continuous
 62
     7
370
    25
100
AcDbCircle
 10
234.6578706697
 20
72.4719076183
 30
0.0
 40
6.99999999999999
  0
CIRCLE
  5
32F
330
1F
100
AcDbEntity
  8
0
  6
Continuous
 62
     7
370
    25
100
AcDbCircle
 10
234.6578706697
 20
72.4719076183
 30
0.0
 40
8.000000000000014
  0
CIRCLE
  5
330
330
1F
100
AcDbEntity
  8
0
  6
Continuous
 62
     7
370
    25
100
AcDbCircle
 10
234.6578706697
 20
72.4719076183
 30
0.0
 40
11.25000000000003
  0
CIRCLE
  5
331
330
1F
100
AcDbEntity
  8
0
  6
Continuous
 62
     7
370
    25
100
AcDbCircle
 10
234.6578706697
 20
72.4719076183
 30
0.0
 40
8.349999999999994
  0
CIRCLE
  5
332
330
1F
100
AcDbEntity
  8
0
  6
Continuous
 62
     7
370
    25
100
AcDbCircle
 10
234.6578706697
 20
72.4719076183
 30
0.0
 40
11.75
  0
CIRCLE
  5
333
330
1F
100
AcDbEntity
  8
0
  6
Continuous
 62
     7
370
    25
100
AcDbCircle
 10
234.6578706697
 20
72.4719076183
 30
0.0
 40
8.25
  0
SPLINE
  5
334
330
1F
100
AcDbEntity
  8
0
  6
Continuous
 62
     7
370
    25
100
AcDbSpline
210
0.0
220
0.0
230
1.0
 70
    24
 71
     3
 72
    14
 73
    10
 74
     0
 42
0.00000001
 43
0.00000001
 40
0.0
 40
0.0
 40
0.0
 40
0.0
 40
0.1121956306219166
 40
0.2379353571105087
 40
0.3636425619937719
 40
0.4924415707993736
 40
0.6212389341361996
 40
0.8095844437884945
 40
1.0
 40
1.0
 40
1.0
 40
1.0
 10
246.657870669746
 20
65.54370438799089
 30
0.0
 10
246.657870669746
 20
66.05095594161386
 30
0.0
 10
246.657870669746
 20
67.12669373003864
 30
0.0
 10
246.657870669746
 20
68.79904760153872
 30
0.0
 10
246.6578706697459
 20
70.56754934183529
 30
0.0
 10
246.6578706697459
 20
72.36493237472374
 30
0.0
 10
246.6578706697459
 20
74.4559981240817
 30
0.0
 10
246.6578706697459
 20
76.81966148850321
 30
0.0
 10
246.6578706697458
 20
78.53683277085872
 30
0.0
 10
246.6578706697458
 20
79.40011084854194
 30
0.0
  0
SPLINE
  5
335
330
1F
100
AcDbEntity
  8
0
  6
Continuous
 62
     7
370
    25
100
AcDbSpline
210
0.0
220
0.0
230
1.0
 70
    24
 71
     3
 72
    14
 73
    10
 74
     0
 42
0.00000001
 43
0.00000001
 40
0.0
 40
0.0
 40
0.0
 40
0.0
 40
0.1323186310708847
 40
0.2645998498340819
 40
0.3998403232506496
 40
0.5350563921469097
 40
0.6502565417927725
 40
0.7654746613264888
 40
1.0
 40
1.0
 40
1.0
 40
1.0
 10
234.657870669746
 20
58.61550115771526
 30
0.0
 10
235.1763227444376
 20
58.91482960260037
 30
0.0
 10
236.2130803045734
 20
59.51340185902914
 30
0.0
 10
237.8096076372589
 20
60.43515734432376
 30
0.0
 10
239.4361816684233
 20
61.37426029907341
 30
0.0
 10
241.0039993562441
 20
62.27944026317702
 30
0.0
 10
242.4865365049635
 20
63.13538348507379
 30
0.0
 10
244.360058985633
 20
64.21706219362113
 30
0.0
 10
245.7355296748108
 20
65.01119056628042
 30
0.0
 10
246.657870669746
 20
65.54370438799089
 30
0.0
  0
SPLINE
  5
336
330
1F
100
AcDbEntity
  8
0
  6
Continuous
 62
     7
370
    25
100
AcDbSpline
210
0.0
220
0.0
230
1.0
 70
    24
 71
     3
 72
    14
 73
    10
 74
     0
 42
0.00000001
 43
0.00000001
 40
0.0
 40
0.0
 40
0.0
 40
0.0
 40
0.1323186310708846
 40
0.2645998498340819
 40
0.3998403232506495
 40
0.5350563921469095
 40
0.6502565417927724
 40
0.7654746613264887
 40
1.0
 40
1.0
 40
1.0
 40
1.0
 10
222.6578706697459
 20
65.54370438799072
 30
0.0
 10
223.1763227444375
 20
65.24437594310561
 30
0.0
 10
224.2130803045733
 20
64.64580368667684
 30
0.0
 10
225.8096076372589
 20
63.72404820138226
 30
0.0
 10
227.4361816684233
 20
62.78494524663264
 30
0.0
 10
229.0039993562441
 20
61.87976528252904
 30
0.0
 10
230.4865365049635
 20
61.02382206063229
 30
0.0
 10
232.360058985633
 20
59.94214335208495
 30
0.0
 10
233.7355296748108
 20
59.1480149794257
 30
0.0
 10
234.657870669746
 20
58.61550115771526
 30
0.0
  0
SPLINE
  5
337
330
1F
100
AcDbEntity
  8
0
  6
Continuous
 62
     7
370
    25
100
AcDbSpline
210
0.0
220
0.0
230
1.0
 70
    24
 71
     3
 72
    14
 73
    10
 74
     0
 42
0.00000001
 43
0.00000001
 40
0.0
 40
0.0
 40
0.0
 40
0.0
 40
0.1885095852017749
 40
0.3787600235473969
 40
0.5043379017825483
 40
0.6299166399173936
 40
0.7588426069428205
 40
0.8878044303318299
 40
0.9999999999999999
 40
0.9999999999999999
 40
0.9999999999999999
 40
0.9999999999999999
 10
222.6578706697459
 20
79.40011084854177
 30
0.0
 10
222.6578706697459
 20
78.54553741878259
 30
0.0
 10
222.6578706697459
 20
76.8284987226754
 30
0.0
 10
222.6578706697459
 20
74.47990224218589
 30
0.0
 10
222.6578706697459
 20
72.41031332846183
 30
0.0
 10
222.6578706697459
 20
70.62788102281577
 30
0.0
 10
222.6578706697459
 20
68.84360165041784
 30
0.0
 10
222.6578706697459
 20
67.14126689144805
 30
0.0
 10
222.6578706697459
 20
66.05095762784885
 30
0.0
 10
222.6578706697459
 20
65.54370438799072
 30
0.0
  0
SPLINE
  5
338
330
1F
100
AcDbEntity
  8
0
  6
Continuous
 62
     7
370
    25
100
AcDbSpline
210
0.0
220
0.0
230
1.0
 70
    24
 71
     3
 72
    14
 73
    10
 74
     0
 42
0.00000001
 43
0.00000001
 40
0.0
 40
0.0
 40
0.0
 40
0.0
 40
0.1323186310708847
 40
0.2645998498340819
 40
0.3998403232506495
 40
0.5350563921469096
 40
0.6502565417927724
 40
0.7654746613264884
 40
1.0
 40
1.0
 40
1.0
 40
1.0
 10
234.6578706697459
 20
86.3283140788173
 30
0.0
 10
234.1394185950544
 20
86.02898563393221
 30
0.0
 10
233.1026610349186
 20
85.43041337750343
 30
0.0
 10
231.506133702233
 20
84.50865789220883
 30
0.0
 10
229.8795596710686
 20
83.5695549374592
 30
0.0
 10
228.3117419832478
 20
82.6643749733556
 30
0.0
 10
226.8292048345284
 20
81.80843175145883
 30
0.0
 10
224.9556823538589
 20
80.72675304291148
 30
0.0
 10
223.5802116646811
 20
79.93262467025222
 30
0.0
 10
222.6578706697459
 20
79.40011084854177
 30
0.0
  0
SPLINE
  5
339
330
1F
100
AcDbEntity
  8
0
  6
Continuous
 62
     7
370
    25
100
AcDbSpline
210
0.0
220
0.0
230
1.0
 70
    24
 71
     3
 72
    14
 73
    10
 74
     0
 42
0.00000001
 43
0.00000001
 40
0.0
 40
0.0
 40
0.0
 40
0.0
 40
0.1323186310708862
 40
0.2645998498340851
 40
0.3998403232506545
 40
0.5350563921469161
 40
0.6502565417927775
 40
0.7654746613264921
 40
1.0
 40
1.0
 40
1.0
 40
1.0
 10
246.6578706697458
 20
79.40011084854194
 30
0.0
 10
246.1394185950543
 20
79.69943929342703
 30
0.0
 10
245.1026610349185
 20
80.2980115498558
 30
0.0
 10
243.5061337022329
 20
81.21976703515038
 30
0.0
 10
241.8795596710685
 20
82.15886998990001
 30
0.0
 10
240.3117419832477
 20
83.0640499540036
 30
0.0
 10
238.8292048345283
 20
83.91999317590034
 30
0.0
 10
236.9556823538589
 20
85.00167188444765
 30
0.0
 10
235.5802116646811
 20
85.79580025710688
 30
0.0
 10
234.6578706697459
 20
86.3283140788173
 30
0.0
  0
LINE
  5
33A
330
1F
100
AcDbEntity
  8
0
  6
Continuous
 62
     7
370
    25
100
AcDbLine
 10
238.1578706697
 20
101.8219076183
 30
0.0
 11
239.9078706697
 21
101.8219076183
 31
0.0
  0
LINE
  5
33B
330
1F
100
AcDbEntity
  8
0
  6
Continuous
 62
     7
370
    25
100
AcDbLine
 10
229.4078706697
 20
101.8219076183
 30
0.0
 11
231.1578706697
 21
101.8219076183
 31
0.0
  0
LINE
  5
33C
330
1F
100
AcDbEntity
  8
0
  6
Continuous
 62
     7
370
    25
100
AcDbLine
 10
238.1578706697
 20
100.9719076183
 30
0.0
 11
240.1578706697
 21
100.9719076183
 31
0.0
  0
LINE
  5
33D
330
1F
100
AcDbEntity
  8
0
  6
Continuous
 62
     7
370
    25
100
AcDbLine
 10
229.1578706697
 20
100.9719076183
 30
0.0
 11
231.1578706697
 21
100.9719076183
 31
0.0
  0
LINE
  5
33E
330
1F
100
AcDbEntity
  8
0
  6
Continuous
 62
     7
370
    25
100
AcDbLine
 10
238.1578706697
 20
90.9719076183
 30
0.0
 11
231.1578706697
 21
90.9719076183
 31
0.0
  0
LINE
  5
33F
330
1F
100
AcDbEntity
  8
0
  6
Continuous
 62
     7
370
    25
100
AcDbLine
 10
231.1578706697
 20
95.9719076183
 30
0.0
 11
238.1578706697
 21
95.9719076183
 31
0.0
  0
LINE
  5
340
330
1F
100
AcDbEntity
  8
0
  6
Continuous
 62
     7
370
    25
100
AcDbLine
 10
238.1578706697
 20
95.9719076183
 30
0.0
 11
238.1578706697
 21
90.9719076183
 31
0.0
  0
LINE
  5
341
330
1F
100
AcDbEntity
  8
0
  6
Continuous
 62
     7
370
    25
100
AcDbLine
 10
231.1578706697
 20
90.9719076183
 30
0.0
 11
231.1578706697
 21
95.9719076183
 31
0.0
  0
LINE
  5
342
330
1F
100
AcDbEntity
  8
0
  6
Continuous
 62
     7
370
    25
100
AcDbLine
 10
238.1578706697
 20
95.9719076183
 30
0.0
 11
238.1578706697
 21
102.9719076183
 31
0.0
  0
LINE
  5
343
330
1F
100
AcDbEntity
  8
0
  6
Continuous
 62
     7
370
    25
100
AcDbLine
 10
231.1578706697
 20
102.9719076183
 30
0.0
 11
231.1578706697
 21
95.9719076183
 31
0.0
  0
LINE
  5
344
330
1F
100
AcDbEntity
  8
0
  6
Continuous
 62
     7
370
    25
100
AcDbLine
 10
231.1578706697
 20
102.9719076183
 30
0.0
 11
238.1578706697
 21
102.9719076183
 31
0.0
  0
SPLINE
  5
345
330
1F
100
AcDbEntity
  8
0
  6
Continuous
 62
     7
370
    25
100
AcDbSpline
210
0.0
220
0.0
230
1.0
 70
     8
 71
     3
 72
     9
 73
     5
 74
     0
 42
0.00000001
 43
0.00000001
 40
0.0
 40
0.0
 40
0.0
 40
0.0
 40
0.4976931370791441
 40
0.9999999999999999
 40
0.9999999999999999
 40
0.9999999999999999
 40
0.9999999999999999
 10
238.1578706697459
 20
90.72408331124184
 30
0.0
 10
238.1745401829631
 20
90.57463643024138
 30
0.0
 10
238.2080337394847
 20
90.27435726248449
 30
0.0
 10
238.4313724231264
 20
89.69293513509707
 30
0.0
 10
238.5435569766753
 20
89.40088281025632
 30
0.0
  0
LINE
  5
346
330
1F
100
AcDbEntity
  8
0
  6
Continuous
 62
     7
370
    25
100
AcDbLine
 10
238.5435569767
 20
89.4008828103
 30
0.0
 11
230.7721843628
 21
89.4008828103
 31
0.0
  0
SPLINE
  5
347
330
1F
100
AcDbEntity
  8
0
  6
Continuous
 62
     7
370
    25
100
AcDbSpline
210
0.0
220
0.0
230
1.0
 70
     8
 71
     3
 72
     9
 73
     5
 74
     0
 42
0.00000001
 43
0.00000001
 40
0.0
 40
0.0
 40
0.0
 40
0.0
 40
0.4977232396629077
 40
1.0
 40
1.0
 40
1.0
 40
1.0
 10
230.7721843628165
 20
89.40088281025632
 30
0.0
 10
230.8834810389305
 20
89.69047521088046
 30
0.0
 10
231.1070926110751
 20
90.27230940616595
 30
0.0
 10
231.1408933460737
 20
90.57303555530407
 30
0.0
 10
231.1578706697459
 20
90.72408331124184
 30
0.0
  0
LINE
  5
348
330
1F
100
AcDbEntity
  8
0
  6
Continuous
 62
     7
370
    25
100
AcDbLine
 10
238.1578706697
 20
90.9719076183
 30
0.0
 11
238.1578706697
 21
90.7240833112
 31
0.0
  0
LINE
  5
349
330
1F
100
AcDbEntity
  8
0
  6
Continuous
 62
     7
370
    25
100
AcDbLine
 10
231.1578706697
 20
90.7240833112
 30
0.0
 11
231.1578706697
 21
90.9719076183
 31
0.0
  0
SPLINE
  5
34A
330
1F
100
AcDbEntity
  8
0
  6
Continuous
 62
     7
370
    25
100
AcDbSpline
210
0.0
220
0.0
230
1.0
 70
     8
 71
     3
 72
    15
 73
    11
 74
     0
 42
0.00000001
 43
0.00000001
 40
0.0
 40
0.0
 40
0.0
 40
0.0
 40
0.0155652530973307
 40
0.0359371196028123
 40
0.0739207184207762
 40
0.1570240858080291
 40
0.2406862362445332
 40
0.5687421850858387
 40
0.8974834666673481
 40
1.0
 40
1.0
 40
1.0
 40
1.0
 10
227.9981484475237
 20
84.97190761826639
 30
0.0
 10
228.0118421226166
 20
84.97710098555072
 30
0.0
 10
228.0434581353175
 20
84.98909145304083
 30
0.0
 10
228.0989375982263
 20
85.10741750354482
 30
0.0
 10
228.1775408873115
 20
85.41866743211173
 30
0.0
 10
228.2568591026284
 20
85.94432715647068
 30
0.0
 10
228.3921341274142
 20
87.27753346186192
 30
0.0
 10
228.5384951070025
 20
89.33241770449216
 30
0.0
 10
228.6356575792119
 20
91.4687812848066
 30
0.0
 10
228.6886794421581
 20
92.68321764773012
 30
0.0
 10
228.7012835443728
 20
92.9719076182639
 30
0.0
  0
LINE
  5
34B
330
1F
100
AcDbEntity
  8
0
  6
Continuous
 62
     7
370
    25
100
AcDbLine
 10
228.7012835444
 20
92.9719076183
 30
0.0
 11
228.4811228291
 21
93.9666511962
 31
0.0
  0
LINE
  5
34C
330
1F
100
AcDbEntity
  8
0
  6
Continuous
 62
     7
370
    25
100
AcDbLine
 10
228.4811228291
 20
93.9666511962
 30
0.0
 11
231.1578706697
 21
93.9666511963
 31
0.0
  0
ELLIPSE
  5
34D
330
1F
100
AcDbEntity
  8
0
  6
Continuous
 62
     7
370
    25
100
AcDbEllipse
 10
166.1578706697
 20
91.3197820506
 30
0.0
 11
65.0
 21
0.0
 31
0.0
210
0.0
220
0.0
230
1.0
 40
0.2713992096
 41
6.084179739699224
 42
6.174194364446292
  0
SPLINE
  5
34E
330
1F
100
AcDbEntity
  8
0
  6
Continuous
 62
     7
370
    25
100
AcDbSpline
210
0.0
220
0.0
230
1.0
 70
     8
 71
     3
 72
    12
 73
     8
 74
     0
 42
0.00000001
 43
0.00000001
 40
0.0
 40
0.0
 40
0.0
 40
0.0
 40
0.3259113872459067
 40
0.4871387290336481
 40
0.6531540012488634
 40
0.8235569846864331
 40
1.0
 40
1.0
 40
1.0
 40
1.0
 10
229.8750083396414
 20
87.83226136977345
 30
0.0
 10
229.7858507508903
 20
87.6708417090379
 30
0.0
 10
229.6525871824248
 20
87.42956824806357
 30
0.0
 10
229.4923098670632
 20
86.83460887726567
 30
0.0
 10
229.3856260667699
 20
86.30373516722983
 30
0.0
 10
229.2949595526467
 20
85.67916006740303
 30
0.0
 10
229.2581406369699
 20
85.21037957422094
 30
0.0
 10
229.2394105938788
 20
84.97190761826629
 30
0.0
  0
LINE
  5
34F
330
1F
100
AcDbEntity
  8
0
  6
Continuous
 62
     7
370
    25
100
AcDbLine
 10
229.2394105939
 20
84.9719076183
 30
0.0
 11
227.9981484475
 21
84.9719076183
 31
0.0
  0
SPLINE
  5
350
330
1F
100
AcDbEntity
  8
0
  6
Continuous
 62
     7
370
    25
100
AcDbSpline
210
0.0
220
0.0
230
1.0
 70
     8
 71
     3
 72
    17
 73
    13
 74
     0
 42
0.00000001
 43
0.00000001
 40
0.0
 40
0.0
 40
0.0
 40
0.0
 40
0.3241697628029873
 40
0.5422758463620719
 40
0.689509052693928
 40
0.7894036290694505
 40
0.8577090008137825
 40
0.9049823971474137
 40
0.9551712229700868
 40
0.9753097783197817
 40
0.9919572060138848
 40
1.0
 40
1.0
 40
1.0
 40
1.0
 10
240.614457795119
 20
92.97190761826391
 30
0.0
 10
240.6551082338458
 20
92.05929411565823
 30
0.0
 10
240.7231088730014
 20
90.5326611093969
 30
0.0
 10
240.8345417723178
 20
88.60588820711592
 30
0.0
 10
240.9270464323763
 20
87.31825273618315
 30
0.0
 10
241.0049478886937
 20
86.45910076946143
 30
0.0
 10
241.071000388116
 20
85.88563288108402
 30
0.0
 10
241.1343569954785
 20
85.46410072705406
 30
0.0
 10
241.1924834631724
 20
85.18360818425862
 30
0.0
 10
241.2518252914951
 20
85.02805951567797
 30
0.0
 10
241.2888313601179
 20
84.97744891648045
 30
0.0
 10
241.3105259269883
 20
84.97326916467581
 30
0.0
 10
241.3175928919681
 20
84.97190761826636
 30
0.0
  0
LINE
  5
351
330
1F
100
AcDbEntity
  8
0
  6
Continuous
 62
     7
370
    25
100
AcDbLine
 10
241.317592892
 20
84.9719076183
 30
0.0
 11
240.0763307456
 21
84.9719076183
 31
0.0
  0
SPLINE
  5
352
330
1F
100
AcDbEntity
  8
0
  6
Continuous
 62
     7
370
    25
100
AcDbSpline
210
0.0
220
0.0
230
1.0
 70
     8
 71
     3
 72
    11
 73
     7
 74
     0
 42
0.00000001
 43
0.00000001
 40
0.0
 40
0.0
 40
0.0
 40
0.0
 40
0.3151460283626114
 40
0.6300406851636199
 40
0.9511455108347375
 40
1.0
 40
1.0
 40
1.0
 40
1.0
 10
240.076330745613
 20
84.97190761826629
 30
0.0
 10
240.0381825985814
 20
85.39335292853242
 30
0.0
 10
239.9619167328226
 20
86.23590738945539
 30
0.0
 10
239.7387060858156
 20
87.21317304670934
 30
0.0
 10
239.5540240814125
 20
87.6709035837682
 30
0.0
 10
239.4539483663542
 20
87.81343903838702
 30
0.0
 10
239.4407329998504
 20
87.83226136977345
 30
0.0
  0
ELLIPSE
  5
353
330
1F
100
AcDbEntity
  8
0
  6
Continuous
 62
     7
370
    25
100
AcDbEllipse
 10
303.1578706697
 20
91.3197820506
 30
0.0
 11
65.0
 21
0.0
 31
0.0
210
0.0
220
0.0
230
1.0
 40
0.2713992096
 41
3.250583596323188
 42
3.340598221070255
  0
LINE
  5
354
330
1F
100
AcDbEntity
  8
0
  6
Continuous
 62
     7
370
    25
100
AcDbLine
 10
238.1578706697
 20
93.9666511963
 30
0.0
 11
240.8346185104
 21
93.9666511962
 31
0.0
  0
LINE
  5
355
330
1F
100
AcDbEntity
  8
0
  6
Continuous
 62
     7
370
    25
100
AcDbLine
 10
240.8346185104
 20
93.9666511962
 30
0.0
 11
240.6144577951
 21
92.9719076183
 31
0.0
  0
LINE
  5
356
330
1F
100
AcDbEntity
  8
0
  6
Continuous
 62
     7
370
    25
100
AcDbLine
 10
229.8750083396
 20
87.8322613698
 30
0.0
 11
239.4407329999
 21
87.8322613698
 31
0.0
  0
SPLINE
  5
357
330
1F
100
AcDbEntity
  8
0
  6
Continuous
 62
     7
370
    25
100
AcDbSpline
210
0.0
220
0.0
230
1.0
 70
     8
 71
     3
 72
    11
 73
     7
 74
     0
 42
0.00000001
 43
0.00000001
 40
0.0
 40
0.0
 40
0.0
 40
0.0
 40
0.2341183450103133
 40
0.5211325948464394
 40
0.8958892226266701
 40
1.0
 40
1.0
 40
1.0
 40
1.0
 10
237.2559468810992
 20
84.97190761826629
 30
0.0
 10
237.1378040270097
 20
85.15547886799595
 30
0.0
 10
236.8748255230759
 20
85.56409683301108
 30
0.0
 10
236.1481222905769
 20
85.98786450518774
 30
0.0
 10
235.4433791530417
 20
86.2121460089428
 30
0.0
 10
234.9860898251795
 20
86.19906128016224
 30
0.0
 10
234.88667034727
 20
86.19621652340828
 30
0.0
  0
SPLINE
  5
358
330
1F
100
AcDbEntity
  8
0
  6
Continuous
 62
     7
370
    25
100
AcDbSpline
210
0.0
220
0.0
230
1.0
 70
     8
 71
     3
 72
    12
 73
     8
 74
     0
 42
0.00000001
 43
0.00000001
 40
0.0
 40
0.0
 40
0.0
 40
0.0
 40
0.1159321072399967
 40
0.3308115521664564
 40
0.5453283443365237
 40
0.808204100636956
 40
1.0
 40
1.0
 40
1.0
 40
1.0
 10
234.4256149193953
 20
86.19422115883152
 30
0.0
 10
234.3147875645717
 20
86.197263758664
 30
0.0
 10
233.9985423919053
 20
86.20594579849887
 30
0.0
 10
233.4922882841772
 20
86.07849182077359
 30
0.0
 10
232.8916117731393
 20
85.8456927411189
 30
0.0
 10
232.3750476382311
 20
85.48292972775747
 30
0.0
 10
232.1533247008372
 20
85.12351916369062
 30
0.0
 10
232.0597944583926
 20
84.97190761826629
 30
0.0
  0
LINE
  5
359
330
1F
100
AcDbEntity
  8
0
  6
Continuous
 62
     7
370
    25
100
AcDbLine
 10
232.0597944584
 20
84.9719076183
 30
0.0
 11
229.2394105939
 21
84.9719076183
 31
0.0
  0
LINE
  5
35A
330
1F
100
AcDbEntity
  8
0
  6
Continuous
 62
     7
370
    25
100
AcDbLine
 10
240.0763307456
 20
84.9719076183
 30
0.0
 11
237.2559468811
 21
84.9719076183
 31
0.0
  0
LINE
  5
35B
330
1F
100
AcDbEntity
  8
0
  6
Continuous
 62
     7
370
    25
100
AcDbLine
 10
237.2559468811
 20
84.9719076183
 30
0.0
 11
237.0152853732
 21
84.9719076183
 31
0.0
  0
LINE
  5
35C
330
1F
100
AcDbEntity
  8
0
  6
Continuous
 62
     7
370
    25
100
AcDbLine
 10
232.3012450981
 20
84.9719076183
 30
0.0
 11
232.0597944584
 21
84.9719076183
 31
0.0
  0
LINE
  5
35D
330
1F
100
AcDbEntity
  8
0
  6
Continuous
 62
     7
370
    25
100
AcDbLine
 10
240.6144577951
 20
92.9719076183
 30
0.0
 11
242.1078706698
 21
92.9719076182
 31
0.0
  0
LINE
  5
35E
330
1F
100
AcDbEntity
  8
0
  6
Continuous
 62
     7
370
    25
100
AcDbLine
 10
227.2078706697
 20
92.9719076182
 30
0.0
 11
228.7012835444
 21
92.9719076183
 31
0.0
  0
SPLINE
  5
35F
330
1F
100
AcDbEntity
  8
0
  6
Continuous
 62
     7
370
    25
100
AcDbSpline
210
0.0
220
0.0
230
1.0
 70
     8
 71
     3
 72
     9
 73
     5
 74
     0
 42
0.00000001
 43
0.00000001
 40
0.0
 40
0.0
 40
0.0
 40
0.0
 40
0.4875141023677128
 40
0.9999999999999999
 40
0.9999999999999999
 40
0.9999999999999999
 40
0.9999999999999999
 10
241.3175928919681
 20
84.97190761826636
 30
0.0
 10
241.3261190035039
 20
84.97363496423806
 30
0.0
 10
241.3436079571452
 20
84.97717813552953
 30
0.0
 10
241.3599296610316
 20
84.99869662147884
 30
0.0
 10
241.3682943040987
 20
85.00972454206627
 30
0.0
  0
SPLINE
  5
360
330
1F
100
AcDbEntity
  8
0
  6
Continuous
 62
     7
370
    25
100
AcDbSpline
210
0.0
220
0.0
230
1.0
 70
     8
 71
     3
 72
     9
 73
     5
 74
     0
 42
0.00000001
 43
0.00000001
 40
0.0
 40
0.0
 40
0.0
 40
0.0
 40
0.5124861829376838
 40
0.9999999999999999
 40
0.9999999999999999
 40
0.9999999999999999
 40
0.9999999999999999
 10
227.9474470662593
 20
85.0097244962065
 30
0.0
 10
227.955811709383
 20
84.99869658325532
 30
0.0
 10
227.9721334042932
 20
84.97717812418593
 30
0.0
 10
227.989622346535
 20
84.97363495984077
 30
0.0
 10
227.9981484475237
 20
84.97190761826639
 30
0.0
  0
LINE
  5
361
330
1F
100
AcDbEntity
  8
0
  6
Continuous
 62
     7
370
    25
100
AcDbLine
 10
241.3660746022
 20
84.9719076183
 30
0.0
 11
241.6578706697
 21
84.9719076183
 31
0.0
  0
LINE
  5
362
330
1F
100
AcDbEntity
  8
0
  6
Continuous
 62
     7
370
    25
100
AcDbLine
 10
227.6578706697
 20
84.9719076183
 30
0.0
 11
227.9496667372
 21
84.9719076183
 31
0.0
  0
LINE
  5
363
330
1F
100
AcDbEntity
  8
0
  6
Continuous
 62
     7
370
    25
100
AcDbLine
 10
241.3682943041
 20
85.0097245421
 30
0.0
 11
241.3660746022
 21
84.9719076183
 31
0.0
  0
LINE
  5
364
330
1F
100
AcDbEntity
  8
0
  6
Continuous
 62
     7
370
    25
100
AcDbLine
 10
241.3660746022
 20
84.9719076183
 30
0.0
 11
241.317592892
 21
84.9719076183
 31
0.0
  0
LINE
  5
365
330
1F
100
AcDbEntity
  8
0
  6
Continuous
 62
     7
370
    25
100
AcDbLine
 10
227.9496667372
 20
84.9719076183
 30
0.0
 11
227.9474470663
 21
85.0097244962
 31
0.0
  0
LINE
  5
366
330
1F
100
AcDbEntity
  8
0
  6
Continuous
 62
     7
370
    25
100
AcDbLine
 10
227.9981484475
 20
84.9719076183
 30
0.0
 11
227.9496667372
 21
84.9719076183
 31
0.0
  0
CIRCLE
  5
367
330
1F
100
AcDbEntity
  8
0
  6
Continuous
 62
     7
370
    25
100
AcDbCircle
 10
234.6578706697
 20
72.4719076183
 30
0.0
 40
3.999999999999991
  0
SPLINE
  5
368
330
1F
100
AcDbEntity
  8
0
  6
Continuous
 62
     7
370
    25
100
AcDbSpline
210
0.0
220
0.0
230
1.0
 70
     8
 71
     3
 72
     9
 73
     5
 74
     0
 42
0.00000001
 43
0.00000001
 40
0.0
 40
0.0
 40
0.0
 40
0.0
 40
0.595692775086659
 40
1.0
 40
1.0
 40
1.0
 40
1.0
 10
240.4725073737885
 20
83.47190761826629
 30
0.0
 10
240.474164626573
 20
83.35880520282318
 30
0.0
 10
240.4769466861409
 20
83.1689381771124
 30
0.0
 10
240.4918155939694
 20
83.01008648958151
 30
0.0
 10
240.4978272008311
 20
82.9458616046231
 30
0.0
  0
SPLINE
  5
369
330
1F
100
AcDbEntity
  8
0
  6
Continuous
 62
     7
370
    25
100
AcDbSpline
210
0.0
220
0.0
230
1.0
 70
     8
 71
     3
 72
    12
 73
     8
 74
     0
 42
0.00000001
 43
0.00000001
 40
0.0
 40
0.0
 40
0.0
 40
0.0
 40
0.2044300411371469
 40
0.4162300311278426
 40
0.6305582772351073
 40
0.8463529442065274
 40
1.0
 40
1.0
 40
1.0
 40
1.0
 10
240.5575553489956
 20
84.47000128859018
 30
0.0
 10
240.5559362408617
 20
84.46069776406948
 30
0.0
 10
240.5526396537983
 20
84.44175531177964
 30
0.0
 10
240.5268453206429
 20
84.27787953825543
 30
0.0
 10
240.4971900518637
 20
84.03060128846123
 30
0.0
 10
240.4759002419548
 20
83.74554389786138
 30
0.0
 10
240.4735039621801
 20
83.55228290147144
 30
0.0
 10
240.4725073737885
 20
83.47190761826629
 30
0.0
  0
SPLINE
  5
36A
330
1F
100
AcDbEntity
  8
0
  6
Continuous
 62
     7
370
    25
100
AcDbSpline
210
0.0
220
0.0
230
1.0
 70
    24
 71
     3
 72
    18
 73
    14
 74
     0
 42
0.00000001
 43
0.00000001
 40
0.0
 40
0.0
 40
0.0
 40
0.0
 40
0.0507832104203953
 40
0.1595138550858205
 40
0.2728618603795275
 40
0.3864292883475074
 40
0.5000003561174519
 40
0.5686956843874
 40
0.6799915352757261
 40
0.7847596270326939
 40
0.8830441795550474
 40
0.9801848974151686
 40
1.0
 40
1.0
 40
1.0
 40
1.0
 10
240.8578706697459
 20
84.00633932607444
 30
0.0
 10
240.8578706697459
 20
84.00768999798294
 30
0.0
 10
240.8578706697459
 20
84.01193255928018
 30
0.0
 10
240.8578706697459
 20
83.94882042555079
 30
0.0
 10
240.8578706697459
 20
83.82691675123269
 30
0.0
 10
240.8578706697459
 20
83.65964174390882
 30
0.0
 10
240.8578706697459
 20
83.49649925845662
 30
0.0
 10
240.8578706697459
 20
83.33525591656301
 30
0.0
 10
240.8578706697459
 20
83.18690653377007
 30
0.0
 10
240.8578706697459
 20
83.0504604203553
 30
0.0
 10
240.8578706697459
 20
82.96447130915371
 30
0.0
 10
240.8578706697459
 20
82.92475175152367
 30
0.0
 10
240.8578706697459
 20
82.93342988051087
 30
0.0
 10
240.8578706697459
 20
82.9349001623273
 30
0.0
  0
LINE
  5
36B
330
1F
100
AcDbEntity
  8
0
  6
Continuous
 62
     7
370
    25
100
AcDbLine
 10
240.1578706697
 20
101.5719076183
 30
0.0
 11
238.1578706697
 21
101.5719076183
 31
0.0
  0
LINE
  5
36C
330
1F
100
AcDbEntity
  8
0
  6
Continuous
 62
     7
370
    25
100
AcDbLine
 10
231.1578706697
 20
101.5719076183
 30
0.0
 11
229.1578706697
 21
101.5719076183
 31
0.0
  0
INSERT
  5
378
330
1F
100
AcDbEntity
  8
0
  6
Continuous
 62
     7
370
    18
100
AcDbBlockReference
  2
SW_CENTERMARKSYMBOL_1
 10
234.6578706697
 20
72.4719076183
 30
0.0
  0
ENDSEC
  0
SECTION
  2
OBJECTS
  0
DICTIONARY
  5
C
330
0
100
AcDbDictionary
281
     1
  3
ACAD_GROUP
350
D
  3
ACAD_LAYOUT
350
1A
  3
ACAD_MLINESTYLE
350
17
  3
ACAD_PLOTSETTINGS
350
19
  3
ACAD_PLOTSTYLENAME
350
E
  3
ACAD_SCALELIST
350
47
  3
DWGPROPS
350
379
  0
DICTIONARY
  5
D
102
{ACAD_REACTORS
330
C
102
}
330
C
100
AcDbDictionary
281
     1
  0
DICTIONARY
  5
1A
102
{ACAD_REACTORS
330
C
102
}
330
C
100
AcDbDictionary
281
     1
  3
Layout1
350
1E
  3
Layout2
350
26
  3
Model
350
22
  0
DICTIONARY
  5
17
102
{ACAD_REACTORS
330
C
102
}
330
C
100
AcDbDictionary
281
     1
  3
Standard
350
18
  0
DICTIONARY
  5
19
102
{ACAD_REACTORS
330
C
102
}
330
C
100
AcDbDictionary
281
     1
  0
ACDBDICTIONARYWDFLT
  5
E
102
{ACAD_REACTORS
330
C
102
}
330
C
100
AcDbDictionary
281
     1
  3
Normal
350
F
100
AcDbDictionaryWithDefault
340
F
  0
DICTIONARY
  5
47
102
{ACAD_REACTORS
330
C
102
}
330
C
100
AcDbDictionary
281
     1
  3
A0
350
48
  3
A1
350
49
  3
A2
350
4A
  3
A3
350
4B
  3
A4
350
4C
  3
A5
350
4D
  3
A6
350
4E
  3
A7
350
4F
  3
A8
350
50
  3
A9
350
51
  3
B0
350
52
  3
B1
350
53
  3
B2
350
54
  3
B3
350
55
  3
B4
350
56
  3
B5
350
57
  3
B6
350
58
  0
XRECORD
  5
379
102
{ACAD_REACTORS
330
C
102
}
330
C
100
AcDbXrecord
280
     1
  1
DWGPROPS COOKIE
  2

  3

  4

  6

  7

  8
user28
  9

300
=
301
=
302
=
303
=
304
=
305
=
306
=
307
=
308
=
309
=
 40
0.0
 41
2460159.298726111
 42
2460159.298727951
  1

 90
        0
  0
LAYOUT
  5
1E
102
{ACAD_REACTORS
330
1A
102
}
330
1A
100
AcDbPlotSettings
  1

  2
none_device
  4

  6

 40
0.0
 41
0.0
 42
0.0
 43
0.0
 44
0.0
 45
0.0
 46
0.0
 47
0.0
 48
0.0
 49
0.0
140
0.0
141
0.0
142
1.0
143
1.0
 70
   688
 72
     1
 73
     0
 74
     5
  7

 75
    16
147
1.0
148
0.0
149
0.0
100
AcDbLayout
  1
Layout1
 70
     1
 71
     1
 10
0.0
 20
0.0
 11
420.0
 21
297.0
 12
0.0
 22
0.0
 32
0.0
 14
1.0000000000E+20
 24
1.0000000000E+20
 34
1.0000000000E+20
 15
-1.0000000000E+20
 25
-1.0000000000E+20
 35
-1.0000000000E+20
146
0.0
 13
0.0
 23
0.0
 33
0.0
 16
1.0
 26
0.0
 36
0.0
 17
0.0
 27
1.0
 37
0.0
 76
     0
330
1B
  0
LAYOUT
  5
26
102
{ACAD_REACTORS
330
1A
102
}
330
1A
100
AcDbPlotSettings
  1

  2
none_device
  4

  6

 40
0.0
 41
0.0
 42
0.0
 43
0.0
 44
0.0
 45
0.0
 46
0.0
 47
0.0
 48
0.0
 49
0.0
140
0.0
141
0.0
142
1.0
143
1.0
 70
   688
 72
     1
 73
     0
 74
     5
  7

 75
    16
147
1.0
148
0.0
149
0.0
100
AcDbLayout
  1
Layout2
 70
     1
 71
     2
 10
0.0
 20
0.0
 11
0.0
 21
0.0
 12
0.0
 22
0.0
 32
0.0
 14
0.0
 24
0.0
 34
0.0
 15
0.0
 25
0.0
 35
0.0
146
0.0
 13
0.0
 23
0.0
 33
0.0
 16
1.0
 26
0.0
 36
0.0
 17
0.0
 27
1.0
 37
0.0
 76
     0
330
23
  0
LAYOUT
  5
22
102
{ACAD_REACTORS
330
1A
102
}
330
1A
100
AcDbPlotSettings
  1

  2
none_device
  4
Letter_(8.50_x_11.00_Inches)
  6

 40
6.35
 41
6.35
 42
6.35000508
 43
6.35000508
 44
215.9
 45
279.4
 46
0.0
 47
0.0
 48
0.0
 49
0.0
140
0.0
141
0.0
142
1.0
143
1.0
 70
  1712
 72
     1
 73
     0
 74
     0
  7

 75
     0
147
1.0
148
0.0
149
0.0
100
AcDbLayout
  1
Model
 70
     1
 71
     0
 10
0.0
 20
0.0
 11
431.8
 21
279.4
 12
0.0
 22
0.0
 32
0.0
 14
0.0
 24
0.0
 34
0.0
 15
431.8
 25
279.4
 35
0.0
146
0.0
 13
0.0
 23
0.0
 33
0.0
 16
1.0
 26
0.0
 36
0.0
 17
0.0
 27
1.0
 37
0.0
 76
     0
330
1F
331
29
  0
MLINESTYLE
  5
18
102
{ACAD_REACTORS
330
17
102
}
330
17
100
AcDbMlineStyle
  2
Standard
 70
     0
  3

 62
   256
 51
90.0
 52
90.0
 71
     2
 49
0.5
 62
   256
  6
BYLAYER
 49
-0.5
 62
   256
  6
BYLAYER
  0
ACDBPLACEHOLDER
  5
F
102
{ACAD_REACTORS
330
E
102
}
330
E
  0
SCALE
  5
48
102
{ACAD_REACTORS
330
47
102
}
330
47
100
AcDbScale
 70
     0
300
1:1
140
1.0
141
1.0
290
     1
  0
SCALE
  5
49
102
{ACAD_REACTORS
330
47
102
}
330
47
100
AcDbScale
 70
     0
300
1:2
140
1.0
141
2.0
290
     0
  0
SCALE
  5
4A
102
{ACAD_REACTORS
330
47
102
}
330
47
100
AcDbScale
 70
     0
300
1:4
140
1.0
141
4.0
290
     0
  0
SCALE
  5
4B
102
{ACAD_REACTORS
330
47
102
}
330
47
100
AcDbScale
 70
     0
300
1:5
140
1.0
141
5.0
290
     0
  0
SCALE
  5
4C
102
{ACAD_REACTORS
330
47
102
}
330
47
100
AcDbScale
 70
     0
300
1:8
140
1.0
141
8.0
290
     0
  0
SCALE
  5
4D
102
{ACAD_REACTORS
330
47
102
}
330
47
100
AcDbScale
 70
     0
300
1:10
140
1.0
141
10.0
290
     0
  0
SCALE
  5
4E
102
{ACAD_REACTORS
330
47
102
}
330
47
100
AcDbScale
 70
     0
300
1:16
140
1.0
141
16.0
290
     0
  0
SCALE
  5
4F
102
{ACAD_REACTORS
330
47
102
}
330
47
100
AcDbScale
 70
     0
300
1:20
140
1.0
141
20.0
290
     0
  0
SCALE
  5
50
102
{ACAD_REACTORS
330
47
102
}
330
47
100
AcDbScale
 70
     0
300
1:30
140
1.0
141
30.0
290
     0
  0
SCALE
  5
51
102
{ACAD_REACTORS
330
47
102
}
330
47
100
AcDbScale
 70
     0
300
1:40
140
1.0
141
40.0
290
     0
  0
SCALE
  5
52
102
{ACAD_REACTORS
330
47
102
}
330
47
100
AcDbScale
 70
     0
300
1:50
140
1.0
141
50.0
290
     0
  0
SCALE
  5
53
102
{ACAD_REACTORS
330
47
102
}
330
47
100
AcDbScale
 70
     0
300
1:100
140
1.0
141
100.0
290
     0
  0
SCALE
  5
54
102
{ACAD_REACTORS
330
47
102
}
330
47
100
AcDbScale
 70
     0
300
2:1
140
2.0
141
1.0
290
     0
  0
SCALE
  5
55
102
{ACAD_REACTORS
330
47
102
}
330
47
100
AcDbScale
 70
     0
300
4:1
140
4.0
141
1.0
290
     0
  0
SCALE
  5
56
102
{ACAD_REACTORS
330
47
102
}
330
47
100
AcDbScale
 70
     0
300
8:1
140
8.0
141
1.0
290
     0
  0
SCALE
  5
57
102
{ACAD_REACTORS
330
47
102
}
330
47
100
AcDbScale
 70
     0
300
10:1
140
10.0
141
1.0
290
     0
  0
SCALE
  5
58
102
{ACAD_REACTORS
330
47
102
}
330
47
100
AcDbScale
 70
     0
300
100:1
140
100.0
141
1.0
290
     0
  0
ENDSEC
  0
EOF
