  0
SECTION
  2
HEADER
  9
$ACADVER
  1
AC1027
  9
$ACADMAINTVER
 70
    81
  9
$DWGCODEPAGE
  3
ANSI_932
  9
$AUTHOR
  1
水田
  9
$REVISIONNUMBER
  1
A
  9
$CUSTOMPROPERTYTAG
  1
マネージャ
  9
$CUSTOMPROPERTY
  1

  9
$CUSTOMPROPERTYTAG
  1
会社
  9
$CUSTOMPROPERTY
  1

  9
$CUSTOMPROPERTYTAG
  1
カテゴリ
  9
$CUSTOMPROPERTY
  1

  9
$CUSTOMPROPERTYTAG
  1
部品番号
  9
$CUSTOMPROPERTY
  1
DXF用
  9
$CUSTOMPROPERTYTAG
  1
説明
  9
$CUSTOMPROPERTY
  1

  9
$CUSTOMPROPERTYTAG
  1
プロジェクト
  9
$CUSTOMPROPERTY
  1

  9
$CUSTOMPROPERTYTAG
  1
設計者
  9
$CUSTOMPROPERTY
  1
水田
  9
$CUSTOMPROPERTYTAG
  1
エンジニア
  9
$CUSTOMPROPERTY
  1

  9
$CUSTOMPROPERTYTAG
  1
責任者
  9
$CUSTOMPROPERTY
  1
mizuta
  9
$CUSTOMPROPERTYTAG
  1
コスト センター
  9
$CUSTOMPROPERTY
  1

  9
$CUSTOMPROPERTYTAG
  1
原価
  9
$CUSTOMPROPERTY
  1

  9
$CUSTOMPROPERTYTAG
  1
ベンダー
  9
$CUSTOMPROPERTY
  1

  9
$CUSTOMPROPERTYTAG
  1
ユーザ ステータス
  9
$CUSTOMPROPERTY
  1

  9
$CUSTOMPROPERTYTAG
  1
設計ステータス
  9
$CUSTOMPROPERTY
  1
作業中
  9
$CUSTOMPROPERTYTAG
  1
確認者
  9
$CUSTOMPROPERTY
  1
mizuta
  9
$CUSTOMPROPERTYTAG
  1
エンジニアリング承認者
  9
$CUSTOMPROPERTY
  1

  9
$CUSTOMPROPERTYTAG
  1
製造承認者
  9
$CUSTOMPROPERTY
  1

  9
$CUSTOMPROPERTYTAG
  1
作成日
  9
$CUSTOMPROPERTY
  1
03/17/2014
  9
$CUSTOMPROPERTYTAG
  1
ストック番号
  9
$CUSTOMPROPERTY
  1

  9
$REQUIREDVERSIONS
160
                 0
  9
$INSBASE
 10
0.0
 20
0.0
 30
0.0
  9
$EXTMIN
 10
0.0
 20
0.0
 30
0.0
  9
$EXTMAX
 10
297.0
 20
210.0
 30
0.0
  9
$LIMMIN
 10
0.0
 20
0.0
  9
$LIMMAX
 10
297.0
 20
210.0
  9
$ORTHOMODE
 70
     0
  9
$REGENMODE
 70
     1
  9
$FILLMODE
 70
     1
  9
$QTEXTMODE
 70
     0
  9
$MIRRTEXT
 70
     0
  9
$LTSCALE
 40
1.0
  9
$ATTMODE
 70
     1
  9
$TEXTSIZE
 40
0.2
  9
$TRACEWID
 40
0.05
  9
$TEXTSTYLE
  7
Standard
  9
$CLAYER
  8
0
  9
$CELTYPE
  6
ByLayer
  9
$CECOLOR
 62
   256
  9
$CELTSCALE
 40
1.0
  9
$DISPSILH
 70
     0
  9
$DIMSCALE
 40
1.0
  9
$DIMASZ
 40
1.799999999999999
  9
$DIMEXO
 40
0.0625
  9
$DIMDLI
 40
0.38
  9
$DIMRND
 40
0.0
  9
$DIMDLE
 40
0.0
  9
$DIMEXE
 40
0.18
  9
$DIMTP
 40
0.0
  9
$DIMTM
 40
0.0
  9
$DIMTXT
 40
0.25
  9
$DIMCEN
 40
0.09
  9
$DIMTSZ
 40
0.0
  9
$DIMTOL
 70
     0
  9
$DIMLIM
 70
     0
  9
$DIMTIH
 70
     1
  9
$DIMTOH
 70
     1
  9
$DIMSE1
 70
     0
  9
$DIMSE2
 70
     0
  9
$DIMTAD
 70
     0
  9
$DIMZIN
 70
     0
  9
$DIMBLK
  1

  9
$DIMASO
 70
     1
  9
$DIMSHO
 70
     1
  9
$DIMPOST
  1

  9
$DIMAPOST
  1

  9
$DIMALT
 70
     0
  9
$DIMALTD
 70
     2
  9
$DIMALTF
 40
25.4
  9
$DIMLFAC
 40
1.0
  9
$DIMTOFL
 70
     0
  9
$DIMTVP
 40
0.0
  9
$DIMTIX
 70
     0
  9
$DIMSOXD
 70
     0
  9
$DIMSAH
 70
     0
  9
$DIMBLK1
  1

  9
$DIMBLK2
  1

  9
$DIMSTYLE
  2
Standard
  9
$DIMCLRD
 70
     0
  9
$DIMCLRE
 70
     0
  9
$DIMCLRT
 70
     0
  9
$DIMTFAC
 40
1.0
  9
$DIMGAP
 40
0.09
  9
$DIMJUST
 70
     0
  9
$DIMSD1
 70
     0
  9
$DIMSD2
 70
     0
  9
$DIMTOLJ
 70
     1
  9
$DIMTZIN
 70
     0
  9
$DIMALTZ
 70
     0
  9
$DIMALTTZ
 70
     0
  9
$DIMUPT
 70
     0
  9
$DIMDEC
 70
     4
  9
$DIMTDEC
 70
     4
  9
$DIMALTU
 70
     2
  9
$DIMALTTD
 70
     2
  9
$DIMTXSTY
  7
Standard
  9
$DIMAUNIT
 70
     0
  9
$DIMADEC
 70
     0
  9
$DIMALTRND
 40
0.0
  9
$DIMAZIN
 70
     0
  9
$DIMDSEP
 70
    46
  9
$DIMATFIT
 70
     3
  9
$DIMFRAC
 70
     0
  9
$DIMLDRBLK
  1

  9
$DIMLUNIT
 70
     2
  9
$DIMLWD
 70
    -2
  9
$DIMLWE
 70
    -2
  9
$DIMTMOVE
 70
     0
  9
$DIMFXL
 40
1.0
  9
$DIMFXLON
 70
     0
  9
$DIMJOGANG
 40
0.7853981633974483
  9
$DIMTFILL
 70
     0
  9
$DIMTFILLCLR
 70
     0
  9
$DIMARCSYM
 70
     0
  9
$DIMLTYPE
  6

  9
$DIMLTEX1
  6

  9
$DIMLTEX2
  6

  9
$DIMTXTDIRECTION
 70
     0
  9
$LUNITS
 70
     2
  9
$LUPREC
 70
     4
  9
$SKETCHINC
 40
0.1
  9
$FILLETRAD
 40
0.0
  9
$AUNITS
 70
     0
  9
$AUPREC
 70
     0
  9
$MENU
  1
.
  9
$ELEVATION
 40
0.0
  9
$PELEVATION
 40
0.0
  9
$THICKNESS
 40
0.0
  9
$LIMCHECK
 70
     0
  9
$CHAMFERA
 40
0.0
  9
$CHAMFERB
 40
0.0
  9
$CHAMFERC
 40
0.0
  9
$CHAMFERD
 40
0.0
  9
$SKPOLY
 70
     0
  9
$TDCREATE
 40
2459191.675670961
  9
$TDUCREATE
 40
2459191.300670961
  9
$TDUPDATE
 40
2459191.675670961
  9
$TDUUPDATE
 40
2459191.300670961
  9
$TDINDWG
 40
0.0000292708
  9
$TDUSRTIMER
 40
0.0000292708
  9
$USRTIMER
 70
     1
  9
$ANGBASE
 50
0.0
  9
$ANGDIR
 70
     0
  9
$PDMODE
 70
     0
  9
$PDSIZE
 40
0.0
  9
$PLINEWID
 40
0.0
  9
$SPLFRAME
 70
     0
  9
$SPLINETYPE
 70
     6
  9
$SPLINESEGS
 70
     8
  9
$HANDSEED
  5
328
  9
$SURFTAB1
 70
     6
  9
$SURFTAB2
 70
     6
  9
$SURFTYPE
 70
     6
  9
$SURFU
 70
     6
  9
$SURFV
 70
     6
  9
$UCSBASE
  2

  9
$UCSNAME
  2

  9
$UCSORG
 10
0.0
 20
0.0
 30
0.0
  9
$UCSXDIR
 10
1.0
 20
0.0
 30
0.0
  9
$UCSYDIR
 10
0.0
 20
1.0
 30
0.0
  9
$UCSORTHOREF
  2

  9
$UCSORTHOVIEW
 70
     0
  9
$UCSORGTOP
 10
0.0
 20
0.0
 30
0.0
  9
$UCSORGBOTTOM
 10
0.0
 20
0.0
 30
0.0
  9
$UCSORGLEFT
 10
0.0
 20
0.0
 30
0.0
  9
$UCSORGRIGHT
 10
0.0
 20
0.0
 30
0.0
  9
$UCSORGFRONT
 10
0.0
 20
0.0
 30
0.0
  9
$UCSORGBACK
 10
0.0
 20
0.0
 30
0.0
  9
$PUCSBASE
  2

  9
$PUCSNAME
  2

  9
$PUCSORG
 10
0.0
 20
0.0
 30
0.0
  9
$PUCSXDIR
 10
1.0
 20
0.0
 30
0.0
  9
$PUCSYDIR
 10
0.0
 20
1.0
 30
0.0
  9
$PUCSORTHOREF
  2

  9
$PUCSORTHOVIEW
 70
     0
  9
$PUCSORGTOP
 10
0.0
 20
0.0
 30
0.0
  9
$PUCSORGBOTTOM
 10
0.0
 20
0.0
 30
0.0
  9
$PUCSORGLEFT
 10
0.0
 20
0.0
 30
0.0
  9
$PUCSORGRIGHT
 10
0.0
 20
0.0
 30
0.0
  9
$PUCSORGFRONT
 10
0.0
 20
0.0
 30
0.0
  9
$PUCSORGBACK
 10
0.0
 20
0.0
 30
0.0
  9
$USERI1
 70
     0
  9
$USERI2
 70
     0
  9
$USERI3
 70
     0
  9
$USERI4
 70
     0
  9
$USERI5
 70
     0
  9
$USERR1
 40
0.0
  9
$USERR2
 40
0.0
  9
$USERR3
 40
0.0
  9
$USERR4
 40
0.0
  9
$USERR5
 40
0.0
  9
$WORLDVIEW
 70
     1
  9
$SHADEDGE
 70
     3
  9
$SHADEDIF
 70
    70
  9
$TILEMODE
 70
     1
  9
$MAXACTVP
 70
    64
  9
$PINSBASE
 10
0.0
 20
0.0
 30
0.0
  9
$PLIMCHECK
 70
     0
  9
$PEXTMIN
 10
0.0
 20
0.0
 30
0.0
  9
$PEXTMAX
 10
297.0
 20
210.0
 30
0.0
  9
$PLIMMIN
 10
0.0
 20
0.0
  9
$PLIMMAX
 10
297.0
 20
210.0
  9
$UNITMODE
 70
     0
  9
$VISRETAIN
 70
     1
  9
$PLINEGEN
 70
     0
  9
$PSLTSCALE
 70
     1
  9
$TREEDEPTH
 70
  3020
  9
$CMLSTYLE
  2
Standard
  9
$CMLJUST
 70
     0
  9
$CMLSCALE
 40
1.0
  9
$PROXYGRAPHICS
 70
     1
  9
$MEASUREMENT
 70
     1
  9
$CELWEIGHT
370
    -1
  9
$ENDCAPS
280
     0
  9
$JOINSTYLE
280
     0
  9
$LWDISPLAY
290
     0
  9
$INSUNITS
 70
     4
  9
$HYPERLINKBASE
  1

  9
$STYLESHEET
  1

  9
$XEDIT
290
     1
  9
$CEPSNTYPE
380
     0
  9
$PSTYLEMODE
290
     1
  9
$FINGERPRINTGUID
  2
{39966F45-BF08-497E-8ADE-614CE6CE3AE3}
  9
$VERSIONGUID
  2
{207CF25A-6E52-4F71-8955-586F1C42B2F2}
  9
$EXTNAMES
290
     1
  9
$PSVPSCALE
 40
0.0
  9
$OLESTARTUP
290
     0
  9
$SORTENTS
280
   127
  9
$INDEXCTL
280
     0
  9
$HIDETEXT
280
     1
  9
$XCLIPFRAME
280
     2
  9
$HALOGAP
280
     0
  9
$OBSCOLOR
 70
   257
  9
$OBSLTYPE
280
     0
  9
$INTERSECTIONDISPLAY
280
     0
  9
$INTERSECTIONCOLOR
 70
   257
  9
$DIMASSOC
280
     1
  9
$PROJECTNAME
  1

  9
$CAMERADISPLAY
290
     0
  9
$LENSLENGTH
 40
50.0
  9
$CAMERAHEIGHT
 40
0.0
  9
$STEPSPERSEC
 40
2.0
  9
$STEPSIZE
 40
6.0
  9
$3DDWFPREC
 40
2.0
  9
$PSOLWIDTH
 40
0.25
  9
$PSOLHEIGHT
 40
4.0
  9
$LOFTANG1
 40
1.570796326794896
  9
$LOFTANG2
 40
1.570796326794896
  9
$LOFTMAG1
 40
0.0
  9
$LOFTMAG2
 40
0.0
  9
$LOFTPARAM
 70
     7
  9
$LOFTNORMALS
280
     1
  9
$LATITUDE
 40
37.795
  9
$LONGITUDE
 40
-122.394
  9
$NORTHDIRECTION
 40
0.0
  9
$TIMEZONE
 70
 -8000
  9
$LIGHTGLYPHDISPLAY
280
     1
  9
$TILEMODELIGHTSYNCH
280
     1
  9
$CMATERIAL
347
11
  9
$SOLIDHIST
280
     0
  9
$SHOWHIST
280
     1
  9
$DWFFRAME
280
     2
  9
$DGNFRAME
280
     0
  9
$REALWORLDSCALE
290
     1
  9
$INTERFERECOLOR
 62
     1
  9
$INTERFEREOBJVS
345
33
  9
$INTERFEREVPVS
346
30
  9
$CSHADOW
280
     0
  9
$SHADOWPLANELOCATION
 40
0.0
  0
ENDSEC
  0
SECTION
  2
CLASSES
  0
CLASS
  1
ACDBDICTIONARYWDFLT
  2
AcDbDictionaryWithDefault
  3
ObjectDBX Classes
 90
        0
 91
        1
280
     0
281
     0
  0
CLASS
  1
MATERIAL
  2
AcDbMaterial
  3
ObjectDBX Classes
 90
     1153
 91
        3
280
     0
281
     0
  0
CLASS
  1
VISUALSTYLE
  2
AcDbVisualStyle
  3
ObjectDBX Classes
 90
     4095
 91
       24
280
     0
281
     0
  0
CLASS
  1
SCALE
  2
AcDbScale
  3
ObjectDBX Classes
 90
     1153
 91
       17
280
     0
281
     0
  0
CLASS
  1
TABLESTYLE
  2
AcDbTableStyle
  3
ObjectDBX Classes
 90
     4095
 91
        1
280
     0
281
     0
  0
CLASS
  1
MLEADERSTYLE
  2
AcDbMLeaderStyle
  3
ACDB_MLEADERSTYLE_CLASS
 90
     4095
 91
        1
280
     0
281
     0
  0
CLASS
  1
ACDBSECTIONVIEWSTYLE
  2
AcDbSectionViewStyle
  3
ObjectDBX Classes
 90
     1025
 91
        1
280
     0
281
     0
  0
CLASS
  1
ACDBDETAILVIEWSTYLE
  2
AcDbDetailViewStyle
  3
ObjectDBX Classes
 90
     1025
 91
        1
280
     0
281
     0
  0
CLASS
  1
DICTIONARYVAR
  2
AcDbDictionaryVar
  3
ObjectDBX Classes
 90
        0
 91
        5
280
     0
281
     0
  0
CLASS
  1
CELLSTYLEMAP
  2
AcDbCellStyleMap
  3
ObjectDBX Classes
 90
     1152
 91
        1
280
     0
281
     0
  0
ENDSEC
  0
SECTION
  2
TABLES
  0
TABLE
  2
VPORT
  5
8
330
0
100
AcDbSymbolTable
 70
     1
  0
VPORT
  5
57
330
8
100
AcDbSymbolTableRecord
100
AcDbViewportTableRecord
  2
*Active
 70
     0
 10
0.0
 20
0.0
 11
1.0
 21
1.0
 12
148.5
 22
105.0
 13
0.0
 23
0.0
 14
1.0
 24
1.0
 15
0.0
 25
0.0
 16
0.0
 26
0.0
 36
1.0
 17
0.0
 27
0.0
 37
0.0
 40
210.0
 41
1.414285714285714
 42
50.0
 43
0.0
 44
0.0
 50
0.0
 51
0.0
 71
     0
 72
   100
 73
     1
 74
     1
 75
     0
 76
     0
 77
     0
 78
     0
281
     0
 65
     1
110
0.0
120
0.0
130
0.0
111
1.0
121
0.0
131
0.0
112
0.0
122
1.0
132
0.0
 79
     0
146
0.0
 60
     3
 61
     5
292
     1
282
     1
141
0.0
142
0.0
 63
   250
421
  3355443
  0
ENDTAB
  0
TABLE
  2
LTYPE
  5
5
330
0
100
AcDbSymbolTable
 70
    58
  0
LTYPE
  5
5B
330
5
100
AcDbSymbolTableRecord
100
AcDbLinetypeTableRecord
  2
ByBlock
 70
     0
  3

 72
    65
 73
     0
 40
0.0
  0
LTYPE
  5
5C
330
5
100
AcDbSymbolTableRecord
100
AcDbLinetypeTableRecord
  2
ByLayer
 70
     0
  3

 72
    65
 73
     0
 40
0.0
  0
LTYPE
  5
5D
330
5
100
AcDbSymbolTableRecord
100
AcDbLinetypeTableRecord
  2
Continuous
 70
     0
  3
Solid line
 72
    65
 73
     0
 40
0.0
  0
LTYPE
  5
78
330
5
100
AcDbSymbolTableRecord
100
AcDbLinetypeTableRecord
  2
CHAIN
 70
     0
  3
Chain ____ _ ____ _ ____ _ ____ _ ____ _ ____
 72
    65
 73
     4
 40
0.3543
 49
0.2362
 74
     0
 49
-0.0295
 74
     0
 49
0.0591
 74
     0
 49
-0.0295
 74
     0
  0
LTYPE
  5
79
330
5
100
AcDbSymbolTableRecord
100
AcDbLinetypeTableRecord
  2
DASH_DOT
 70
     0
  3
Dash dot __ . __ . __ . __ . __ . __ . __ . __
 72
    65
 73
     4
 40
0.37
 49
0.24
 74
     0
 49
-0.06
 74
     0
 49
0.01
 74
     0
 49
-0.06
 74
     0
  0
LTYPE
  5
7A
330
5
100
AcDbSymbolTableRecord
100
AcDbLinetypeTableRecord
  2
DASH_DOUBLE_DOT
 70
     0
  3
Dash Double-Dot __ . . __ . . __ . . __ . .
 72
    65
 73
     6
 40
0.4398
 49
0.24
 74
     0
 49
-0.06
 74
     0
 49
0.0098
 74
     0
 49
-0.06
 74
     0
 49
0.01
 74
     0
 49
-0.06
 74
     0
  0
LTYPE
  5
7B
330
5
100
AcDbSymbolTableRecord
100
AcDbLinetypeTableRecord
  2
DASH_TRIPLE_DOT
 70
     0
  3
Dash Triple-Dot _ . . . _ . . . _ . . . _
 72
    65
 73
     8
 40
0.51
 49
0.24
 74
     0
 49
-0.06
 74
     0
 49
0.01
 74
     0
 49
-0.06
 74
     0
 49
0.01
 74
     0
 49
-0.06
 74
     0
 49
0.01
 74
     0
 49
-0.06
 74
     0
  0
LTYPE
  5
7C
330
5
100
AcDbSymbolTableRecord
100
AcDbLinetypeTableRecord
  2
DASHED
 70
     0
  3
Dashed __ __ __ __ __ __ __ __ __ __ __ __ __ _
 72
    65
 73
     2
 40
0.2067
 49
0.1654
 74
     0
 49
-0.0413
 74
     0
  0
LTYPE
  5
7D
330
5
100
AcDbSymbolTableRecord
100
AcDbLinetypeTableRecord
  2
DASHED_SPACE
 70
     0
  3
Dashed Space __ __ __ __ __ __ __ __ __ __ __ _
 72
    65
 73
     2
 40
0.0826
 49
0.0413
 74
     0
 49
-0.0413
 74
     0
  0
LTYPE
  5
7E
330
5
100
AcDbSymbolTableRecord
100
AcDbLinetypeTableRecord
  2
DOTTED
 70
     0
  3
Dotted . . . . . . . . . . . . . . . . . . . . 
 72
    65
 73
     2
 40
0.0482
 49
0.0069
 74
     0
 49
-0.0413
 74
     0
  0
LTYPE
  5
7F
330
5
100
AcDbSymbolTableRecord
100
AcDbLinetypeTableRecord
  2
DOUBLE_DASH_CHAIN
 70
     0
  3
Double Dash Chain ___ _ _ ___ _ _ ___ _ _ ___ _
 72
    65
 73
     6
 40
1.240299999999999
 49
0.6614
 74
     0
 49
-0.0827
 74
     0
 49
0.1654
 74
     0
 49
-0.0827
 74
     0
 49
0.1654
 74
     0
 49
-0.0827
 74
     0
  0
LTYPE
  5
80
330
5
100
AcDbSymbolTableRecord
100
AcDbLinetypeTableRecord
  2
DOUBLE_DASH_DOT
 70
     0
  3
Double Dash Dot __ __ . __ __ . __ __ . __ _
 72
    65
 73
     6
 40
0.67
 49
0.24
 74
     0
 49
-0.06
 74
     0
 49
0.24
 74
     0
 49
-0.06
 74
     0
 49
0.01
 74
     0
 49
-0.06
 74
     0
  0
LTYPE
  5
81
330
5
100
AcDbSymbolTableRecord
100
AcDbLinetypeTableRecord
  2
DOUBLE_DASH_DOUBLE_DOT
 70
     0
  3
Double-dash double-dot _ _ . . _ _ . . _
 72
    65
 73
     8
 40
0.7400000000000001
 49
0.24
 74
     0
 49
-0.06
 74
     0
 49
0.24
 74
     0
 49
-0.06
 74
     0
 49
0.01
 74
     0
 49
-0.06
 74
     0
 49
0.01
 74
     0
 49
-0.06
 74
     0
  0
LTYPE
  5
82
330
5
100
AcDbSymbolTableRecord
100
AcDbLinetypeTableRecord
  2
DOUBLE_DASH_TRIPLE_DOT
 70
     0
  3
Double Dash Triple Dot __ __ . . . __ __ . . .
 72
    65
 73
    10
 40
0.8100000000000001
 49
0.24
 74
     0
 49
-0.06
 74
     0
 49
0.24
 74
     0
 49
-0.06
 74
     0
 49
0.01
 74
     0
 49
-0.06
 74
     0
 49
0.01
 74
     0
 49
-0.06
 74
     0
 49
0.01
 74
     0
 49
-0.06
 74
     0
  0
LTYPE
  5
83
330
5
100
AcDbSymbolTableRecord
100
AcDbLinetypeTableRecord
  2
LONG_DASH_DOTTED
 70
     0
  3
Long Dash Dotted ____ . ____ . ____ . ____ . _
 72
    65
 73
     4
 40
0.61
 49
0.48
 74
     0
 49
-0.06
 74
     0
 49
0.01
 74
     0
 49
-0.06
 74
     0
  0
LTYPE
  5
84
330
5
100
AcDbSymbolTableRecord
100
AcDbLinetypeTableRecord
  2
LONG_DASH_DOUBLE_DOT
 70
     0
  3
Long Dash Double Dot ____ . . ____ . . ____ . .
 72
    65
 73
     6
 40
0.3345
 49
0.2362
 74
     0
 49
-0.0295
 74
     0
 49
0.0049
 74
     0
 49
-0.0295
 74
     0
 49
0.0049
 74
     0
 49
-0.0295
 74
     0
  0
LTYPE
  5
85
330
5
100
AcDbSymbolTableRecord
100
AcDbLinetypeTableRecord
  2
LONG_DASH_TRIPLE_DOT
 70
     0
  3
Long Dash Triple Dot ____ ... ____ ... ____
 72
    65
 73
     8
 40
0.75
 49
0.48
 74
     0
 49
-0.06
 74
     0
 49
0.01
 74
     0
 49
-0.06
 74
     0
 49
0.01
 74
     0
 49
-0.06
 74
     0
 49
0.01
 74
     0
 49
-0.06
 74
     0
  0
LTYPE
  5
86
330
5
100
AcDbSymbolTableRecord
100
AcDbLinetypeTableRecord
  2
BORDER
 70
     0
  3
Border __ __ . __ __ . __ __ . __ __ . __ __ .
 72
    65
 73
     6
 40
44.45
 49
12.7
 74
     0
 49
-6.349999999999999
 74
     0
 49
12.7
 74
     0
 49
-6.349999999999999
 74
     0
 49
0.0
 74
     0
 49
-6.349999999999999
 74
     0
  0
LTYPE
  5
87
330
5
100
AcDbSymbolTableRecord
100
AcDbLinetypeTableRecord
  2
BORDER2
 70
     0
  3
Border (.5x) __.__.__.__.__.__.__.__.__.__.__.
 72
    65
 73
     6
 40
22.225
 49
6.349999999999999
 74
     0
 49
-3.174999999999999
 74
     0
 49
6.349999999999999
 74
     0
 49
-3.174999999999999
 74
     0
 49
0.0
 74
     0
 49
-3.174999999999999
 74
     0
  0
LTYPE
  5
88
330
5
100
AcDbSymbolTableRecord
100
AcDbLinetypeTableRecord
  2
BORDERX2
 70
     0
  3
Border (2x) ____  ____  .  ____  ____  .  ___
 72
    65
 73
     6
 40
88.9
 49
25.4
 74
     0
 49
-12.7
 74
     0
 49
25.4
 74
     0
 49
-12.7
 74
     0
 49
0.0
 74
     0
 49
-12.7
 74
     0
  0
LTYPE
  5
89
330
5
100
AcDbSymbolTableRecord
100
AcDbLinetypeTableRecord
  2
CENTER
 70
     0
  3
Center ____ _ ____ _ ____ _ ____ _ ____ _ ____
 72
    65
 73
     4
 40
50.8
 49
31.75
 74
     0
 49
-6.349999999999999
 74
     0
 49
6.349999999999999
 74
     0
 49
-6.349999999999999
 74
     0
  0
LTYPE
  5
8A
330
5
100
AcDbSymbolTableRecord
100
AcDbLinetypeTableRecord
  2
CENTER2
 70
     0
  3
Center (.5x) ___ _ ___ _ ___ _ ___ _ ___ _ ___
 72
    65
 73
     4
 40
28.575
 49
19.05
 74
     0
 49
-3.174999999999999
 74
     0
 49
3.174999999999999
 74
     0
 49
-3.174999999999999
 74
     0
  0
LTYPE
  5
8B
330
5
100
AcDbSymbolTableRecord
100
AcDbLinetypeTableRecord
  2
CENTERX2
 70
     0
  3
Center (2x) ________  __  ________  __  _____
 72
    65
 73
     4
 40
101.6
 49
63.5
 74
     0
 49
-12.7
 74
     0
 49
12.7
 74
     0
 49
-12.7
 74
     0
  0
LTYPE
  5
8C
330
5
100
AcDbSymbolTableRecord
100
AcDbLinetypeTableRecord
  2
DASHDOT
 70
     0
  3
Dash dot __ . __ . __ . __ . __ . __ . __ . __
 72
    65
 73
     4
 40
25.4
 49
12.7
 74
     0
 49
-6.349999999999999
 74
     0
 49
0.0
 74
     0
 49
-6.349999999999999
 74
     0
  0
LTYPE
  5
8D
330
5
100
AcDbSymbolTableRecord
100
AcDbLinetypeTableRecord
  2
DASHDOT2
 70
     0
  3
Dash dot (.5x) _._._._._._._._._._._._._._._.
 72
    65
 73
     4
 40
12.7
 49
6.349999999999999
 74
     0
 49
-3.174999999999999
 74
     0
 49
0.0
 74
     0
 49
-3.174999999999999
 74
     0
  0
LTYPE
  5
8E
330
5
100
AcDbSymbolTableRecord
100
AcDbLinetypeTableRecord
  2
DASHDOTX2
 70
     0
  3
Dash dot (2x) ____  .  ____  .  ____  .  ___
 72
    65
 73
     4
 40
50.8
 49
25.4
 74
     0
 49
-12.7
 74
     0
 49
0.0
 74
     0
 49
-12.7
 74
     0
  0
LTYPE
  5
8F
330
5
100
AcDbSymbolTableRecord
100
AcDbLinetypeTableRecord
  2
DASHED2
 70
     0
  3
Dashed (.5x) _ _ _ _ _ _ _ _ _ _ _ _ _ _ _ _ _
 72
    65
 73
     2
 40
9.524999999999998
 49
6.349999999999999
 74
     0
 49
-3.174999999999999
 74
     0
  0
LTYPE
  5
90
330
5
100
AcDbSymbolTableRecord
100
AcDbLinetypeTableRecord
  2
DASHEDX2
 70
     0
  3
Dashed (2x) ____  ____  ____  ____  ____  ___
 72
    65
 73
     2
 40
38.1
 49
25.4
 74
     0
 49
-12.7
 74
     0
  0
LTYPE
  5
91
330
5
100
AcDbSymbolTableRecord
100
AcDbLinetypeTableRecord
  2
DIVIDE
 70
     0
  3
Divide ____ . . ____ . . ____ . . ____ . . ____
 72
    65
 73
     6
 40
31.75
 49
12.7
 74
     0
 49
-6.349999999999999
 74
     0
 49
0.0
 74
     0
 49
-6.349999999999999
 74
     0
 49
0.0
 74
     0
 49
-6.349999999999999
 74
     0
  0
LTYPE
  5
92
330
5
100
AcDbSymbolTableRecord
100
AcDbLinetypeTableRecord
  2
DIVIDE2
 70
     0
  3
Divide (.5x) __..__..__..__..__..__..__..__.._
 72
    65
 73
     6
 40
15.875
 49
6.349999999999999
 74
     0
 49
-3.174999999999999
 74
     0
 49
0.0
 74
     0
 49
-3.174999999999999
 74
     0
 49
0.0
 74
     0
 49
-3.174999999999999
 74
     0
  0
LTYPE
  5
93
330
5
100
AcDbSymbolTableRecord
100
AcDbLinetypeTableRecord
  2
DIVIDEX2
 70
     0
  3
Divide (2x) ________  .  .  ________  .  .  _
 72
    65
 73
     6
 40
63.49999999999999
 49
25.4
 74
     0
 49
-12.7
 74
     0
 49
0.0
 74
     0
 49
-12.7
 74
     0
 49
0.0
 74
     0
 49
-12.7
 74
     0
  0
LTYPE
  5
94
330
5
100
AcDbSymbolTableRecord
100
AcDbLinetypeTableRecord
  2
DOT2
 70
     0
  3
Dot (.5x) .....................................
 72
    65
 73
     2
 40
3.174999999999999
 49
0.0
 74
     0
 49
-3.174999999999999
 74
     0
  0
LTYPE
  5
95
330
5
100
AcDbSymbolTableRecord
100
AcDbLinetypeTableRecord
  2
DOTX2
 70
     0
  3
Dot (2x) .  .  .  .  .  .  .  .  .  .  .  .  . 
 72
    65
 73
     2
 40
12.7
 49
0.0
 74
     0
 49
-12.7
 74
     0
  0
LTYPE
  5
96
330
5
100
AcDbSymbolTableRecord
100
AcDbLinetypeTableRecord
  2
HIDDEN
 70
     0
  3
Hidden __ __ __ __ __ __ __ __ __ __ __ __ __ _
 72
    65
 73
     2
 40
9.524999999999998
 49
6.349999999999999
 74
     0
 49
-3.174999999999999
 74
     0
  0
LTYPE
  5
97
330
5
100
AcDbSymbolTableRecord
100
AcDbLinetypeTableRecord
  2
HIDDEN2
 70
     0
  3
Hidden (.5x) _ _ _ _ _ _ _ _ _ _ _ _ _ _ _ _ _
 72
    65
 73
     2
 40
4.762499999999999
 49
3.174999999999999
 74
     0
 49
-1.587499999999999
 74
     0
  0
LTYPE
  5
98
330
5
100
AcDbSymbolTableRecord
100
AcDbLinetypeTableRecord
  2
HIDDENX2
 70
     0
  3
Hidden (2x) ____ ____ ____ ____ ____ ____ ____
 72
    65
 73
     2
 40
19.05
 49
12.7
 74
     0
 49
-6.349999999999999
 74
     0
  0
LTYPE
  5
99
330
5
100
AcDbSymbolTableRecord
100
AcDbLinetypeTableRecord
  2
PHANTOM
 70
     0
  3
Phantom ______  __  __  ______  __  __  ______
 72
    65
 73
     6
 40
63.5
 49
31.75
 74
     0
 49
-6.349999999999999
 74
     0
 49
6.349999999999999
 74
     0
 49
-6.349999999999999
 74
     0
 49
6.349999999999999
 74
     0
 49
-6.349999999999999
 74
     0
  0
LTYPE
  5
9A
330
5
100
AcDbSymbolTableRecord
100
AcDbLinetypeTableRecord
  2
PHANTOM2
 70
     0
  3
Phantom (.5x) ___ _ _ ___ _ _ ___ _ _ ___ _ _
 72
    65
 73
     6
 40
31.75
 49
15.875
 74
     0
 49
-3.174999999999999
 74
     0
 49
3.174999999999999
 74
     0
 49
-3.174999999999999
 74
     0
 49
3.174999999999999
 74
     0
 49
-3.174999999999999
 74
     0
  0
LTYPE
  5
9B
330
5
100
AcDbSymbolTableRecord
100
AcDbLinetypeTableRecord
  2
PHANTOMX2
 70
     0
  3
Phantom (2x) ____________    ____    ____   _
 72
    65
 73
     6
 40
127.0
 49
63.5
 74
     0
 49
-12.7
 74
     0
 49
12.7
 74
     0
 49
-12.7
 74
     0
 49
12.7
 74
     0
 49
-12.7
 74
     0
  0
LTYPE
  5
9C
330
5
100
AcDbSymbolTableRecord
100
AcDbLinetypeTableRecord
  2
ACAD_ISO02W100
 70
     0
  3
ISO dash __ __ __ __ __ __ __ __ __ __ __ __ __
 72
    65
 73
     2
 40
15.0
 49
12.0
 74
     0
 49
-3.0
 74
     0
  0
LTYPE
  5
9D
330
5
100
AcDbSymbolTableRecord
100
AcDbLinetypeTableRecord
  2
ACAD_ISO03W100
 70
     0
  3
ISO dash space __    __    __    __    __    __
 72
    65
 73
     2
 40
30.0
 49
12.0
 74
     0
 49
-18.0
 74
     0
  0
LTYPE
  5
9E
330
5
100
AcDbSymbolTableRecord
100
AcDbLinetypeTableRecord
  2
ACAD_ISO04W100
 70
     0
  3
ISO long-dash dot ____ . ____ . ____ . ____ . _
 72
    65
 73
     4
 40
30.0
 49
24.0
 74
     0
 49
-3.0
 74
     0
 49
0.0
 74
     0
 49
-3.0
 74
     0
  0
LTYPE
  5
9F
330
5
100
AcDbSymbolTableRecord
100
AcDbLinetypeTableRecord
  2
ACAD_ISO05W100
 70
     0
  3
ISO long-dash double-dot ____ .. ____ .. ____ .
 72
    65
 73
     6
 40
33.0
 49
24.0
 74
     0
 49
-3.0
 74
     0
 49
0.0
 74
     0
 49
-3.0
 74
     0
 49
0.0
 74
     0
 49
-3.0
 74
     0
  0
LTYPE
  5
A0
330
5
100
AcDbSymbolTableRecord
100
AcDbLinetypeTableRecord
  2
ACAD_ISO06W100
 70
     0
  3
ISO long-dash triple-dot ____ ... ____ ... ____
 72
    65
 73
     8
 40
36.0
 49
24.0
 74
     0
 49
-3.0
 74
     0
 49
0.0
 74
     0
 49
-3.0
 74
     0
 49
0.0
 74
     0
 49
-3.0
 74
     0
 49
0.0
 74
     0
 49
-3.0
 74
     0
  0
LTYPE
  5
A1
330
5
100
AcDbSymbolTableRecord
100
AcDbLinetypeTableRecord
  2
ACAD_ISO07W100
 70
     0
  3
ISO dot . . . . . . . . . . . . . . . . . . . .
 72
    65
 73
     2
 40
3.0
 49
0.0
 74
     0
 49
-3.0
 74
     0
  0
LTYPE
  5
A2
330
5
100
AcDbSymbolTableRecord
100
AcDbLinetypeTableRecord
  2
ACAD_ISO08W100
 70
     0
  3
ISO long-dash short-dash ____ __ ____ __ ____ _
 72
    65
 73
     4
 40
36.0
 49
24.0
 74
     0
 49
-3.0
 74
     0
 49
6.0
 74
     0
 49
-3.0
 74
     0
  0
LTYPE
  5
A3
330
5
100
AcDbSymbolTableRecord
100
AcDbLinetypeTableRecord
  2
ACAD_ISO09W100
 70
     0
  3
ISO long-dash double-short-dash ____ __ __ ____
 72
    65
 73
     6
 40
45.0
 49
24.0
 74
     0
 49
-3.0
 74
     0
 49
6.0
 74
     0
 49
-3.0
 74
     0
 49
6.0
 74
     0
 49
-3.0
 74
     0
  0
LTYPE
  5
A4
330
5
100
AcDbSymbolTableRecord
100
AcDbLinetypeTableRecord
  2
ACAD_ISO10W100
 70
     0
  3
ISO dash dot __ . __ . __ . __ . __ . __ . __ .
 72
    65
 73
     4
 40
18.0
 49
12.0
 74
     0
 49
-3.0
 74
     0
 49
0.0
 74
     0
 49
-3.0
 74
     0
  0
LTYPE
  5
A5
330
5
100
AcDbSymbolTableRecord
100
AcDbLinetypeTableRecord
  2
ACAD_ISO11W100
 70
     0
  3
ISO double-dash dot __ __ . __ __ . __ __ . __ 
 72
    65
 73
     6
 40
33.0
 49
12.0
 74
     0
 49
-3.0
 74
     0
 49
12.0
 74
     0
 49
-3.0
 74
     0
 49
0.0
 74
     0
 49
-3.0
 74
     0
  0
LTYPE
  5
A6
330
5
100
AcDbSymbolTableRecord
100
AcDbLinetypeTableRecord
  2
ACAD_ISO12W100
 70
     0
  3
ISO dash double-dot __ . . __ . . __ . . __ . .
 72
    65
 73
     6
 40
21.0
 49
12.0
 74
     0
 49
-3.0
 74
     0
 49
0.0
 74
     0
 49
-3.0
 74
     0
 49
0.0
 74
     0
 49
-3.0
 74
     0
  0
LTYPE
  5
A7
330
5
100
AcDbSymbolTableRecord
100
AcDbLinetypeTableRecord
  2
ACAD_ISO13W100
 70
     0
  3
ISO double-dash double-dot __ __ . . __ __ . . 
 72
    65
 73
     8
 40
36.0
 49
12.0
 74
     0
 49
-3.0
 74
     0
 49
12.0
 74
     0
 49
-3.0
 74
     0
 49
0.0
 74
     0
 49
-3.0
 74
     0
 49
0.0
 74
     0
 49
-3.0
 74
     0
  0
LTYPE
  5
A8
330
5
100
AcDbSymbolTableRecord
100
AcDbLinetypeTableRecord
  2
ACAD_ISO14W100
 70
     0
  3
ISO dash triple-dot __ . . . __ . . . __ . . . 
 72
    65
 73
     8
 40
24.0
 49
12.0
 74
     0
 49
-3.0
 74
     0
 49
0.0
 74
     0
 49
-3.0
 74
     0
 49
0.0
 74
     0
 49
-3.0
 74
     0
 49
0.0
 74
     0
 49
-3.0
 74
     0
  0
LTYPE
  5
A9
330
5
100
AcDbSymbolTableRecord
100
AcDbLinetypeTableRecord
  2
ACAD_ISO15W100
 70
     0
  3
ISO double-dash triple-dot __ __ . . . __ __ . 
 72
    65
 73
    10
 40
39.0
 49
12.0
 74
     0
 49
-3.0
 74
     0
 49
12.0
 74
     0
 49
-3.0
 74
     0
 49
0.0
 74
     0
 49
-3.0
 74
     0
 49
0.0
 74
     0
 49
-3.0
 74
     0
 49
0.0
 74
     0
 49
-3.0
 74
     0
  0
LTYPE
  5
AC
330
5
100
AcDbSymbolTableRecord
100
AcDbLinetypeTableRecord
  2
FENCELINE1
 70
     0
  3
Fenceline circle ----0-----0----0-----0----0---
 72
    65
 73
     4
 40
36.83
 49
6.349999999999999
 74
     0
 49
-2.54
 74
     4
 75
   133
340
AB
 46
2.54
 50
0.0
 44
-2.54
 45
0.0
 49
-2.54
 74
     0
 49
25.4
 74
     0
  0
LTYPE
  5
AD
330
5
100
AcDbSymbolTableRecord
100
AcDbLinetypeTableRecord
  2
FENCELINE2
 70
     0
  3
Fenceline square ----[]-----[]----[]-----[]----
 72
    65
 73
     4
 40
36.83
 49
6.349999999999999
 74
     0
 49
-2.54
 74
     4
 75
   132
340
AB
 46
2.54
 50
0.0
 44
-2.54
 45
0.0
 49
-2.54
 74
     0
 49
25.4
 74
     0
  0
LTYPE
  5
AE
330
5
100
AcDbSymbolTableRecord
100
AcDbLinetypeTableRecord
  2
TRACKS
 70
     0
  3
Tracks -|-|-|-|-|-|-|-|-|-|-|-|-|-|-|-|-|-|-|-|
 72
    65
 73
     2
 40
7.62
 49
3.81
 74
     4
 75
   130
340
AB
 46
6.349999999999999
 50
0.0
 44
0.0
 45
0.0
 49
3.81
 74
     0
  0
LTYPE
  5
AF
330
5
100
AcDbSymbolTableRecord
100
AcDbLinetypeTableRecord
  2
BATTING
 70
     0
  3
Batting SSSSSSSSSSSSSSSSSSSSSSSSSSSSSSSSSSSSSSS
 72
    65
 73
     4
 40
10.16254
 49
0.00254
 74
     0
 49
-2.54
 74
     4
 75
   134
340
AB
 46
2.54
 50
0.0
 44
-2.54
 45
0.0
 49
-5.08
 74
     4
 75
   134
340
AB
 46
2.54
 50
180.0
 44
2.54
 45
0.0
 49
-2.54
 74
     0
  0
LTYPE
  5
B0
330
5
100
AcDbSymbolTableRecord
100
AcDbLinetypeTableRecord
  2
HOT_WATER_SUPPLY
 70
     0
  3
Hot water supply ---- HW ---- HW ---- HW ----
 72
    65
 73
     3
 40
22.86
 49
12.7
 74
     0
 49
-5.08
 74
     2
 75
     0
340
55
 46
2.54
 50
0.0
 44
-2.54
 45
-1.27
  9
HW
 49
-5.08
 74
     0
  0
LTYPE
  5
B1
330
5
100
AcDbSymbolTableRecord
100
AcDbLinetypeTableRecord
  2
GAS_LINE
 70
     0
  3
Gas line ----GAS----GAS----GAS----GAS----GAS---
 72
    65
 73
     3
 40
24.13
 49
12.7
 74
     0
 49
-5.08
 74
     2
 75
     0
340
55
 46
2.54
 50
0.0
 44
-2.54
 45
-1.27
  9
GAS
 49
-6.349999999999999
 74
     0
  0
LTYPE
  5
B2
330
5
100
AcDbSymbolTableRecord
100
AcDbLinetypeTableRecord
  2
ZIGZAG
 70
     0
  3
Zig zag /\/\/\/\/\/\/\/\/\/\/\/\/\/\/\/\/\/\/\/
 72
    65
 73
     4
 40
20.32254
 49
0.00254
 74
     0
 49
-5.08
 74
     4
 75
   131
340
AB
 46
5.08
 50
0.0
 44
-5.08
 45
0.0
 49
-10.16
 74
     4
 75
   131
340
AB
 46
5.08
 50
180.0
 44
5.08
 45
0.0
 49
-5.08
 74
     0
  0
ENDTAB
  0
TABLE
  2
LAYER
  5
2
330
0
100
AcDbSymbolTable
 70
    30
  0
LAYER
  5
54
330
2
100
AcDbSymbolTableRecord
100
AcDbLayerTableRecord
  2
0
 70
     0
 62
     7
  6
Continuous
370
    25
390
F
347
21
348
0
  0
LAYER
  5
B3
330
2
100
AcDbSymbolTableRecord
100
AcDbLayerTableRecord
  2
1
 70
     0
 62
     9
420
 12566463
  6
Continuous
370
    25
390
F
347
21
348
0
  0
LAYER
  5
B5
330
2
100
AcDbSymbolTableRecord
100
AcDbLayerTableRecord
  2
6
 70
     0
 62
     2
420
 16776960
  6
Continuous
370
    25
390
F
347
21
348
0
  0
LAYER
  5
B6
330
2
100
AcDbSymbolTableRecord
100
AcDbLayerTableRecord
  2
AM_6
 70
     0
 62
     2
420
 16776960
  6
Continuous
370
    35
390
F
347
21
348
0
  0
LAYER
  5
C6
330
2
100
AcDbSymbolTableRecord
100
AcDbLayerTableRecord
  2
Sketch Geometry (ISO)
 70
     0
 62
     7
  6
Continuous
370
    25
390
F
347
21
348
0
  0
LAYER
  5
C7
330
2
100
AcDbSymbolTableRecord
100
AcDbLayerTableRecord
  2
Symbol (ISO)
 70
     0
 62
     7
  6
Continuous
370
    25
390
F
347
21
348
0
  0
LAYER
  5
CA
330
2
100
AcDbSymbolTableRecord
100
AcDbLayerTableRecord
  2
Visible (ISO)
 70
     0
 62
     7
  6
Continuous
370
    35
390
F
347
21
348
0
  0
ENDTAB
  0
TABLE
  2
STYLE
  5
3
330
0
100
AcDbSymbolTable
 70
    16
  0
STYLE
  5
55
330
3
100
AcDbSymbolTableRecord
100
AcDbTextStyleTableRecord
  2
Standard
 70
     0
 40
0.0
 41
1.0
 50
0.0
 71
     0
 42
0.2
  3
tahoma.ttf
  4

1001
ACAD
1000
Tahoma
1071
      256
  0
STYLE
  5
5A
330
3
100
AcDbSymbolTableRecord
100
AcDbTextStyleTableRecord
  2
Annotative
 70
     0
 40
0.0
 41
1.0
 50
0.0
 71
     0
 42
0.2
  3
txt
  4

1001
AcadAnnotative
1000
AnnotativeData
1002
{
1070
     1
1070
     1
1002
}
  0
STYLE
  5
AB
330
3
100
AcDbSymbolTableRecord
100
AcDbTextStyleTableRecord
  2

 70
     1
 40
0.0
 41
1.0
 50
0.0
 71
     0
 42
0.2
  3
ltypeshp.shx
  4

  0
STYLE
  5
D0
330
3
100
AcDbSymbolTableRecord
100
AcDbTextStyleTableRecord
  2
Label Text (JIS)
 70
     0
 40
0.0
 41
1.0
 50
0.0
 71
     0
 42
0.2
  3

  4

1001
ACAD
1000
MS PGothic
1071
      256
  0
STYLE
  5
D1
330
3
100
AcDbSymbolTableRecord
100
AcDbTextStyleTableRecord
  2
Note Text (JIS)
 70
     0
 40
0.0
 41
1.0
 50
0.0
 71
     0
 42
0.2
  3

  4

1001
ACAD
1000
MS PGothic
1071
      256
  0
STYLE
  5
D2
330
3
100
AcDbSymbolTableRecord
100
AcDbTextStyleTableRecord
  2
ｽﾀｲﾙ1_35
 70
     0
 40
0.0
 41
1.0
 50
0.0
 71
     0
 42
0.2
  3

  4

1001
ACAD
1000
HGPSoeiKakugothicUB
1071
      256
  0
STYLE
  5
10F
330
3
100
AcDbSymbolTableRecord
100
AcDbTextStyleTableRecord
  2
文字スタイル154
 70
     0
 40
0.0
 41
1.0
 50
0.0
 71
     0
 42
0.2
  3
ISOCP.shx
  4

  0
STYLE
  5
12F
330
3
100
AcDbSymbolTableRecord
100
AcDbTextStyleTableRecord
  2
文字スタイル74
 70
     0
 40
0.0
 41
0.5
 50
0.0
 71
     0
 42
0.2
  3
ISOCP.shx
  4

  0
STYLE
  5
134
330
3
100
AcDbSymbolTableRecord
100
AcDbTextStyleTableRecord
  2
文字スタイル77
 70
     0
 40
0.0
 41
0.8000000119209289
 50
0.0
 71
     0
 42
0.2
  3
ISOCP.shx
  4

  0
STYLE
  5
136
330
3
100
AcDbSymbolTableRecord
100
AcDbTextStyleTableRecord
  2
文字スタイル153
 70
     0
 40
0.0
 41
1.0
 50
0.0
 71
     0
 42
0.2
  3
ISOCP.shx
  4

  0
STYLE
  5
142
330
3
100
AcDbSymbolTableRecord
100
AcDbTextStyleTableRecord
  2
文字スタイル69
 70
     0
 40
0.0
 41
1.0
 50
0.0
 71
     0
 42
0.2
  3
tahoma.ttf
  4

1001
ACAD
1000
Tahoma
1071
      256
  0
STYLE
  5
14D
330
3
100
AcDbSymbolTableRecord
100
AcDbTextStyleTableRecord
  2
文字スタイル144
 70
     0
 40
0.0
 41
0.7031300067901612
 50
0.0
 71
     0
 42
0.2
  3
tahoma.ttf
  4

1001
ACAD
1000
Tahoma
1071
      256
  0
STYLE
  5
170
330
3
100
AcDbSymbolTableRecord
100
AcDbTextStyleTableRecord
  2
文字スタイル124
 70
     0
 40
0.0
 41
1.0
 50
0.0
 71
     0
 42
0.2
  3

  4

1001
ACAD
1000
MS PGothic
1071
      256
  0
STYLE
  5
176
330
3
100
AcDbSymbolTableRecord
100
AcDbTextStyleTableRecord
  2
文字スタイル125
 70
     0
 40
0.0
 41
1.0
 50
0.0
 71
     0
 42
0.2
  3
ISOCP.shx
  4

  0
STYLE
  5
186
330
3
100
AcDbSymbolTableRecord
100
AcDbTextStyleTableRecord
  2
文字スタイル126
 70
     0
 40
0.0
 41
1.0
 50
0.0
 71
     0
 42
0.2
  3

  4

1001
ACAD
1000
MS PGothic
1071
      256
  0
STYLE
  5
1A7
330
3
100
AcDbSymbolTableRecord
100
AcDbTextStyleTableRecord
  2
文字スタイル133
 70
     0
 40
0.0
 41
1.0
 50
0.0
 71
     0
 42
0.2
  3
ISOCP.shx
  4

  0
ENDTAB
  0
TABLE
  2
VIEW
  5
6
330
0
100
AcDbSymbolTable
 70
     0
  0
ENDTAB
  0
TABLE
  2
UCS
  5
7
330
0
100
AcDbSymbolTable
 70
     0
  0
ENDTAB
  0
TABLE
  2
APPID
  5
9
330
0
100
AcDbSymbolTable
 70
     2
  0
APPID
  5
56
330
9
100
AcDbSymbolTableRecord
100
AcDbRegAppTableRecord
  2
ACAD
 70
     0
  0
APPID
  5
5E
330
9
100
AcDbSymbolTableRecord
100
AcDbRegAppTableRecord
  2
AcadAnnotative
 70
     0
  0
ENDTAB
  0
TABLE
  2
DIMSTYLE
  5
A
330
0
100
AcDbSymbolTable
 70
    11
100
AcDbDimStyleTable
 71
     0
  0
DIMSTYLE
105
58
330
A
100
AcDbSymbolTableRecord
100
AcDbDimStyleTableRecord
  2
Standard
 70
     0
340
55
  0
DIMSTYLE
105
59
330
A
100
AcDbSymbolTableRecord
100
AcDbDimStyleTableRecord
  2
Annotative
 70
     0
340
55
1001
AcadAnnotative
1000
AnnotativeData
1002
{
1070
     1
1070
     1
1002
}
  0
DIMSTYLE
105
D3
330
A
100
AcDbSymbolTableRecord
100
AcDbDimStyleTableRecord
  2
Default - Method 1b (JIS)
 70
     0
 41
2.5
 42
0.0
 43
5.999999999999999
 44
3.174999999999999
 45
0.00000001
 46
10.0
 73
     0
 77
     1
 78
     8
 79
     2
140
2.5
143
0.03937
146
1.799999952316284
147
0.8
171
     3
172
     1
176
   256
177
   256
178
   256
271
     2
272
     2
274
     3
284
     8
286
     8
340
D1
371
    -1
372
    -1
  0
DIMSTYLE
105
D4
330
A
100
AcDbSymbolTableRecord
100
AcDbDimStyleTableRecord
  2
Default - Method 1b (JIS)$7
 70
     0
 41
2.5
 42
0.0
 43
5.999999999999999
 44
3.174999999999999
 45
0.00000001
 46
10.0
 73
     0
 77
     1
 78
     8
 79
     2
140
2.5
143
0.03937
146
1.799999952316284
147
0.8
171
     3
172
     1
176
   256
177
   256
178
   256
271
     2
272
     2
274
     3
284
     8
286
     8
340
D1
371
    -1
372
    -1
  0
DIMSTYLE
105
D5
330
A
100
AcDbSymbolTableRecord
100
AcDbDimStyleTableRecord
  2
Default - Method 2 (JIS)
 70
     0
 41
2.5
 42
0.0
 43
5.999999999999999
 44
3.174999999999999
 45
0.00000001
 46
10.0
 77
     1
 78
     8
 79
     2
140
2.5
143
0.03937
146
1.799999952316284
147
0.8
171
     3
172
     1
176
   256
177
   256
178
   256
271
     2
272
     2
274
     3
284
     8
286
     8
340
D1
371
    -1
372
    -1
  0
DIMSTYLE
105
D6
330
A
100
AcDbSymbolTableRecord
100
AcDbDimStyleTableRecord
  2
Default - Method 2 (JIS)$7
 70
     0
 41
2.5
 42
0.0
 43
5.999999999999999
 44
3.174999999999999
 45
0.00000001
 46
10.0
 77
     1
 78
     8
 79
     2
140
2.5
143
0.03937
146
1.799999952316284
147
0.8
171
     3
172
     1
176
   256
177
   256
178
   256
271
     2
272
     2
274
     3
284
     8
286
     8
340
D1
371
    -1
372
    -1
  0
DIMSTYLE
105
D7
330
A
100
AcDbSymbolTableRecord
100
AcDbDimStyleTableRecord
  2
Default (JIS)
 70
     0
 41
2.5
 42
0.0
 43
5.999999999999999
 44
1.0
 45
0.00000001
 46
10.0
 73
     0
 74
     0
 77
     1
 78
     8
 79
     2
140
2.5
143
0.03937
147
0.8
171
     3
172
     1
176
   256
177
   256
178
   256
271
     2
272
     2
274
     3
340
D1
371
    -1
372
    -1
  0
DIMSTYLE
105
D8
330
A
100
AcDbSymbolTableRecord
100
AcDbDimStyleTableRecord
  2
Default (JIS)$7
 70
     0
 41
2.5
 42
0.0
 43
5.999999999999999
 44
1.0
 45
0.00000001
 46
10.0
 73
     0
 74
     0
 77
     1
 78
     8
 79
     2
140
2.5
143
0.03937
147
0.8
171
     3
172
     1
176
   256
177
   256
178
   256
271
     2
272
     2
274
     3
340
D1
371
    -1
372
    -1
  0
DIMSTYLE
105
D9
330
A
100
AcDbSymbolTableRecord
100
AcDbDimStyleTableRecord
  2
Alternate (ISO)
 70
     0
 41
2.5
340
55
  0
DIMSTYLE
105
E5
330
A
100
AcDbSymbolTableRecord
100
AcDbDimStyleTableRecord
  2
Datum (ISO)
 70
     0
 41
2.5
340
55
  0
DIMSTYLE
105
F4
330
A
100
AcDbSymbolTableRecord
100
AcDbDimStyleTableRecord
  2
Large (ISO)
 70
     0
 41
5.0
340
55
  0
ENDTAB
  0
TABLE
  2
BLOCK_RECORD
  5
1
330
0
100
AcDbSymbolTable
 70
    14
  0
BLOCK_RECORD
  5
70
330
1
100
AcDbSymbolTableRecord
100
AcDbBlockTableRecord
  2
*Model_Space
340
73
 70
     0
280
     1
281
     0
  0
BLOCK_RECORD
  5
6C
330
1
100
AcDbSymbolTableRecord
100
AcDbBlockTableRecord
  2
*Paper_Space
340
6F
 70
     0
280
     1
281
     0
  0
BLOCK_RECORD
  5
74
330
1
100
AcDbSymbolTableRecord
100
AcDbBlockTableRecord
  2
*Paper_Space0
340
77
 70
     0
280
     1
281
     0
  0
BLOCK_RECORD
  5
DA
330
1
100
AcDbSymbolTableRecord
100
AcDbBlockTableRecord
  2
DatumFilled45
340
0
 70
     0
280
     1
281
     0
  0
BLOCK_RECORD
  5
E6
330
1
100
AcDbSymbolTableRecord
100
AcDbBlockTableRecord
  2
Filled-1
340
0
 70
     0
280
     1
281
     0
  0
BLOCK_RECORD
  5
F5
330
1
100
AcDbSymbolTableRecord
100
AcDbBlockTableRecord
  2
許容差
340
0
 70
     0
280
     1
281
     0
  0
BLOCK_RECORD
  5
162
330
1
100
AcDbSymbolTableRecord
100
AcDbBlockTableRecord
  2
バルブ仕様表
340
0
 70
     0
280
     1
281
     0
  0
BLOCK_RECORD
  5
17E
330
1
100
AcDbSymbolTableRecord
100
AcDbBlockTableRecord
  2
バルブ開閉R1
340
0
 70
     0
280
     1
281
     0
  0
BLOCK_RECORD
  5
189
330
1
100
AcDbSymbolTableRecord
100
AcDbBlockTableRecord
  2
バルブ開閉R2
340
0
 70
     0
280
     1
281
     0
  0
BLOCK_RECORD
  5
193
330
1
100
AcDbSymbolTableRecord
100
AcDbBlockTableRecord
  2
ｴｰｽﾎﾞｰﾙｿｹｯﾄ・本体注釈①
340
0
 70
     0
280
     1
281
     0
  0
BLOCK_RECORD
  5
197
330
1
100
AcDbSymbolTableRecord
100
AcDbBlockTableRecord
  2
バルブ仕様書①
340
0
 70
     0
280
     1
281
     0
  0
BLOCK_RECORD
  5
1A9
330
1
100
AcDbSymbolTableRecord
100
AcDbBlockTableRecord
  2
ストッパー加工注釈
340
0
 70
     0
280
     1
281
     0
  0
BLOCK_RECORD
  5
1AD
330
1
100
AcDbSymbolTableRecord
100
AcDbBlockTableRecord
  2
三方弁説明A
340
0
 70
     0
280
     1
281
     0
  0
BLOCK_RECORD
  5
1B1
330
1
100
AcDbSymbolTableRecord
100
AcDbBlockTableRecord
  2
三方弁説明B
340
0
 70
     0
280
     1
281
     0
  0
BLOCK_RECORD
  5
1B5
330
1
100
AcDbSymbolTableRecord
100
AcDbBlockTableRecord
  2
三方弁説明C
340
0
 70
     0
280
     1
281
     0
  0
BLOCK_RECORD
  5
1B9
330
1
100
AcDbSymbolTableRecord
100
AcDbBlockTableRecord
  2
三方弁流れ方向
340
0
 70
     0
280
     1
281
     0
  0
ENDTAB
  0
ENDSEC
  0
SECTION
  2
BLOCKS
  0
BLOCK
  5
71
330
70
100
AcDbEntity
  8
0
100
AcDbBlockBegin
  2
*Model_Space
 70
     0
 10
0.0
 20
0.0
 30
0.0
  3
*Model_Space
  1

  0
ENDBLK
  5
72
330
70
100
AcDbEntity
  8
0
100
AcDbBlockEnd
  0
BLOCK
  5
6D
330
6C
100
AcDbEntity
 67
     1
  8
0
100
AcDbBlockBegin
  2
*Paper_Space
 70
     0
 10
0.0
 20
0.0
 30
0.0
  3
*Paper_Space
  1

  0
ENDBLK
  5
6E
330
6C
100
AcDbEntity
 67
     1
  8
0
100
AcDbBlockEnd
  0
BLOCK
  5
75
330
74
100
AcDbEntity
 67
     1
  8
0
100
AcDbBlockBegin
  2
*Paper_Space0
 70
     0
 10
0.0
 20
0.0
 30
0.0
  3
*Paper_Space0
  1

  0
ENDBLK
  5
76
330
74
100
AcDbEntity
 67
     1
  8
0
100
AcDbBlockEnd
  0
BLOCK
  5
DB
330
DA
100
AcDbEntity
  8
0
100
AcDbBlockBegin
  2
DatumFilled45
 70
     0
 10
0.0
 20
0.0
 30
0.0
  3
DatumFilled45
  1

  0
POLYLINE
  5
DD
330
DA
100
AcDbEntity
  8
0
 62
     0
100
AcDb2dPolyline
 66
     1
 10
0.0
 20
0.0
 30
0.0
 70
   128
  0
VERTEX
  5
DE
330
DD
100
AcDbEntity
  8
0
 62
     0
100
AcDbVertex
100
AcDb2dVertex
 10
0.0
 20
1.0
 30
0.0
  0
VERTEX
  5
DF
330
DD
100
AcDbEntity
  8
0
 62
     0
100
AcDbVertex
100
AcDb2dVertex
 10
0.0
 20
-1.0
 30
0.0
  0
VERTEX
  5
E1
330
DD
100
AcDbEntity
  8
0
 62
     0
100
AcDbVertex
100
AcDb2dVertex
 10
-1.0
 20
0.0
 30
0.0
  0
VERTEX
  5
E2
330
DD
100
AcDbEntity
  8
0
 62
     0
100
AcDbVertex
100
AcDb2dVertex
 10
0.0
 20
1.0
 30
0.0
  0
SEQEND
  5
E0
330
DD
100
AcDbEntity
  8
0
 62
     0
  0
SOLID
  5
E4
330
DA
100
AcDbEntity
  8
0
 62
     0
100
AcDbTrace
 10
0.0
 20
1.0
 30
0.0
 11
0.0
 21
-1.0
 31
0.0
 12
-1.0
 22
0.0
 32
0.0
 13
0.0
 23
1.0
 33
0.0
  0
ENDBLK
  5
DC
330
DA
100
AcDbEntity
  8
0
100
AcDbBlockEnd
  0
BLOCK
  5
E7
330
E6
100
AcDbEntity
  8
0
100
AcDbBlockBegin
  2
Filled-1
 70
     0
 10
0.0
 20
0.0
 30
0.0
  3
Filled-1
  1

  0
LINE
  5
E9
330
E6
100
AcDbEntity
  8
0
 62
     0
100
AcDbLine
 10
-1.0
 20
0.0
 30
0.0
 11
0.0
 21
0.0
 31
0.0
  0
POLYLINE
  5
EA
330
E6
100
AcDbEntity
  8
0
 62
     0
100
AcDb2dPolyline
 66
     1
 10
0.0
 20
0.0
 30
0.0
 70
   128
  0
VERTEX
  5
EB
330
EA
100
AcDbEntity
  8
0
 62
     0
100
AcDbVertex
100
AcDb2dVertex
 10
-1.0
 20
-0.1
 30
0.0
  0
VERTEX
  5
EC
330
EA
100
AcDbEntity
  8
0
 62
     0
100
AcDbVertex
100
AcDb2dVertex
 10
0.0
 20
0.0
 30
0.0
  0
VERTEX
  5
EE
330
EA
100
AcDbEntity
  8
0
 62
     0
100
AcDbVertex
100
AcDb2dVertex
 10
-1.0
 20
0.1
 30
0.0
  0
VERTEX
  5
EF
330
EA
100
AcDbEntity
  8
0
 62
     0
100
AcDbVertex
100
AcDb2dVertex
 10
-1.0
 20
-0.1
 30
0.0
  0
SEQEND
  5
ED
330
EA
100
AcDbEntity
  8
0
 62
     0
  0
SOLID
  5
F0
330
E6
100
AcDbEntity
  8
0
 62
     0
100
AcDbTrace
 10
-1.0
 20
-0.1
 30
0.0
 11
0.0
 21
0.0
 31
0.0
 12
-1.0
 22
0.1
 32
0.0
 13
-1.0
 23
-0.1
 33
0.0
  0
LINE
  5
F1
330
E6
100
AcDbEntity
  8
0
 62
     0
100
AcDbLine
 10
-1.0
 20
-0.1
 30
0.0
 11
0.0
 21
0.0
 31
0.0
  0
LINE
  5
F2
330
E6
100
AcDbEntity
  8
0
 62
     0
100
AcDbLine
 10
0.0
 20
0.0
 30
0.0
 11
-1.0
 21
0.1
 31
0.0
  0
LINE
  5
F3
330
E6
100
AcDbEntity
  8
0
 62
     0
100
AcDbLine
 10
-1.0
 20
0.1
 30
0.0
 11
-1.0
 21
-0.1
 31
0.0
  0
ENDBLK
  5
E8
330
E6
100
AcDbEntity
  8
0
100
AcDbBlockEnd
  0
BLOCK
  5
F6
330
F5
100
AcDbEntity
  8
0
100
AcDbBlockBegin
  2
許容差
 70
     0
 10
0.0
 20
0.0
 30
0.0
  3
許容差
  1

  0
LINE
  5
F8
330
F5
100
AcDbEntity
  8
1
  6
Continuous
 62
     7
370
    25
100
AcDbLine
 10
-51.66713443007161
 20
-23.86585254105029
 30
0.0
 11
0.0
 21
-23.86585254105029
 31
0.0
  0
LINE
  5
F9
330
F5
100
AcDbEntity
  8
1
  6
Continuous
 62
     7
370
    25
100
AcDbLine
 10
0.0
 20
-23.86585254105029
 30
0.0
 11
0.0
 21
0.0
 31
0.0
  0
LINE
  5
FA
330
F5
100
AcDbEntity
  8
1
  6
Continuous
 62
     7
370
    25
100
AcDbLine
 10
0.0
 20
0.0
 30
0.0
 11
-51.66713443007161
 21
0.0
 31
0.0
  0
LINE
  5
FB
330
F5
100
AcDbEntity
  8
1
  6
Continuous
 62
     7
370
    25
100
AcDbLine
 10
-51.66713443007161
 20
0.0
 30
0.0
 11
-51.66713443007161
 21
-23.86585254105029
 31
0.0
  0
LINE
  5
FC
330
F5
100
AcDbEntity
  8
6
  6
Continuous
 62
     7
370
    25
100
AcDbLine
 10
0.0
 20
-20.36585254104949
 30
0.0
 11
-51.66713443007298
 21
-20.36585254104985
 31
0.0
  0
LINE
  5
FD
330
F5
100
AcDbEntity
  8
6
  6
Continuous
 62
     7
370
    25
100
AcDbLine
 10
0.0
 20
-16.86585254104663
 30
0.0
 11
-51.66713443007161
 21
-16.86585254104663
 31
0.0
  0
LINE
  5
FE
330
F5
100
AcDbEntity
  8
6
  6
Continuous
 62
     7
370
    25
100
AcDbLine
 10
0.0
 20
-13.36585254105678
 30
0.0
 11
-51.66713443007298
 21
-13.36585254105802
 31
0.0
  0
LINE
  5
FF
330
F5
100
AcDbEntity
  8
6
  6
Continuous
 62
     7
370
    25
100
AcDbLine
 10
0.0
 20
-9.865852541056767
 30
0.0
 11
-51.66713443007161
 21
-9.865852541056767
 31
0.0
  0
LINE
  5
100
330
F5
100
AcDbEntity
  8
6
  6
Continuous
 62
     7
370
    25
100
AcDbLine
 10
-4.616227731726674
 20
-23.86585254105029
 30
0.0
 11
-4.616227731726212
 21
-5.464305006752354
 31
0.0
  0
LINE
  5
101
330
F5
100
AcDbEntity
  8
6
  6
Continuous
 62
     7
370
    25
100
AcDbLine
 10
-13.84868319517728
 20
-23.86585254105075
 30
0.0
 11
-13.84868319517682
 21
-5.464305006752816
 31
0.0
  0
LINE
  5
102
330
F5
100
AcDbEntity
  8
6
  6
Continuous
 62
     7
370
    25
100
AcDbLine
 10
-9.232455463451998
 20
-23.86585254105075
 30
0.0
 11
-9.232455463451536
 21
-5.464305006752816
 31
0.0
  0
LINE
  5
103
330
F5
100
AcDbEntity
  8
6
  6
Continuous
 62
     7
370
    25
100
AcDbLine
 10
-18.46491092690303
 20
-23.86585254104951
 30
0.0
 11
-18.46491092690257
 21
-5.464305006751573
 31
0.0
  0
LINE
  5
104
330
F5
100
AcDbEntity
  8
6
  6
Continuous
 62
     7
370
    25
100
AcDbLine
 10
-23.0811386586279
 20
-23.86585254105075
 30
0.0
 11
-23.08113865862744
 21
-5.464305006752816
 31
0.0
  0
LINE
  5
105
330
F5
100
AcDbEntity
  8
6
  6
Continuous
 62
     7
370
    25
100
AcDbLine
 10
-27.69736639035319
 20
-23.86585254105075
 30
0.0
 11
-27.69736639035273
 21
-5.464305006752816
 31
0.0
  0
LINE
  5
106
330
F5
100
AcDbEntity
  8
6
  6
Continuous
 62
     7
370
    25
100
AcDbLine
 10
-32.31359412207805
 20
-23.86585254104951
 30
0.0
 11
-32.31359412207766
 21
-5.464305006752354
 31
0.0
  0
LINE
  5
107
330
F5
100
AcDbEntity
  8
1
  6
Continuous
 62
     7
370
    25
100
AcDbLine
 10
-36.92982185380334
 20
-23.86585254104951
 30
0.0
 11
-36.92982185380288
 21
-3.118521831198464
 31
0.0
  0
LINE
  5
108
330
F5
100
AcDbEntity
  8
1
  6
Continuous
 62
     7
370
    25
100
AcDbLine
 10
0.0
 20
-5.464305006752354
 30
0.0
 11
-51.66713443007161
 21
-5.464305006752354
 31
0.0
  0
LINE
  5
109
330
F5
100
AcDbEntity
  8
6
  6
Continuous
 62
     7
370
    25
100
AcDbLine
 10
-45.55750842881166
 20
-23.86585254104951
 30
0.0
 11
-45.55750842881121
 21
-5.464305006752354
 31
0.0
  0
LINE
  5
10A
330
F5
100
AcDbEntity
  8
1
  6
Continuous
 62
     7
370
    25
100
AcDbLine
 10
-51.66713443007161
 20
-3.118521831198464
 30
0.0
 11
0.0
 21
-3.118521831198464
 31
0.0
  0
MTEXT
  5
10B
330
F5
100
AcDbEntity
  8
6
 62
     7
100
AcDbMText
 10
-36.81060597032285
 20
-12.59117800523402
 30
0.0
 40
1.25
 41
0.0
 46
0.0
 71
     7
 72
     1
  1
\fAIGDT|b0|i0;\W0.80;\H1.2500;`\fISOCP|b0|i0;\W0.80;\H1.2500;0.05
 73
     2
 44
1.0
  0
MTEXT
  5
10D
330
F5
100
AcDbEntity
  8
6
 62
     7
100
AcDbMText
 10
-36.44022161292199
 20
-16.07925905417527
 30
0.0
 40
1.25
 41
0.0
 46
0.0
 71
     7
 72
     1
  1
\fAIGDT|b0|i0;\H1.2500;`\fISOCP|b0|i0;\H1.2500;0.1
 73
     2
 44
1.0
  0
MTEXT
  5
10E
330
F5
100
AcDbEntity
  8
6
 62
     7
100
AcDbMText
 10
-36.44022161292199
 20
-19.57925905417529
 30
0.0
 40
1.25
 41
0.0
 46
0.0
 71
     7
 72
     1
  1
\fAIGDT|b0|i0;\H1.2500;`\fISOCP|b0|i0;\H1.2500;0.2
 73
     2
 44
1.0
  0
TEXT
  5
110
330
F5
100
AcDbEntity
  8
6
 62
     7
100
AcDbText
 10
-36.60250576079687
 20
-24.08384699406547
 30
0.0
 40
5.0
  1
-
  7
文字スタイル154
100
AcDbText
  0
MTEXT
  5
113
330
F5
100
AcDbEntity
  8
6
 62
     7
100
AcDbMText
 10
-31.82399388119666
 20
-23.07925905417527
 30
0.0
 40
1.25
 41
0.0
 46
0.0
 71
     7
 72
     1
  1
\fAIGDT|b0|i0;\H1.2500;`\fISOCP|b0|i0;\H1.2500;0.5
 73
     2
 44
1.0
  0
MTEXT
  5
114
330
F5
100
AcDbEntity
  8
6
 62
     7
100
AcDbMText
 10
-31.82399388119666
 20
-19.57925905417529
 30
0.0
 40
1.25
 41
0.0
 46
0.0
 71
     7
 72
     1
  1
\fAIGDT|b0|i0;\H1.2500;`\fISOCP|b0|i0;\H1.2500;0.3
 73
     2
 44
1.0
  0
MTEXT
  5
115
330
F5
100
AcDbEntity
  8
6
 62
     7
100
AcDbMText
 10
-31.82399388119666
 20
-16.07925905417527
 30
0.0
 40
1.25
 41
0.0
 46
0.0
 71
     7
 72
     1
  1
\fAIGDT|b0|i0;\H1.2500;`\fISOCP|b0|i0;\H1.2500;0.1
 73
     2
 44
1.0
  0
MTEXT
  5
116
330
F5
100
AcDbEntity
  8
6
 62
     7
100
AcDbMText
 10
-31.82399388119666
 20
-12.57925905417526
 30
0.0
 40
1.25
 41
0.0
 46
0.0
 71
     7
 72
     1
  1
\fAIGDT|b0|i0;\W0.80;\H1.2500;`\fISOCP|b0|i0;\W0.80;\H1.2500;0.05
 73
     2
 44
1.0
  0
MTEXT
  5
117
330
F5
100
AcDbEntity
  8
6
 62
     7
100
AcDbMText
 10
-27.20776614947137
 20
-12.57925905417526
 30
0.0
 40
1.25
 41
0.0
 46
0.0
 71
     7
 72
     1
  1
\fAIGDT|b0|i0;\H1.2500;`\fISOCP|b0|i0;\H1.2500;0.1
 73
     2
 44
1.0
  0
MTEXT
  5
118
330
F5
100
AcDbEntity
  8
6
 62
     7
100
AcDbMText
 10
-27.20776614947137
 20
-16.07925905417527
 30
0.0
 40
1.25
 41
0.0
 46
0.0
 71
     7
 72
     1
  1
\fAIGDT|b0|i0;\H1.2500;`\fISOCP|b0|i0;\H1.2500;0.2
 73
     2
 44
1.0
  0
MTEXT
  5
119
330
F5
100
AcDbEntity
  8
6
 62
     7
100
AcDbMText
 10
-27.20776614947137
 20
-19.57925905417529
 30
0.0
 40
1.25
 41
0.0
 46
0.0
 71
     7
 72
     1
  1
\fAIGDT|b0|i0;\H1.2500;`\fISOCP|b0|i0;\H1.2500;0.5
 73
     2
 44
1.0
  0
MTEXT
  5
11A
330
F5
100
AcDbEntity
  8
6
 62
     7
100
AcDbMText
 10
-26.40217881270058
 20
-23.09117800523403
 30
0.0
 40
1.25
 41
0.0
 46
0.0
 71
     7
 72
     1
  1
\fAIGDT|b0|i0;\H1.2500;`\fISOCP|b0|i0;\H1.2500;1
 73
     2
 44
1.0
  0
MTEXT
  5
11B
330
F5
100
AcDbEntity
  8
6
 62
     7
100
AcDbMText
 10
-22.59153841774605
 20
-12.57925905417526
 30
0.0
 40
1.25
 41
0.0
 46
0.0
 71
     7
 72
     1
  1
\fAIGDT|b0|i0;\W0.80;\H1.2500;`\fISOCP|b0|i0;\W0.80;\H1.2500;0.15
 73
     2
 44
1.0
  0
MTEXT
  5
11C
330
F5
100
AcDbEntity
  8
6
 62
     7
100
AcDbMText
 10
-22.59153841774605
 20
-16.07925905417527
 30
0.0
 40
1.25
 41
0.0
 46
0.0
 71
     7
 72
     1
  1
\fAIGDT|b0|i0;\H1.2500;`\fISOCP|b0|i0;\H1.2500;0.3
 73
     2
 44
1.0
  0
MTEXT
  5
11D
330
F5
100
AcDbEntity
  8
6
 62
     7
100
AcDbMText
 10
-22.59153841774605
 20
-19.57925905417529
 30
0.0
 40
1.25
 41
0.0
 46
0.0
 71
     7
 72
     1
  1
\fAIGDT|b0|i0;\H1.2500;`\fISOCP|b0|i0;\H1.2500;0.8
 73
     2
 44
1.0
  0
MTEXT
  5
11E
330
F5
100
AcDbEntity
  8
6
 62
     7
100
AcDbMText
 10
-22.59153841774605
 20
-23.07925905417527
 30
0.0
 40
1.25
 41
0.0
 46
0.0
 71
     7
 72
     1
  1
\fAIGDT|b0|i0;\H1.2500;`\fISOCP|b0|i0;\H1.2500;1.5
 73
     2
 44
1.0
  0
MTEXT
  5
11F
330
F5
100
AcDbEntity
  8
6
 62
     7
100
AcDbMText
 10
-17.97531068602076
 20
-12.57925905417526
 30
0.0
 40
1.25
 41
0.0
 46
0.0
 71
     7
 72
     1
  1
\fAIGDT|b0|i0;\H1.2500;`\fISOCP|b0|i0;\H1.2500;0.2
 73
     2
 44
1.0
  0
MTEXT
  5
120
330
F5
100
AcDbEntity
  8
6
 62
     7
100
AcDbMText
 10
-17.97531068602076
 20
-16.07925905417527
 30
0.0
 40
1.25
 41
0.0
 46
0.0
 71
     7
 72
     1
  1
\fAIGDT|b0|i0;\H1.2500;`\fISOCP|b0|i0;\H1.2500;0.5
 73
     2
 44
1.0
  0
MTEXT
  5
121
330
F5
100
AcDbEntity
  8
6
 62
     7
100
AcDbMText
 10
-17.97531068602076
 20
-19.57925905417529
 30
0.0
 40
1.25
 41
0.0
 46
0.0
 71
     7
 72
     1
  1
\fAIGDT|b0|i0;\H1.2500;`\fISOCP|b0|i0;\H1.2500;1.2
 73
     2
 44
1.0
  0
MTEXT
  5
122
330
F5
100
AcDbEntity
  8
6
 62
     7
100
AcDbMText
 10
-17.97531068602076
 20
-23.07925905417527
 30
0.0
 40
1.25
 41
0.0
 46
0.0
 71
     7
 72
     1
  1
\fAIGDT|b0|i0;\H1.2500;`\fISOCP|b0|i0;\H1.2500;2.5
 73
     2
 44
1.0
  0
MTEXT
  5
123
330
F5
100
AcDbEntity
  8
6
 62
     7
100
AcDbMText
 10
-13.35908295429547
 20
-12.57925905417526
 30
0.0
 40
1.25
 41
0.0
 46
0.0
 71
     7
 72
     1
  1
\fAIGDT|b0|i0;\H1.2500;`\fISOCP|b0|i0;\H1.2500;0.3
 73
     2
 44
1.0
  0
MTEXT
  5
124
330
F5
100
AcDbEntity
  8
6
 62
     7
100
AcDbMText
 10
-13.35908295429547
 20
-16.07925905417527
 30
0.0
 40
1.25
 41
0.0
 46
0.0
 71
     7
 72
     1
  1
\fAIGDT|b0|i0;\H1.2500;`\fISOCP|b0|i0;\H1.2500;0.8
 73
     2
 44
1.0
  0
MTEXT
  5
125
330
F5
100
AcDbEntity
  8
6
 62
     7
100
AcDbMText
 10
-12.56499245203539
 20
-19.57925905417529
 30
0.0
 40
1.25
 41
0.0
 46
0.0
 71
     7
 72
     1
  1
\fAIGDT|b0|i0;\H1.2500;`\fISOCP|b0|i0;\H1.2500;2
 73
     2
 44
1.0
  0
MTEXT
  5
126
330
F5
100
AcDbEntity
  8
6
 62
     7
100
AcDbMText
 10
-12.56499245203539
 20
-23.09117800523403
 30
0.0
 40
1.25
 41
0.0
 46
0.0
 71
     7
 72
     1
  1
\fAIGDT|b0|i0;\H1.2500;`\fISOCP|b0|i0;\H1.2500;4
 73
     2
 44
1.0
  0
MTEXT
  5
127
330
F5
100
AcDbEntity
  8
6
 62
     7
100
AcDbMText
 10
-8.742855222570149
 20
-12.57925905417526
 30
0.0
 40
1.25
 41
0.0
 46
0.0
 71
     7
 72
     1
  1
\fAIGDT|b0|i0;\H1.2500;`\fISOCP|b0|i0;\H1.2500;0.5
 73
     2
 44
1.0
  0
MTEXT
  5
128
330
F5
100
AcDbEntity
  8
6
 62
     7
100
AcDbMText
 10
-8.742855222570149
 20
-16.07925905417527
 30
0.0
 40
1.25
 41
0.0
 46
0.0
 71
     7
 72
     1
  1
\fAIGDT|b0|i0;\H1.2500;`\fISOCP|b0|i0;\H1.2500;1.2
 73
     2
 44
1.0
  0
MTEXT
  5
129
330
F5
100
AcDbEntity
  8
6
 62
     7
100
AcDbMText
 10
-7.948764720310066
 20
-19.57925905417529
 30
0.0
 40
1.25
 41
0.0
 46
0.0
 71
     7
 72
     1
  1
\fAIGDT|b0|i0;\H1.2500;`\fISOCP|b0|i0;\H1.2500;3
 73
     2
 44
1.0
  0
MTEXT
  5
12A
330
F5
100
AcDbEntity
  8
6
 62
     7
100
AcDbMText
 10
-7.948764720310066
 20
-23.07925905417527
 30
0.0
 40
1.25
 41
0.0
 46
0.0
 71
     7
 72
     1
  1
\fAIGDT|b0|i0;\H1.2500;`\fISOCP|b0|i0;\H1.2500;6
 73
     2
 44
1.0
  0
TEXT
  5
12B
330
F5
100
AcDbEntity
  8
6
 62
     7
100
AcDbText
 10
-4.369788384236166
 20
-13.62049392307749
 30
0.0
 40
5.0
  1
-
 41
1.415104540911587
  7
文字スタイル154
 72
     5
 11
-0.4782508967292998
 21
-13.62049392307749
 31
0.0
100
AcDbText
  0
MTEXT
  5
12C
330
F5
100
AcDbEntity
  8
6
 62
     7
100
AcDbMText
 10
-2.579463550682987
 20
-16.07925905417527
 30
0.0
 40
1.25
 41
0.0
 46
0.0
 71
     8
 72
     1
  1
\fAIGDT|b0|i0;\H1.2500;`\fISOCP|b0|i0;\H1.2500;2
 73
     2
 44
1.0
  0
MTEXT
  5
12D
330
F5
100
AcDbEntity
  8
6
 62
     7
100
AcDbMText
 10
-3.532372386453879
 20
-19.59117800523405
 30
0.0
 40
1.25
 41
0.0
 46
0.0
 71
     7
 72
     1
  1
\fAIGDT|b0|i0;\H1.2500;`\fISOCP|b0|i0;\H1.2500;4
 73
     2
 44
1.0
  0
MTEXT
  5
12E
330
F5
100
AcDbEntity
  8
6
 62
     7
100
AcDbMText
 10
-3.532372192238213
 20
-23.07925905417527
 30
0.0
 40
1.25
 41
0.0
 46
0.0
 71
     7
 72
     1
  1
\fAIGDT|b0|i0;\H1.2500;`\fISOCP|b0|i0;\H1.2500;8
 73
     2
 44
1.0
  0
TEXT
  5
130
330
F5
100
AcDbEntity
  8
6
 62
     7
100
AcDbText
 10
-2.130444153016632
 20
-8.822556449203879
 30
0.0
 40
1.25
  1
4000
 41
0.5
  7
文字スタイル74
100
AcDbText
  0
TEXT
  5
131
330
F5
100
AcDbEntity
  8
6
 62
     7
100
AcDbText
 10
-6.78318767850552
 20
-8.822556449203879
 30
0.0
 40
1.25
  1
2000
 41
0.5
  7
文字スタイル74
100
AcDbText
  0
TEXT
  5
132
330
F5
100
AcDbEntity
  8
6
 62
     7
100
AcDbText
 10
-11.43593120399444
 20
-8.822556449203879
 30
0.0
 40
1.25
  1
1000
 41
0.5
  7
文字スタイル74
100
AcDbText
  0
TEXT
  5
133
330
F5
100
AcDbEntity
  8
6
 62
     7
100
AcDbText
 10
-15.72517906670867
 20
-8.822556449203879
 30
0.0
 40
1.25
  1
400
 41
0.5
  7
文字スタイル74
100
AcDbText
  0
TEXT
  5
135
330
F5
100
AcDbEntity
  8
6
 62
     7
100
AcDbText
 10
-20.5233209310019
 20
-8.822556449203879
 30
0.0
 40
1.25
  1
120
 41
0.7999999523162842
  7
文字スタイル77
100
AcDbText
  0
TEXT
  5
137
330
F5
100
AcDbEntity
  8
6
 62
     7
100
AcDbText
 10
-24.95796694828435
 20
-8.822556449203879
 30
0.0
 40
1.25
  1
30
 41
1.244508053920987
  7
文字スタイル153
 72
     5
 11
-23.01219820453092
 21
-8.822556449203879
 31
0.0
100
AcDbText
  0
TEXT
  5
138
330
F5
100
AcDbEntity
  8
6
 62
     7
100
AcDbText
 10
-28.88371933245988
 20
-8.822556449203879
 30
0.0
 40
1.25
  1
6
 41
1.29803088880728
  7
文字スタイル153
 72
     5
 11
-27.91083496058317
 21
-8.822556449203879
 31
0.0
100
AcDbText
  0
TEXT
  5
139
330
F5
100
AcDbEntity
  8
6
 62
     7
100
AcDbText
 10
-33.50670450149654
 20
-8.822556449203879
 30
0.0
 40
1.25
  1
3
 41
1.315994915119492
  7
文字スタイル153
 72
     5
 11
-32.53382012961982
 21
-8.822556449203879
 31
0.0
100
AcDbText
  0
TEXT
  5
13A
330
F5
100
AcDbEntity
  8
6
 62
     7
100
AcDbText
 10
-28.95641850186202
 20
-7.084943372489576
 30
0.0
 40
1.25
  1
3
 41
1.315994915119492
  7
文字スタイル153
 72
     5
 11
-27.9835341299853
 21
-7.084943372489576
 31
0.0
100
AcDbText
  0
TEXT
  5
13B
330
F5
100
AcDbEntity
  8
6
 62
     7
100
AcDbText
 10
-24.44907313094138
 20
-7.084943372489576
 30
0.0
 40
1.25
  1
6
 41
1.29803088880728
  7
文字スタイル153
 72
     5
 11
-23.47618875906466
 21
-7.084943372489576
 31
0.0
100
AcDbText
  0
TEXT
  5
13C
330
F5
100
AcDbEntity
  8
6
 62
     7
100
AcDbText
 10
-20.15982526822718
 20
-7.084943372489576
 30
0.0
 40
1.25
  1
30
 41
0.7999999523162842
  7
文字スタイル77
100
AcDbText
  0
TEXT
  5
13D
330
F5
100
AcDbEntity
  8
6
 62
     7
100
AcDbText
 10
-15.72517906670867
 20
-7.084943372489576
 30
0.0
 40
1.25
  1
120
 41
0.5
  7
文字スタイル74
100
AcDbText
  0
TEXT
  5
13E
330
F5
100
AcDbEntity
  8
6
 62
     7
100
AcDbText
 10
-11.29053304942619
 20
-7.084943372489576
 30
0.0
 40
1.25
  1
400
 41
0.5
  7
文字スタイル74
100
AcDbText
  0
TEXT
  5
13F
330
F5
100
AcDbEntity
  8
6
 62
     7
100
AcDbText
 10
-6.78318767850552
 20
-7.084943372489576
 30
0.0
 40
1.25
  1
1000
 41
0.5
  7
文字スタイル74
100
AcDbText
  0
TEXT
  5
140
330
F5
100
AcDbEntity
  8
6
 62
     7
100
AcDbText
 10
-2.203143322418803
 20
-7.084943372489576
 30
0.0
 40
1.25
  1
2000
 41
0.5
  7
文字スタイル74
100
AcDbText
  0
TEXT
  5
141
330
F5
100
AcDbEntity
  8
6
 62
     7
100
AcDbText
 10
-33.82725935132136
 20
-7.084943372488687
 30
0.0
 40
1.25
  1
0.5
 41
0.5
  7
文字スタイル74
100
AcDbText
  0
TEXT
  5
143
330
F5
100
AcDbEntity
  8
6
 62
     7
100
AcDbText
 10
-50.33159609932706
 20
-8.822556449203879
 30
0.0
 40
1.25
  1
指示
  7
文字スタイル69
 72
     1
 11
-48.61232142944142
 21
-8.822556449203879
 31
0.0
100
AcDbText
  0
TEXT
  5
144
330
F5
100
AcDbEntity
  8
6
 62
     7
100
AcDbText
 10
-42.76649229347249
 20
-12.17900373018512
 30
0.0
 40
1.25
  1
精級
  7
文字スタイル69
 72
     1
 11
-41.04721762358686
 21
-12.32255644920389
 31
0.0
100
AcDbText
 73
     1
  0
TEXT
  5
145
330
F5
100
AcDbEntity
  8
6
 62
     7
100
AcDbText
 10
-42.76649229347249
 20
-15.6790037301851
 30
0.0
 40
1.25
  1
中級
  7
文字スタイル69
 72
     1
 11
-41.04721762358686
 21
-15.82255644920387
 31
0.0
100
AcDbText
 73
     1
  0
TEXT
  5
146
330
F5
100
AcDbEntity
  8
6
 62
     7
100
AcDbText
 10
-42.76649229347249
 20
-19.17900373018511
 30
0.0
 40
1.25
  1
粗級
  7
文字スタイル69
 72
     1
 11
-41.04721762358686
 21
-19.32255644920388
 31
0.0
100
AcDbText
 73
     1
  0
TEXT
  5
147
330
F5
100
AcDbEntity
  8
6
 62
     7
100
AcDbText
 10
-48.87287911015231
 20
-22.4475564492039
 30
0.0
 40
1.25
  1
v
  7
文字スタイル153
 72
     1
 11
-48.43537911015231
 21
-22.8225564492039
 31
0.0
100
AcDbText
 73
     1
  0
TEXT
  5
148
330
F5
100
AcDbEntity
  8
6
 62
     7
100
AcDbText
 10
-43.62612962841531
 20
-22.96998733660555
 30
0.0
 40
1.25
  1
極粗級
  7
文字スタイル69
 72
     1
 11
-41.04721762358686
 21
-23.11354005562432
 31
0.0
100
AcDbText
 73
     1
  0
TEXT
  5
149
330
F5
100
AcDbEntity
  8
6
 62
     7
100
AcDbText
 10
-48.78772680596004
 20
-18.94755644920389
 30
0.0
 40
1.25
  1
c
  7
文字スタイル153
 72
     1
 11
-48.43537911015231
 21
-19.32255644920388
 31
0.0
100
AcDbText
 73
     1
  0
TEXT
  5
14A
330
F5
100
AcDbEntity
  8
6
 62
     7
100
AcDbText
 10
-49.02053141434459
 20
-15.44755644920387
 30
0.0
 40
1.25
  1
m
  7
文字スタイル153
 72
     1
 11
-48.43537911015231
 21
-15.82255644920387
 31
0.0
100
AcDbText
 73
     1
  0
TEXT
  5
14B
330
F5
100
AcDbEntity
  8
6
 62
     7
100
AcDbText
 10
-48.81037911015231
 20
-11.94755644920389
 30
0.0
 40
1.25
  1
f
  7
文字スタイル153
 72
     1
 11
-48.43537911015231
 21
-12.32255644920389
 31
0.0
100
AcDbText
 73
     1
  0
TEXT
  5
14C
330
F5
100
AcDbEntity
  8
6
 62
     7
100
AcDbText
 10
-42.96293981119269
 20
-8.822556449203879
 30
0.0
 40
1.25
  1
説明
  7
文字スタイル69
 72
     1
 11
-41.24366514130706
 21
-8.822556449203879
 31
0.0
100
AcDbText
  0
TEXT
  5
14E
330
F5
100
AcDbEntity
  8
6
 62
     7
100
AcDbText
 10
-36.81546896341402
 20
-7.084943372489576
 30
0.0
 40
1.25
  1
以上
 41
0.7031300067901612
  7
文字スタイル144
100
AcDbText
  0
TEXT
  5
14F
330
F5
100
AcDbEntity
  8
6
 62
     7
100
AcDbText
 10
-36.81546896341402
 20
-8.822556449203879
 30
0.0
 40
1.25
  1
以下
 41
0.7031300067901612
  7
文字スタイル144
100
AcDbText
  0
TEXT
  5
150
330
F5
100
AcDbEntity
  8
6
 62
     7
100
AcDbText
 10
-32.19924123168873
 20
-7.084943372489576
 30
0.0
 40
1.25
  1
以上
 41
0.7031300067901612
  7
文字スタイル144
100
AcDbText
  0
TEXT
  5
151
330
F5
100
AcDbEntity
  8
6
 62
     7
100
AcDbText
 10
-32.19924123168873
 20
-8.822556449203879
 30
0.0
 40
1.25
  1
以下
 41
0.7031300067901612
  7
文字スタイル144
100
AcDbText
  0
TEXT
  5
152
330
F5
100
AcDbEntity
  8
6
 62
     7
100
AcDbText
 10
-27.58301349996383
 20
-7.084943372489576
 30
0.0
 40
1.25
  1
以上
 41
0.7031300067901612
  7
文字スタイル144
100
AcDbText
  0
TEXT
  5
153
330
F5
100
AcDbEntity
  8
6
 62
     7
100
AcDbText
 10
-27.58301349996383
 20
-8.822556449203879
 30
0.0
 40
1.25
  1
以下
 41
0.7031300067901612
  7
文字スタイル144
100
AcDbText
  0
TEXT
  5
154
330
F5
100
AcDbEntity
  8
6
 62
     7
100
AcDbText
 10
-22.96678576823851
 20
-7.084943372489576
 30
0.0
 40
1.25
  1
以上
 41
0.7031300067901612
  7
文字スタイル144
100
AcDbText
  0
TEXT
  5
155
330
F5
100
AcDbEntity
  8
6
 62
     7
100
AcDbText
 10
-22.96678576823851
 20
-8.822556449203879
 30
0.0
 40
1.25
  1
以下
 41
0.7031300067901612
  7
文字スタイル144
100
AcDbText
  0
TEXT
  5
156
330
F5
100
AcDbEntity
  8
6
 62
     7
100
AcDbText
 10
-18.35055803651368
 20
-7.084943372489576
 30
0.0
 40
1.25
  1
以上
 41
0.7031300067901612
  7
文字スタイル144
100
AcDbText
  0
TEXT
  5
157
330
F5
100
AcDbEntity
  8
6
 62
     7
100
AcDbText
 10
-18.35055803651368
 20
-8.822556449203879
 30
0.0
 40
1.25
  1
以下
 41
0.7031300067901612
  7
文字スタイル144
100
AcDbText
  0
TEXT
  5
158
330
F5
100
AcDbEntity
  8
6
 62
     7
100
AcDbText
 10
-13.73433030478793
 20
-7.084943372489576
 30
0.0
 40
1.25
  1
以上
 41
0.7031300067901612
  7
文字スタイル144
100
AcDbText
  0
TEXT
  5
159
330
F5
100
AcDbEntity
  8
6
 62
     7
100
AcDbText
 10
-13.73433030478793
 20
-8.822556449203879
 30
0.0
 40
1.25
  1
以下
 41
0.7031300067901612
  7
文字スタイル144
100
AcDbText
  0
TEXT
  5
15A
330
F5
100
AcDbEntity
  8
6
 62
     7
100
AcDbText
 10
-9.118102573062607
 20
-7.084943372489576
 30
0.0
 40
1.25
  1
以上
 41
0.7031300067901612
  7
文字スタイル144
100
AcDbText
  0
TEXT
  5
15B
330
F5
100
AcDbEntity
  8
6
 62
     7
100
AcDbText
 10
-9.118102573062607
 20
-8.822556449203879
 30
0.0
 40
1.25
  1
以下
 41
0.7031300067901612
  7
文字スタイル144
100
AcDbText
  0
TEXT
  5
15C
330
F5
100
AcDbEntity
  8
6
 62
     7
100
AcDbText
 10
-4.501874841337318
 20
-7.084943372489576
 30
0.0
 40
1.25
  1
以上
 41
0.7031300067901612
  7
文字スタイル144
100
AcDbText
  0
TEXT
  5
15D
330
F5
100
AcDbEntity
  8
6
 62
     7
100
AcDbText
 10
-4.501874841337318
 20
-8.822556449203879
 30
0.0
 40
1.25
  1
以下
 41
0.7031300067901612
  7
文字スタイル144
100
AcDbText
  0
MTEXT
  5
15E
330
F5
100
AcDbEntity
  8
Symbol (ISO)
100
AcDbMText
 10
-45.46950148221842
 20
-0.7004528189525417
 30
0.0
 40
1.522842645645141
 41
0.0
 46
0.0
 71
     1
 72
     1
  1
\fTahoma|b0|i0;\H1.5228;面取り部分を除く長さ寸法に対する許容差
  7
Note Text (JIS)
 73
     1
 44
1.5
  0
MTEXT
  5
160
330
F5
100
AcDbEntity
  8
Symbol (ISO)
100
AcDbMText
 10
-47.96780922760598
 20
-3.425179725575979
 30
0.0
 40
1.522842645645141
 41
0.0
 46
0.0
 71
     1
 72
     1
  1
\fTahoma|b0|i0;\H1.5228;公差等級
  7
Note Text (JIS)
 73
     1
 44
1.5
  0
MTEXT
  5
161
330
F5
100
AcDbEntity
  8
Symbol (ISO)
100
AcDbMText
 10
-30.52603614519629
 20
-3.484726718636785
 30
0.0
 40
1.522842645645141
 41
0.0
 46
0.0
 71
     1
 72
     1
  1
\fTahoma|b0|i0;\H1.5228;基準寸法の区分
  7
Note Text (JIS)
 73
     1
 44
1.5
  0
ENDBLK
  5
F7
330
F5
100
AcDbEntity
  8
0
100
AcDbBlockEnd
  0
BLOCK
  5
163
330
162
100
AcDbEntity
  8
0
100
AcDbBlockBegin
  2
バルブ仕様表
 70
     0
 10
0.0
 20
0.0
 30
0.0
  3
バルブ仕様表
  1

  0
LINE
  5
165
330
162
100
AcDbEntity
  8
AM_6
 62
     7
100
AcDbLine
 10
-109.9999999999999
 20
27.99999999999997
 30
0.0
 11
0.0
 21
27.99999999999997
 31
0.0
  0
LINE
  5
166
330
162
100
AcDbEntity
  8
AM_6
 62
     7
100
AcDbLine
 10
-109.9999999999999
 20
13.99999999999998
 30
0.0
 11
0.0
 21
13.99999999999998
 31
0.0
  0
LINE
  5
167
330
162
100
AcDbEntity
  8
AM_6
 62
     7
100
AcDbLine
 10
-109.9999999999999
 20
20.99999999999994
 30
0.0
 11
0.0
 21
20.99999999999994
 31
0.0
  0
LINE
  5
168
330
162
100
AcDbEntity
  8
AM_6
 62
     7
100
AcDbLine
 10
-109.9999999999999
 20
0.0
 30
0.0
 11
0.0
 21
0.0
 31
0.0
  0
LINE
  5
169
330
162
100
AcDbEntity
  8
AM_6
 62
     7
100
AcDbLine
 10
-109.9999999999999
 20
6.999999999999957
 30
0.0
 11
0.0
 21
6.999999999999957
 31
0.0
  0
LINE
  5
16A
330
162
100
AcDbEntity
  8
AM_6
100
AcDbLine
 10
-109.9999999999999
 20
13.99999999999998
 30
0.0
 11
0.0
 21
13.99999999999998
 31
0.0
  0
LINE
  5
16B
330
162
100
AcDbEntity
  8
AM_6
 62
     7
100
AcDbLine
 10
-79.99999999999997
 20
0.0
 30
0.0
 11
-79.99999999999997
 21
13.99999999999998
 31
0.0
  0
LINE
  5
16C
330
162
100
AcDbEntity
  8
AM_6
 62
     7
100
AcDbLine
 10
-79.99999999999983
 20
27.99999999999997
 30
0.0
 11
-79.99999999999997
 21
13.99999999999998
 31
0.0
  0
LINE
  5
16D
330
162
100
AcDbEntity
  8
AM_6
 62
     7
100
AcDbLine
 10
-109.9999999999999
 20
0.0
 30
0.0
 11
-109.9999999999999
 21
13.99999999999998
 31
0.0
  0
LINE
  5
16E
330
162
100
AcDbEntity
  8
AM_6
 62
     7
100
AcDbLine
 10
-109.9999999999999
 20
27.99999999999997
 30
0.0
 11
-109.9999999999999
 21
13.99999999999998
 31
0.0
  0
LINE
  5
16F
330
162
100
AcDbEntity
  8
AM_6
 62
     7
100
AcDbLine
 10
0.0
 20
27.99999999999997
 30
0.0
 11
0.0
 21
0.0
 31
0.0
  0
TEXT
  5
171
330
162
100
AcDbEntity
  8
AM_6
 62
     7
100
AcDbText
 10
-102.9390916948839
 20
1.453793852345341
 30
0.0
 40
3.000000119209289
  1
気密試験
  7
文字スタイル124
100
AcDbText
  0
TEXT
  5
173
330
162
100
AcDbEntity
  8
AM_6
 62
     7
100
AcDbText
 10
-102.9390916948839
 20
8.45379385234537
 30
0.0
 40
3.000000119209289
  1
耐圧試験
  7
文字スタイル124
100
AcDbText
  0
TEXT
  5
174
330
162
100
AcDbEntity
  8
AM_6
 62
     7
100
AcDbText
 10
-102.9390916948839
 20
15.45379385234532
 30
0.0
 40
3.000000119209289
  1
使用温度
  7
文字スタイル124
100
AcDbText
  0
TEXT
  5
175
330
162
100
AcDbEntity
  8
AM_6
 62
     7
100
AcDbText
 10
-102.9390916948839
 20
22.45379385234536
 30
0.0
 40
3.000000119209289
  1
使用圧力
  7
文字スタイル124
100
AcDbText
  0
TEXT
  5
177
330
162
100
AcDbEntity
  8
AM_6
 62
     7
100
AcDbText
 10
-18.76317222497654
 20
24.43990877602957
 30
0.0
 40
1.000000014901161
  1
2
  7
文字スタイル125
100
AcDbText
  0
TEXT
  5
178
330
162
100
AcDbEntity
  8
AM_6
 62
     7
100
AcDbText
 10
-65.4524935694148
 20
8.45379385234537
 30
0.0
 40
3.000000119209289
  1
1.96Mpa (20Kg/cm )
  7
文字スタイル124
100
AcDbText
  0
TEXT
  5
179
330
162
100
AcDbEntity
  8
AM_6
 62
     7
100
AcDbText
 10
-65.4524935694148
 20
1.453793852345341
 30
0.0
 40
3.000000119209289
  1
0.59Mpa (6Kg/cm )
  7
文字スタイル124
100
AcDbText
  0
TEXT
  5
17A
330
162
100
AcDbEntity
  8
AM_6
 62
     7
100
AcDbText
 10
-65.4524935694148
 20
22.45379385234536
 30
0.0
 40
3.000000119209289
  1
MAX　0.98Mpa (10Kg/cm )
  7
文字スタイル124
100
AcDbText
  0
TEXT
  5
17B
330
162
100
AcDbEntity
  8
AM_6
 62
     7
100
AcDbText
 10
-65.4524935694148
 20
15.45379385234532
 30
0.0
 40
3.000000119209289
  1
-10℃～+80℃（凍結無き事）
  7
文字スタイル124
100
AcDbText
  0
TEXT
  5
17C
330
162
100
AcDbEntity
  8
AM_6
 62
     7
100
AcDbText
 10
-30.27841636708135
 20
10.1899658992977
 30
0.0
 40
1.000000014901161
  1
2
  7
文字スタイル125
100
AcDbText
  0
TEXT
  5
17D
330
162
100
AcDbEntity
  8
AM_6
 62
     7
100
AcDbText
 10
-32.65625957956317
 20
3.592593427809589
 30
0.0
 40
1.000000014901161
  1
2
  7
文字スタイル125
100
AcDbText
  0
ENDBLK
  5
164
330
162
100
AcDbEntity
  8
0
100
AcDbBlockEnd
  0
BLOCK
  5
17F
330
17E
100
AcDbEntity
  8
0
100
AcDbBlockBegin
  2
バルブ開閉R1
 70
     0
 10
0.0
 20
0.0
 30
0.0
  3
バルブ開閉R1
  1

  0
ARC
  5
181
330
17E
100
AcDbEntity
  8
AM_6
 62
     7
100
AcDbCircle
 10
0.0
 20
0.0
 30
0.0
 40
31.60554310523806
100
AcDbArc
 50
202.1518571539441
 51
242.8481428460548
  0
LINE
  5
182
330
17E
100
AcDbEntity
  8
AM_6
 62
     7
100
AcDbLine
 10
-14.42320326968719
 20
-28.12261656422398
 30
0.0
 11
-17.42320326968716
 21
-28.12261656422381
 31
0.0
  0
LINE
  5
183
330
17E
100
AcDbEntity
  8
AM_6
 62
     7
100
AcDbLine
 10
-14.42320326968719
 20
-28.12261656422398
 30
0.0
 11
-16.54452361324683
 21
-26.00129622066435
 31
0.0
  0
LINE
  5
184
330
17E
100
AcDbEntity
  8
AM_6
 62
     7
100
AcDbLine
 10
-29.27266651151672
 20
-11.9172710920999
 30
0.0
 11
-29.27266651151651
 21
-14.91727109209995
 31
0.0
  0
LINE
  5
185
330
17E
100
AcDbEntity
  8
AM_6
 62
     7
100
AcDbLine
 10
-29.27266651151672
 20
-11.9172710920999
 30
0.0
 11
-27.15134616795709
 21
-14.03859143565954
 31
0.0
  0
TEXT
  5
187
330
17E
100
AcDbEntity
  8
AM_6
 62
     7
100
AcDbText
 10
-17.58938102507702
 20
-32.173637407816
 30
0.0
 40
2.000000029802322
  1
閉
  7
文字スタイル126
100
AcDbText
  0
TEXT
  5
188
330
17E
100
AcDbEntity
  8
AM_6
 62
     7
100
AcDbText
 10
-34.07208754498853
 20
-14.71927959924537
 30
0.0
 40
2.000000029802322
  1
開
  7
文字スタイル126
100
AcDbText
  0
ENDBLK
  5
180
330
17E
100
AcDbEntity
  8
0
100
AcDbBlockEnd
  0
BLOCK
  5
18A
330
189
100
AcDbEntity
  8
0
100
AcDbBlockBegin
  2
バルブ開閉R2
 70
     0
 10
0.0
 20
0.0
 30
0.0
  3
バルブ開閉R2
  1

  0
ARC
  5
18C
330
189
100
AcDbEntity
  8
AM_6
 62
     7
100
AcDbCircle
 10
0.0
 20
0.0
 30
0.0
 40
31.60554310523806
100
AcDbArc
 50
112.1518571539441
 51
152.8481428460544
  0
LINE
  5
18D
330
189
100
AcDbEntity
  8
AM_6
 62
     7
100
AcDbLine
 10
-28.12261656422434
 20
14.42320326968785
 30
0.0
 11
-28.12261656422432
 21
17.42320326968792
 31
0.0
  0
LINE
  5
18E
330
189
100
AcDbEntity
  8
AM_6
 62
     7
100
AcDbLine
 10
-28.12261656422434
 20
14.42320326968785
 30
0.0
 11
-26.00129622066479
 21
16.54452361324784
 31
0.0
  0
LINE
  5
18F
330
189
100
AcDbEntity
  8
AM_6
 62
     7
100
AcDbLine
 10
-11.91727109210028
 20
29.27266651151738
 30
0.0
 11
-14.91727109210039
 21
29.27266651151745
 31
0.0
  0
LINE
  5
190
330
189
100
AcDbEntity
  8
AM_6
 62
     7
100
AcDbLine
 10
-11.91727109210028
 20
29.27266651151738
 30
0.0
 11
-14.03859143566027
 21
27.1513461679576
 31
0.0
  0
TEXT
  5
191
330
189
100
AcDbEntity
  8
AM_6
 62
     7
100
AcDbText
 10
-15.08194606405059
 20
31.4147512872629
 30
0.0
 40
2.000000029802322
  1
閉
  7
文字スタイル126
100
AcDbText
  0
TEXT
  5
192
330
189
100
AcDbEntity
  8
AM_6
 62
     7
100
AcDbText
 10
-34.27398386649212
 20
14.82775972083301
 30
0.0
 40
2.000000029802322
  1
開
  7
文字スタイル126
100
AcDbText
  0
ENDBLK
  5
18B
330
189
100
AcDbEntity
  8
0
100
AcDbBlockEnd
  0
BLOCK
  5
194
330
193
100
AcDbEntity
  8
0
100
AcDbBlockBegin
  2
ｴｰｽﾎﾞｰﾙｿｹｯﾄ・本体注釈①
 70
     0
 10
0.0
 20
0.0
 30
0.0
  3
ｴｰｽﾎﾞｰﾙｿｹｯﾄ・本体注釈①
  1

  0
MTEXT
  5
196
330
193
100
AcDbEntity
  8
Symbol (ISO)
100
AcDbMText
 10
-27.82894849777225
 20
3.352206237614154
 30
0.0
 40
2.5
 41
0.0
 46
0.0
 71
     1
 72
     1
  1
※本体仮組時に　本体（φ6ｽﾄﾚｰﾄ）\P・ｿｹｯﾄの隙間を0.5㎜とする事。
  7
Note Text (JIS)
 73
     2
 44
1.058181881904602
  0
ENDBLK
  5
195
330
193
100
AcDbEntity
  8
0
100
AcDbBlockEnd
  0
BLOCK
  5
198
330
197
100
AcDbEntity
  8
0
100
AcDbBlockBegin
  2
バルブ仕様書①
 70
     0
 10
0.0
 20
0.0
 30
0.0
  3
バルブ仕様書①
  1

  0
LINE
  5
19A
330
197
100
AcDbEntity
  8
AM_6
 62
     7
100
AcDbLine
 10
-109.9999999999999
 20
27.99999999999997
 30
0.0
 11
0.0
 21
27.99999999999997
 31
0.0
  0
LINE
  5
19B
330
197
100
AcDbEntity
  8
AM_6
 62
     7
100
AcDbLine
 10
-109.9999999999999
 20
13.99999999999998
 30
0.0
 11
0.0
 21
13.99999999999998
 31
0.0
  0
LINE
  5
19C
330
197
100
AcDbEntity
  8
AM_6
 62
     7
100
AcDbLine
 10
-109.9999999999999
 20
20.99999999999994
 30
0.0
 11
0.0
 21
20.99999999999994
 31
0.0
  0
LINE
  5
19D
330
197
100
AcDbEntity
  8
AM_6
 62
     7
100
AcDbLine
 10
-109.9999999999999
 20
0.0
 30
0.0
 11
0.0
 21
0.0
 31
0.0
  0
LINE
  5
19E
330
197
100
AcDbEntity
  8
AM_6
 62
     7
100
AcDbLine
 10
-109.9999999999999
 20
6.999999999999957
 30
0.0
 11
0.0
 21
6.999999999999957
 31
0.0
  0
LINE
  5
19F
330
197
100
AcDbEntity
  8
AM_6
100
AcDbLine
 10
-109.9999999999999
 20
13.99999999999998
 30
0.0
 11
0.0
 21
13.99999999999998
 31
0.0
  0
LINE
  5
1A0
330
197
100
AcDbEntity
  8
AM_6
 62
     7
100
AcDbLine
 10
-79.99999999999997
 20
0.0
 30
0.0
 11
-79.99999999999997
 21
13.99999999999998
 31
0.0
  0
LINE
  5
1A1
330
197
100
AcDbEntity
  8
AM_6
 62
     7
100
AcDbLine
 10
-79.99999999999983
 20
27.99999999999997
 30
0.0
 11
-79.99999999999997
 21
13.99999999999998
 31
0.0
  0
LINE
  5
1A2
330
197
100
AcDbEntity
  8
AM_6
 62
     7
100
AcDbLine
 10
-109.9999999999999
 20
0.0
 30
0.0
 11
-109.9999999999999
 21
13.99999999999998
 31
0.0
  0
LINE
  5
1A3
330
197
100
AcDbEntity
  8
AM_6
 62
     7
100
AcDbLine
 10
-109.9999999999999
 20
27.99999999999997
 30
0.0
 11
-109.9999999999999
 21
13.99999999999998
 31
0.0
  0
LINE
  5
1A4
330
197
100
AcDbEntity
  8
AM_6
 62
     7
100
AcDbLine
 10
0.0
 20
27.99999999999997
 30
0.0
 11
0.0
 21
0.0
 31
0.0
  0
TEXT
  5
1A5
330
197
100
AcDbEntity
  8
AM_6
 62
     7
100
AcDbText
 10
-109.5569312552745
 20
1.35119169264982
 30
0.0
 40
3.000000119209289
  1
気密・耐圧試験
  7
文字スタイル124
100
AcDbText
  0
TEXT
  5
1A6
330
197
100
AcDbEntity
  8
AM_6
 62
     7
100
AcDbText
 10
-65.4524935694148
 20
1.453793852345341
 30
0.0
 40
3.000000119209289
  1
空圧 0.59Mpa 全数
  7
文字スタイル124
100
AcDbText
  0
TEXT
  5
1A8
330
197
100
AcDbEntity
  8
AM_6
100
AcDbText
 10
-32.65625957956317
 20
3.592593427809589
 30
0.0
 40
1.000000014901161
  1
2
  7
文字スタイル133
100
AcDbText
  0
ENDBLK
  5
199
330
197
100
AcDbEntity
  8
0
100
AcDbBlockEnd
  0
BLOCK
  5
1AA
330
1A9
100
AcDbEntity
  8
0
100
AcDbBlockBegin
  2
ストッパー加工注釈
 70
     0
 10
0.0
 20
0.0
 30
0.0
  3
ストッパー加工注釈
  1

  0
MTEXT
  5
1AC
330
1A9
100
AcDbEntity
  8
Symbol (ISO)
100
AcDbMText
 10
-19.48830366134647
 20
3.352206274867057
 30
0.0
 40
2.5
 41
0.0
 46
0.0
 71
     1
 72
     1
  1
※ハンドル開閉治具にて\P角度を確認する事。
  7
Note Text (JIS)
 73
     2
 44
1.058181881904602
  0
ENDBLK
  5
1AB
330
1A9
100
AcDbEntity
  8
0
100
AcDbBlockEnd
  0
BLOCK
  5
1AE
330
1AD
100
AcDbEntity
  8
0
100
AcDbBlockBegin
  2
三方弁説明A
 70
     0
 10
0.0
 20
0.0
 30
0.0
  3
三方弁説明A
  1

  0
MTEXT
  5
1B0
330
1AD
100
AcDbEntity
  8
Symbol (ISO)
100
AcDbMText
 10
-26.24561548233032
 20
4.643620708957314
 30
0.0
 40
1.500000059604644
 41
0.0
 46
0.0
 71
     1
 72
     1
  1
\fＭＳ Ｐゴシック|b0|i0;\H1.5000;※ハンドル位置Aの時、ポートEの圧力がポートF及び\P　ポートGより高い場合、ポートEからポートF及びポートG\P　に漏れが発生する場合が御座います。\P※流路切り替え途中は、流体が混流致します。
  7
Note Text (JIS)
 73
     2
 44
1.058181881904602
  0
ENDBLK
  5
1AF
330
1AD
100
AcDbEntity
  8
0
100
AcDbBlockEnd
  0
BLOCK
  5
1B2
330
1B1
100
AcDbEntity
  8
0
100
AcDbBlockBegin
  2
三方弁説明B
 70
     0
 10
0.0
 20
0.0
 30
0.0
  3
三方弁説明B
  1

  0
MTEXT
  5
1B4
330
1B1
100
AcDbEntity
  8
Symbol (ISO)
100
AcDbMText
 10
-26.10087871551514
 20
4.643620708957314
 30
0.0
 40
1.500000059604644
 41
0.0
 46
0.0
 71
     1
 72
     1
  1
\fＭＳ Ｐゴシック|b0|i0;\H1.5000;※ハンドル位置Bの時、ポートGの圧力がポートE及び\P　ポートFより高い場合、ポートGからポートE及びポートF\P　に漏れが発生する場合が御座います。\P※流路切り替え途中は、流体が混流致します。
  7
Note Text (JIS)
 73
     2
 44
1.058181881904602
  0
ENDBLK
  5
1B3
330
1B1
100
AcDbEntity
  8
0
100
AcDbBlockEnd
  0
BLOCK
  5
1B6
330
1B5
100
AcDbEntity
  8
0
100
AcDbBlockBegin
  2
三方弁説明C
 70
     0
 10
0.0
 20
0.0
 30
0.0
  3
三方弁説明C
  1

  0
MTEXT
  5
1B8
330
1B5
100
AcDbEntity
  8
Symbol (ISO)
100
AcDbMText
 10
-26.24561548233032
 20
8.611802766099572
 30
0.0
 40
1.500000059604644
 41
0.0
 46
0.0
 71
     1
 72
     1
  1
\fＭＳ Ｐゴシック|b0|i0;\H1.5000;※流路F→Gの時、ポートEの圧力がポートF及び\P　ポートGより高い場合、ポートEからポートF及びポートG\P　に漏れが発生する場合が御座います。\P　また、流路F→Eの時、ポートGの圧力がポートF及び\P　ポートEより高い場合、ポートGからポートF及びポートE\P　に漏れが発生する場合が御座います。 \P※流路切り替え途中は、流体が混流致します。
  7
Note Text (JIS)
 73
     2
 44
1.058181881904602
  0
ENDBLK
  5
1B7
330
1B5
100
AcDbEntity
  8
0
100
AcDbBlockEnd
  0
BLOCK
  5
1BA
330
1B9
100
AcDbEntity
  8
0
100
AcDbBlockBegin
  2
三方弁流れ方向
 70
     0
 10
0.0
 20
0.0
 30
0.0
  3
三方弁流れ方向
  1

  0
LINE
  5
1BC
330
1B9
100
AcDbEntity
  8
Sketch Geometry (ISO)
100
AcDbLine
 10
15.0
 20
5.75000000000001
 30
0.0
 11
15.0
 21
-4.249999999999989
 31
0.0
  0
LINE
  5
1BD
330
1B9
100
AcDbEntity
  8
Sketch Geometry (ISO)
100
AcDbLine
 10
15.0
 20
-4.249999999999989
 30
0.0
 11
25.0
 21
-4.249999999999989
 31
0.0
  0
LINE
  5
1BE
330
1B9
100
AcDbEntity
  8
Sketch Geometry (ISO)
100
AcDbLine
 10
25.0
 20
-4.249999999999989
 30
0.0
 11
22.40192378864668
 21
-5.75000000000001
 31
0.0
  0
LINE
  5
1BF
330
1B9
100
AcDbEntity
  8
Sketch Geometry (ISO)
100
AcDbLine
 10
25.0
 20
-4.249999999999989
 30
0.0
 11
22.4019237886467
 21
-2.749999999999985
 31
0.0
  0
LINE
  5
1C0
330
1B9
100
AcDbEntity
  8
Sketch Geometry (ISO)
100
AcDbLine
 10
-15.0
 20
5.75000000000001
 30
0.0
 11
-15.0
 21
-4.249999999999989
 31
0.0
  0
LINE
  5
1C1
330
1B9
100
AcDbEntity
  8
Sketch Geometry (ISO)
100
AcDbLine
 10
-15.0
 20
-4.249999999999989
 30
0.0
 11
-25.0
 21
-4.249999999999989
 31
0.0
  0
LINE
  5
1C2
330
1B9
100
AcDbEntity
  8
Sketch Geometry (ISO)
100
AcDbLine
 10
-25.0
 20
-4.249999999999989
 30
0.0
 11
-22.40192378864668
 21
-5.749999999999992
 31
0.0
  0
LINE
  5
1C3
330
1B9
100
AcDbEntity
  8
Sketch Geometry (ISO)
100
AcDbLine
 10
-25.0
 20
-4.249999999999989
 30
0.0
 11
-22.40192378864668
 21
-2.749999999999985
 31
0.0
  0
ENDBLK
  5
1BB
330
1B9
100
AcDbEntity
  8
0
100
AcDbBlockEnd
  0
ENDSEC
  0
SECTION
  2
ENTITIES
  0
MTEXT
  5
1C4
330
70
100
AcDbEntity
  8
Symbol (ISO)
100
AcDbMText
 10
148.9472183533245
 20
113.8745568814301
 30
0.0
 40
2.5
 41
61.43274784088136
 46
0.0
 71
     1
 72
     1
  1
{エースボールRV ストレート　BW-7911R}
  7
Note Text (JIS)
 73
     1
 44
1.5
  0
LINE
  5
1C5
330
70
100
AcDbEntity
  8
Visible (ISO)
100
AcDbLine
 10
100.5368214834327
 20
55.258406208081
 30
0.0
 11
100.5368214834327
 21
75.258406208081
 31
0.0
  0
LINE
  5
1C6
330
70
100
AcDbEntity
  8
Visible (ISO)
100
AcDbLine
 10
100.7868214834327
 20
75.008406208081
 30
0.0
 11
100.7868214834327
 21
55.50840620808101
 31
0.0
  0
LINE
  5
1C7
330
70
100
AcDbEntity
  8
Visible (ISO)
100
AcDbLine
 10
100.7868214834327
 20
55.50840620808101
 30
0.0
 11
100.5368214834327
 21
55.258406208081
 31
0.0
  0
LINE
  5
1C8
330
70
100
AcDbEntity
  8
Visible (ISO)
100
AcDbLine
 10
100.7868214834327
 20
75.008406208081
 30
0.0
 11
100.5368214834327
 21
75.258406208081
 31
0.0
  0
LINE
  5
1C9
330
70
100
AcDbEntity
  8
Visible (ISO)
100
AcDbLine
 10
98.66878749468282
 20
75.258406208081
 30
0.0
 11
98.66878749468282
 21
55.258406208081
 31
0.0
  0
ARC
  5
1CA
330
70
100
AcDbEntity
  8
Visible (ISO)
100
AcDbCircle
 10
99.78682148343271
 20
74.25840620808101
 30
0.0
 40
1.5
100
AcDbArc
 50
138.1896851042216
 51
180.0
  0
ARC
  5
1CB
330
70
100
AcDbEntity
  8
Visible (ISO)
100
AcDbCircle
 10
99.78682148343271
 20
56.258406208081
 30
0.0
 40
1.5
100
AcDbArc
 50
180.0
 51
221.8103148957783
  0
LINE
  5
1CC
330
70
100
AcDbEntity
  8
Visible (ISO)
100
AcDbLine
 10
82.9048554721826
 20
55.258406208081
 30
0.0
 11
82.9048554721826
 21
75.258406208081
 31
0.0
  0
ARC
  5
1CD
330
70
100
AcDbEntity
  8
Visible (ISO)
100
AcDbCircle
 10
81.7868214834327
 20
56.258406208081
 30
0.0
 40
1.5
100
AcDbArc
 50
318.1896851042214
 51
0.0
  0
ARC
  5
1CE
330
70
100
AcDbEntity
  8
Visible (ISO)
100
AcDbCircle
 10
81.7868214834327
 20
74.25840620808101
 30
0.0
 40
1.5
100
AcDbArc
 50
0.0
 51
41.8103148957786
  0
LINE
  5
1CF
330
70
100
AcDbEntity
  8
Visible (ISO)
100
AcDbLine
 10
80.90485547218259
 20
55.258406208081
 30
0.0
 11
80.90485547218259
 21
75.258406208081
 31
0.0
  0
LINE
  5
1D0
330
70
100
AcDbEntity
  8
Visible (ISO)
100
AcDbLine
 10
80.90485547218259
 20
75.258406208081
 30
0.0
 11
82.9048554721826
 21
75.258406208081
 31
0.0
  0
LINE
  5
1D1
330
70
100
AcDbEntity
  8
Visible (ISO)
100
AcDbLine
 10
80.90485547218259
 20
55.258406208081
 30
0.0
 11
82.9048554721826
 21
55.258406208081
 31
0.0
  0
LINE
  5
1D2
330
70
100
AcDbEntity
  8
Visible (ISO)
100
AcDbLine
 10
78.7868214834327
 20
71.70840620808101
 30
0.0
 11
80.90485547218259
 21
75.258406208081
 31
0.0
  0
LINE
  5
1D3
330
70
100
AcDbEntity
  8
Visible (ISO)
100
AcDbLine
 10
78.7868214834327
 20
58.808406208081
 30
0.0
 11
80.90485547218259
 21
55.258406208081
 31
0.0
  0
LINE
  5
1D4
330
70
100
AcDbEntity
  8
Visible (ISO)
100
AcDbLine
 10
97.91642298392833
 20
70.25840621254244
 30
0.0
 11
83.65721998293707
 21
70.25840621254244
 31
0.0
  0
LINE
  5
1D5
330
70
100
AcDbEntity
  8
Visible (ISO)
100
AcDbLine
 10
97.91642298201422
 20
60.25840621254243
 30
0.0
 11
83.6572199848512
 21
60.25840621254243
 31
0.0
  0
LINE
  5
1D6
330
70
100
AcDbEntity
  8
Visible (ISO)
100
AcDbLine
 10
100.5368214834327
 20
55.258406208081
 30
0.0
 11
98.66878749468282
 21
55.258406208081
 31
0.0
  0
LINE
  5
1D7
330
70
100
AcDbEntity
  8
Visible (ISO)
100
AcDbLine
 10
100.5368214834327
 20
75.258406208081
 30
0.0
 11
98.66878749468282
 21
75.258406208081
 31
0.0
  0
ARC
  5
1D8
330
70
100
AcDbEntity
  8
Visible (ISO)
100
AcDbCircle
 10
84.3868214834327
 20
74.25840620808101
 30
0.0
 40
0.5
100
AcDbArc
 50
270.0
 51
0.0
  0
ARC
  5
1D9
330
70
100
AcDbEntity
  8
Visible (ISO)
100
AcDbCircle
 10
97.18682148343271
 20
74.25840620808101
 30
0.0
 40
0.5
100
AcDbArc
 50
180.0
 51
270.0
  0
LINE
  5
1DA
330
70
100
AcDbEntity
  8
Visible (ISO)
100
AcDbLine
 10
84.8868214834327
 20
74.25840620808101
 30
0.0
 11
84.8868214834327
 21
75.75840620808101
 31
0.0
  0
LINE
  5
1DB
330
70
100
AcDbEntity
  8
Visible (ISO)
100
AcDbLine
 10
96.68682148343272
 20
74.25840620808101
 30
0.0
 11
96.68682148343272
 21
75.75840620808101
 31
0.0
  0
LINE
  5
1DC
330
70
100
AcDbEntity
  8
Visible (ISO)
100
AcDbLine
 10
83.78682148343271
 20
73.75840620808101
 30
0.0
 11
84.3868214834327
 21
73.75840620808101
 31
0.0
  0
LINE
  5
1DD
330
70
100
AcDbEntity
  8
Visible (ISO)
100
AcDbLine
 10
97.18682148343271
 20
73.75840620808101
 30
0.0
 11
97.78682148343271
 21
73.75840620808101
 31
0.0
  0
LINE
  5
1DE
330
70
100
AcDbEntity
  8
Visible (ISO)
100
AcDbLine
 10
83.78682148343271
 20
56.758406208081
 30
0.0
 11
97.78682148343271
 21
56.758406208081
 31
0.0
  0
ARC
  5
1DF
330
70
100
AcDbEntity
  8
Visible (ISO)
100
AcDbCircle
 10
83.78682148343271
 20
56.258406208081
 30
0.0
 40
0.5
100
AcDbArc
 50
90.0
 51
180.0
  0
ARC
  5
1E0
330
70
100
AcDbEntity
  8
Visible (ISO)
100
AcDbCircle
 10
83.78682148343271
 20
74.25840620808101
 30
0.0
 40
0.5
100
AcDbArc
 50
180.0
 51
270.0
  0
ARC
  5
1E1
330
70
100
AcDbEntity
  8
Visible (ISO)
100
AcDbCircle
 10
97.78682148343271
 20
56.258406208081
 30
0.0
 40
0.5
100
AcDbArc
 50
0.0
 51
90.0
  0
ARC
  5
1E2
330
70
100
AcDbEntity
  8
Visible (ISO)
100
AcDbCircle
 10
97.78682148343271
 20
74.25840620808101
 30
0.0
 40
0.5
100
AcDbArc
 50
270.0
 51
0.0
  0
SPLINE
  5
1E3
330
70
100
AcDbEntity
  8
Visible (ISO)
100
AcDbSpline
210
0.0
220
0.0
230
1.0
 70
    12
 71
     2
 72
     6
 73
     3
 74
     0
 42
0.000000001
 43
0.0000000001
 40
0.0906100100638159
 40
0.0906100100638159
 40
0.0906100100638159
 40
1.118728652180966
 40
1.118728652180966
 40
1.118728652180966
 10
101.6903484292849
 20
60.35092891996918
 30
0.0
 41
1.030578586555896
 10
100.2736817626183
 20
57.89719027591328
 30
0.0
 41
1.190009648738219
 10
101.6903484292849
 20
55.44345163185737
 30
0.0
 41
1.030578586555896
  0
SPLINE
  5
1E4
330
70
100
AcDbEntity
  8
Visible (ISO)
100
AcDbSpline
210
0.0
220
0.0
230
1.0
 70
    12
 71
     2
 72
     6
 73
     3
 74
     0
 42
0.000000001
 43
0.0000000001
 40
0.0906100100638158
 40
0.0906100100638158
 40
0.0906100100638158
 40
1.118728652180967
 40
1.118728652180967
 40
1.118728652180967
 10
101.6903484292849
 20
70.16588349619282
 30
0.0
 41
1.030578586555896
 10
100.2736817626183
 20
65.258406208081
 30
0.0
 41
1.190009648738221
 10
101.6903484292849
 20
60.35092891996918
 30
0.0
 41
1.030578586555896
  0
SPLINE
  5
1E5
330
70
100
AcDbEntity
  8
Visible (ISO)
100
AcDbSpline
210
0.0
220
0.0
230
1.0
 70
    12
 71
     2
 72
     6
 73
     3
 74
     0
 42
0.000000001
 43
0.0000000001
 40
0.0906100100638164
 40
0.0906100100638164
 40
0.0906100100638164
 40
1.118728652180967
 40
1.118728652180967
 40
1.118728652180967
 10
101.6903484292849
 20
75.07336078430464
 30
0.0
 41
1.030578586555896
 10
100.2736817626183
 20
72.61962214024872
 30
0.0
 41
1.19000964873822
 10
101.6903484292849
 20
70.16588349619282
 30
0.0
 41
1.030578586555896
  0
LINE
  5
1E6
330
70
100
AcDbEntity
  8
Visible (ISO)
100
AcDbLine
 10
100.7868214834327
 20
73.50840620808099
 30
0.0
 11
101.6903484292849
 21
75.07336078430464
 31
0.0
  0
LINE
  5
1E7
330
70
100
AcDbEntity
  8
Visible (ISO)
100
AcDbLine
 10
100.7868214834327
 20
57.00840620808101
 30
0.0
 11
101.6903484292849
 21
55.44345163185737
 31
0.0
  0
LINE
  5
1E8
330
70
100
AcDbEntity
  8
Visible (ISO)
100
AcDbLine
 10
101.6903484292849
 20
70.16588349619282
 30
0.0
 11
112.8832945375804
 21
70.16588349619282
 31
0.0
  0
LINE
  5
1E9
330
70
100
AcDbEntity
  8
Visible (ISO)
100
AcDbLine
 10
101.6903484292849
 20
75.07336078430464
 30
0.0
 11
112.8832945375804
 21
75.07336078430464
 31
0.0
  0
LINE
  5
1EA
330
70
100
AcDbEntity
  8
Visible (ISO)
100
AcDbLine
 10
101.6903484292849
 20
60.35092891996918
 30
0.0
 11
112.8832945375804
 21
60.35092891996918
 31
0.0
  0
LINE
  5
1EB
330
70
100
AcDbEntity
  8
Visible (ISO)
100
AcDbLine
 10
101.6903484292849
 20
55.44345163185738
 30
0.0
 11
112.8832945375804
 21
55.44345163185738
 31
0.0
  0
SPLINE
  5
1EC
330
70
100
AcDbEntity
  8
Visible (ISO)
100
AcDbSpline
210
0.0
220
0.0
230
1.0
 70
    12
 71
     2
 72
     6
 73
     3
 74
     0
 42
0.000000001
 43
0.0000000001
 40
0.0906100100638165
 40
0.0906100100638165
 40
0.0906100100638165
 40
1.118728652180968
 40
1.118728652180968
 40
1.118728652180968
 10
112.8832945375804
 20
70.16588349619282
 30
0.0
 41
1.030578586555896
 10
114.2999612042471
 20
72.61962214024873
 30
0.0
 41
1.19000964873822
 10
112.8832945375804
 20
75.07336078430464
 30
0.0
 41
1.030578586555896
  0
SPLINE
  5
1ED
330
70
100
AcDbEntity
  8
Visible (ISO)
100
AcDbSpline
210
0.0
220
0.0
230
1.0
 70
    12
 71
     2
 72
     6
 73
     3
 74
     0
 42
0.000000001
 43
0.0000000001
 40
0.0906100100638162
 40
0.0906100100638162
 40
0.0906100100638162
 40
1.118728652180968
 40
1.118728652180968
 40
1.118728652180968
 10
112.8832945375804
 20
60.35092891996918
 30
0.0
 41
1.030578586555896
 10
114.2999612042471
 20
65.25840620808101
 30
0.0
 41
1.19000964873822
 10
112.8832945375804
 20
70.16588349619282
 30
0.0
 41
1.030578586555896
  0
SPLINE
  5
1EE
330
70
100
AcDbEntity
  8
Visible (ISO)
100
AcDbSpline
210
0.0
220
0.0
230
1.0
 70
    12
 71
     2
 72
     6
 73
     3
 74
     0
 42
0.000000001
 43
0.0000000001
 40
0.0906100100638159
 40
0.0906100100638159
 40
0.0906100100638159
 40
1.118728652180966
 40
1.118728652180966
 40
1.118728652180966
 10
112.8832945375804
 20
55.44345163185738
 30
0.0
 41
1.030578586555896
 10
114.2999612042471
 20
57.89719027591329
 30
0.0
 41
1.190009648738221
 10
112.8832945375804
 20
60.35092891996918
 30
0.0
 41
1.030578586555896
  0
LINE
  5
1EF
330
70
100
AcDbEntity
  8
Visible (ISO)
100
AcDbLine
 10
113.7868214834327
 20
57.00840620808101
 30
0.0
 11
113.7868214834327
 21
73.50840620808099
 31
0.0
  0
LINE
  5
1F0
330
70
100
AcDbEntity
  8
Visible (ISO)
100
AcDbLine
 10
113.7868214834327
 20
57.00840620808101
 30
0.0
 11
112.8832945375804
 21
55.44345163185738
 31
0.0
  0
LINE
  5
1F1
330
70
100
AcDbEntity
  8
Visible (ISO)
100
AcDbLine
 10
113.7868214834327
 20
73.50840620808099
 30
0.0
 11
112.8832945375804
 21
75.07336078430464
 31
0.0
  0
LINE
  5
1F2
330
70
100
AcDbEntity
  8
Visible (ISO)
100
AcDbLine
 10
53.78682148343269
 20
73.50840620808101
 30
0.0
 11
53.78682148343269
 21
57.00840620808101
 31
0.0
  0
LINE
  5
1F3
330
70
100
AcDbEntity
  8
Visible (ISO)
100
AcDbLine
 10
52.7868214834327
 20
58.00840620808101
 30
0.0
 11
52.7868214834327
 21
72.50840620808102
 31
0.0
  0
LINE
  5
1F4
330
70
100
AcDbEntity
  8
Visible (ISO)
100
AcDbLine
 10
52.7868214834327
 20
72.50840620808102
 30
0.0
 11
53.7868214834327
 21
73.50840620808101
 31
0.0
  0
LINE
  5
1F5
330
70
100
AcDbEntity
  8
Visible (ISO)
100
AcDbLine
 10
52.7868214834327
 20
58.00840620808101
 30
0.0
 11
53.78682148343269
 21
57.00840620808101
 31
0.0
  0
LINE
  5
1F6
330
70
100
AcDbEntity
  8
Visible (ISO)
100
AcDbLine
 10
57.7868214834327
 20
73.50840620808101
 30
0.0
 11
57.7868214834327
 21
57.00840620808101
 31
0.0
  0
LINE
  5
1F7
330
70
100
AcDbEntity
  8
Visible (ISO)
100
AcDbLine
 10
53.7868214834327
 20
73.50840620808101
 30
0.0
 11
57.7868214834327
 21
73.50840620808101
 31
0.0
  0
LINE
  5
1F8
330
70
100
AcDbEntity
  8
Visible (ISO)
100
AcDbLine
 10
53.78682148343269
 20
57.00840620808101
 30
0.0
 11
57.7868214834327
 21
57.00840620808101
 31
0.0
  0
LINE
  5
1F9
330
70
100
AcDbEntity
  8
Visible (ISO)
100
AcDbLine
 10
78.7868214834327
 20
73.00840620808101
 30
0.0
 11
78.7868214834327
 21
57.50840620808101
 31
0.0
  0
LINE
  5
1FA
330
70
100
AcDbEntity
  8
Visible (ISO)
100
AcDbLine
 10
78.2868214834327
 20
57.00840620808101
 30
0.0
 11
78.2868214834327
 21
73.50840620808101
 31
0.0
  0
LINE
  5
1FB
330
70
100
AcDbEntity
  8
Visible (ISO)
100
AcDbLine
 10
78.7868214834327
 20
57.50840620808101
 30
0.0
 11
78.2868214834327
 21
57.00840620808101
 31
0.0
  0
LINE
  5
1FC
330
70
100
AcDbEntity
  8
Visible (ISO)
100
AcDbLine
 10
78.7868214834327
 20
73.00840620808101
 30
0.0
 11
78.2868214834327
 21
73.50840620808101
 31
0.0
  0
LINE
  5
1FD
330
70
100
AcDbEntity
  8
Visible (ISO)
100
AcDbLine
 10
73.7868214834327
 20
73.50840620808101
 30
0.0
 11
73.7868214834327
 21
57.00840620808101
 31
0.0
  0
SPLINE
  5
1FE
330
70
100
AcDbEntity
  8
Visible (ISO)
100
AcDbSpline
210
0.0
220
0.0
230
1.0
 70
     8
 71
     3
 72
     8
 73
     4
 74
     0
 42
0.000000001
 43
0.0000000001
 40
1.28234852082939
 40
1.28234852082939
 40
1.28234852082939
 40
1.28234852082939
 40
1.389636215210568
 40
1.389636215210568
 40
1.389636215210568
 40
1.389636215210568
 10
73.23288362205669
 20
74.40311008248158
 30
0.0
 10
73.2329932021146
 20
74.44670532065337
 30
0.0
 10
73.23304463269353
 20
74.46757584961672
 30
0.0
 10
73.23304269258129
 20
74.46757920998969
 30
0.0
  0
SPLINE
  5
1FF
330
70
100
AcDbEntity
  8
Visible (ISO)
100
AcDbSpline
210
0.0
220
0.0
230
1.0
 70
    12
 71
     2
 72
     6
 73
     3
 74
     0
 42
0.000000001
 43
0.0000000001
 40
0.3038347015407229
 40
0.3038347015407229
 40
0.3038347015407229
 40
1.123903861267265
 40
1.123903861267265
 40
1.123903861267265
 10
73.22358755671249
 20
70.75448020264997
 30
0.0
 41
1.099752732484698
 10
74.06208166134145
 20
72.58038851209765
 30
0.0
 41
1.198114783114956
 10
73.2328836220567
 20
74.40311008248156
 30
0.0
 41
1.100754619662588
  0
SPLINE
  5
200
330
70
100
AcDbEntity
  8
Visible (ISO)
100
AcDbSpline
210
0.0
220
0.0
230
1.0
 70
     8
 71
     3
 72
     8
 73
     4
 74
     0
 42
0.000000001
 43
0.0000000001
 40
0.3556734997605205
 40
0.3556734997605205
 40
0.3556734997605205
 40
0.3556734997605205
 40
0.5628189646857996
 40
0.5628189646857996
 40
0.5628189646857996
 40
0.5628189646857996
 10
73.21877109104905
 20
68.86620909022965
 30
0.0
 10
73.2204896980333
 20
69.54007207989467
 30
0.0
 10
73.22211980374001
 20
70.1791067362422
 30
0.0
 10
73.22358755671247
 20
70.75448020264997
 30
0.0
  0
SPLINE
  5
201
330
70
100
AcDbEntity
  8
Visible (ISO)
100
AcDbSpline
210
0.0
220
0.0
230
1.0
 70
    12
 71
     2
 72
     6
 73
     3
 74
     0
 42
0.000000001
 43
0.0000000001
 40
0.2980781999859086
 40
0.2980781999859086
 40
0.2980781999859086
 40
1.116223870764466
 40
1.116223870764466
 40
1.116223870764466
 10
73.20017571061026
 20
61.56894933056643
 30
0.0
 41
1.097044292848638
 10
74.04039000682752
 20
65.22393140735212
 30
0.0
 41
1.194926045466025
 10
73.21877109104905
 20
68.86620909022965
 30
0.0
 41
1.099036745105105
  0
SPLINE
  5
202
330
70
100
AcDbEntity
  8
Visible (ISO)
100
AcDbSpline
210
0.0
220
0.0
230
1.0
 70
     8
 71
     3
 72
     8
 73
     4
 74
     0
 42
0.000000001
 43
0.0000000001
 40
5.004219779514529
 40
5.004219779514529
 40
5.004219779514529
 40
5.004219779514529
 40
5.21153587569325
 40
5.21153587569325
 40
5.21153587569325
 40
5.21153587569325
 10
73.19536850652863
 20
59.68067821814611
 30
0.0
 10
73.1968322386217
 20
60.2556830900129
 30
0.0
 10
73.19845882234206
 20
60.8946456592897
 30
0.0
 10
73.20017571061026
 20
61.56894933056644
 30
0.0
  0
SPLINE
  5
203
330
70
100
AcDbEntity
  8
Visible (ISO)
100
AcDbSpline
210
0.0
220
0.0
230
1.0
 70
    12
 71
     2
 72
     6
 73
     3
 74
     0
 42
0.000000001
 43
0.0000000001
 40
0.2964618744956772
 40
0.2964618744956772
 40
0.2964618744956772
 40
1.112709618815164
 40
1.112709618815164
 40
1.112709618815164
 10
73.18606918956158
 20
56.03204833831451
 30
0.0
 41
1.095347893909633
 10
74.01872767934114
 20
57.85794604700197
 30
0.0
 41
1.191768356554789
 10
73.19536850652863
 20
59.68067821814611
 30
0.0
 41
1.096338511801206
  0
SPLINE
  5
204
330
70
100
AcDbEntity
  8
Visible (ISO)
100
AcDbSpline
210
0.0
220
0.0
230
1.0
 70
     8
 71
     3
 72
    10
 73
     6
 74
     0
 42
0.000000001
 43
0.0000000001
 40
4.17713294203936
 40
4.17713294203936
 40
4.17713294203936
 40
4.17713294203936
 40
4.177141633641301
 40
4.177141633641301
 40
4.284459251644188
 40
4.284459251644188
 40
4.284459251644188
 40
4.284459251644188
 10
73.1858997359059
 20
55.96757921040051
 30
0.0
 10
73.18589973606238
 20
55.96757921039887
 30
0.0
 10
73.1858997362192
 20
55.96757921053416
 30
0.0
 10
73.18590167702973
 20
55.96758257211661
 30
0.0
 10
73.18595662240301
 20
55.98846258342572
 30
0.0
 10
73.18606918956158
 20
56.03204833831451
 30
0.0
  0
LINE
  5
205
330
70
100
AcDbEntity
  8
Visible (ISO)
100
AcDbLine
 10
73.7868214834327
 20
57.00840620808101
 30
0.0
 11
73.18589973637637
 21
55.96757921080638
 31
0.0
  0
LINE
  5
206
330
70
100
AcDbEntity
  8
Visible (ISO)
100
AcDbLine
 10
73.7868214834327
 20
73.50840620808101
 30
0.0
 11
73.2330426925813
 21
74.46757920998969
 31
0.0
  0
LINE
  5
207
330
70
100
AcDbEntity
  8
Visible (ISO)
100
AcDbLine
 10
58.37346725625514
 20
61.56894933056644
 30
0.0
 11
73.20017571061026
 21
61.56894933056644
 31
0.0
  0
LINE
  5
208
330
70
100
AcDbEntity
  8
Visible (ISO)
100
AcDbLine
 10
58.37827446033677
 20
59.68067821814611
 30
0.0
 11
73.19536850652863
 21
59.68067821814611
 31
0.0
  0
LINE
  5
209
330
70
100
AcDbEntity
  8
Visible (ISO)
100
AcDbLine
 10
58.35487187581634
 20
68.86620909022965
 30
0.0
 11
73.21877109104905
 21
68.86620909022965
 31
0.0
  0
LINE
  5
20A
330
70
100
AcDbEntity
  8
Visible (ISO)
100
AcDbLine
 10
58.35005541015292
 20
70.75448020264997
 30
0.0
 11
73.22358755671247
 21
70.75448020264997
 31
0.0
  0
LINE
  5
20B
330
70
100
AcDbEntity
  8
Visible (ISO)
100
AcDbLine
 10
58.34075934480871
 20
74.40311008248158
 30
0.0
 11
73.23288362205669
 21
74.40311008248158
 31
0.0
  0
LINE
  5
20C
330
70
100
AcDbEntity
  8
Visible (ISO)
100
AcDbLine
 10
58.38757377730381
 20
56.03204833831451
 30
0.0
 11
73.18606918956158
 21
56.03204833831451
 31
0.0
  0
LINE
  5
20D
330
70
100
AcDbEntity
  8
Visible (ISO)
100
AcDbLine
 10
58.34060027475666
 20
74.46757921039804
 30
0.0
 11
73.23304269210874
 21
74.46757921039804
 31
0.0
  0
LINE
  5
20E
330
70
100
AcDbEntity
  8
Visible (ISO)
100
AcDbLine
 10
58.3877432309595
 20
55.96757921039804
 30
0.0
 11
73.18589973590589
 21
55.96757921039804
 31
0.0
  0
SPLINE
  5
20F
330
70
100
AcDbEntity
  8
Visible (ISO)
100
AcDbSpline
210
0.0
220
0.0
230
1.0
 70
     8
 71
     3
 72
     8
 73
     4
 74
     0
 42
0.000000001
 43
0.0000000001
 40
3.142729944404867
 40
3.142729944404867
 40
3.142729944404867
 40
3.142729944404867
 40
3.350046040583589
 40
3.350046040583589
 40
3.350046040583589
 40
3.350046040583589
 10
58.37346725625514
 20
61.56894933056644
 30
0.0
 10
58.37518394897372
 20
60.89472246191792
 30
0.0
 10
58.37681062539627
 20
60.25572349126318
 30
0.0
 10
58.37827446033678
 20
59.68067821814611
 30
0.0
  0
SPLINE
  5
210
330
70
100
AcDbEntity
  8
Visible (ISO)
100
AcDbSpline
210
0.0
220
0.0
230
1.0
 70
    12
 71
     2
 72
     6
 73
     3
 74
     0
 42
0.000000001
 43
0.0000000001
 40
0.3064907887746168
 40
0.3064907887746168
 40
0.3064907887746168
 40
1.124636459553173
 40
1.124636459553173
 40
1.124636459553173
 10
58.35487187581635
 20
68.86620909022965
 30
0.0
 41
1.099036745105105
 10
57.53325296003796
 20
65.22393140734791
 30
0.0
 41
1.194926045466024
 10
58.37346725625513
 20
61.56894933056643
 30
0.0
 41
1.097044292848638
  0
SPLINE
  5
211
330
70
100
AcDbEntity
  8
Visible (ISO)
100
AcDbSpline
210
0.0
220
0.0
230
1.0
 70
     8
 71
     3
 72
     8
 73
     4
 74
     0
 42
0.000000001
 43
0.0000000001
 40
2.216470924017539
 40
2.216470924017539
 40
2.216470924017539
 40
2.216470924017539
 40
2.423616388942817
 40
2.423616388942817
 40
2.423616388942817
 40
2.423616388942817
 10
58.35005541015292
 20
70.75448020264997
 30
0.0
 10
58.35152310635486
 20
70.1791289913458
 30
0.0
 10
58.35315315401716
 20
69.54011709831911
 30
0.0
 10
58.35487187581634
 20
68.86620909022965
 30
0.0
  0
SPLINE
  5
212
330
70
100
AcDbEntity
  8
Visible (ISO)
100
AcDbSpline
210
0.0
220
0.0
230
1.0
 70
    12
 71
     2
 72
     6
 73
     3
 74
     0
 42
0.000000001
 43
0.0000000001
 40
0.3080325734070506
 40
0.3080325734070506
 40
0.3080325734070506
 40
1.128101733133593
 40
1.128101733133593
 40
1.128101733133593
 10
58.34075934480871
 20
74.40311008248156
 30
0.0
 41
1.100754619662588
 10
57.51156130552399
 20
72.58038851209497
 30
0.0
 41
1.198114783114956
 10
58.35005541015292
 20
70.75448020264997
 30
0.0
 41
1.099752732484698
  0
SPLINE
  5
213
330
70
100
AcDbEntity
  8
Visible (ISO)
100
AcDbSpline
210
0.0
220
0.0
230
1.0
 70
     8
 71
     3
 72
    10
 73
     6
 74
     0
 42
0.000000001
 43
0.0000000001
 40
1.389644981891071
 40
1.389644981891071
 40
1.389644981891071
 40
1.389644981891071
 40
1.389653673492769
 40
1.389653673492769
 40
1.496941367873947
 40
1.496941367873947
 40
1.496941367873947
 40
1.496941367873947
 10
58.34060027475667
 20
74.46757921039554
 30
0.0
 10
58.3406002745988
 20
74.4675792103972
 30
0.0
 10
58.34060027444127
 20
74.46757921026193
 30
0.0
 10
58.34059833417185
 20
74.46757584961672
 30
0.0
 10
58.3406497647508
 20
74.44670532065337
 30
0.0
 10
58.34075934480871
 20
74.40311008248158
 30
0.0
  0
SPLINE
  5
214
330
70
100
AcDbEntity
  8
Visible (ISO)
100
AcDbSpline
210
0.0
220
0.0
230
1.0
 70
     8
 71
     3
 72
     8
 73
     4
 74
     0
 42
0.000000001
 43
0.0000000001
 40
4.069806568453929
 40
4.069806568453929
 40
4.069806568453929
 40
4.069806568453929
 40
4.177124186456814
 40
4.177124186456814
 40
4.177124186456814
 40
4.177124186456814
 10
58.38757377730381
 20
56.03204833831451
 30
0.0
 10
58.38768634446238
 20
55.98846258342572
 30
0.0
 10
58.38774128983567
 20
55.96758257211661
 30
0.0
 10
58.38774323048903
 20
55.96757921080639
 30
0.0
  0
SPLINE
  5
215
330
70
100
AcDbEntity
  8
Visible (ISO)
100
AcDbSpline
210
0.0
220
0.0
230
1.0
 70
    12
 71
     2
 72
     6
 73
     3
 74
     0
 42
0.000000001
 43
0.0000000001
 40
0.3006765647426854
 40
0.3006765647426854
 40
0.3006765647426854
 40
1.116924309062172
 40
1.116924309062172
 40
1.116924309062172
 10
58.37827446033678
 20
59.68067821814611
 30
0.0
 41
1.096338511801205
 10
57.55491528752429
 20
57.85794604700035
 30
0.0
 41
1.191768356554788
 10
58.38757377730381
 20
56.03204833831451
 30
0.0
 41
1.095347893909632
  0
LINE
  5
216
330
70
100
AcDbEntity
  8
Visible (ISO)
100
AcDbLine
 10
57.7868214834327
 20
73.50840620808101
 30
0.0
 11
58.3406002742841
 21
74.46757920998969
 31
0.0
  0
LINE
  5
217
330
70
100
AcDbEntity
  8
Visible (ISO)
100
AcDbLine
 10
57.7868214834327
 20
57.00840620808101
 30
0.0
 11
58.38774323048903
 21
55.96757921080639
 31
0.0
  0
LINE
  5
218
330
70
100
AcDbEntity
  8
Visible (ISO)
100
AcDbLine
 10
73.7868214834327
 20
73.50840620808101
 30
0.0
 11
78.2868214834327
 21
73.50840620808101
 31
0.0
  0
LINE
  5
219
330
70
100
AcDbEntity
  8
Visible (ISO)
100
AcDbLine
 10
73.7868214834327
 20
57.00840620808101
 30
0.0
 11
78.2868214834327
 21
57.00840620808101
 31
0.0
  0
ARC
  5
21A
330
70
100
AcDbEntity
  8
Visible (ISO)
100
AcDbCircle
 10
104.7868214834327
 20
91.77736173145872
 30
0.0
 40
5.999999999999998
100
AcDbArc
 50
264.4198332155256
 51
0.0
  0
LINE
  5
21B
330
70
100
AcDbEntity
  8
Visible (ISO)
100
AcDbLine
 10
110.7868214834327
 20
93.75840620808103
 30
0.0
 11
110.7868214834327
 21
91.77736173145868
 31
0.0
  0
ARC
  5
21C
330
70
100
AcDbEntity
  8
Visible (ISO)
100
AcDbCircle
 10
105.1757750476984
 20
95.75840620808101
 30
0.0
 40
10.0
100
AcDbArc
 50
203.5781784782018
 51
264.4198332155255
  0
LINE
  5
21D
330
70
100
AcDbEntity
  8
Visible (ISO)
100
AcDbLine
 10
112.9622583449694
 20
93.75840620808103
 30
0.0
 11
110.7868214834327
 21
93.75840620808103
 31
0.0
  0
LINE
  5
21E
330
70
100
AcDbEntity
  8
Visible (ISO)
100
AcDbLine
 10
130.7868214834327
 20
93.75840620808103
 30
0.0
 11
112.9622583449694
 21
93.75840620808103
 31
0.0
  0
ARC
  5
21F
330
70
100
AcDbEntity
  8
Visible (ISO)
100
AcDbCircle
 10
125.7868214834327
 20
86.758406208081
 30
0.0
 40
4.999999999999995
100
AcDbArc
 50
270.0
 51
0.0
  0
LINE
  5
220
330
70
100
AcDbEntity
  8
Visible (ISO)
100
AcDbLine
 10
117.7868214834327
 20
81.758406208081
 30
0.0
 11
125.7868214834327
 21
81.758406208081
 31
0.0
  0
SPLINE
  5
221
330
70
100
AcDbEntity
  8
Visible (ISO)
100
AcDbSpline
210
0.0
220
0.0
230
1.0
 70
     8
 71
     3
 72
    14
 73
    10
 74
     0
 42
0.000000001
 43
0.0000000001
 40
0.0979815127343829
 40
0.0979815127343829
 40
0.0979815127343829
 40
0.0979815127343829
 40
0.1506624850332004
 40
0.1506624850332004
 40
0.3013249700664007
 40
0.3013249700664007
 40
0.4554237426914714
 40
0.4554237426914714
 40
0.5051911393277391
 40
0.5051911393277391
 40
0.5051911393277391
 40
0.5051911393277391
 10
97.28682148343271
 20
75.75840620808101
 30
0.0
 10
97.33301637856881
 20
75.93731826762288
 30
0.0
 10
97.39194829173758
 20
76.11401456471956
 30
0.0
 10
97.66532597484715
 20
76.77585899120365
 30
0.0
 10
97.9699161968481
 20
77.22220684141866
 30
0.0
 10
98.67576225914454
 20
77.9343424936623
 30
0.0
 10
99.12734352700452
 20
78.2449925229738
 30
0.0
 10
99.7818263046439
 20
78.5175455907871
 30
0.0
 10
99.94596232365397
 20
78.57366818885942
 30
0.0
 10
100.1121078728703
 20
78.61875995958818
 30
0.0
  0
LINE
  5
222
330
70
100
AcDbEntity
  8
Visible (ISO)
100
AcDbLine
 10
100.1121078728704
 20
78.61875995958818
 30
0.0
 11
105.8923409738687
 21
80.18751065425481
 31
0.0
  0
SPLINE
  5
223
330
70
100
AcDbEntity
  8
Visible (ISO)
100
AcDbSpline
210
0.0
220
0.0
230
1.0
 70
     8
 71
     3
 72
    10
 73
     6
 74
     0
 42
0.000000001
 43
0.0000000001
 40
5.578615183636053
 40
5.578615183636053
 40
5.578615183636053
 40
5.578615183636053
 40
6.021510703961547
 40
6.021510703961547
 40
6.267952460891863
 40
6.267952460891863
 40
6.267952460891863
 40
6.267952460891863
 10
105.8923409738687
 20
80.18751065425481
 30
0.0
 10
107.339057995999
 20
80.58014851051376
 30
0.0
 10
108.8411700307796
 20
80.90953968521482
 30
0.0
 10
111.2291169133864
 20
81.30231277643957
 30
0.0
 10
112.0928037445356
 20
81.41902395288248
 30
0.0
 10
112.9622583449694
 20
81.51066096285195
 30
0.0
  0
ARC
  5
224
330
70
100
AcDbEntity
  8
Visible (ISO)
100
AcDbCircle
 10
117.6789655923324
 20
36.75840620807715
 30
0.0
 40
45.00012925418761
100
AcDbArc
 50
89.86267387728107
 51
96.01653196780475
  0
LINE
  5
225
330
70
100
AcDbEntity
  8
Visible (ISO)
100
AcDbLine
 10
97.28682148343269
 20
75.75840620808101
 30
0.0
 11
97.78682148343271
 21
75.75840620808101
 31
0.0
  0
LINE
  5
226
330
70
100
AcDbEntity
  8
Visible (ISO)
100
AcDbLine
 10
97.78682148343271
 20
75.75840620808101
 30
0.0
 11
97.85754018423041
 21
77.01562755559596
 31
0.0
  0
SPLINE
  5
227
330
70
100
AcDbEntity
  8
Visible (ISO)
100
AcDbSpline
210
0.0
220
0.0
230
1.0
 70
     8
 71
     3
 72
    10
 73
     6
 74
     0
 42
0.000000001
 43
0.0000000001
 40
1.741738255902264
 40
1.741738255902264
 40
1.741738255902264
 40
1.741738255902264
 40
1.747035871281402
 40
1.747035871281402
 40
1.758510453691923
 40
1.758510453691923
 40
1.758510453691923
 40
1.758510453691923
 10
92.78682148343269
 20
75.79622313188099
 30
0.0
 10
92.80256408692794
 20
75.78858595639821
 30
0.0
 10
92.81860230546874
 20
75.78196222650316
 30
0.0
 10
92.87008818753156
 20
75.76469497468348
 30
0.0
 10
92.90637743315983
 20
75.75840620808101
 30
0.0
 10
92.94276673385986
 20
75.758406208081
 30
0.0
  0
SPLINE
  5
228
330
70
100
AcDbEntity
  8
Visible (ISO)
100
AcDbSpline
210
0.0
220
0.0
230
1.0
 70
     8
 71
     3
 72
     8
 73
     4
 74
     0
 42
0.000000001
 43
0.0000000001
 40
-0.0038487374224739
 40
-0.0038487374224739
 40
-0.0038487374224739
 40
-0.0038487374224739
 40
0.0
 40
0.0
 40
0.0
 40
0.0
 10
92.79362084134973
 20
75.75840620808101
 30
0.0
 10
92.79135394969591
 20
75.77101176956849
 30
0.0
 10
92.78908749704314
 20
75.78361741179207
 30
0.0
 10
92.78682148343269
 20
75.79622313188099
 30
0.0
  0
LINE
  5
229
330
70
100
AcDbEntity
  8
Visible (ISO)
100
AcDbLine
 10
92.94276673385988
 20
75.75840620808101
 30
0.0
 11
92.79362084135099
 21
75.75840620808101
 31
0.0
  0
SPLINE
  5
22A
330
70
100
AcDbEntity
  8
Visible (ISO)
100
AcDbSpline
210
0.0
220
0.0
230
1.0
 70
     8
 71
     3
 72
    22
 73
    18
 74
     0
 42
0.000000001
 43
0.0000000001
 40
1.758510453691923
 40
1.758510453691923
 40
1.758510453691923
 40
1.758510453691923
 40
1.769985036102444
 40
1.769985036102444
 40
1.781459618512965
 40
1.781459618512965
 40
1.804408783334006
 40
1.804408783334006
 40
1.879967807849264
 40
1.879967807849264
 40
1.955526832364522
 40
1.955526832364522
 40
2.150713591741938
 40
2.150713591741938
 40
2.345900351119354
 40
2.345900351119354
 40
2.573780108621498
 40
2.573780108621498
 40
2.573780108621498
 40
2.573780108621498
 10
92.94276673385986
 20
75.758406208081
 30
0.0
 10
92.9791560345599
 20
75.758406208081
 30
0.0
 10
93.01546646357866
 20
75.76469497468384
 30
0.0
 10
93.08599348095368
 20
75.7883215150446
 30
0.0
 10
93.12021292577746
 20
75.80564982205443
 30
0.0
 10
93.21767508176321
 20
75.86910252315385
 30
0.0
 10
93.27589866139815
 20
75.92683881029273
 30
0.0
 10
93.48384210136543
 20
76.17227086895319
 30
0.0
 10
93.60223420281101
 20
76.41311770232376
 30
0.0
 10
93.81467045351065
 20
76.9120735802672
 30
0.0
 10
93.90452226966459
 20
77.1721365916421
 30
0.0
 10
94.1758937806802
 20
78.02885852336439
 30
0.0
 10
94.33153732017268
 20
78.67074729957123
 30
0.0
 10
94.61841338804356
 20
79.98343562620867
 30
0.0
 10
94.74708827584484
 20
80.65484658311309
 30
0.0
 10
95.00885193989024
 20
82.13237252564113
 30
0.0
 10
95.13868423013432
 20
82.9419823180917
 30
0.0
 10
95.26136836751318
 20
83.75840620808103
 30
0.0
  0
LINE
  5
22B
330
70
100
AcDbEntity
  8
Visible (ISO)
100
AcDbLine
 10
97.28682148343271
 20
75.75840620808101
 30
0.0
 11
92.94276673385994
 21
75.75840620808101
 31
0.0
  0
LINE
  5
22C
330
70
100
AcDbEntity
  8
Visible (ISO)
100
AcDbLine
 10
94.50115761173012
 20
84.75314978607165
 30
0.0
 11
112.9622583449694
 21
84.75314978607165
 31
0.0
  0
SPLINE
  5
22D
330
70
100
AcDbEntity
  8
Visible (ISO)
100
AcDbSpline
210
0.0
220
0.0
230
1.0
 70
     8
 71
     3
 72
    10
 73
     6
 74
     0
 42
0.000000001
 43
0.0000000001
 40
1.026679612955202
 40
1.026679612955202
 40
1.026679612955202
 40
1.026679612955202
 40
1.054986950396901
 40
1.054986950396901
 40
1.150372975748469
 40
1.150372975748469
 40
1.150372975748469
 40
1.150372975748469
 10
95.26136836751318
 20
83.75840620808103
 30
0.0
 10
95.2101829308274
 20
83.83701146762602
 30
0.0
 10
95.15815467132062
 20
83.91465979346724
 30
0.0
 10
94.92654709205183
 20
84.24929301638494
 30
0.0
 10
94.72413720490244
 20
84.51394292158182
 30
0.0
 10
94.50115761173012
 20
84.75314978607165
 30
0.0
  0
LINE
  5
22E
330
70
100
AcDbEntity
  8
Visible (ISO)
100
AcDbLine
 10
130.7868214834327
 20
86.758406208081
 30
0.0
 11
130.7868214834327
 21
93.75840620808103
 31
0.0
  0
LINE
  5
22F
330
70
100
AcDbEntity
  8
Visible (ISO)
100
AcDbLine
 10
92.78682148343269
 20
75.75840620808101
 30
0.0
 11
92.79362084134973
 21
75.75840620808101
 31
0.0
  0
SPLINE
  5
230
330
70
100
AcDbEntity
  8
Visible (ISO)
100
AcDbSpline
210
0.0
220
0.0
230
1.0
 70
    28
 71
     2
 72
     6
 73
     3
 74
     0
 42
0.000000001
 43
0.0000000001
 40
0.0
 40
0.0
 40
0.0
 40
0.0039177008118712
 40
0.0039177008118712
 40
0.0039177008118712
 10
92.78682148343269
 20
75.75840620808101
 30
0.0
 41
1.0
 10
92.78682148343269
 20
75.77731154215378
 30
0.0
 41
1.000002569573184
 10
92.78682148343269
 20
75.79622313188099
 30
0.0
 41
1.000005114022333
  0
LINE
  5
231
330
70
100
AcDbEntity
  8
Visible (ISO)
100
AcDbLine
 10
83.78682148343271
 20
75.75840620808101
 30
0.0
 11
92.78682148343269
 21
75.75840620808101
 31
0.0
  0
LINE
  5
232
330
70
100
AcDbEntity
  8
Visible (ISO)
100
AcDbLine
 10
83.33682148343271
 20
83.75840620808103
 30
0.0
 11
95.26136836751318
 21
83.75840620808103
 31
0.0
  0
LINE
  5
233
330
70
100
AcDbEntity
  8
Visible (ISO)
100
AcDbLine
 10
85.28682148343269
 20
91.758406208081
 30
0.0
 11
83.33682148343269
 21
83.75840620808103
 31
0.0
  0
LINE
  5
234
330
70
100
AcDbEntity
  8
Visible (ISO)
100
AcDbLine
 10
83.78682148343271
 20
75.75840620808101
 30
0.0
 11
83.33682148343269
 21
83.75840620808103
 31
0.0
  0
SPLINE
  5
235
330
70
100
AcDbEntity
  8
Visible (ISO)
100
AcDbSpline
210
0.0
220
0.0
230
1.0
 70
    12
 71
     2
 72
     6
 73
     3
 74
     0
 42
0.000000001
 43
0.0000000001
 40
0.0894691240021865
 40
0.0894691240021865
 40
0.0894691240021865
 40
0.8244898720284863
 40
0.8244898720284863
 40
0.8244898720284863
 10
97.73876232174991
 20
84.75314978607165
 30
0.0
 41
1.00231088921009
 10
96.75858661476548
 20
88.74316986823513
 30
0.0
 41
1.010647833933487
 10
96.01062365778677
 20
91.758406208081
 30
0.0
 41
1.0
  0
LINE
  5
236
330
70
100
AcDbEntity
  8
Visible (ISO)
100
AcDbLine
 10
112.9622583449694
 20
84.75314978607165
 30
0.0
 11
112.9622583449694
 21
93.75840620808103
 31
0.0
  0
LINE
  5
237
330
70
100
AcDbEntity
  8
Visible (ISO)
100
AcDbLine
 10
96.28682148343273
 20
91.758406208081
 30
0.0
 11
96.5414558464262
 21
90.71375241118465
 31
0.0
  0
SPLINE
  5
238
330
70
100
AcDbEntity
  8
Visible (ISO)
100
AcDbSpline
210
0.0
220
0.0
230
1.0
 70
     8
 71
     3
 72
    19
 73
    15
 74
     0
 42
0.000000001
 43
0.0000000001
 40
-1.019253894380656
 40
-1.019253894380656
 40
-1.019253894380656
 40
-1.019253894380656
 40
-0.8380733322482749
 40
-0.8380733322482749
 40
-0.6905008978664565
 40
-0.6905008978664565
 40
-0.5587155548321833
 40
-0.5587155548321833
 40
-0.5587155548321833
 40
-0.4269302117979099
 40
-0.4269302117979099
 40
-0.2793577774160916
 40
-0.2793577774160916
 40
-0.0981772152837096
 40
-0.0981772152837096
 40
-0.0981772152837096
 40
-0.0981772152837096
 10
86.18149322602112
 20
92.30848663174436
 30
0.0
 10
86.78457992518488
 20
92.34066651145097
 30
0.0
 10
87.38767573565979
 20
92.37278221072626
 30
0.0
 10
88.48209724320827
 20
92.43035438534418
 30
0.0
 10
88.97333793045342
 20
92.45618146364959
 30
0.0
 10
89.90400963331712
 20
92.50172642292875
 30
0.0
 10
90.34360292738828
 20
92.52583006144286
 30
0.0
 10
90.7868214834327
 20
92.52583006144286
 30
0.0
 10
91.23004003947713
 20
92.52583006144286
 30
0.0
 10
91.66963333354829
 20
92.50172642292875
 30
0.0
 10
92.60030503641198
 20
92.45618146364959
 30
0.0
 10
93.09154572365711
 20
92.43035438534418
 30
0.0
 10
94.18596723120561
 20
92.37278221072626
 30
0.0
 10
94.78906304168052
 20
92.34066651145097
 30
0.0
 10
95.39214974084428
 20
92.30848663174436
 30
0.0
  0
ARC
  5
239
330
70
100
AcDbEntity
  8
Visible (ISO)
100
AcDbCircle
 10
95.38682148343271
 20
92.21072789572238
 30
0.0
 40
0.1
100
AcDbArc
 50
86.91978986335724
 51
98.6979721621757
  0
ARC
  5
23A
330
70
100
AcDbEntity
  8
Visible (ISO)
100
AcDbCircle
 10
86.18682148343269
 20
92.21072789572238
 30
0.0
 40
0.1
100
AcDbArc
 50
81.30202783782431
 51
93.08021013664278
  0
LINE
  5
23B
330
70
100
AcDbEntity
  8
Visible (ISO)
100
AcDbLine
 10
84.8868214834327
 20
91.758406208081
 30
0.0
 11
84.78682148343271
 21
91.758406208081
 31
0.0
  0
LINE
  5
23C
330
70
100
AcDbEntity
  8
Visible (ISO)
100
AcDbLine
 10
84.78682148343271
 20
92.15840620808101
 30
0.0
 11
84.78682148343271
 21
91.75840620808102
 31
0.0
  0
SPLINE
  5
23D
330
70
100
AcDbEntity
  8
Visible (ISO)
100
AcDbSpline
210
0.0
220
0.0
230
1.0
 70
     8
 71
     3
 72
    20
 73
    16
 74
     0
 42
0.000000001
 43
0.0000000001
 40
-0.1167463837654997
 40
-0.1167463837654997
 40
-0.1167463837654997
 40
-0.1167463837654997
 40
-0.1163267376802986
 40
-0.1163267376802986
 40
-0.1148286972977117
 40
-0.1148286972977117
 40
-0.111636749464689
 40
-0.111636749464689
 40
-0.107278172338819
 40
-0.107278172338819
 40
-0.1040400035181946
 40
-0.1040400035181946
 40
-0.1011279500247179
 40
-0.1011279500247179
 40
-0.100530888678917
 40
-0.100530888678917
 40
-0.100530888678917
 40
-0.100530888678917
 10
85.46081560285001
 20
92.25840620808101
 30
0.0
 10
85.461096250412
 20
92.25840620808101
 30
0.0
 10
85.46132855829711
 20
92.25838913489168
 30
0.0
 10
85.46215341130722
 20
92.25822596528461
 30
0.0
 10
85.4620869970787
 20
92.25787392277
 30
0.0
 10
85.46030499159341
 20
92.25607973907129
 30
0.0
 10
85.45679493223486
 20
92.25377259936351
 30
0.0
 10
85.44732463705299
 20
92.24569274721844
 30
0.0
 10
85.44018646452506
 20
92.23840457123195
 30
0.0
 10
85.42896147435014
 20
92.21971369320957
 30
0.0
 10
85.42486518547356
 20
92.21038401074517
 30
0.0
 10
85.41935974496125
 20
92.19053336577857
 30
0.0
 10
85.41778141369958
 20
92.1804569584934
 30
0.0
 10
85.41735651203126
 20
92.16790428645117
 30
0.0
 10
85.41733628289767
 20
92.16577079939742
 30
0.0
 10
85.4173674538979
 20
92.16364269393308
 30
0.0
  0
LINE
  5
23E
330
70
100
AcDbEntity
  8
Visible (ISO)
100
AcDbLine
 10
85.46081560285001
 20
92.25840620808101
 30
0.0
 11
84.8868214834327
 21
92.25840620808101
 31
0.0
  0
SPLINE
  5
23F
330
70
100
AcDbEntity
  8
Visible (ISO)
100
AcDbSpline
210
0.0
220
0.0
230
1.0
 70
     8
 71
     3
 72
     8
 73
     4
 74
     0
 42
0.000000001
 43
0.0000000001
 40
0.030117303607032
 40
0.030117303607032
 40
0.030117303607032
 40
0.030117303607032
 40
0.0306368404626457
 40
0.0306368404626457
 40
0.0306368404626457
 40
0.0306368404626457
 10
85.41736745389792
 20
92.16364269393293
 30
0.0
 10
85.41739319626573
 20
92.16188521188122
 30
0.0
 10
85.41740577965263
 20
92.16013799759972
 30
0.0
 10
85.41740577965263
 20
92.15840620808101
 30
0.0
  0
ARC
  5
240
330
70
100
AcDbEntity
  8
Visible (ISO)
100
AcDbCircle
 10
84.8868214834327
 20
92.15840620808101
 30
0.0
 40
0.0999999999999998
100
AcDbArc
 50
90.0
 51
180.0
  0
LINE
  5
241
330
70
100
AcDbEntity
  8
Visible (ISO)
100
AcDbLine
 10
96.7868214834327
 20
91.758406208081
 30
0.0
 11
96.68682148343272
 21
91.758406208081
 31
0.0
  0
SPLINE
  5
242
330
70
100
AcDbEntity
  8
Visible (ISO)
100
AcDbSpline
210
0.0
220
0.0
230
1.0
 70
     8
 71
     3
 72
     8
 73
     4
 74
     0
 42
0.000000001
 43
0.0000000001
 40
0.0306368404626457
 40
0.0306368404626457
 40
0.0306368404626457
 40
0.0306368404626457
 40
0.0311564612047215
 40
0.0311564612047215
 40
0.0311564612047215
 40
0.0311564612047215
 10
96.15623718721279
 20
92.15840620808101
 30
0.0
 10
96.15623718721279
 20
92.16013827722127
 30
0.0
 10
96.15624977436073
 20
92.16188546865586
 30
0.0
 10
96.15627551296752
 20
92.16364269393308
 30
0.0
  0
LINE
  5
243
330
70
100
AcDbEntity
  8
Visible (ISO)
100
AcDbLine
 10
96.68682148343272
 20
92.25840620808101
 30
0.0
 11
96.11282736401541
 21
92.25840620808101
 31
0.0
  0
SPLINE
  5
244
330
70
100
AcDbEntity
  8
Visible (ISO)
100
AcDbSpline
210
0.0
220
0.0
230
1.0
 70
     8
 71
     3
 72
    18
 73
    14
 74
     0
 42
0.000000001
 43
0.0000000001
 40
-0.1028855666828686
 40
-0.1028855666828686
 40
-0.1028855666828686
 40
-0.1028855666828686
 40
-0.1004689900059198
 40
-0.1004689900059198
 40
-0.0980358109280614
 40
-0.0980358109280614
 40
-0.093790661072223
 40
-0.093790661072223
 40
-0.0887468381604296
 40
-0.0887468381604296
 40
-0.0865906319794494
 40
-0.0865906319794494
 40
-0.0854228207007943
 40
-0.0854228207007943
 40
-0.0854228207007943
 40
-0.0854228207007943
 10
96.15627551296743
 20
92.16364269392867
 30
0.0
 10
96.15639332623736
 20
92.17168603745475
 30
0.0
 10
96.15577402739541
 20
92.17959729023467
 30
0.0
 10
96.15320599182233
 20
92.1948859176118
 30
0.0
 10
96.15127081244047
 20
92.20212481616455
 30
0.0
 10
96.14458406044571
 20
92.22050970508915
 30
0.0
 10
96.13886049205738
 20
92.23033418910128
 30
0.0
 10
96.12539216699643
 20
92.24726980943328
 30
0.0
 10
96.11822124426522
 20
92.25256399420677
 30
0.0
 10
96.1128830209072
 20
92.25659696388522
 30
0.0
 10
96.11165695892283
 20
92.25752351318597
 30
0.0
 10
96.11168331610457
 20
92.25828291327635
 30
0.0
 10
96.11206665808284
 20
92.25840620808101
 30
0.0
 10
96.11282736401541
 20
92.25840620808101
 30
0.0
  0
LINE
  5
245
330
70
100
AcDbEntity
  8
Visible (ISO)
100
AcDbLine
 10
96.7868214834327
 20
91.75840620808102
 30
0.0
 11
96.7868214834327
 21
92.15840620808101
 31
0.0
  0
ARC
  5
246
330
70
100
AcDbEntity
  8
Visible (ISO)
100
AcDbCircle
 10
96.68682148343272
 20
92.15840620808101
 30
0.0
 40
0.1000000000000001
100
AcDbArc
 50
0.0
 51
90.0
  0
LINE
  5
247
330
70
100
AcDbEntity
  8
Visible (ISO)
100
AcDbLine
 10
96.15623718721279
 20
91.75840620808102
 30
0.0
 11
96.68682148343272
 21
91.75840620808102
 31
0.0
  0
LINE
  5
248
330
70
100
AcDbEntity
  8
Visible (ISO)
100
AcDbLine
 10
96.15623718721279
 20
91.758406208081
 30
0.0
 11
85.41740577965263
 21
91.758406208081
 31
0.0
  0
LINE
  5
249
330
70
100
AcDbEntity
  8
Visible (ISO)
100
AcDbLine
 10
84.8868214834327
 20
91.75840620808102
 30
0.0
 11
85.41740577965263
 21
91.75840620808102
 31
0.0
  0
LINE
  5
24A
330
70
100
AcDbEntity
  8
Visible (ISO)
100
AcDbLine
 10
96.15623718721279
 20
92.15840620808101
 30
0.0
 11
96.15623718721279
 21
91.75840620808102
 31
0.0
  0
LINE
  5
24B
330
70
100
AcDbEntity
  8
Visible (ISO)
100
AcDbLine
 10
85.41740577965263
 20
92.15840620808101
 30
0.0
 11
85.41740577965263
 21
91.75840620808102
 31
0.0
  0
LINE
  5
24C
330
70
100
AcDbEntity
  8
Visible (ISO)
100
AcDbLine
 10
95.39219487512504
 20
92.31058342467155
 30
0.0
 11
96.26719487512504
 21
92.26349822287785
 31
0.0
  0
LINE
  5
24D
330
70
100
AcDbEntity
  8
Visible (ISO)
100
AcDbLine
 10
86.18144809174038
 20
92.31058342467155
 30
0.0
 11
85.30644809174036
 21
92.26349822287785
 31
0.0
  0
ARC
  5
24E
330
70
100
AcDbEntity
  8
Visible (ISO)
100
AcDbCircle
 10
85.31182148343271
 20
92.16364269392867
 30
0.0
 40
0.1
100
AcDbArc
 50
93.08021013665239
 51
108.6239246438592
  0
ARC
  5
24F
330
70
100
AcDbEntity
  8
Visible (ISO)
100
AcDbCircle
 10
96.2618214834327
 20
92.16364269392867
 30
0.0
 40
0.1
100
AcDbArc
 50
71.37607535615041
 51
86.91978986335724
  0
LINE
  5
250
330
70
100
AcDbEntity
  8
Visible (ISO)
100
AcDbLine
 10
100.5368214834514
 20
141.057734162466
 30
0.0
 11
100.5368214834514
 21
146.3590548290449
 31
0.0
  0
LINE
  5
251
330
70
100
AcDbEntity
  8
Visible (ISO)
100
AcDbLine
 10
100.5368214834514
 20
126.3590548290449
 30
0.0
 11
100.5368214834514
 21
131.6603754956291
 31
0.0
  0
LINE
  5
252
330
70
100
AcDbEntity
  8
Visible (ISO)
100
AcDbLine
 10
100.7868214834514
 20
131.7085555101862
 30
0.0
 11
100.7868214834514
 21
126.6090548290449
 31
0.0
  0
LINE
  5
253
330
70
100
AcDbEntity
  8
Visible (ISO)
100
AcDbLine
 10
100.7868214834514
 20
146.1090548290449
 30
0.0
 11
100.7868214834514
 21
141.0095541479087
 31
0.0
  0
LINE
  5
254
330
70
100
AcDbEntity
  8
Visible (ISO)
100
AcDbLine
 10
100.7868214834514
 20
126.6090548290449
 30
0.0
 11
100.5368214834514
 21
126.3590548290449
 31
0.0
  0
LINE
  5
255
330
70
100
AcDbEntity
  8
Visible (ISO)
100
AcDbLine
 10
100.7868214834514
 20
146.1090548290449
 30
0.0
 11
100.5368214834514
 21
146.3590548290449
 31
0.0
  0
LINE
  5
256
330
70
100
AcDbEntity
  8
Visible (ISO)
100
AcDbLine
 10
98.66878749470149
 20
131.268018635847
 30
0.0
 11
98.66878749470149
 21
126.3590548290449
 31
0.0
  0
LINE
  5
257
330
70
100
AcDbEntity
  8
Visible (ISO)
100
AcDbLine
 10
98.66878749470149
 20
146.3590548290449
 30
0.0
 11
98.66878749470149
 21
141.450091022248
 31
0.0
  0
ARC
  5
258
330
70
100
AcDbEntity
  8
Visible (ISO)
100
AcDbCircle
 10
99.78682148345141
 20
145.3590548290449
 30
0.0
 40
1.5
100
AcDbArc
 50
138.1896851042216
 51
180.0
  0
ARC
  5
259
330
70
100
AcDbEntity
  8
Visible (ISO)
100
AcDbCircle
 10
99.78682148345141
 20
127.3590548290449
 30
0.0
 40
1.5
100
AcDbArc
 50
180.0
 51
221.8103148957783
  0
LINE
  5
25A
330
70
100
AcDbEntity
  8
Visible (ISO)
100
AcDbLine
 10
82.90485547220129
 20
126.3590548290449
 30
0.0
 11
82.90485547220129
 21
146.3590548290449
 31
0.0
  0
ARC
  5
25B
330
70
100
AcDbEntity
  8
Visible (ISO)
100
AcDbCircle
 10
81.78682148345139
 20
127.3590548290449
 30
0.0
 40
1.5
100
AcDbArc
 50
318.1896851042217
 51
0.0
  0
ARC
  5
25C
330
70
100
AcDbEntity
  8
Visible (ISO)
100
AcDbCircle
 10
81.78682148345139
 20
145.3590548290449
 30
0.0
 40
1.5
100
AcDbArc
 50
0.0
 51
41.81031489577835
  0
LINE
  5
25D
330
70
100
AcDbEntity
  8
Visible (ISO)
100
AcDbLine
 10
80.90485547220128
 20
126.3590548290449
 30
0.0
 11
80.90485547220128
 21
146.3590548290449
 31
0.0
  0
LINE
  5
25E
330
70
100
AcDbEntity
  8
Visible (ISO)
100
AcDbLine
 10
80.90485547220128
 20
146.3590548290449
 30
0.0
 11
82.90485547220129
 21
146.3590548290449
 31
0.0
  0
LINE
  5
25F
330
70
100
AcDbEntity
  8
Visible (ISO)
100
AcDbLine
 10
80.90485547220128
 20
126.3590548290449
 30
0.0
 11
82.90485547220129
 21
126.3590548290449
 31
0.0
  0
LINE
  5
260
330
70
100
AcDbEntity
  8
Visible (ISO)
100
AcDbLine
 10
78.78682148345138
 20
142.8090548290449
 30
0.0
 11
80.90485547220128
 21
146.3590548290449
 31
0.0
  0
LINE
  5
261
330
70
100
AcDbEntity
  8
Visible (ISO)
100
AcDbLine
 10
78.78682148345138
 20
129.909054829045
 30
0.0
 11
80.90485547220128
 21
126.3590548290449
 31
0.0
  0
LINE
  5
262
330
70
100
AcDbEntity
  8
Visible (ISO)
100
AcDbLine
 10
98.09226957417152
 20
144.8590548290463
 30
0.0
 11
83.48137339273158
 21
144.8590548290463
 31
0.0
  0
LINE
  5
263
330
70
100
AcDbEntity
  8
Visible (ISO)
100
AcDbLine
 10
98.09226957417125
 20
127.8590548290463
 30
0.0
 11
83.48137339273128
 21
127.8590548290463
 31
0.0
  0
LINE
  5
264
330
70
100
AcDbEntity
  8
Visible (ISO)
100
AcDbLine
 10
100.5368214834514
 20
126.3590548290449
 30
0.0
 11
98.66878749470149
 21
126.3590548290449
 31
0.0
  0
LINE
  5
265
330
70
100
AcDbEntity
  8
Visible (ISO)
100
AcDbLine
 10
100.5368214834514
 20
146.3590548290449
 30
0.0
 11
98.66878749470149
 21
146.3590548290449
 31
0.0
  0
SPLINE
  5
266
330
70
100
AcDbEntity
  8
Visible (ISO)
100
AcDbSpline
210
0.0
220
0.0
230
1.0
 70
    12
 71
     2
 72
     6
 73
     3
 74
     0
 42
0.000000001
 43
0.0000000001
 40
0.0906100100638158
 40
0.0906100100638158
 40
0.0906100100638158
 40
0.604669331122392
 40
0.604669331122392
 40
0.604669331122392
 10
101.6903484293036
 20
127.8590548290463
 30
0.0
 41
1.030578586555896
 10
98.31441939041795
 20
124.187107982345
 30
0.0
 41
1.110294117647058
 10
100.9311590507488
 20
127.8590548290449
 30
0.0
 41
1.110294117647058
  0
SPLINE
  5
267
330
70
100
AcDbEntity
  8
Visible (ISO)
100
AcDbSpline
210
0.0
220
0.0
230
1.0
 70
    12
 71
     2
 72
     6
 73
     3
 74
     0
 42
0.000000001
 43
0.0000000001
 40
0.6531096665052078
 40
0.6531096665052078
 40
0.6531096665052078
 40
1.118728652180967
 40
1.118728652180967
 40
1.118728652180967
 10
100.9374202563359
 20
131.7370891518227
 30
0.0
 41
1.10958628473846
 10
100.9980142670486
 20
129.9360573158118
 30
0.0
 41
1.102782441653471
 10
101.6903484293036
 20
127.8590548290463
 30
0.0
 41
1.030578586555896
  0
SPLINE
  5
268
330
70
100
AcDbEntity
  8
Visible (ISO)
100
AcDbSpline
210
0.0
220
0.0
230
1.0
 70
    12
 71
     2
 72
     6
 73
     3
 74
     0
 42
0.000000001
 43
0.0000000001
 40
0.0906100100638158
 40
0.0906100100638158
 40
0.0906100100638158
 40
0.5562289957395579
 40
0.5562289957395579
 40
0.5562289957395579
 10
101.6903484293036
 20
144.8590548290463
 30
0.0
 41
1.030578586555896
 10
100.9980142670486
 20
142.7820523422816
 30
0.0
 41
1.10278244165347
 10
100.9374202563359
 20
140.9810205062714
 30
0.0
 41
1.109586284738461
  0
SPLINE
  5
269
330
70
100
AcDbEntity
  8
Visible (ISO)
100
AcDbSpline
210
0.0
220
0.0
230
1.0
 70
    12
 71
     2
 72
     6
 73
     3
 74
     0
 42
0.000000001
 43
0.0000000001
 40
0.6046693311223913
 40
0.6046693311223913
 40
0.6046693311223913
 40
1.118728652180966
 40
1.118728652180966
 40
1.118728652180966
 10
100.9311590507488
 20
144.8590548290449
 30
0.0
 41
1.110294117647058
 10
98.31441939041798
 20
140.6988899482185
 30
0.0
 41
1.110294117647058
 10
101.6903484293036
 20
144.8590548290463
 30
0.0
 41
1.030578586555896
  0
LINE
  5
26A
330
70
100
AcDbEntity
  8
Visible (ISO)
100
AcDbLine
 10
100.7868214834514
 20
144.6090548290448
 30
0.0
 11
100.9311590507488
 21
144.8590548290449
 31
0.0
  0
LINE
  5
26B
330
70
100
AcDbEntity
  8
Visible (ISO)
100
AcDbLine
 10
100.7868214834513
 20
128.1090548290449
 30
0.0
 11
100.9311590507488
 21
127.8590548290449
 31
0.0
  0
LINE
  5
26C
330
70
100
AcDbEntity
  8
Visible (ISO)
100
AcDbLine
 10
101.6903484293036
 20
127.8590548290463
 30
0.0
 11
112.8832945375991
 21
127.8590548290463
 31
0.0
  0
LINE
  5
26D
330
70
100
AcDbEntity
  8
Visible (ISO)
100
AcDbLine
 10
101.6903484293036
 20
144.8590548290463
 30
0.0
 11
112.8832945375991
 21
144.8590548290463
 31
0.0
  0
SPLINE
  5
26E
330
70
100
AcDbEntity
  8
Visible (ISO)
100
AcDbSpline
210
0.0
220
0.0
230
1.0
 70
    12
 71
     2
 72
     6
 73
     3
 74
     0
 42
0.000000001
 43
0.0000000001
 40
0.0906100100638165
 40
0.0906100100638165
 40
0.0906100100638165
 40
0.7021502909128588
 40
0.7021502909128588
 40
0.7021502909128588
 10
112.8832945375991
 20
127.8590548290463
 30
0.0
 41
1.030578586555896
 10
113.774317728596
 20
130.5321244020376
 30
0.0
 41
1.125410556864562
 10
113.6170783419495
 20
132.8590548290472
 30
0.0
 41
1.1074275904912
  0
SPLINE
  5
26F
330
70
100
AcDbEntity
  8
Visible (ISO)
100
AcDbSpline
210
0.0
220
0.0
230
1.0
 70
    12
 71
     2
 72
     6
 73
     3
 74
     0
 42
0.000000001
 43
0.0000000001
 40
0.6046693311223918
 40
0.6046693311223918
 40
0.6046693311223918
 40
1.118728652180968
 40
1.118728652180968
 40
1.118728652180968
 10
113.6424839161539
 20
127.8590548290449
 30
0.0
 41
1.110294117647058
 10
110.0969458032688
 20
124.187107982345
 30
0.0
 41
1.110294117647058
 10
112.8832945375991
 20
127.8590548290463
 30
0.0
 41
1.030578586555896
  0
SPLINE
  5
270
330
70
100
AcDbEntity
  8
Visible (ISO)
100
AcDbSpline
210
0.0
220
0.0
230
1.0
 70
    12
 71
     2
 72
     6
 73
     3
 74
     0
 42
0.000000001
 43
0.0000000001
 40
0.0906100100638167
 40
0.0906100100638167
 40
0.0906100100638167
 40
0.6046693311223922
 40
0.6046693311223922
 40
0.6046693311223922
 10
112.8832945375991
 20
144.8590548290463
 30
0.0
 41
1.030578586555896
 10
110.0969458032689
 20
140.6988899482185
 30
0.0
 41
1.110294117647057
 10
113.642483916154
 20
144.8590548290449
 30
0.0
 41
1.110294117647057
  0
SPLINE
  5
271
330
70
100
AcDbEntity
  8
Visible (ISO)
100
AcDbSpline
210
0.0
220
0.0
230
1.0
 70
    12
 71
     2
 72
     6
 73
     3
 74
     0
 42
0.000000001
 43
0.0000000001
 40
0.5071883713319493
 40
0.5071883713319493
 40
0.5071883713319493
 40
1.118728652180967
 40
1.118728652180967
 40
1.118728652180967
 10
113.6170783419495
 20
139.8590548290473
 30
0.0
 41
1.107427590491198
 10
113.774317728596
 20
142.185985256056
 30
0.0
 41
1.125410556864555
 10
112.8832945375991
 20
144.8590548290463
 30
0.0
 41
1.030578586555895
  0
LINE
  5
272
330
70
100
AcDbEntity
  8
Visible (ISO)
100
AcDbLine
 10
113.7868214834513
 20
139.8590548290472
 30
0.0
 11
113.7868214834514
 21
144.6090548290448
 31
0.0
  0
LINE
  5
273
330
70
100
AcDbEntity
  8
Visible (ISO)
100
AcDbLine
 10
113.7868214834513
 20
128.1090548290449
 30
0.0
 11
113.7868214834513
 21
132.8590548290471
 31
0.0
  0
LINE
  5
274
330
70
100
AcDbEntity
  8
Visible (ISO)
100
AcDbLine
 10
113.7868214834513
 20
128.1090548290449
 30
0.0
 11
113.6424839161539
 21
127.8590548290448
 31
0.0
  0
LINE
  5
275
330
70
100
AcDbEntity
  8
Visible (ISO)
100
AcDbLine
 10
113.7868214834514
 20
144.6090548290448
 30
0.0
 11
113.642483916154
 21
144.8590548290448
 31
0.0
  0
LINE
  5
276
330
70
100
AcDbEntity
  8
Visible (ISO)
100
AcDbLine
 10
53.78682148345138
 20
144.6090548290449
 30
0.0
 11
53.78682148345138
 21
128.109054829045
 31
0.0
  0
LINE
  5
277
330
70
100
AcDbEntity
  8
Visible (ISO)
100
AcDbLine
 10
52.78682148345139
 20
129.109054829045
 30
0.0
 11
52.78682148345139
 21
143.6090548290449
 31
0.0
  0
LINE
  5
278
330
70
100
AcDbEntity
  8
Visible (ISO)
100
AcDbLine
 10
52.78682148345139
 20
143.6090548290449
 30
0.0
 11
53.78682148345138
 21
144.6090548290449
 31
0.0
  0
LINE
  5
279
330
70
100
AcDbEntity
  8
Visible (ISO)
100
AcDbLine
 10
52.78682148345139
 20
129.109054829045
 30
0.0
 11
53.78682148345138
 21
128.109054829045
 31
0.0
  0
LINE
  5
27A
330
70
100
AcDbEntity
  8
Visible (ISO)
100
AcDbLine
 10
57.78682148345139
 20
144.6090548290449
 30
0.0
 11
57.78682148345139
 21
128.109054829045
 31
0.0
  0
LINE
  5
27B
330
70
100
AcDbEntity
  8
Visible (ISO)
100
AcDbLine
 10
53.78682148345138
 20
144.6090548290449
 30
0.0
 11
57.78682148345139
 21
144.6090548290449
 31
0.0
  0
LINE
  5
27C
330
70
100
AcDbEntity
  8
Visible (ISO)
100
AcDbLine
 10
53.78682148345138
 20
128.109054829045
 30
0.0
 11
57.78682148345139
 21
128.109054829045
 31
0.0
  0
LINE
  5
27D
330
70
100
AcDbEntity
  8
Visible (ISO)
100
AcDbLine
 10
78.78682148345138
 20
144.1090548290449
 30
0.0
 11
78.78682148345138
 21
128.6090548290449
 31
0.0
  0
LINE
  5
27E
330
70
100
AcDbEntity
  8
Visible (ISO)
100
AcDbLine
 10
78.28682148345139
 20
128.109054829045
 30
0.0
 11
78.28682148345139
 21
144.6090548290449
 31
0.0
  0
LINE
  5
27F
330
70
100
AcDbEntity
  8
Visible (ISO)
100
AcDbLine
 10
78.78682148345138
 20
128.6090548290449
 30
0.0
 11
78.28682148345139
 21
128.109054829045
 31
0.0
  0
LINE
  5
280
330
70
100
AcDbEntity
  8
Visible (ISO)
100
AcDbLine
 10
78.78682148345138
 20
144.1090548290449
 30
0.0
 11
78.28682148345139
 21
144.6090548290449
 31
0.0
  0
LINE
  5
281
330
70
100
AcDbEntity
  8
Visible (ISO)
100
AcDbLine
 10
73.78682148345138
 20
144.6090548290449
 30
0.0
 11
73.78682148345138
 21
128.109054829045
 31
0.0
  0
SPLINE
  5
282
330
70
100
AcDbEntity
  8
Visible (ISO)
100
AcDbSpline
210
0.0
220
0.0
230
1.0
 70
     8
 71
     3
 72
     8
 73
     4
 74
     0
 42
0.000000001
 43
0.0000000001
 40
2.216470488730172
 40
2.216470488730172
 40
2.216470488730172
 40
2.216470488730172
 40
2.423615995643402
 40
2.423615995643402
 40
2.423615995643402
 40
2.423615995643402
 10
73.22350694815859
 20
143.7689479101531
 30
0.0
 10
73.2220345950002
 20
144.198873793547
 30
0.0
 10
73.22040054064136
 20
144.569866395153
 30
0.0
 10
73.21867870631696
 20
144.8591417452114
 30
0.0
  0
SPLINE
  5
283
330
70
100
AcDbEntity
  8
Visible (ISO)
100
AcDbSpline
210
0.0
220
0.0
230
1.0
 70
    12
 71
     2
 72
     6
 73
     3
 74
     0
 42
0.000000001
 43
0.0000000001
 40
0.3080391888845147
 40
0.3080391888845147
 40
0.3080391888845147
 40
1.128103576883224
 40
1.128103576883224
 40
1.128103576883224
 10
73.23287174144351
 20
137.4493355802719
 30
0.0
 41
1.100752842583184
 10
74.06202817088547
 20
140.6063615685805
 30
0.0
 41
1.198106886670426
 10
73.22350694815859
 20
143.7689479101531
 30
0.0
 41
1.099743562777799
  0
SPLINE
  5
284
330
70
100
AcDbEntity
  8
Visible (ISO)
100
AcDbSpline
210
0.0
220
0.0
230
1.0
 70
     8
 71
     3
 72
    10
 73
     6
 74
     0
 42
0.000000001
 43
0.0000000001
 40
1.28234852082939
 40
1.28234852082939
 40
1.28234852082939
 40
1.28234852082939
 40
1.389636215210568
 40
1.389636215210568
 40
1.496940739665217
 40
1.496940739665217
 40
1.496940739665217
 40
1.496940739665217
 10
73.23288362207538
 20
135.2689479101542
 30
0.0
 10
73.23299320213329
 20
135.6362636967834
 30
0.0
 10
73.23304463271222
 20
136.0014291811314
 30
0.0
 10
73.2330407521834
 20
136.7167365772088
 30
0.0
 10
73.2329853423926
 20
137.081960825599
 30
0.0
 10
73.23287174144353
 20
137.4493355802719
 30
0.0
  0
SPLINE
  5
285
330
70
100
AcDbEntity
  8
Visible (ISO)
100
AcDbSpline
210
0.0
220
0.0
230
1.0
 70
    12
 71
     2
 72
     6
 73
     3
 74
     0
 42
0.000000001
 43
0.0000000001
 40
0.3038347015407229
 40
0.3038347015407229
 40
0.3038347015407229
 40
1.123903861267265
 40
1.123903861267265
 40
1.123903861267265
 10
73.22358755673118
 20
128.9493355802709
 30
0.0
 41
1.099752732484698
 10
74.06208166136014
 20
132.111901542197
 30
0.0
 41
1.198114783114956
 10
73.23288362207538
 20
135.2689479101542
 30
0.0
 41
1.100754619662588
  0
SPLINE
  5
286
330
70
100
AcDbEntity
  8
Visible (ISO)
100
AcDbSpline
210
0.0
220
0.0
230
1.0
 70
     8
 71
     3
 72
     8
 73
     4
 74
     0
 42
0.000000001
 43
0.0000000001
 40
0.3556734997605205
 40
0.3556734997605205
 40
0.3556734997605205
 40
0.3556734997605205
 40
0.5628189646857996
 40
0.5628189646857996
 40
0.5628189646857996
 40
0.5628189646857996
 10
73.21877109106774
 20
127.8591417452114
 30
0.0
 10
73.22048969805199
 20
128.1483978203886
 30
0.0
 10
73.2221198037587
 20
128.5193971773947
 30
0.0
 10
73.22358755673116
 20
128.9493355802709
 30
0.0
  0
SPLINE
  5
287
330
70
100
AcDbEntity
  8
Visible (ISO)
100
AcDbSpline
210
0.0
220
0.0
230
1.0
 70
    12
 71
     2
 72
     6
 73
     3
 74
     0
 42
0.000000001
 43
0.0000000001
 40
0.7113573297694492
 40
0.7113573297694492
 40
0.7113573297694492
 40
1.116223870764466
 40
1.116223870764466
 40
1.116223870764466
 10
73.64253409722434
 20
127.8591417452104
 30
0.0
 41
1.14648840407264
 10
72.26085713846865
 20
125.7423725329191
 30
0.0
 41
1.146488404072651
 10
73.21877109106774
 20
127.8591417452114
 30
0.0
 41
1.099036745105105
  0
SPLINE
  5
288
330
70
100
AcDbEntity
  8
Visible (ISO)
100
AcDbSpline
210
0.0
220
0.0
230
1.0
 70
    12
 71
     2
 72
     6
 73
     3
 74
     0
 42
0.000000001
 43
0.0000000001
 40
0.3064726505217282
 40
0.3064726505217282
 40
0.3064726505217282
 40
0.71133452979799
 40
0.71133452979799
 40
0.71133452979799
 10
73.21867870631696
 20
144.8591417452114
 30
0.0
 41
1.099025857728923
 10
72.26080713484319
 20
142.4610196988366
 30
0.0
 41
1.146475182962381
 10
73.6424337350813
 20
144.8591417452104
 30
0.0
 41
1.146475182962401
  0
LINE
  5
289
330
70
100
AcDbEntity
  8
Visible (ISO)
100
AcDbLine
 10
73.78682148345138
 20
128.109054829045
 30
0.0
 11
73.64253409722521
 21
127.8591417452099
 31
0.0
  0
LINE
  5
28A
330
70
100
AcDbEntity
  8
Visible (ISO)
100
AcDbLine
 10
73.78682148345138
 20
144.6090548290449
 30
0.0
 11
73.64243373508218
 21
144.8591417452109
 31
0.0
  0
LINE
  5
28B
330
70
100
AcDbEntity
  8
Visible (ISO)
100
AcDbLine
 10
58.35487187583503
 20
127.8591417452114
 30
0.0
 11
73.21877109106774
 21
127.8591417452114
 31
0.0
  0
LINE
  5
28C
330
70
100
AcDbEntity
  8
Visible (ISO)
100
AcDbLine
 10
58.35005541017161
 20
128.9493355802709
 30
0.0
 11
73.22358755673116
 21
128.9493355802709
 31
0.0
  0
LINE
  5
28D
330
70
100
AcDbEntity
  8
Visible (ISO)
100
AcDbLine
 10
58.3407593448274
 20
135.2689479101542
 30
0.0
 11
73.23288362207538
 21
135.2689479101542
 31
0.0
  0
LINE
  5
28E
330
70
100
AcDbEntity
  8
Visible (ISO)
100
AcDbLine
 10
58.34077122545924
 20
137.4493355802719
 30
0.0
 11
73.23287174144353
 21
137.4493355802719
 31
0.0
  0
LINE
  5
28F
330
70
100
AcDbEntity
  8
Visible (ISO)
100
AcDbLine
 10
58.35013601874419
 20
143.7689479101531
 30
0.0
 11
73.22350694815859
 21
143.7689479101531
 31
0.0
  0
LINE
  5
290
330
70
100
AcDbEntity
  8
Visible (ISO)
100
AcDbLine
 10
58.35496426058582
 20
144.8591417452114
 30
0.0
 11
73.21867870631696
 21
144.8591417452114
 31
0.0
  0
SPLINE
  5
291
330
70
100
AcDbEntity
  8
Visible (ISO)
100
AcDbSpline
210
0.0
220
0.0
230
1.0
 70
    12
 71
     2
 72
     6
 73
     3
 74
     0
 42
0.000000001
 43
0.0000000001
 40
0.3064907887746168
 40
0.3064907887746168
 40
0.3064907887746168
 40
0.7113573297693771
 40
0.7113573297693771
 40
0.7113573297693771
 10
58.35487187583503
 20
127.8591417452114
 30
0.0
 41
1.099036745105105
 10
57.13452127276917
 20
125.7423725329204
 30
0.0
 41
1.14648840407262
 10
57.93110886967848
 20
127.8591417452104
 30
0.0
 41
1.146488404072639
  0
SPLINE
  5
292
330
70
100
AcDbEntity
  8
Visible (ISO)
100
AcDbSpline
210
0.0
220
0.0
230
1.0
 70
     8
 71
     3
 72
     8
 73
     4
 74
     0
 42
0.000000001
 43
0.0000000001
 40
2.216470924017539
 40
2.216470924017539
 40
2.216470924017539
 40
2.216470924017539
 40
2.423616388942817
 40
2.423616388942817
 40
2.423616388942817
 40
2.423616388942817
 10
58.35005541017161
 20
128.9493355802709
 30
0.0
 10
58.35152310637354
 20
128.5194103404127
 30
0.0
 10
58.35315315403585
 20
128.1484173882037
 30
0.0
 10
58.35487187583503
 20
127.8591417452114
 30
0.0
  0
SPLINE
  5
293
330
70
100
AcDbEntity
  8
Visible (ISO)
100
AcDbSpline
210
0.0
220
0.0
230
1.0
 70
    12
 71
     2
 72
     6
 73
     3
 74
     0
 42
0.000000001
 43
0.0000000001
 40
0.3080325734070506
 40
0.3080325734070506
 40
0.3080325734070506
 40
1.128101733133593
 40
1.128101733133593
 40
1.128101733133593
 10
58.34075934482741
 20
135.2689479101542
 30
0.0
 41
1.100754619662588
 10
57.51156130554269
 20
132.1119015421923
 30
0.0
 41
1.198114783114956
 10
58.35005541017161
 20
128.9493355802709
 30
0.0
 41
1.099752732484698
  0
SPLINE
  5
294
330
70
100
AcDbEntity
  8
Visible (ISO)
100
AcDbSpline
210
0.0
220
0.0
230
1.0
 70
     8
 71
     3
 72
    10
 73
     6
 74
     0
 42
0.000000001
 43
0.0000000001
 40
1.28234914903812
 40
1.28234914903812
 40
1.28234914903812
 40
1.28234914903812
 40
1.389653673492769
 40
1.389653673492769
 40
1.496941367873947
 40
1.496941367873947
 40
1.496941367873947
 40
1.496941367873947
 10
58.34077122545924
 20
137.4493355802719
 30
0.0
 10
58.34065762451017
 20
137.081960825599
 30
0.0
 10
58.34060221471936
 20
136.7167365772088
 30
0.0
 10
58.34059833419054
 20
136.0014291811314
 30
0.0
 10
58.34064976476948
 20
135.6362636967834
 30
0.0
 10
58.3407593448274
 20
135.2689479101542
 30
0.0
  0
SPLINE
  5
295
330
70
100
AcDbEntity
  8
Visible (ISO)
100
AcDbSpline
210
0.0
220
0.0
230
1.0
 70
    12
 71
     2
 72
     6
 73
     3
 74
     0
 42
0.000000001
 43
0.0000000001
 40
0.3038102620679219
 40
0.3038102620679219
 40
0.3038102620679219
 40
1.123874650066633
 40
1.123874650066633
 40
1.123874650066633
 10
58.35013601874419
 20
143.7689479101531
 30
0.0
 41
1.099743562777801
 10
57.51161479601726
 20
140.6063615685759
 30
0.0
 41
1.198106886670432
 10
58.34077122545924
 20
137.4493355802719
 30
0.0
 41
1.100752842583186
  0
SPLINE
  5
296
330
70
100
AcDbEntity
  8
Visible (ISO)
100
AcDbSpline
210
0.0
220
0.0
230
1.0
 70
     8
 71
     3
 72
     8
 73
     4
 74
     0
 42
0.000000001
 43
0.0000000001
 40
0.3556738930599403
 40
0.3556738930599403
 40
0.3556738930599403
 40
0.3556738930599403
 40
0.5628193999731695
 40
0.5628193999731695
 40
0.5628193999731695
 40
0.5628193999731695
 10
58.3549642605858
 20
144.8591417452114
 30
0.0
 10
58.35324254121186
 20
144.5698859499998
 30
0.0
 10
58.35160842877318
 20
144.1988869463779
 30
0.0
 10
58.35013601874418
 20
143.7689479101531
 30
0.0
  0
SPLINE
  5
297
330
70
100
AcDbEntity
  8
Visible (ISO)
100
AcDbSpline
210
0.0
220
0.0
230
1.0
 70
    12
 71
     2
 72
     6
 73
     3
 74
     0
 42
0.000000001
 43
0.0000000001
 40
0.7113345297980613
 40
0.7113345297980613
 40
0.7113345297980613
 40
1.11619640907458
 40
1.11619640907458
 40
1.11619640907458
 10
57.93120923182144
 20
144.8591417452103
 30
0.0
 41
1.146475182962402
 10
57.13465328783451
 20
142.4610196988352
 30
0.0
 41
1.146475182962412
 10
58.3549642605858
 20
144.8591417452114
 30
0.0
 41
1.099025857728923
  0
LINE
  5
298
330
70
100
AcDbEntity
  8
Visible (ISO)
100
AcDbLine
 10
57.78682148345139
 20
144.6090548290449
 30
0.0
 11
57.93120923182058
 21
144.8591417452109
 31
0.0
  0
LINE
  5
299
330
70
100
AcDbEntity
  8
Visible (ISO)
100
AcDbLine
 10
57.78682148345139
 20
128.109054829045
 30
0.0
 11
57.93110886967759
 21
127.8591417452099
 31
0.0
  0
LINE
  5
29A
330
70
100
AcDbEntity
  8
Visible (ISO)
100
AcDbLine
 10
73.78682148345138
 20
144.6090548290449
 30
0.0
 11
78.28682148345139
 21
144.6090548290449
 31
0.0
  0
LINE
  5
29B
330
70
100
AcDbEntity
  8
Visible (ISO)
100
AcDbLine
 10
73.78682148345138
 20
128.109054829045
 30
0.0
 11
78.28682148345139
 21
128.109054829045
 31
0.0
  0
LINE
  5
29C
330
70
100
AcDbEntity
  8
Visible (ISO)
100
AcDbLine
 10
110.7868214834514
 20
139.6307540931081
 30
0.0
 11
104.2033911370527
 21
138.9398574646184
 31
0.0
  0
LINE
  5
29D
330
70
100
AcDbEntity
  8
Visible (ISO)
100
AcDbLine
 10
104.2033911370527
 20
133.7782521934836
 30
0.0
 11
110.7868214834514
 21
133.0873555649976
 31
0.0
  0
LINE
  5
29E
330
70
100
AcDbEntity
  8
Visible (ISO)
100
AcDbLine
 10
110.7868214834514
 20
133.0873555649981
 30
0.0
 11
110.7868214834514
 21
139.6307540931086
 31
0.0
  0
LINE
  5
29F
330
70
100
AcDbEntity
  8
Visible (ISO)
100
AcDbLine
 10
130.7868214834514
 20
139.8590548290534
 30
0.0
 11
130.7868214834514
 21
132.8590548290534
 31
0.0
  0
LINE
  5
2A0
330
70
100
AcDbEntity
  8
Visible (ISO)
100
AcDbLine
 10
112.962258344988
 20
139.8590548290534
 30
0.0
 11
130.7868214834514
 21
139.8590548290534
 31
0.0
  0
LINE
  5
2A1
330
70
100
AcDbEntity
  8
Visible (ISO)
100
AcDbLine
 10
110.7868214834514
 20
139.6307540931086
 30
0.0
 11
112.962258344988
 21
139.8590548290534
 31
0.0
  0
LINE
  5
2A2
330
70
100
AcDbEntity
  8
Visible (ISO)
100
AcDbLine
 10
112.962258344988
 20
132.8590548290534
 30
0.0
 11
110.7868214834514
 21
133.0873555649981
 31
0.0
  0
LINE
  5
2A3
330
70
100
AcDbEntity
  8
Visible (ISO)
100
AcDbLine
 10
130.7868214834514
 20
132.8590548290534
 30
0.0
 11
112.962258344988
 21
132.8590548290534
 31
0.0
  0
ARC
  5
2A4
330
70
100
AcDbEntity
  8
Visible (ISO)
100
AcDbCircle
 10
112.962258344988
 20
67.85905482905042
 30
0.0
 40
65.0000000000003
100
AcDbArc
 50
90.00000000000005
 51
106.5000949922716
  0
ARC
  5
2A5
330
70
100
AcDbEntity
  8
Visible (ISO)
100
AcDbCircle
 10
112.9622583449881
 20
204.8590548290511
 30
0.0
 40
65.00000000000034
100
AcDbArc
 50
253.4999050077283
 51
269.9999999999999
  0
SPLINE
  5
2A6
330
70
100
AcDbEntity
  8
Visible (ISO)
100
AcDbSpline
210
0.0
220
0.0
230
1.0
 70
     8
 71
     3
 72
     8
 73
     4
 74
     0
 42
0.000000001
 43
0.0000000001
 40
0.9230683158927151
 40
0.9230683158927151
 40
0.9230683158927151
 40
0.9230683158927151
 40
0.925972547537049
 40
0.925972547537049
 40
0.925972547537049
 40
0.925972547537049
 10
96.15104775144239
 20
137.8764286429018
 30
0.0
 10
96.15462212777515
 20
137.870411020703
 30
0.0
 10
96.15820292959208
 20
137.86431470422
 30
0.0
 10
96.16178774936308
 20
137.8581431859331
 30
0.0
  0
SPLINE
  5
2A7
330
70
100
AcDbEntity
  8
Visible (ISO)
100
AcDbSpline
210
0.0
220
0.0
230
1.0
 70
     8
 71
     3
 72
     8
 73
     4
 74
     0
 42
0.000000001
 43
0.0000000001
 40
1.26072965346429
 40
1.26072965346429
 40
1.26072965346429
 40
1.26072965346429
 40
1.263633885108629
 40
1.263633885108629
 40
1.263633885108629
 40
1.263633885108629
 10
96.1617877493631
 20
134.8599664721724
 30
0.0
 10
96.15820292959211
 20
134.8537949538854
 30
0.0
 10
96.15462212777515
 20
134.8476986374024
 30
0.0
 10
96.15104775144239
 20
134.8416810152036
 30
0.0
  0
LINE
  5
2A8
330
70
100
AcDbEntity
  8
Visible (ISO)
100
AcDbLine
 10
96.08692599925916
 20
138.0880768420746
 30
0.0
 11
104.2033911370527
 21
138.9398574646184
 31
0.0
  0
LINE
  5
2A9
330
70
100
AcDbEntity
  8
Visible (ISO)
100
AcDbLine
 10
104.2033911370527
 20
133.7782521934836
 30
0.0
 11
96.08692599925916
 21
134.6300328160309
 31
0.0
  0
ARC
  5
2AA
330
70
100
AcDbEntity
  8
Visible (ISO)
100
AcDbCircle
 10
90.78682148345139
 20
136.3590548290507
 30
0.0
 40
7.207531252864777
100
AcDbArc
 50
15.30412371510662
 51
58.97975155669005
  0
ARC
  5
2AB
330
70
100
AcDbEntity
  8
Visible (ISO)
100
AcDbCircle
 10
90.78682148345139
 20
136.3590548290507
 30
0.0
 40
7.207531252864783
100
AcDbArc
 50
301.0202484433098
 51
344.6958762848932
  0
ARC
  5
2AC
330
70
100
AcDbEntity
  8
Visible (ISO)
100
AcDbCircle
 10
90.78682148345139
 20
136.3590548290504
 30
0.0
 40
7.450000000000001
100
AcDbArc
 50
53.08637888662943
 51
306.9136211133706
  0
SPLINE
  5
2AD
330
70
100
AcDbEntity
  8
Visible (ISO)
100
AcDbSpline
210
0.0
220
0.0
230
1.0
 70
    24
 71
     3
 72
    11
 73
     7
 74
     0
 42
0.000000001
 43
0.0000000001
 40
0.5082556132472948
 40
0.5082556132472948
 40
0.5082556132472948
 40
0.5082556132472948
 40
0.5582558142562709
 40
0.5582558142562709
 40
0.5582558142562709
 40
0.6082560152652471
 40
0.6082560152652471
 40
0.6082560152652471
 40
0.6082560152652471
 10
95.28682148345138
 20
136.8590548290529
 30
0.0
 10
95.28682148345138
 20
136.6923912358146
 30
0.0
 10
95.28682148345138
 20
136.5257221657495
 30
0.0
 10
95.28682148345138
 20
136.3590548290529
 30
0.0
 10
95.28682148345138
 20
136.1923874923564
 30
0.0
 10
95.28682148345138
 20
136.0257184222913
 30
0.0
 10
95.28682148345138
 20
135.859054829053
 30
0.0
  0
SPLINE
  5
2AE
330
70
100
AcDbEntity
  8
Visible (ISO)
100
AcDbSpline
210
0.0
220
0.0
230
1.0
 70
     8
 71
     3
 72
    18
 73
    14
 74
     0
 42
0.000000001
 43
0.0000000001
 40
-0.0001066313518541
 40
-0.0001066313518541
 40
-0.0001066313518541
 40
-0.0001066313518541
 40
0.0
 40
0.0
 40
0.0045172709872586
 40
0.0045172709872586
 40
0.0088134160853533
 40
0.0088134160853533
 40
0.0130973002062933
 40
0.0130973002062933
 40
0.0163175638624273
 40
0.0163175638624273
 40
0.0191481319215035
 40
0.0191481319215035
 40
0.0191481319215035
 40
0.0191481319215035
 10
95.39214974086297
 20
135.7583598389558
 30
0.0
 10
95.39189888217521
 20
135.7586111891192
 30
0.0
 10
95.3916479721324
 20
135.758862546789
 30
0.0
 10
95.38076565375181
 20
135.7697623733777
 30
0.0
 10
95.36998138365943
 20
135.7804851259121
 30
0.0
 10
95.34947769699805
 20
135.8007061136552
 30
0.0
 10
95.33959675623478
 20
135.8103718811161
 30
0.0
 10
95.32117004937942
 20
135.8281981591216
 30
0.0
 10
95.31249773799792
 20
135.8364813765237
 30
0.0
 10
95.29982096291353
 20
135.8483112607748
 30
0.0
 10
95.29522532932384
 20
135.8524918444541
 30
0.0
 10
95.28910643569568
 20
135.8577456203172
 30
0.0
 10
95.28736991423295
 20
135.859054829053
 30
0.0
 10
95.2869315344588
 20
135.859054829053
 30
0.0
  0
SPLINE
  5
2AF
330
70
100
AcDbEntity
  8
Visible (ISO)
100
AcDbSpline
210
0.0
220
0.0
230
1.0
 70
     8
 71
     3
 72
    18
 73
    14
 74
     0
 42
0.000000001
 43
0.0000000001
 40
-0.0190744129494767
 40
-0.0190744129494767
 40
-0.0190744129494767
 40
-0.0190744129494767
 40
-0.0189687803634125
 40
-0.0189687803634125
 40
-0.0144938205317899
 40
-0.0144938205317899
 40
-0.0102379154069879
 40
-0.0102379154069879
 40
-0.0059941564165262
 40
-0.0059941564165262
 40
-0.0028040554575467
 40
-0.0028040554575467
 40
0.0
 40
0.0
 40
0.0
 40
0.0
 10
95.39214974086297
 20
136.9597498191501
 30
0.0
 10
95.39189888217521
 20
136.9594984689867
 30
0.0
 10
95.3916479721324
 20
136.9592471113169
 30
0.0
 10
95.38076565375181
 20
136.9483472847282
 30
0.0
 10
95.36998138365943
 20
136.9376245321939
 30
0.0
 10
95.34947769699805
 20
136.9174035444507
 30
0.0
 10
95.33959675623478
 20
136.9077377769898
 30
0.0
 10
95.32117004937942
 20
136.8899114989843
 30
0.0
 10
95.31249773799792
 20
136.8816282815822
 30
0.0
 10
95.29982096291353
 20
136.8697983973311
 30
0.0
 10
95.29522532932384
 20
136.8656178136518
 30
0.0
 10
95.28910643569567
 20
136.8603640377887
 30
0.0
 10
95.28736991423295
 20
136.8590548290529
 30
0.0
 10
95.2869315344588
 20
136.8590548290529
 30
0.0
  0
SPLINE
  5
2B0
330
70
100
AcDbEntity
  8
Visible (ISO)
100
AcDbSpline
210
0.0
220
0.0
230
1.0
 70
    24
 71
     3
 72
    11
 73
     7
 74
     0
 42
0.000000001
 43
0.0000000001
 40
0.5082556132472948
 40
0.5082556132472948
 40
0.5082556132472948
 40
0.5082556132472948
 40
0.5582558142562709
 40
0.5582558142562709
 40
0.5582558142562709
 40
0.608256015265247
 40
0.608256015265247
 40
0.608256015265247
 40
0.608256015265247
 10
86.2868214834514
 20
135.859054829053
 30
0.0
 10
86.2868214834514
 20
136.0257184222913
 30
0.0
 10
86.2868214834514
 20
136.1923874923564
 30
0.0
 10
86.2868214834514
 20
136.3590548290529
 30
0.0
 10
86.2868214834514
 20
136.5257221657495
 30
0.0
 10
86.2868214834514
 20
136.6923912358146
 30
0.0
 10
86.2868214834514
 20
136.8590548290529
 30
0.0
  0
SPLINE
  5
2B1
330
70
100
AcDbEntity
  8
Visible (ISO)
100
AcDbSpline
210
0.0
220
0.0
230
1.0
 70
     8
 71
     3
 72
    18
 73
    14
 74
     0
 42
0.000000001
 43
0.0000000001
 40
-0.0191481319214909
 40
-0.0191481319214909
 40
-0.0191481319214909
 40
-0.0191481319214909
 40
-0.0163175638624168
 40
-0.0163175638624168
 40
-0.013097300206286
 40
-0.013097300206286
 40
-0.0088134160853484
 40
-0.0088134160853484
 40
-0.0045172709872565
 40
-0.0045172709872565
 40
0.0
 40
0.0
 40
0.0001066313518546
 40
0.0001066313518546
 40
0.0001066313518546
 40
0.0001066313518546
 10
86.28671143244398
 20
136.8590548290529
 30
0.0
 10
86.28627305266983
 20
136.8590548290529
 30
0.0
 10
86.28453653120709
 20
136.8603640377887
 30
0.0
 10
86.27841763757894
 20
136.8656178136518
 30
0.0
 10
86.27382200398924
 20
136.8697983973311
 30
0.0
 10
86.26114522890487
 20
136.8816282815822
 30
0.0
 10
86.25247291752335
 20
136.8899114989843
 30
0.0
 10
86.234046210668
 20
136.9077377769898
 30
0.0
 10
86.22416526990475
 20
136.9174035444507
 30
0.0
 10
86.20366158324335
 20
136.9376245321939
 30
0.0
 10
86.19287731315097
 20
136.9483472847282
 30
0.0
 10
86.18199499477038
 20
136.9592471113169
 30
0.0
 10
86.18174408472757
 20
136.9594984689867
 30
0.0
 10
86.18149322603981
 20
136.9597498191501
 30
0.0
  0
SPLINE
  5
2B2
330
70
100
AcDbEntity
  8
Visible (ISO)
100
AcDbSpline
210
0.0
220
0.0
230
1.0
 70
     8
 71
     3
 72
    18
 73
    14
 74
     0
 42
0.000000001
 43
0.0000000001
 40
-0.0190744129494811
 40
-0.0190744129494811
 40
-0.0190744129494811
 40
-0.0190744129494811
 40
-0.018968780363416
 40
-0.018968780363416
 40
-0.0144938205317931
 40
-0.0144938205317931
 40
-0.0102379154069898
 40
-0.0102379154069898
 40
-0.0059941564165267
 40
-0.0059941564165267
 40
-0.0028040554575468
 40
-0.0028040554575468
 40
0.0
 40
0.0
 40
0.0
 40
0.0
 10
86.18149322603981
 20
135.7583598389558
 30
0.0
 10
86.18174408472757
 20
135.7586111891192
 30
0.0
 10
86.18199499477038
 20
135.758862546789
 30
0.0
 10
86.19287731315099
 20
135.7697623733777
 30
0.0
 10
86.20366158324335
 20
135.7804851259121
 30
0.0
 10
86.22416526990475
 20
135.8007061136552
 30
0.0
 10
86.234046210668
 20
135.8103718811161
 30
0.0
 10
86.25247291752335
 20
135.8281981591216
 30
0.0
 10
86.26114522890487
 20
135.8364813765237
 30
0.0
 10
86.27382200398924
 20
135.8483112607748
 30
0.0
 10
86.27841763757894
 20
135.8524918444541
 30
0.0
 10
86.28453653120713
 20
135.8577456203172
 30
0.0
 10
86.28627305266983
 20
135.859054829053
 30
0.0
 10
86.28671143244398
 20
135.859054829053
 30
0.0
  0
SPLINE
  5
2B3
330
70
100
AcDbEntity
  8
Visible (ISO)
100
AcDbSpline
210
0.0
220
0.0
230
1.0
 70
    24
 71
     3
 72
    19
 73
    15
 74
     0
 42
0.000000001
 43
0.0000000001
 40
0.1081914355857267
 40
0.1081914355857267
 40
0.1081914355857267
 40
0.1081914355857267
 40
0.2793577774160916
 40
0.2793577774160916
 40
0.4269302117979099
 40
0.4269302117979099
 40
0.5587155548321833
 40
0.5587155548321833
 40
0.5587155548321833
 40
0.6905008978664565
 40
0.6905008978664565
 40
0.8380733322482749
 40
0.8380733322482749
 40
1.009239674078639
 40
1.009239674078639
 40
1.009239674078639
 40
1.009239674078639
 10
95.28682148345138
 20
135.859054829053
 30
0.0
 10
94.71707697672698
 20
135.859054829053
 30
0.0
 10
94.14732907183342
 20
135.859054829053
 30
0.0
 10
93.08633322921842
 20
135.859054829053
 30
0.0
 10
92.59510164820978
 20
135.859054829053
 30
0.0
 10
91.66502353378161
 20
135.859054829053
 30
0.0
 10
91.2261059602323
 20
135.859054829053
 30
0.0
 10
90.78682148345139
 20
135.859054829053
 30
0.0
 10
90.34753700667048
 20
135.859054829053
 30
0.0
 10
89.90861943312117
 20
135.859054829053
 30
0.0
 10
88.978541318693
 20
135.859054829053
 30
0.0
 10
88.48730973768438
 20
135.859054829053
 30
0.0
 10
87.42631389506938
 20
135.859054829053
 30
0.0
 10
86.8565659901758
 20
135.859054829053
 30
0.0
 10
86.2868214834514
 20
135.859054829053
 30
0.0
  0
SPLINE
  5
2B4
330
70
100
AcDbEntity
  8
Visible (ISO)
100
AcDbSpline
210
0.0
220
0.0
230
1.0
 70
    24
 71
     3
 72
     8
 73
     4
 74
     0
 42
0.000000001
 43
0.0000000001
 40
-1.009250694823054
 40
-1.009250694823054
 40
-1.009250694823054
 40
-1.009250694823054
 40
-1.009239674078639
 40
-1.009239674078639
 40
-1.009239674078639
 40
-1.009239674078639
 10
86.28671143244398
 20
135.859054829053
 30
0.0
 10
86.2867465310502
 20
135.859054829053
 30
0.0
 10
86.28678321466592
 20
135.859054829053
 30
0.0
 10
86.2868214834514
 20
135.859054829053
 30
0.0
  0
SPLINE
  5
2B5
330
70
100
AcDbEntity
  8
Visible (ISO)
100
AcDbSpline
210
0.0
220
0.0
230
1.0
 70
    24
 71
     3
 72
     8
 73
     4
 74
     0
 42
0.000000001
 43
0.0000000001
 40
0.1081804148413112
 40
0.1081804148413112
 40
0.1081804148413112
 40
0.1081804148413112
 40
0.1081914355857267
 40
0.1081914355857267
 40
0.1081914355857267
 40
0.1081914355857267
 10
95.2869315344588
 20
135.859054829053
 30
0.0
 10
95.28689643585259
 20
135.859054829053
 30
0.0
 10
95.28685975223687
 20
135.859054829053
 30
0.0
 10
95.28682148345138
 20
135.859054829053
 30
0.0
  0
SPLINE
  5
2B6
330
70
100
AcDbEntity
  8
Visible (ISO)
100
AcDbSpline
210
0.0
220
0.0
230
1.0
 70
    24
 71
     3
 72
    19
 73
    15
 74
     0
 42
0.000000001
 43
0.0000000001
 40
0.1081914355857269
 40
0.1081914355857269
 40
0.1081914355857269
 40
0.1081914355857269
 40
0.2793577774160916
 40
0.2793577774160916
 40
0.42693021179791
 40
0.42693021179791
 40
0.5587155548321833
 40
0.5587155548321833
 40
0.5587155548321833
 40
0.6905008978664564
 40
0.6905008978664564
 40
0.8380733322482749
 40
0.8380733322482749
 40
1.009239674078639
 40
1.009239674078639
 40
1.009239674078639
 40
1.009239674078639
 10
86.2868214834514
 20
136.8590548290529
 30
0.0
 10
86.8565659901758
 20
136.8590548290529
 30
0.0
 10
87.42631389506938
 20
136.859054829053
 30
0.0
 10
88.48730973768438
 20
136.859054829053
 30
0.0
 10
88.978541318693
 20
136.859054829053
 30
0.0
 10
89.90861943312117
 20
136.859054829053
 30
0.0
 10
90.34753700667048
 20
136.859054829053
 30
0.0
 10
90.78682148345139
 20
136.859054829053
 30
0.0
 10
91.2261059602323
 20
136.859054829053
 30
0.0
 10
91.66502353378161
 20
136.859054829053
 30
0.0
 10
92.59510164820978
 20
136.859054829053
 30
0.0
 10
93.08633322921842
 20
136.859054829053
 30
0.0
 10
94.14732907183342
 20
136.859054829053
 30
0.0
 10
94.71707697672698
 20
136.8590548290529
 30
0.0
 10
95.28682148345138
 20
136.8590548290529
 30
0.0
  0
SPLINE
  5
2B7
330
70
100
AcDbEntity
  8
Visible (ISO)
100
AcDbSpline
210
0.0
220
0.0
230
1.0
 70
    24
 71
     3
 72
     8
 73
     4
 74
     0
 42
0.000000001
 43
0.0000000001
 40
-1.009250694823055
 40
-1.009250694823055
 40
-1.009250694823055
 40
-1.009250694823055
 40
-1.009239674078639
 40
-1.009239674078639
 40
-1.009239674078639
 40
-1.009239674078639
 10
95.2869315344588
 20
136.8590548290529
 30
0.0
 10
95.28689643585259
 20
136.8590548290529
 30
0.0
 10
95.28685975223687
 20
136.8590548290529
 30
0.0
 10
95.28682148345138
 20
136.8590548290529
 30
0.0
  0
SPLINE
  5
2B8
330
70
100
AcDbEntity
  8
Visible (ISO)
100
AcDbSpline
210
0.0
220
0.0
230
1.0
 70
    24
 71
     3
 72
     8
 73
     4
 74
     0
 42
0.000000001
 43
0.0000000001
 40
-0.1081914355857269
 40
-0.1081914355857269
 40
-0.1081914355857269
 40
-0.1081914355857269
 40
-0.1081804148413115
 40
-0.1081804148413115
 40
-0.1081804148413115
 40
-0.1081804148413115
 10
86.2868214834514
 20
136.8590548290529
 30
0.0
 10
86.28678321466592
 20
136.8590548290529
 30
0.0
 10
86.2867465310502
 20
136.8590548290529
 30
0.0
 10
86.28671143244398
 20
136.8590548290529
 30
0.0
  0
ARC
  5
2B9
330
70
100
AcDbEntity
  8
Visible (ISO)
100
AcDbCircle
 10
84.88682148345139
 20
134.9590548290529
 30
0.0
 40
0.0999999999999998
100
AcDbArc
 50
180.0
 51
270.0
  0
SPLINE
  5
2BA
330
70
100
AcDbEntity
  8
Visible (ISO)
100
AcDbSpline
210
0.0
220
0.0
230
1.0
 70
     8
 71
     3
 72
    20
 73
    16
 74
     0
 42
0.000000001
 43
0.0000000001
 40
-0.1167463837654997
 40
-0.1167463837654997
 40
-0.1167463837654997
 40
-0.1167463837654997
 40
-0.1163267376802986
 40
-0.1163267376802986
 40
-0.1148286972977117
 40
-0.1148286972977117
 40
-0.111636749464689
 40
-0.111636749464689
 40
-0.107278172338819
 40
-0.107278172338819
 40
-0.1040400035181946
 40
-0.1040400035181946
 40
-0.1011279500247179
 40
-0.1011279500247179
 40
-0.100530888678917
 40
-0.100530888678917
 40
-0.100530888678917
 40
-0.100530888678917
 10
85.46081560286868
 20
134.9590548290529
 30
0.0
 10
85.46109625043071
 20
134.9579871643633
 30
0.0
 10
85.46132855831579
 20
134.9569048374824
 30
0.0
 10
85.46215341132592
 20
134.9518846525686
 30
0.0
 10
85.46208699709739
 20
134.9480497291402
 30
0.0
 10
85.4603049916121
 20
134.9360830324057
 30
0.0
 10
85.45679493225355
 20
134.927737689571
 30
0.0
 10
85.44732463707168
 20
134.9088367358265
 30
0.0
 10
85.44018646454375
 20
134.8972375993855
 30
0.0
 10
85.42896147436881
 20
134.8792836841021
 30
0.0
 10
85.42486518549225
 20
134.872855604326
 30
0.0
 10
85.41935974497992
 20
134.8637941561981
 30
0.0
 10
85.41778141371827
 20
134.8609540402757
 30
0.0
 10
85.41735651204994
 20
134.8594836953246
 30
0.0
 10
85.41733628291636
 20
134.8593036181321
 30
0.0
 10
85.41736745391659
 20
134.8591920270898
 30
0.0
  0
LINE
  5
2BB
330
70
100
AcDbEntity
  8
Visible (ISO)
100
AcDbLine
 10
84.88682148345139
 20
134.8590548290529
 30
0.0
 11
85.41740577967132
 21
134.8590548290529
 31
0.0
  0
LINE
  5
2BC
330
70
100
AcDbEntity
  8
Visible (ISO)
100
AcDbLine
 10
84.78682148345141
 20
137.7590548290529
 30
0.0
 11
84.78682148345141
 21
134.9590548290529
 31
0.0
  0
ARC
  5
2BD
330
70
100
AcDbEntity
  8
Visible (ISO)
100
AcDbCircle
 10
90.78682148345139
 20
136.3590548290529
 30
0.0
 40
5.506935503526576
100
AcDbArc
 50
165.2723396740587
 51
194.7276603259132
  0
ARC
  5
2BE
330
70
100
AcDbEntity
  8
Visible (ISO)
100
AcDbCircle
 10
90.78682148345139
 20
136.3590548290529
 30
0.0
 40
5.506935503526585
100
AcDbArc
 50
345.2723396740867
 51
14.7276603259133
  0
ARC
  5
2BF
330
70
100
AcDbEntity
  8
Visible (ISO)
100
AcDbCircle
 10
90.78682148345139
 20
136.3590548290529
 30
0.0
 40
5.574999999999997
100
AcDbArc
 50
195.6067736638874
 51
344.3932263361124
  0
SPLINE
  5
2C0
330
70
100
AcDbEntity
  8
Visible (ISO)
100
AcDbSpline
210
0.0
220
0.0
230
1.0
 70
     8
 71
     3
 72
    26
 73
    22
 74
     0
 42
0.000000001
 43
0.0000000001
 40
0.1202727217615084
 40
0.1202727217615084
 40
0.1202727217615084
 40
0.1202727217615084
 40
0.1202991365773451
 40
0.1202991365773451
 40
0.1203429475099263
 40
0.1203429475099263
 40
0.1204385750773929
 40
0.1204385750773929
 40
0.1218155955517658
 40
0.1218155955517658
 40
0.1232684323416687
 40
0.1232684323416687
 40
0.1257179918970292
 40
0.1257179918970292
 40
0.1298582169075374
 40
0.1298582169075374
 40
0.1338256061203832
 40
0.1338256061203832
 40
0.1358218267841507
 40
0.1358218267841507
 40
0.1377756950170718
 40
0.1377756950170718
 40
0.1377756950170718
 40
0.1377756950170718
 10
85.46081560286935
 20
137.7590548290555
 30
0.0
 10
85.46083303840731
 20
137.7591211588967
 30
0.0
 10
85.46085019332833
 20
137.7591871864027
 30
0.0
 10
85.46089507264532
 20
137.7593619342243
 30
0.0
 10
85.46092237572535
 20
137.7594703605597
 30
0.0
 10
85.46100712716214
 20
137.7598136093722
 30
0.0
 10
85.46106246882619
 20
137.7600480043775
 30
0.0
 10
85.46187308615129
 20
137.7636428181872
 30
0.0
 10
85.4621052493273
 20
137.7669664992188
 30
0.0
 10
85.46167378637111
 20
137.773889594599
 30
0.0
 10
85.46096989325505
 20
137.7773516647791
 30
0.0
 10
85.45841597143528
 20
137.786258725088
 30
0.0
 10
85.45595413921203
 20
137.7919872941359
 30
0.0
 10
85.44833232022005
 20
137.8073586340898
 30
0.0
 10
85.44215649874404
 20
137.8176203627361
 30
0.0
 10
85.43065713039275
 20
137.8361773791385
 30
0.0
 10
85.42575878521445
 20
137.8438138882661
 30
0.0
 10
85.42065014603153
 20
137.8521787960973
 30
0.0
 10
85.41934063059668
 20
137.8544116118799
 30
0.0
 10
85.4176587330995
 20
137.8576026835738
 30
0.0
 10
85.41727219867079
 20
137.8585766207164
 30
0.0
 10
85.41736745391666
 20
137.8589176310162
 30
0.0
  0
ARC
  5
2C1
330
70
100
AcDbEntity
  8
Visible (ISO)
100
AcDbCircle
 10
90.78682148345139
 20
136.3590548290529
 30
0.0
 40
5.575
100
AcDbArc
 50
15.60677366388743
 51
164.3932263361101
  0
LINE
  5
2C2
330
70
100
AcDbEntity
  8
Visible (ISO)
100
AcDbLine
 10
96.15623718723146
 20
134.8590548290529
 30
0.0
 11
96.68682148345141
 21
134.8590548290529
 31
0.0
  0
SPLINE
  5
2C3
330
70
100
AcDbEntity
  8
Visible (ISO)
100
AcDbSpline
210
0.0
220
0.0
230
1.0
 70
     8
 71
     3
 72
    18
 73
    14
 74
     0
 42
0.000000001
 43
0.0000000001
 40
-0.1028855666828686
 40
-0.1028855666828686
 40
-0.1028855666828686
 40
-0.1028855666828686
 40
-0.1004689900059198
 40
-0.1004689900059198
 40
-0.0980358109280614
 40
-0.0980358109280614
 40
-0.093790661072223
 40
-0.093790661072223
 40
-0.0887468381604296
 40
-0.0887468381604296
 40
-0.0865906319794494
 40
-0.0865906319794494
 40
-0.0854228207007943
 40
-0.0854228207007943
 40
-0.0854228207007943
 40
-0.0854228207007943
 10
96.15627551298613
 20
134.8591920270896
 30
0.0
 10
96.15639332625605
 20
134.8596137942913
 30
0.0
 10
96.1557740274141
 20
134.8610026645465
 30
0.0
 10
96.15320599184101
 20
134.8656022083082
 30
0.0
 10
96.15127081245915
 20
134.8687838877079
 30
0.0
 10
96.14458406046439
 20
134.8795169231965
 30
0.0
 10
96.13886049207607
 20
134.8884124354132
 30
0.0
 10
96.1253921670151
 20
134.9107355846566
 30
0.0
 10
96.11822124428389
 20
134.923437170795
 30
0.0
 10
96.11288302092589
 20
134.9394813739566
 30
0.0
 10
96.11165695894152
 20
134.9446699973592
 30
0.0
 10
96.11168331612326
 20
134.953242330551
 30
0.0
 10
96.11206665810152
 20
134.9561608831456
 30
0.0
 10
96.1128273640341
 20
134.9590548290529
 30
0.0
  0
ARC
  5
2C4
330
70
100
AcDbEntity
  8
Visible (ISO)
100
AcDbCircle
 10
96.68682148345141
 20
134.9590548290529
 30
0.0
 40
0.1000000000000001
100
AcDbArc
 50
270.0
 51
0.0
  0
LINE
  5
2C5
330
70
100
AcDbEntity
  8
Visible (ISO)
100
AcDbLine
 10
96.78682148345139
 20
134.9590548290529
 30
0.0
 11
96.78682148345139
 21
137.7590548290529
 31
0.0
  0
ARC
  5
2C6
330
70
100
AcDbEntity
  8
Visible (ISO)
100
AcDbCircle
 10
96.68682148345141
 20
137.7590548290529
 30
0.0
 40
0.0999999999999998
100
AcDbArc
 50
0.0
 51
90.0
  0
LINE
  5
2C7
330
70
100
AcDbEntity
  8
Visible (ISO)
100
AcDbLine
 10
96.68682148345141
 20
137.8590548290529
 30
0.0
 11
96.15623718723146
 21
137.8590548290529
 31
0.0
  0
SPLINE
  5
2C8
330
70
100
AcDbEntity
  8
Visible (ISO)
100
AcDbSpline
210
0.0
220
0.0
230
1.0
 70
     8
 71
     3
 72
    20
 73
    16
 74
     0
 42
0.000000001
 43
0.0000000001
 40
-0.1167463837662684
 40
-0.1167463837662684
 40
-0.1167463837662684
 40
-0.1167463837662684
 40
-0.1163267376810644
 40
-0.1163267376810644
 40
-0.1148286972984718
 40
-0.1148286972984718
 40
-0.1116367494654422
 40
-0.1116367494654422
 40
-0.1072781723395591
 40
-0.1072781723395591
 40
-0.1040400035189335
 40
-0.1040400035189335
 40
-0.101127950025461
 40
-0.101127950025461
 40
-0.1005308886796618
 40
-0.1005308886796618
 40
-0.1005308886796618
 40
-0.1005308886796618
 10
96.1128273640341
 20
137.759054829053
 30
0.0
 10
96.11254671647209
 20
137.7601224937426
 30
0.0
 10
96.112314408587
 20
137.7612048206235
 30
0.0
 10
96.11148955557688
 20
137.7662250055373
 30
0.0
 10
96.11155596980539
 20
137.7700599289657
 30
0.0
 10
96.1133379752907
 20
137.7820266257002
 30
0.0
 10
96.11684803464925
 20
137.7903719685349
 30
0.0
 10
96.12631832983112
 20
137.8092729222794
 30
0.0
 10
96.13345650235903
 20
137.8208720587204
 30
0.0
 10
96.14468149253397
 20
137.8388259740038
 30
0.0
 10
96.14877778141053
 20
137.8452540537798
 30
0.0
 10
96.15428322192286
 20
137.8543155019077
 30
0.0
 10
96.15586155318453
 20
137.8571556178302
 30
0.0
 10
96.15628645485285
 20
137.8586259627812
 30
0.0
 10
96.15630668398644
 20
137.8588060399738
 30
0.0
 10
96.15627551298619
 20
137.858917631016
 30
0.0
  0
LINE
  5
2C9
330
70
100
AcDbEntity
  8
Visible (ISO)
100
AcDbLine
 10
85.41740577967132
 20
137.8590548290529
 30
0.0
 11
84.88682148345139
 21
137.8590548290529
 31
0.0
  0
ARC
  5
2CA
330
70
100
AcDbEntity
  8
Visible (ISO)
100
AcDbCircle
 10
84.88682148345139
 20
137.7590548290529
 30
0.0
 40
0.1000000000000001
100
AcDbArc
 50
90.0
 51
180.0
  0
CIRCLE
  5
2CB
330
70
100
AcDbEntity
  8
Visible (ISO)
100
AcDbCircle
 10
210.0171262963775
 20
65.258406208081
 30
0.0
 40
10.0
  0
ARC
  5
2CC
330
70
100
AcDbEntity
  8
Visible (ISO)
100
AcDbCircle
 10
210.0171262963776
 20
65.25840620808101
 30
0.0
 40
9.750000000000005
100
AcDbArc
 50
270.667889832296
 51
329.3321101677042
  0
ARC
  5
2CD
330
70
100
AcDbEntity
  8
Visible (ISO)
100
AcDbCircle
 10
210.0171262963776
 20
65.258406208081
 30
0.0
 40
9.749999999999998
100
AcDbArc
 50
210.6678898322968
 51
269.332110167703
  0
ARC
  5
2CE
330
70
100
AcDbEntity
  8
Visible (ISO)
100
AcDbCircle
 10
210.0171262963776
 20
65.258406208081
 30
0.0
 40
9.75
100
AcDbArc
 50
150.6678898322975
 51
209.3321101677025
  0
ARC
  5
2CF
330
70
100
AcDbEntity
  8
Visible (ISO)
100
AcDbCircle
 10
210.0171262963776
 20
65.258406208081
 30
0.0
 40
9.749999999999998
100
AcDbArc
 50
90.66788983229679
 51
149.3321101677033
  0
ARC
  5
2D0
330
70
100
AcDbEntity
  8
Visible (ISO)
100
AcDbCircle
 10
210.0171262963776
 20
65.258406208081
 30
0.0
 40
9.749999999999996
100
AcDbArc
 50
30.66788983229549
 51
89.33211016770426
  0
ARC
  5
2D1
330
70
100
AcDbEntity
  8
Visible (ISO)
100
AcDbCircle
 10
210.0171262963776
 20
65.258406208081
 30
0.0
 40
9.749999999999996
100
AcDbArc
 50
330.6678898322953
 51
29.3321101677048
  0
LINE
  5
2D2
330
70
100
AcDbEntity
  8
Visible (ISO)
100
AcDbLine
 10
216.4171262963746
 20
73.758406208081
 30
0.0
 11
216.4171262963748
 21
72.94215529300043
 31
0.0
  0
ARC
  5
2D3
330
70
100
AcDbEntity
  8
Visible (ISO)
100
AcDbCircle
 10
215.9171262963746
 20
73.758406208081
 30
0.0
 40
0.5
100
AcDbArc
 50
0.0
 51
90.0
  0
SPLINE
  5
2D4
330
70
100
AcDbEntity
  8
Visible (ISO)
100
AcDbSpline
210
0.0
220
0.0
230
1.0
 70
     8
 71
     3
 72
    14
 73
    10
 74
     0
 42
0.000000001
 43
0.0000000001
 40
0.3152137287149456
 40
0.3152137287149456
 40
0.3152137287149456
 40
0.3152137287149456
 40
0.339724314007867
 40
0.339724314007867
 40
0.3774719396899205
 40
0.3774719396899205
 40
0.4152184860893204
 40
0.4152184860893204
 40
0.4529650324887202
 40
0.4529650324887202
 40
0.4529650324887202
 40
0.4529650324887202
 10
215.8333859753274
 20
73.39298408721323
 30
0.0
 10
215.8353649944027
 20
73.4769024840028
 30
0.0
 10
215.839108336485
 20
73.56146041587411
 30
0.0
 10
215.8524592145324
 20
73.76457944108264
 30
0.0
 10
215.8638984854139
 20
73.87686336905483
 30
0.0
 10
215.885301517839
 20
74.05416007480437
 30
0.0
 10
215.8966686602841
 20
74.1310813106531
 30
0.0
 10
215.9126925132809
 20
74.23321103503316
 30
0.0
 10
215.9153527831372
 20
74.24832813886187
 30
0.0
 10
215.9171262963746
 20
74.25840620808101
 30
0.0
  0
LINE
  5
2D5
330
70
100
AcDbEntity
  8
Visible (ISO)
100
AcDbLine
 10
204.1171262963746
 20
73.33243865785478
 30
0.0
 11
204.1171262963746
 21
75.75840620808101
 31
0.0
  0
LINE
  5
2D6
330
70
100
AcDbEntity
  8
Visible (ISO)
100
AcDbLine
 10
215.9171262963746
 20
74.25840620808101
 30
0.0
 11
215.9171262963746
 21
75.75840620808101
 31
0.0
  0
CIRCLE
  5
2D7
330
70
100
AcDbEntity
  8
Visible (ISO)
100
AcDbCircle
 10
210.0171262963782
 20
65.258406208081
 30
0.0
 40
2.899999999999998
  0
CIRCLE
  5
2D8
330
70
100
AcDbEntity
  8
Visible (ISO)
100
AcDbCircle
 10
210.0171262963784
 20
65.258406208081
 30
0.0
 40
3.9705
  0
SPLINE
  5
2D9
330
70
100
AcDbEntity
  8
Visible (ISO)
100
AcDbSpline
210
0.0
220
0.0
230
1.0
 70
    28
 71
     2
 72
     6
 73
     3
 74
     0
 42
0.000000001
 43
0.0000000001
 40
0.0906100100638165
 40
0.0906100100638165
 40
0.0906100100638165
 40
1.118728652180968
 40
1.118728652180968
 40
1.118728652180968
 10
201.5171262963811
 20
70.16588349619282
 30
0.0
 41
1.030578586555896
 10
205.7671262963815
 20
72.61962214024873
 30
0.0
 41
1.19000964873822
 10
210.0171262963811
 20
75.07336078430464
 30
0.0
 41
1.030578586555896
  0
SPLINE
  5
2DA
330
70
100
AcDbEntity
  8
Visible (ISO)
100
AcDbSpline
210
0.0
220
0.0
230
1.0
 70
    28
 71
     2
 72
     6
 73
     3
 74
     0
 42
0.000000001
 43
0.0000000001
 40
0.0906100100638162
 40
0.0906100100638162
 40
0.0906100100638162
 40
1.118728652180968
 40
1.118728652180968
 40
1.118728652180968
 10
201.5171262963811
 20
60.35092891996918
 30
0.0
 41
1.030578586555896
 10
201.5171262963816
 20
65.25840620808101
 30
0.0
 41
1.19000964873822
 10
201.5171262963811
 20
70.16588349619282
 30
0.0
 41
1.030578586555896
  0
SPLINE
  5
2DB
330
70
100
AcDbEntity
  8
Visible (ISO)
100
AcDbSpline
210
0.0
220
0.0
230
1.0
 70
    28
 71
     2
 72
     6
 73
     3
 74
     0
 42
0.000000001
 43
0.0000000001
 40
0.0906100100638159
 40
0.0906100100638159
 40
0.0906100100638159
 40
1.118728652180966
 40
1.118728652180966
 40
1.118728652180966
 10
210.0171262963811
 20
55.44345163185738
 30
0.0
 41
1.030578586555896
 10
205.7671262963815
 20
57.89719027591329
 30
0.0
 41
1.190009648738221
 10
201.5171262963811
 20
60.35092891996918
 30
0.0
 41
1.030578586555896
  0
SPLINE
  5
2DC
330
70
100
AcDbEntity
  8
Visible (ISO)
100
AcDbSpline
210
0.0
220
0.0
230
1.0
 70
    28
 71
     2
 72
     6
 73
     3
 74
     0
 42
0.000000001
 43
0.0000000001
 40
0.0906100100638164
 40
0.0906100100638164
 40
0.0906100100638164
 40
1.118728652180967
 40
1.118728652180967
 40
1.118728652180967
 10
218.5171262963811
 20
60.35092891996919
 30
0.0
 41
1.030578586555896
 10
214.2671262963815
 20
57.89719027591328
 30
0.0
 41
1.19000964873822
 10
210.0171262963811
 20
55.44345163185738
 30
0.0
 41
1.030578586555896
  0
SPLINE
  5
2DD
330
70
100
AcDbEntity
  8
Visible (ISO)
100
AcDbSpline
210
0.0
220
0.0
230
1.0
 70
    28
 71
     2
 72
     6
 73
     3
 74
     0
 42
0.000000001
 43
0.0000000001
 40
0.0906100100638167
 40
0.0906100100638167
 40
0.0906100100638167
 40
1.118728652180967
 40
1.118728652180967
 40
1.118728652180967
 10
218.5171262963811
 20
70.16588349619282
 30
0.0
 41
1.030578586555896
 10
218.5171262963815
 20
65.258406208081
 30
0.0
 41
1.190009648738218
 10
218.5171262963811
 20
60.35092891996919
 30
0.0
 41
1.030578586555895
  0
SPLINE
  5
2DE
330
70
100
AcDbEntity
  8
Visible (ISO)
100
AcDbSpline
210
0.0
220
0.0
230
1.0
 70
    28
 71
     2
 72
     6
 73
     3
 74
     0
 42
0.000000001
 43
0.0000000001
 40
0.090610010063817
 40
0.090610010063817
 40
0.090610010063817
 40
1.118728652180967
 40
1.118728652180967
 40
1.118728652180967
 10
210.0171262963811
 20
75.07336078430464
 30
0.0
 41
1.030578586555895
 10
214.2671262963815
 20
72.61962214024873
 30
0.0
 41
1.190009648738215
 10
218.5171262963811
 20
70.16588349619282
 30
0.0
 41
1.030578586555895
  0
CIRCLE
  5
2DF
330
70
100
AcDbEntity
  8
Visible (ISO)
100
AcDbCircle
 10
210.0171262963813
 20
65.258406208081
 30
0.0
 40
8.249999999999994
  0
CIRCLE
  5
2E0
330
70
100
AcDbEntity
  8
Visible (ISO)
100
AcDbCircle
 10
210.0171262963809
 20
65.258406208081
 30
0.0
 40
4.24197044688652
  0
CIRCLE
  5
2E1
330
70
100
AcDbEntity
  8
Visible (ISO)
100
AcDbCircle
 10
210.0171262963813
 20
65.258406208081
 30
0.0
 40
4.999999999999996
  0
LINE
  5
2E2
330
70
100
AcDbEntity
  8
Visible (ISO)
100
AcDbLine
 10
213.5171262963865
 20
93.75840620808103
 30
0.0
 11
206.5171262963865
 21
93.75840620808103
 31
0.0
  0
LINE
  5
2E3
330
70
100
AcDbEntity
  8
Visible (ISO)
100
AcDbLine
 10
213.5171262963865
 20
86.758406208081
 30
0.0
 11
213.517126296385
 21
81.758406208081
 31
0.0
  0
LINE
  5
2E4
330
70
100
AcDbEntity
  8
Visible (ISO)
100
AcDbLine
 10
206.517126296385
 20
81.758406208081
 30
0.0
 11
206.5171262963865
 21
86.758406208081
 31
0.0
  0
LINE
  5
2E5
330
70
100
AcDbEntity
  8
Visible (ISO)
100
AcDbLine
 10
206.517126296385
 20
81.758406208081
 30
0.0
 11
213.517126296385
 21
81.758406208081
 31
0.0
  0
LINE
  5
2E6
330
70
100
AcDbEntity
  8
Visible (ISO)
100
AcDbLine
 10
213.5171262963826
 20
81.758406208081
 30
0.0
 11
213.5171262963813
 21
81.51066096285196
 31
0.0
  0
SPLINE
  5
2E7
330
70
100
AcDbEntity
  8
Visible (ISO)
100
AcDbSpline
210
0.0
220
0.0
230
1.0
 70
     8
 71
     3
 72
    14
 73
    10
 74
     0
 42
0.000000001
 43
0.0000000001
 40
0.0979815127343829
 40
0.0979815127343829
 40
0.0979815127343829
 40
0.0979815127343829
 40
0.1506624850332004
 40
0.1506624850332004
 40
0.3013249700664007
 40
0.3013249700664007
 40
0.4554237426914714
 40
0.4554237426914714
 40
0.5051911393277391
 40
0.5051911393277391
 40
0.5051911393277391
 40
0.5051911393277391
 10
204.5986662205095
 20
75.75840620808101
 30
0.0
 10
204.610145413359
 20
75.93731826762288
 30
0.0
 10
204.6247388601312
 20
76.11401456471956
 30
0.0
 10
204.6918630269307
 20
76.77585899120365
 30
0.0
 10
204.7655092696282
 20
77.22220684141866
 30
0.0
 10
204.9287200260966
 20
77.9343424936623
 30
0.0
 10
205.0297284607876
 20
78.2449925229738
 30
0.0
 10
205.1669720188629
 20
78.5175455907871
 30
0.0
 10
205.2007565711547
 20
78.57366818885942
 30
0.0
 10
205.2342639662728
 20
78.61875995958818
 30
0.0
  0
ELLIPSE
  5
2E8
330
70
100
AcDbEntity
  8
Visible (ISO)
100
AcDbEllipse
 10
141.5171262963812
 20
82.10628064040546
 30
0.0
 11
-64.99999999999999
 21
-0.0000000000000034
 31
0.0
210
0.0
220
0.0
230
1.0
 40
0.2713992095570846
 41
2.94258708611294
 42
3.032609081532716
  0
SPLINE
  5
2E9
330
70
100
AcDbEntity
  8
Visible (ISO)
100
AcDbSpline
210
0.0
220
0.0
230
1.0
 70
     8
 71
     3
 72
    10
 73
     6
 74
     0
 42
0.000000001
 43
0.0000000001
 40
5.578615183636053
 40
5.578615183636053
 40
5.578615183636053
 40
5.578615183636053
 40
6.021510703961547
 40
6.021510703961547
 40
6.267952460891863
 40
6.267952460891863
 40
6.267952460891863
 40
6.267952460891863
 10
206.1314921012511
 20
80.18751065425481
 30
0.0
 10
206.2897877012844
 20
80.58014851051376
 30
0.0
 10
206.4045231251164
 20
80.90953968521482
 30
0.0
 10
206.4996330735493
 20
81.30231277643957
 30
0.0
 10
206.517126296381
 20
81.41902395288248
 30
0.0
 10
206.5171262963812
 20
81.51066096285195
 30
0.0
  0
LINE
  5
2EA
330
70
100
AcDbEntity
  8
Visible (ISO)
100
AcDbLine
 10
215.4355863722436
 20
75.75840620808101
 30
0.0
 11
212.6152025077299
 21
75.75840620808101
 31
0.0
  0
SPLINE
  5
2EB
330
70
100
AcDbEntity
  8
Visible (ISO)
100
AcDbSpline
210
0.0
220
0.0
230
1.0
 70
     8
 71
     3
 72
    14
 73
    10
 74
     0
 42
0.000000001
 43
0.0000000001
 40
1.926793397172414
 40
1.926793397172414
 40
1.926793397172414
 40
1.926793397172414
 40
1.976560793808681
 40
1.976560793808681
 40
2.130659566433752
 40
2.130659566433752
 40
2.281322051466952
 40
2.281322051466952
 40
2.33400302376577
 40
2.33400302376577
 40
2.33400302376577
 40
2.33400302376577
 10
214.7999886264819
 20
78.61875995958818
 30
0.0
 10
214.8334960216
 20
78.57366818885942
 30
0.0
 10
214.8672805738918
 20
78.5175455907871
 30
0.0
 10
215.0045241319666
 20
78.24499252297382
 30
0.0
 10
215.1055325666573
 20
77.9343424936623
 30
0.0
 10
215.2687433231253
 20
77.22220684141868
 30
0.0
 10
215.3423895658227
 20
76.77585899120365
 30
0.0
 10
215.409513732622
 20
76.11401456471958
 30
0.0
 10
215.4241071793942
 20
75.93731826762288
 30
0.0
 10
215.4355863722436
 20
75.75840620808101
 30
0.0
  0
LINE
  5
2EC
330
70
100
AcDbEntity
  8
Visible (ISO)
100
AcDbLine
 10
207.4190500850232
 20
75.75840620808101
 30
0.0
 11
204.5986662205095
 21
75.75840620808101
 31
0.0
  0
ELLIPSE
  5
2ED
330
70
100
AcDbEntity
  8
Visible (ISO)
100
AcDbEllipse
 10
278.5171262963812
 20
82.10628064040546
 30
0.0
 11
64.99999999999999
 21
-0.0000000000000022
 31
0.0
210
0.0
220
0.0
230
1.0
 40
0.2713992095570846
 41
3.250576225654227
 42
3.340598221073768
  0
SPLINE
  5
2EE
330
70
100
AcDbEntity
  8
Visible (ISO)
100
AcDbSpline
210
0.0
220
0.0
230
1.0
 70
     8
 71
     3
 72
    10
 73
     6
 74
     0
 42
0.000000001
 43
0.0000000001
 40
4.585290746366444
 40
4.585290746366444
 40
4.585290746366444
 40
4.585290746366444
 40
4.831732503296846
 40
4.831732503296846
 40
5.274628023622252
 40
5.274628023622252
 40
5.274628023622252
 40
5.274628023622252
 10
213.5171262963812
 20
81.51066096285195
 30
0.0
 10
213.517126296381
 20
81.41902395288244
 30
0.0
 10
213.5346195192121
 20
81.30231277643948
 30
0.0
 10
213.6297294676436
 20
80.90953968521469
 30
0.0
 10
213.7444648914748
 20
80.58014851051369
 30
0.0
 10
213.9027604915071
 20
80.18751065425481
 30
0.0
  0
LINE
  5
2EF
330
70
100
AcDbEntity
  8
Visible (ISO)
100
AcDbLine
 10
206.5171262963812
 20
81.51066096285195
 30
0.0
 11
206.5171262963825
 21
81.758406208081
 31
0.0
  0
LINE
  5
2F0
330
70
100
AcDbEntity
  8
Visible (ISO)
100
AcDbLine
 10
213.5171262963865
 20
86.758406208081
 30
0.0
 11
213.5171262963865
 21
93.75840620808103
 31
0.0
  0
SPLINE
  5
2F1
330
70
100
AcDbEntity
  8
Visible (ISO)
100
AcDbSpline
210
0.0
220
0.0
230
1.0
 70
     8
 71
     3
 72
    10
 73
     6
 74
     0
 42
0.000000001
 43
0.0000000001
 40
1.758510453691921
 40
1.758510453691921
 40
1.758510453691921
 40
1.758510453691921
 40
1.769985036102442
 40
1.769985036102442
 40
1.77528265148158
 40
1.77528265148158
 40
1.77528265148158
 40
1.77528265148158
 10
216.6768485185975
 20
75.75840620808105
 30
0.0
 10
216.6886287907158
 20
75.75840620808105
 30
0.0
 10
216.7004128187272
 20
75.76469497468361
 30
0.0
 10
216.7171795617405
 20
75.78196222650328
 30
0.0
 10
216.722409680195
 20
75.78858595639822
 30
0.0
 10
216.727549930728
 20
75.79622313188102
 30
0.0
  0
LINE
  5
2F2
330
70
100
AcDbEntity
  8
Visible (ISO)
100
AcDbLine
 10
216.7253302288746
 20
75.75840620808101
 30
0.0
 11
216.6768485185981
 21
75.75840620808101
 31
0.0
  0
SPLINE
  5
2F3
330
70
100
AcDbEntity
  8
Visible (ISO)
100
AcDbSpline
210
0.0
220
0.0
230
1.0
 70
     8
 71
     3
 72
     8
 73
     4
 74
     0
 42
0.000000001
 43
0.0000000001
 40
-0.0038487373741095
 40
-0.0038487373741095
 40
-0.0038487373741095
 40
-0.0038487373741095
 40
0.0
 40
0.0
 40
0.0
 40
0.0
 10
216.727549930728
 20
75.79622313188098
 30
0.0
 10
216.7268100354638
 20
75.78361741167976
 30
0.0
 10
216.7260701347963
 20
75.77101176951242
 30
0.0
 10
216.7253302288746
 20
75.75840620808101
 30
0.0
  0
SPLINE
  5
2F4
330
70
100
AcDbEntity
  8
Visible (ISO)
100
AcDbSpline
210
0.0
220
0.0
230
1.0
 70
     8
 71
     3
 72
    10
 73
     6
 74
     0
 42
0.000000001
 43
0.0000000001
 40
1.741738255902264
 40
1.741738255902264
 40
1.741738255902264
 40
1.741738255902264
 40
1.747035871281402
 40
1.747035871281402
 40
1.758510453691923
 40
1.758510453691923
 40
1.758510453691923
 40
1.758510453691923
 10
203.3067026620224
 20
75.79622313188099
 30
0.0
 10
203.3118429125555
 20
75.78858595639821
 30
0.0
 10
203.31707303101
 20
75.78196222650316
 30
0.0
 10
203.3338397740233
 20
75.76469497468348
 30
0.0
 10
203.3456238020347
 20
75.75840620808101
 30
0.0
 10
203.357404074153
 20
75.758406208081
 30
0.0
  0
SPLINE
  5
2F5
330
70
100
AcDbEntity
  8
Visible (ISO)
100
AcDbSpline
210
0.0
220
0.0
230
1.0
 70
     8
 71
     3
 72
     8
 73
     4
 74
     0
 42
0.000000001
 43
0.0000000001
 40
-0.0038487374224739
 40
-0.0038487374224739
 40
-0.0038487374224739
 40
-0.0038487374224739
 40
0.0
 40
0.0
 40
0.0
 40
0.0
 10
203.3089223638758
 20
75.75840620808101
 30
0.0
 10
203.3081824579509
 20
75.77101176956849
 30
0.0
 10
203.3074425572801
 20
75.78361741179207
 30
0.0
 10
203.3067026620224
 20
75.79622313188099
 30
0.0
  0
LINE
  5
2F6
330
70
100
AcDbEntity
  8
Visible (ISO)
100
AcDbLine
 10
203.357404074153
 20
75.75840620808101
 30
0.0
 11
203.3089223638763
 21
75.75840620808101
 31
0.0
  0
SPLINE
  5
2F7
330
70
100
AcDbEntity
  8
Visible (ISO)
100
AcDbSpline
210
0.0
220
0.0
230
1.0
 70
     8
 71
     3
 72
    22
 73
    18
 74
     0
 42
0.000000001
 43
0.0000000001
 40
1.758510453691923
 40
1.758510453691923
 40
1.758510453691923
 40
1.758510453691923
 40
1.769985036102444
 40
1.769985036102444
 40
1.781459618512965
 40
1.781459618512965
 40
1.804408783334006
 40
1.804408783334006
 40
1.879967807849264
 40
1.879967807849264
 40
1.955526832364522
 40
1.955526832364522
 40
2.150713591741938
 40
2.150713591741938
 40
2.345900351119354
 40
2.345900351119354
 40
2.573780108621498
 40
2.573780108621498
 40
2.573780108621498
 40
2.573780108621498
 10
203.357404074153
 20
75.758406208081
 30
0.0
 10
203.3691843462714
 20
75.758406208081
 30
0.0
 10
203.3809029387171
 20
75.76469497468384
 30
0.0
 10
203.4035987506476
 20
75.7883215150446
 30
0.0
 10
203.4145769475679
 20
75.80564982205443
 30
0.0
 10
203.4457633366759
 20
75.86910252315385
 30
0.0
 10
203.4642797818781
 20
75.92683881029273
 30
0.0
 10
203.5301837607145
 20
76.17227086895319
 30
0.0
 10
203.567120963782
 20
76.41311770232376
 30
0.0
 10
203.633003814006
 20
76.9120735802672
 30
0.0
 10
203.6605810282805
 20
77.1721365916421
 30
0.0
 10
203.7434418634214
 20
78.02885852336439
 30
0.0
 10
203.7900628095302
 20
78.67074729957123
 30
0.0
 10
203.8751709655242
 20
79.98343562620867
 30
0.0
 10
203.9128267400979
 20
80.65484658311309
 30
0.0
 10
203.9886933994402
 20
82.13237252564113
 30
0.0
 10
204.0258173942731
 20
82.9419823180917
 30
0.0
 10
204.0605391710024
 20
83.75840620808103
 30
0.0
  0
LINE
  5
2F8
330
70
100
AcDbEntity
  8
Visible (ISO)
100
AcDbLine
 10
204.5986662205095
 20
75.75840620808101
 30
0.0
 11
203.3574040741531
 21
75.75840620808101
 31
0.0
  0
LINE
  5
2F9
330
70
100
AcDbEntity
  8
Visible (ISO)
100
AcDbLine
 10
203.8403784557199
 20
84.75314978607165
 30
0.0
 11
206.5171262963812
 21
84.75314978607165
 31
0.0
  0
SPLINE
  5
2FA
330
70
100
AcDbEntity
  8
Visible (ISO)
100
AcDbSpline
210
0.0
220
0.0
230
1.0
 70
     8
 71
     3
 72
    10
 73
     6
 74
     0
 42
0.000000001
 43
0.0000000001
 40
1.026679612955202
 40
1.026679612955202
 40
1.026679612955202
 40
1.026679612955202
 40
1.054986950396901
 40
1.054986950396901
 40
1.150372975748469
 40
1.150372975748469
 40
1.150372975748469
 40
1.150372975748469
 10
204.0605391710024
 20
83.75840620808103
 30
0.0
 10
204.0460527887987
 20
83.83701146762602
 30
0.0
 10
204.0312601470796
 20
83.91465979346724
 30
0.0
 10
203.9650856152084
 20
84.24929301638494
 30
0.0
 10
203.90642842244
 20
84.51394292158182
 30
0.0
 10
203.8403784557198
 20
84.75314978607165
 30
0.0
  0
SPLINE
  5
2FB
330
70
100
AcDbEntity
  8
Visible (ISO)
100
AcDbSpline
210
0.0
220
0.0
230
1.0
 70
     8
 71
     3
 72
    22
 73
    18
 74
     0
 42
0.000000001
 43
0.0000000001
 40
0.9432407987623509
 40
0.9432407987623509
 40
0.9432407987623509
 40
0.9432407987623509
 40
1.171120556264496
 40
1.171120556264496
 40
1.366307315641912
 40
1.366307315641912
 40
1.561494075019328
 40
1.561494075019328
 40
1.637053099534583
 40
1.637053099534583
 40
1.712612124049838
 40
1.712612124049838
 40
1.73556128887088
 40
1.73556128887088
 40
1.7470358712814
 40
1.7470358712814
 40
1.758510453691921
 40
1.758510453691921
 40
1.758510453691921
 40
1.758510453691921
 10
215.9737134217495
 20
83.75840620808103
 30
0.0
 10
216.0084351984788
 20
82.9419823180917
 30
0.0
 10
216.0455591933115
 20
82.13237252564113
 30
0.0
 10
216.1214258526537
 20
80.65484658311309
 30
0.0
 10
216.1590816272274
 20
79.98343562620866
 30
0.0
 10
216.2441897832212
 20
78.67074729957121
 30
0.0
 10
216.2908107293299
 20
78.02885852336436
 30
0.0
 10
216.3736715644706
 20
77.17213659164207
 30
0.0
 10
216.4012487787451
 20
76.91207358026722
 30
0.0
 10
216.467131628969
 20
76.41311770232379
 30
0.0
 10
216.5040688320365
 20
76.17227086895323
 30
0.0
 10
216.5699728108726
 20
75.92683881029277
 30
0.0
 10
216.5884892560749
 20
75.86910252315385
 30
0.0
 10
216.6196756451828
 20
75.80564982205443
 30
0.0
 10
216.630653842103
 20
75.78832151504458
 30
0.0
 10
216.6533496540335
 20
75.76469497468382
 30
0.0
 10
216.6650682464791
 20
75.75840620808105
 30
0.0
 10
216.6768485185975
 20
75.75840620808105
 30
0.0
  0
SPLINE
  5
2FC
330
70
100
AcDbEntity
  8
Visible (ISO)
100
AcDbSpline
210
0.0
220
0.0
230
1.0
 70
     8
 71
     3
 72
    10
 73
     6
 74
     0
 42
0.000000001
 43
0.0000000001
 40
1.527849395011702
 40
1.527849395011702
 40
1.527849395011702
 40
1.527849395011702
 40
1.623235420363269
 40
1.623235420363269
 40
1.651542757804969
 40
1.651542757804969
 40
1.651542757804969
 40
1.651542757804969
 10
216.1938741370316
 20
84.75314978607165
 30
0.0
 10
216.1278241703116
 20
84.51394292158182
 30
0.0
 10
216.0691669775434
 20
84.24929301638497
 30
0.0
 10
216.0029924456722
 20
83.91465979346724
 30
0.0
 10
215.9881998039532
 20
83.83701146762602
 30
0.0
 10
215.9737134217495
 20
83.75840620808103
 30
0.0
  0
LINE
  5
2FD
330
70
100
AcDbEntity
  8
Visible (ISO)
100
AcDbLine
 10
213.5171262963812
 20
84.75314978607165
 30
0.0
 11
216.1938741370316
 21
84.75314978607165
 31
0.0
  0
LINE
  5
2FE
330
70
100
AcDbEntity
  8
Visible (ISO)
100
AcDbLine
 10
216.6768485185975
 20
75.75840620808101
 30
0.0
 11
215.4355863722437
 21
75.75840620808101
 31
0.0
  0
LINE
  5
2FF
330
70
100
AcDbEntity
  8
Visible (ISO)
100
AcDbLine
 10
206.5171262963865
 20
86.758406208081
 30
0.0
 11
206.5171262963865
 21
93.75840620808103
 31
0.0
  0
SPLINE
  5
300
330
70
100
AcDbEntity
  8
Visible (ISO)
100
AcDbSpline
210
0.0
220
0.0
230
1.0
 70
     8
 71
     3
 72
    22
 73
    18
 74
     0
 42
0.000000001
 43
0.0000000001
 40
0.080169667649563
 40
0.080169667649563
 40
0.080169667649563
 40
0.080169667649563
 40
0.1449225509834109
 40
0.1449225509834109
 40
0.2230755465214004
 40
0.2230755465214004
 40
0.2985369780978444
 40
0.2985369780978444
 40
0.3739984096742883
 40
0.3739984096742883
 40
0.4494598412507324
 40
0.4494598412507324
 40
0.5249212728271763
 40
0.5249212728271763
 40
0.6030742683651658
 40
0.6030742683651658
 40
0.6678271516990137
 40
0.6678271516990137
 40
0.6678271516990137
 40
0.6678271516990137
 10
207.4190500850232
 20
75.75840620808101
 30
0.0
 10
207.5174282219532
 20
75.95738276268594
 30
0.0
 10
207.6553224791089
 20
76.13449753272186
 30
0.0
 10
207.9888193689273
 20
76.44916434994256
 30
0.0
 10
208.2439193786299
 20
76.61004456134593
 30
0.0
 10
208.6999482978217
 20
76.81321043410915
 30
0.0
 10
208.9584348305371
 20
76.89225205099328
 30
0.0
 10
209.4912855305658
 20
76.99324846965398
 30
0.0
 10
209.7655881911219
 20
77.01562755559596
 30
0.0
 10
210.2686644016316
 20
77.01562755559596
 30
0.0
 10
210.5429670621876
 20
76.99324846965398
 30
0.0
 10
211.0758177622164
 20
76.89225205099328
 30
0.0
 10
211.3343042949317
 20
76.81321043410915
 30
0.0
 10
211.7903332141234
 20
76.61004456134593
 30
0.0
 10
212.045433223826
 20
76.44916434994256
 30
0.0
 10
212.3789301136442
 20
76.13449753272186
 30
0.0
 10
212.5168243708
 20
75.95738276268594
 30
0.0
 10
212.6152025077299
 20
75.75840620808101
 30
0.0
  0
LINE
  5
301
330
70
100
AcDbEntity
  8
Visible (ISO)
100
AcDbLine
 10
207.4190500850232
 20
75.75840620808101
 30
0.0
 11
212.6152025077299
 21
75.75840620808101
 31
0.0
  0
LINE
  5
302
330
70
100
AcDbEntity
  8
Visible (ISO)
100
AcDbLine
 10
203.0171262963746
 20
75.75840620808101
 30
0.0
 11
203.3089223638758
 21
75.75840620808101
 31
0.0
  0
LINE
  5
303
330
70
100
AcDbEntity
  8
Visible (ISO)
100
AcDbLine
 10
216.7253302288746
 20
75.75840620808101
 30
0.0
 11
217.0171262963746
 21
75.75840620808101
 31
0.0
  0
LINE
  5
304
330
70
100
AcDbEntity
  8
Visible (ISO)
100
AcDbLine
 10
202.5671262963746
 20
83.75840620808103
 30
0.0
 11
204.0605391710024
 21
83.75840620808103
 31
0.0
  0
LINE
  5
305
330
70
100
AcDbEntity
  8
Visible (ISO)
100
AcDbLine
 10
215.9737134217495
 20
83.75840620808103
 30
0.0
 11
217.4671262963747
 21
83.75840620808103
 31
0.0
  0
LINE
  5
306
330
70
100
AcDbEntity
  8
Visible (ISO)
100
AcDbLine
 10
215.5171262963746
 20
91.758406208081
 30
0.0
 11
217.4671262963747
 21
83.75840620808103
 31
0.0
  0
LINE
  5
307
330
70
100
AcDbEntity
  8
Visible (ISO)
100
AcDbLine
 10
204.5171262963746
 20
91.758406208081
 30
0.0
 11
202.5671262963746
 21
83.75840620808103
 31
0.0
  0
LINE
  5
308
330
70
100
AcDbEntity
  8
Visible (ISO)
100
AcDbLine
 10
203.0171262963746
 20
75.75840620808101
 30
0.0
 11
202.5671262963746
 21
83.75840620808103
 31
0.0
  0
LINE
  5
309
330
70
100
AcDbEntity
  8
Visible (ISO)
100
AcDbLine
 10
217.0171262963746
 20
75.75840620808101
 30
0.0
 11
217.4671262963747
 21
83.75840620808103
 31
0.0
  0
LINE
  5
30A
330
70
100
AcDbEntity
  8
Visible (ISO)
100
AcDbLine
 10
215.5921262963746
 20
91.758406208081
 30
0.0
 11
213.5171262963759
 21
91.758406208081
 31
0.0
  0
LINE
  5
30B
330
70
100
AcDbEntity
  8
Visible (ISO)
100
AcDbLine
 10
206.5171262963759
 20
91.758406208081
 30
0.0
 11
204.4421262963746
 21
91.758406208081
 31
0.0
  0
LINE
  5
30C
330
70
100
AcDbEntity
  8
Visible (ISO)
100
AcDbLine
 10
204.4421262963746
 20
92.16364269392867
 30
0.0
 11
204.4421262963746
 21
91.75840620808102
 31
0.0
  0
LINE
  5
30D
330
70
100
AcDbEntity
  8
Visible (ISO)
100
AcDbLine
 10
215.5921262963746
 20
92.16364269392867
 30
0.0
 11
215.5921262963746
 21
91.75840620808102
 31
0.0
  0
LINE
  5
30E
330
70
100
AcDbEntity
  8
Visible (ISO)
100
AcDbLine
 10
213.5171262963746
 20
92.37006540090613
 30
0.0
 11
215.497499688067
 21
92.26349822287785
 31
0.0
  0
LINE
  5
30F
330
70
100
AcDbEntity
  8
Visible (ISO)
100
AcDbLine
 10
206.5171262963746
 20
92.37006540090613
 30
0.0
 11
204.5367529046823
 21
92.26349822287785
 31
0.0
  0
ARC
  5
310
330
70
100
AcDbEntity
  8
Visible (ISO)
100
AcDbCircle
 10
204.5421262963746
 20
92.16364269392867
 30
0.0
 40
0.1
100
AcDbArc
 50
93.08021013665292
 51
180.0
  0
ARC
  5
311
330
70
100
AcDbEntity
  8
Visible (ISO)
100
AcDbCircle
 10
215.4921262963746
 20
92.16364269392867
 30
0.0
 40
0.1
100
AcDbArc
 50
0.0
 51
86.91978986334708
  0
LINE
  5
312
330
70
100
AcDbEntity
  8
Sketch Geometry (ISO)
  6
CHAIN
 48
26.03020668029785
100
AcDbLine
 10
51.04676978845879
 20
65.25840620808101
 30
0.0
 11
115.6042847909623
 21
65.25840620808101
 31
0.0
  0
LINE
  5
313
330
70
100
AcDbEntity
  8
Sketch Geometry (ISO)
  6
CHAIN
 48
27.77511596679687
100
AcDbLine
 10
90.7868214834327
 20
94.12104438315614
 30
0.0
 11
90.7868214834327
 21
54.75815096971782
 31
0.0
  0
LINE
  5
314
330
70
100
AcDbEntity
  8
Sketch Geometry (ISO)
  6
CHAIN
 48
28.39308738708496
100
AcDbLine
 10
210.0171262963865
 20
94.7655638202649
 30
0.0
 11
210.0171262963865
 21
54.52688124565732
 31
0.0
  0
LINE
  5
315
330
70
100
AcDbEntity
  8
Sketch Geometry (ISO)
  6
CHAIN
 48
30.54194450378418
100
AcDbLine
 10
199.2162975752148
 20
65.258406208081
 30
0.0
 11
220.8583188052093
 21
65.25840620808101
 31
0.0
  0
LINE
  5
316
330
70
100
AcDbEntity
  8
Sketch Geometry (ISO)
  6
CHAIN
 48
25.17041778564453
100
AcDbLine
 10
51.58815091996311
 20
136.3590548290449
 30
0.0
 11
131.849061130085
 21
136.3590548290449
 31
0.0
  0
LINE
  5
317
330
70
100
AcDbEntity
  8
Sketch Geometry (ISO)
  6
CHAIN
 48
26.5509147644043
100
AcDbLine
 10
90.78682148345155
 20
145.7356843609461
 30
0.0
 11
90.78682148345155
 21
126.9217055723853
 31
0.0
  0
ENDSEC
  0
SECTION
  2
OBJECTS
  0
DICTIONARY
  5
C
330
0
100
AcDbDictionary
281
     1
  3
ACAD_CIP_PREVIOUS_PRODUCT_INFO
350
318
  3
ACAD_COLOR
350
63
  3
ACAD_DETAILVIEWSTYLE
350
6A
  3
ACAD_GROUP
350
D
  3
ACAD_LAYOUT
350
62
  3
ACAD_MATERIAL
350
10
  3
ACAD_MLEADERSTYLE
350
66
  3
ACAD_MLINESTYLE
350
5F
  3
ACAD_PLOTSETTINGS
350
61
  3
ACAD_PLOTSTYLENAME
350
E
  3
ACAD_SCALELIST
350
42
  3
ACAD_SECTIONVIEWSTYLE
350
68
  3
ACAD_TABLESTYLE
350
64
  3
ACAD_VISUALSTYLE
350
29
  3
ACDB_RECOMPOSE_DATA
350
327
  3
AcDbVariableDictionary
350
319
  0
XRECORD
  5
318
102
{ACAD_REACTORS
330
C
102
}
330
C
100
AcDbXrecord
280
     1
300
INVNTOR
300
2015
300
PDSP_F_S
  0
DICTIONARY
  5
63
102
{ACAD_REACTORS
330
C
102
}
330
C
100
AcDbDictionary
281
     1
  0
DICTIONARY
  5
6A
102
{ACAD_REACTORS
330
C
102
}
330
C
100
AcDbDictionary
281
     1
  3
Imperial24
350
6B
  0
DICTIONARY
  5
D
102
{ACAD_REACTORS
330
C
102
}
330
C
100
AcDbDictionary
281
     1
  0
DICTIONARY
  5
62
102
{ACAD_REACTORS
330
C
102
}
330
C
100
AcDbDictionary
281
     1
  3
Model
350
73
  3
レイアウト1
350
6F
  3
レイアウト2
350
77
  0
DICTIONARY
  5
10
102
{ACAD_REACTORS
330
C
102
}
330
C
100
AcDbDictionary
281
     1
  3
ByBlock
350
19
  3
ByLayer
350
11
  3
Global
350
21
  0
DICTIONARY
  5
66
102
{ACAD_REACTORS
330
C
102
}
330
C
100
AcDbDictionary
281
     1
  3
Standard
350
67
  0
DICTIONARY
  5
5F
102
{ACAD_REACTORS
330
C
102
}
330
C
100
AcDbDictionary
281
     1
  3
Standard
350
60
  0
DICTIONARY
  5
61
102
{ACAD_REACTORS
330
C
102
}
330
C
100
AcDbDictionary
281
     1
  0
ACDBDICTIONARYWDFLT
  5
E
102
{ACAD_REACTORS
330
C
102
}
330
C
100
AcDbDictionary
281
     1
  3
Normal
350
F
100
AcDbDictionaryWithDefault
340
F
  0
DICTIONARY
  5
42
102
{ACAD_REACTORS
330
C
102
}
330
C
100
AcDbDictionary
281
     1
  3
A0
350
43
  3
A1
350
44
  3
A2
350
45
  3
A3
350
46
  3
A4
350
47
  3
A5
350
48
  3
A6
350
49
  3
A7
350
4A
  3
A8
350
4B
  3
A9
350
4C
  3
B0
350
4D
  3
B1
350
4E
  3
B2
350
4F
  3
B3
350
50
  3
B4
350
51
  3
B5
350
52
  3
B6
350
53
  0
DICTIONARY
  5
68
102
{ACAD_REACTORS
330
C
102
}
330
C
100
AcDbDictionary
281
     1
  3
Imperial24
350
69
  0
DICTIONARY
  5
64
102
{ACAD_REACTORS
330
C
102
}
330
C
100
AcDbDictionary
281
     1
  3
Standard
350
65
  0
DICTIONARY
  5
29
102
{ACAD_REACTORS
330
C
102
}
330
C
100
AcDbDictionary
281
     1
  3
2dWireframe
350
2F
  3
Basic
350
2E
  3
Brighten
350
35
  3
ColorChange
350
39
  3
Conceptual
350
32
  3
Dim
350
34
  3
EdgeColorOff
350
41
  3
Facepattern
350
38
  3
Flat
350
2A
  3
FlatWithEdges
350
2B
  3
Gouraud
350
2C
  3
GouraudWithEdges
350
2D
  3
Hidden
350
31
  3
JitterOff
350
3F
  3
Linepattern
350
37
  3
OverhangOff
350
40
  3
Realistic
350
33
  3
Shaded
350
3E
  3
Shaded with edges
350
3D
  3
Shades of Gray
350
3A
  3
Sketchy
350
3B
  3
Thicken
350
36
  3
Wireframe
350
30
  3
X-Ray
350
3C
  0
XRECORD
  5
327
102
{ACAD_REACTORS
330
C
102
}
330
C
100
AcDbXrecord
280
     1
 90
        1
330
65
330
69
330
6B
  0
DICTIONARY
  5
319
102
{ACAD_REACTORS
330
C
102
}
330
C
100
AcDbDictionary
281
     1
  3
CANNOSCALE
350
31E
  3
CMLEADERSTYLE
350
31B
  3
CTABLESTYLE
350
31A
  3
CVIEWDETAILSTYLE
350
31C
  3
CVIEWSECTIONSTYLE
350
31D
  0
ACDBDETAILVIEWSTYLE
  5
6B
102
{ACAD_XDICTIONARY
360
323
102
}
102
{ACAD_REACTORS
330
6A
102
}
330
6A
100
AcDbModelDocViewStyle
 70
     0
  3
Imperial24
290
     0
100
AcDbDetailViewStyle
 70
     0
 71
     0
 90
        3
 71
     1
340
55
 62
   256
 40
0.24
340
0
 62
   256
 40
0.24
300

 40
0.36
280
     3
 71
     2
340
5D
 90
       25
 62
   256
 71
     3
340
55
 62
   256
 40
0.24
 90
        1
 40
0.75
 90
        1
300
%<\AcVar ViewType \f "%tc1">% %<\AcVar ViewDetailId>%\PSCALE %<\AcVar ViewScale \f "%sn">%
 71
     4
340
5D
 90
       25
 62
   256
340
5D
 90
       25
 62
   256
280
     0
  0
LAYOUT
  5
73
102
{ACAD_REACTORS
330
62
102
}
330
62
100
AcDbPlotSettings
  1

  2

  4

  6

 40
0.0
 41
0.0
 42
0.0
 43
0.0
 44
0.0
 45
0.0
 46
0.0
 47
0.0
 48
0.0
 49
0.0
140
0.0
141
0.0
142
1.0
143
1.0
 70
  1712
 72
     0
 73
     0
 74
     0
  7

 75
     0
147
1.0
 76
     0
 77
     2
 78
   300
148
0.0
149
0.0
100
AcDbLayout
  1
Model
 70
     1
 71
     0
 10
0.0
 20
0.0
 11
12.0
 21
9.0
 12
0.0
 22
0.0
 32
0.0
 14
0.0
 24
0.0
 34
0.0
 15
0.0
 25
0.0
 35
0.0
146
0.0
 13
0.0
 23
0.0
 33
0.0
 16
1.0
 26
0.0
 36
0.0
 17
0.0
 27
1.0
 37
0.0
 76
     0
330
70
  0
LAYOUT
  5
6F
102
{ACAD_REACTORS
330
62
102
}
330
62
100
AcDbPlotSettings
  1

  2

  4

  6

 40
0.0
 41
0.0
 42
0.0
 43
0.0
 44
0.0
 45
0.0
 46
0.0
 47
0.0
 48
0.0
 49
0.0
140
0.0
141
0.0
142
1.0
143
1.0
 70
   688
 72
     0
 73
     0
 74
     5
  7

 75
    16
147
1.0
 76
     0
 77
     2
 78
   300
148
0.0
149
0.0
100
AcDbLayout
  1
レイアウト1
 70
     1
 71
     1
 10
0.0
 20
0.0
 11
12.0
 21
9.0
 12
0.0
 22
0.0
 32
0.0
 14
0.0
 24
0.0
 34
0.0
 15
0.0
 25
0.0
 35
0.0
146
0.0
 13
0.0
 23
0.0
 33
0.0
 16
1.0
 26
0.0
 36
0.0
 17
0.0
 27
1.0
 37
0.0
 76
     0
330
6C
  0
LAYOUT
  5
77
102
{ACAD_REACTORS
330
62
102
}
330
62
100
AcDbPlotSettings
  1

  2

  4

  6

 40
0.0
 41
0.0
 42
0.0
 43
0.0
 44
0.0
 45
0.0
 46
0.0
 47
0.0
 48
0.0
 49
0.0
140
0.0
141
0.0
142
1.0
143
1.0
 70
   688
 72
     0
 73
     0
 74
     5
  7

 75
    16
147
1.0
 76
     0
 77
     2
 78
   300
148
0.0
149
0.0
100
AcDbLayout
  1
レイアウト2
 70
     1
 71
     2
 10
0.0
 20
0.0
 11
12.0
 21
9.0
 12
0.0
 22
0.0
 32
0.0
 14
0.0
 24
0.0
 34
0.0
 15
0.0
 25
0.0
 35
0.0
146
0.0
 13
0.0
 23
0.0
 33
0.0
 16
1.0
 26
0.0
 36
0.0
 17
0.0
 27
1.0
 37
0.0
 76
     0
330
74
  0
MATERIAL
  5
19
102
{ACAD_XDICTIONARY
360
1A
102
}
102
{ACAD_REACTORS
330
10
102
}
330
10
100
AcDbMaterial
  1
ByBlock
 72
     0
 43
0.0208333333333333
 43
0.0
 43
0.0
 43
0.0
 43
0.0
 43
0.0208333333333333
 43
0.0
 43
0.0
 43
0.0
 43
0.0
 43
1.0
 43
0.0
 43
0.0
 43
0.0
 43
0.0
 43
1.0
 77
     0
 47
0.0208333333333333
 47
0.0
 47
0.0
 47
0.0
 47
0.0
 47
0.0208333333333333
 47
0.0
 47
0.0
 47
0.0
 47
0.0
 47
1.0
 47
0.0
 47
0.0
 47
0.0
 47
0.0
 47
1.0
171
     0
 49
0.0208333333333333
 49
0.0
 49
0.0
 49
0.0
 49
0.0
 49
0.0208333333333333
 49
0.0
 49
0.0
 49
0.0
 49
0.0
 49
1.0
 49
0.0
 49
0.0
 49
0.0
 49
0.0
 49
1.0
175
     0
142
0.0208333333333333
142
0.0
142
0.0
142
0.0
142
0.0
142
0.0208333333333333
142
0.0
142
0.0
142
0.0
142
0.0
142
1.0
142
0.0
142
0.0
142
0.0
142
0.0
142
1.0
179
     0
144
0.0208333333333333
144
0.0
144
0.0
144
0.0
144
0.0
144
0.0208333333333333
144
0.0
144
0.0
144
0.0
144
0.0
144
1.0
144
0.0
144
0.0
144
0.0
144
0.0
144
1.0
147
0.0208333333333333
147
0.0
147
0.0
147
0.0
147
0.0
147
0.0208333333333333
147
0.0
147
0.0
147
0.0
147
0.0
147
1.0
147
0.0
147
0.0
147
0.0
147
0.0
147
1.0
  0
MATERIAL
  5
11
102
{ACAD_XDICTIONARY
360
12
102
}
102
{ACAD_REACTORS
330
10
102
}
330
10
100
AcDbMaterial
  1
ByLayer
 72
     0
 43
0.0208333333333333
 43
0.0
 43
0.0
 43
0.0
 43
0.0
 43
0.0208333333333333
 43
0.0
 43
0.0
 43
0.0
 43
0.0
 43
1.0
 43
0.0
 43
0.0
 43
0.0
 43
0.0
 43
1.0
 77
     0
 47
0.0208333333333333
 47
0.0
 47
0.0
 47
0.0
 47
0.0
 47
0.0208333333333333
 47
0.0
 47
0.0
 47
0.0
 47
0.0
 47
1.0
 47
0.0
 47
0.0
 47
0.0
 47
0.0
 47
1.0
171
     0
 49
0.0208333333333333
 49
0.0
 49
0.0
 49
0.0
 49
0.0
 49
0.0208333333333333
 49
0.0
 49
0.0
 49
0.0
 49
0.0
 49
1.0
 49
0.0
 49
0.0
 49
0.0
 49
0.0
 49
1.0
175
     0
142
0.0208333333333333
142
0.0
142
0.0
142
0.0
142
0.0
142
0.0208333333333333
142
0.0
142
0.0
142
0.0
142
0.0
142
1.0
142
0.0
142
0.0
142
0.0
142
0.0
142
1.0
179
     0
144
0.0208333333333333
144
0.0
144
0.0
144
0.0
144
0.0
144
0.0208333333333333
144
0.0
144
0.0
144
0.0
144
0.0
144
1.0
144
0.0
144
0.0
144
0.0
144
0.0
144
1.0
147
0.0208333333333333
147
0.0
147
0.0
147
0.0
147
0.0
147
0.0208333333333333
147
0.0
147
0.0
147
0.0
147
0.0
147
1.0
147
0.0
147
0.0
147
0.0
147
0.0
147
1.0
  0
MATERIAL
  5
21
102
{ACAD_XDICTIONARY
360
22
102
}
102
{ACAD_REACTORS
330
10
102
}
330
10
100
AcDbMaterial
  1
Global
 72
     0
 43
0.0208333333333333
 43
0.0
 43
0.0
 43
0.0
 43
0.0
 43
0.0208333333333333
 43
0.0
 43
0.0
 43
0.0
 43
0.0
 43
1.0
 43
0.0
 43
0.0
 43
0.0
 43
0.0
 43
1.0
 77
     0
 47
0.0208333333333333
 47
0.0
 47
0.0
 47
0.0
 47
0.0
 47
0.0208333333333333
 47
0.0
 47
0.0
 47
0.0
 47
0.0
 47
1.0
 47
0.0
 47
0.0
 47
0.0
 47
0.0
 47
1.0
171
     0
 49
0.0208333333333333
 49
0.0
 49
0.0
 49
0.0
 49
0.0
 49
0.0208333333333333
 49
0.0
 49
0.0
 49
0.0
 49
0.0
 49
1.0
 49
0.0
 49
0.0
 49
0.0
 49
0.0
 49
1.0
175
     0
142
0.0208333333333333
142
0.0
142
0.0
142
0.0
142
0.0
142
0.0208333333333333
142
0.0
142
0.0
142
0.0
142
0.0
142
1.0
142
0.0
142
0.0
142
0.0
142
0.0
142
1.0
179
     0
144
0.0208333333333333
144
0.0
144
0.0
144
0.0
144
0.0
144
0.0208333333333333
144
0.0
144
0.0
144
0.0
144
0.0
144
1.0
144
0.0
144
0.0
144
0.0
144
0.0
144
1.0
147
0.0208333333333333
147
0.0
147
0.0
147
0.0
147
0.0
147
0.0208333333333333
147
0.0
147
0.0
147
0.0
147
0.0
147
1.0
147
0.0
147
0.0
147
0.0
147
0.0
147
1.0
  0
MLEADERSTYLE
  5
67
102
{ACAD_REACTORS
330
66
102
}
330
66
100
AcDbMLeaderStyle
179
     2
170
     2
171
     1
172
     0
 90
        2
 40
0.0
 41
0.0
173
     1
 91
-1056964608
340
5B
 92
       -2
290
     1
 42
0.09
291
     1
 43
0.36
  3
Standard
 44
0.18
300

342
55
174
     1
178
     6
175
     1
176
     0
 93
-1056964608
 45
0.18
292
     0
297
     0
 46
0.18
 94
-1056964608
 47
1.0
 49
1.0
140
1.0
293
     1
141
0.0
294
     1
177
     0
142
1.0
295
     1
296
     0
143
0.125
271
     0
272
     9
273
     9
298
     1
  0
MLINESTYLE
  5
60
102
{ACAD_REACTORS
330
5F
102
}
330
5F
100
AcDbMlineStyle
  2
STANDARD
 70
     0
  3

 62
   256
 51
90.0
 52
90.0
 71
     2
 49
0.5
 62
   256
  6
BYLAYER
 49
-0.5
 62
   256
  6
BYLAYER
  0
ACDBPLACEHOLDER
  5
F
102
{ACAD_REACTORS
330
E
102
}
330
E
  0
SCALE
  5
43
102
{ACAD_REACTORS
330
42
102
}
330
42
100
AcDbScale
 70
     0
300
1:1
140
1.0
141
1.0
290
     1
  0
SCALE
  5
44
102
{ACAD_REACTORS
330
42
102
}
330
42
100
AcDbScale
 70
     0
300
1/128" = 1'-0"
140
0.0078125
141
12.0
290
     0
  0
SCALE
  5
45
102
{ACAD_REACTORS
330
42
102
}
330
42
100
AcDbScale
 70
     0
300
1/64" = 1'-0"
140
0.015625
141
12.0
290
     0
  0
SCALE
  5
46
102
{ACAD_REACTORS
330
42
102
}
330
42
100
AcDbScale
 70
     0
300
1/32" = 1'-0"
140
0.03125
141
12.0
290
     0
  0
SCALE
  5
47
102
{ACAD_REACTORS
330
42
102
}
330
42
100
AcDbScale
 70
     0
300
1/16" = 1'-0"
140
0.0625
141
12.0
290
     0
  0
SCALE
  5
48
102
{ACAD_REACTORS
330
42
102
}
330
42
100
AcDbScale
 70
     0
300
3/32" = 1'-0"
140
0.09375
141
12.0
290
     0
  0
SCALE
  5
49
102
{ACAD_REACTORS
330
42
102
}
330
42
100
AcDbScale
 70
     0
300
1/8" = 1'-0"
140
0.125
141
12.0
290
     0
  0
SCALE
  5
4A
102
{ACAD_REACTORS
330
42
102
}
330
42
100
AcDbScale
 70
     0
300
3/16" = 1'-0"
140
0.1875
141
12.0
290
     0
  0
SCALE
  5
4B
102
{ACAD_REACTORS
330
42
102
}
330
42
100
AcDbScale
 70
     0
300
1/4" = 1'-0"
140
0.25
141
12.0
290
     0
  0
SCALE
  5
4C
102
{ACAD_REACTORS
330
42
102
}
330
42
100
AcDbScale
 70
     0
300
3/8" = 1'-0"
140
0.375
141
12.0
290
     0
  0
SCALE
  5
4D
102
{ACAD_REACTORS
330
42
102
}
330
42
100
AcDbScale
 70
     0
300
1/2" = 1'-0"
140
0.5
141
12.0
290
     0
  0
SCALE
  5
4E
102
{ACAD_REACTORS
330
42
102
}
330
42
100
AcDbScale
 70
     0
300
3/4" = 1'-0"
140
0.75
141
12.0
290
     0
  0
SCALE
  5
4F
102
{ACAD_REACTORS
330
42
102
}
330
42
100
AcDbScale
 70
     0
300
1" = 1'-0"
140
1.0
141
12.0
290
     0
  0
SCALE
  5
50
102
{ACAD_REACTORS
330
42
102
}
330
42
100
AcDbScale
 70
     0
300
1-1/2" = 1'-0"
140
1.5
141
12.0
290
     0
  0
SCALE
  5
51
102
{ACAD_REACTORS
330
42
102
}
330
42
100
AcDbScale
 70
     0
300
3" = 1'-0"
140
3.0
141
12.0
290
     0
  0
SCALE
  5
52
102
{ACAD_REACTORS
330
42
102
}
330
42
100
AcDbScale
 70
     0
300
6" = 1'-0"
140
6.0
141
12.0
290
     0
  0
SCALE
  5
53
102
{ACAD_REACTORS
330
42
102
}
330
42
100
AcDbScale
 70
     0
300
1'-0" = 1'-0"
140
12.0
141
12.0
290
     0
  0
ACDBSECTIONVIEWSTYLE
  5
69
102
{ACAD_XDICTIONARY
360
321
102
}
102
{ACAD_REACTORS
330
68
102
}
330
68
100
AcDbModelDocViewStyle
 70
     0
  3
Imperial24
290
     0
100
AcDbSectionViewStyle
 70
     0
 71
     0
 90
       78
 71
     1
340
55
 62
   256
 40
0.24
340
0
340
0
 62
   256
 40
0.24
300
I, O, Q, S, X, Z
 40
0.48
 90
        3
 40
0.18
 90
        1
 71
     2
340
5D
 90
       25
 62
   256
340
5D
 90
       50
 62
   256
 40
0.24
 40
0.0
 40
0.24
 71
     3
340
55
 62
   256
 40
0.24
 90
        1
 40
0.75
 90
        1
300
%<\AcVar ViewType \f "%tc1">% %<\AcVar ViewSectionStartId>%-%<\AcVar ViewSectionEndId>%\PSCALE %<\AcVar ViewScale \f "%sn">%
 71
     4
 62
   256
 62
   257
300
ANSI31
 40
1.0
 90
        0
290
     0
290
     0
 90
        6
 40
0.0
 40
1.570796326794896
 40
0.2617993877991494
 40
1.308996938995747
 40
-0.2617993877991494
 40
1.832595714594046
  0
TABLESTYLE
  5
65
102
{ACAD_XDICTIONARY
360
31F
102
}
102
{ACAD_REACTORS
330
64
102
}
330
64
100
AcDbTableStyle
280
     0
  3
Standard
 70
     0
 71
     0
 40
0.06
 41
0.06
280
     0
281
     0
  7
Standard
140
0.18
170
     2
 62
     0
 63
     7
283
     0
 90
      512
 91
        0
  1

274
    -2
284
     1
 64
     0
275
    -2
285
     1
 65
     0
276
    -2
286
     1
 66
     0
277
    -2
287
     1
 67
     0
278
    -2
288
     1
 68
     0
279
    -2
289
     1
 69
     0
  7
Standard
140
0.25
170
     5
 62
     0
 63
     7
283
     0
 90
      512
 91
        0
  1

274
    -2
284
     1
 64
     0
275
    -2
285
     1
 65
     0
276
    -2
286
     1
 66
     0
277
    -2
287
     1
 67
     0
278
    -2
288
     1
 68
     0
279
    -2
289
     1
 69
     0
  7
Standard
140
0.18
170
     5
 62
     0
 63
     7
283
     0
 90
      512
 91
        0
  1

274
    -2
284
     1
 64
     0
275
    -2
285
     1
 65
     0
276
    -2
286
     1
 66
     0
277
    -2
287
     1
 67
     0
278
    -2
288
     1
 68
     0
279
    -2
289
     1
 69
     0
  0
VISUALSTYLE
  5
2F
102
{ACAD_REACTORS
330
29
102
}
330
29
100
AcDbVisualStyle
  2
2dWireframe
 70
     4
177
     3
291
     0
 70
    58
 90
        0
176
     1
 90
        2
176
     1
 90
        0
176
     1
 90
        0
176
     1
 40
0.6
176
     1
 40
30.0
176
     1
 62
     7
420
 16777215
176
     1
 90
        1
176
     1
 90
        4
176
     1
 62
     7
176
     1
 62
   257
176
     1
 90
        1
176
     1
 90
        1
176
     1
 40
1.0
176
     1
 90
        0
176
     1
 62
   257
176
     1
 40
1.0
176
     1
 90
        1
176
     1
 90
        6
176
     1
 90
        2
176
     1
 62
     7
176
     1
 90
        5
176
     1
 90
        0
176
     1
 90
        0
176
     1
290
     0
176
     1
 90
        1
176
     1
 40
0.0
176
     1
 90
        0
176
     1
290
     1
176
     1
290
     1
176
     1
290
     0
176
     1
290
     0
176
     1
290
     0
176
     1
290
     0
176
     1
290
     0
176
     1
290
     0
176
     1
290
     0
176
     1
 90
       50
176
     1
 40
0.0
176
     1
 40
1.0
176
     1
 90
        0
176
     1
 62
    18
420
        0
176
     1
 90
       50
176
     1
 90
        3
176
     1
 62
     5
420
      255
176
     1
290
     0
176
     1
 90
       50
176
     1
 90
       50
176
     1
 90
       50
176
     1
290
     0
176
     1
 90
       50
176
     1
 62
   256
176
     0
 40
1.0
176
     0
 90
        2
176
     1
  1
strokes_ogs.tif
176
     1
290
     0
176
     1
 40
1.0
176
     1
 40
1.0
176
     1
  0
VISUALSTYLE
  5
2E
102
{ACAD_REACTORS
330
29
102
}
330
29
100
AcDbVisualStyle
  2
Basic
 70
     7
177
     3
291
     1
 70
    58
 90
        1
176
     1
 90
        0
176
     1
 90
        1
176
     1
 90
        0
176
     1
 40
0.6
176
     1
 40
30.0
176
     1
 62
     7
420
 16777215
176
     1
 90
        0
176
     1
 90
        4
176
     1
 62
     7
176
     1
 62
   257
176
     1
 90
        1
176
     1
 90
        1
176
     1
 40
1.0
176
     1
 90
        8
176
     1
 62
     7
176
     1
 40
1.0
176
     1
 90
        1
176
     1
 90
        6
176
     1
 90
        2
176
     1
 62
     7
176
     1
 90
        5
176
     1
 90
        0
176
     1
 90
        0
176
     1
290
     0
176
     1
 90
        1
176
     1
 40
0.0
176
     1
 90
        0
176
     1
290
     0
176
     1
290
     1
176
     1
290
     1
176
     1
290
     0
176
     1
290
     0
176
     1
290
     0
176
     1
290
     0
176
     1
290
     0
176
     1
290
     0
176
     1
 90
       50
176
     1
 40
0.0
176
     1
 40
1.0
176
     1
 90
        0
176
     1
 62
    18
420
        0
176
     1
 90
       50
176
     1
 90
        3
176
     1
 62
     5
420
      255
176
     1
290
     0
176
     1
 90
       50
176
     1
 90
       50
176
     1
 90
       50
176
     1
290
     0
176
     1
 90
       50
176
     1
 62
   256
176
     0
 40
1.0
176
     0
 90
        2
176
     1
  1
strokes_ogs.tif
176
     1
290
     0
176
     1
 40
1.0
176
     1
 40
1.0
176
     1
  0
VISUALSTYLE
  5
35
102
{ACAD_REACTORS
330
29
102
}
330
29
100
AcDbVisualStyle
  2
Brighten
 70
    12
177
     3
291
     1
 70
    58
 90
        2
176
     1
 90
        2
176
     1
 90
        0
176
     1
 90
        0
176
     1
 40
0.6
176
     1
 40
30.0
176
     1
 62
     7
420
 16777215
176
     1
 90
        1
176
     1
 90
        4
176
     1
 62
     7
176
     1
 62
   257
176
     1
 90
        1
176
     1
 90
        1
176
     1
 40
1.0
176
     1
 90
        8
176
     1
 62
     7
176
     1
 40
1.0
176
     1
 90
        1
176
     1
 90
        6
176
     1
 90
        2
176
     1
 62
     7
176
     1
 90
        5
176
     1
 90
        0
176
     1
 90
        0
176
     1
290
     0
176
     1
 90
        1
176
     1
 40
50.0
176
     1
 90
        0
176
     1
290
     0
176
     1
290
     1
176
     1
290
     1
176
     1
290
     0
176
     1
290
     0
176
     1
290
     0
176
     1
290
     0
176
     1
290
     0
176
     1
290
     0
176
     1
 90
       50
176
     1
 40
0.0
176
     1
 40
1.0
176
     1
 90
        0
176
     1
 62
    18
420
        0
176
     1
 90
       50
176
     1
 90
        3
176
     1
 62
     5
420
      255
176
     1
290
     0
176
     1
 90
       50
176
     1
 90
       50
176
     1
 90
       50
176
     1
290
     0
176
     1
 90
       50
176
     1
 62
   256
176
     0
 40
1.0
176
     0
 90
        2
176
     1
  1
strokes_ogs.tif
176
     1
290
     0
176
     1
 40
1.0
176
     1
 40
1.0
176
     1
  0
VISUALSTYLE
  5
39
102
{ACAD_REACTORS
330
29
102
}
330
29
100
AcDbVisualStyle
  2
ColorChange
 70
    16
177
     3
291
     1
 70
    58
 90
        2
176
     1
 90
        2
176
     1
 90
        3
176
     1
 90
        0
176
     1
 40
0.6
176
     1
 40
30.0
176
     1
 62
     8
420
  8421504
176
     1
 90
        1
176
     1
 90
        4
176
     1
 62
     7
176
     1
 62
   257
176
     1
 90
        1
176
     1
 90
        1
176
     1
 40
1.0
176
     1
 90
        8
176
     1
 62
     8
420
  8421504
176
     1
 40
1.0
176
     1
 90
        1
176
     1
 90
        6
176
     1
 90
        2
176
     1
 62
     7
176
     1
 90
        5
176
     1
 90
        0
176
     1
 90
        0
176
     1
290
     0
176
     1
 90
        1
176
     1
 40
0.0
176
     1
 90
        0
176
     1
290
     0
176
     1
290
     1
176
     1
290
     1
176
     1
290
     0
176
     1
290
     0
176
     1
290
     0
176
     1
290
     0
176
     1
290
     0
176
     1
290
     0
176
     1
 90
       50
176
     1
 40
0.0
176
     1
 40
1.0
176
     1
 90
        0
176
     1
 62
    18
420
        0
176
     1
 90
       50
176
     1
 90
        3
176
     1
 62
     5
420
      255
176
     1
290
     0
176
     1
 90
       50
176
     1
 90
       50
176
     1
 90
       50
176
     1
290
     0
176
     1
 90
       50
176
     1
 62
   256
176
     0
 40
1.0
176
     0
 90
        2
176
     1
  1
strokes_ogs.tif
176
     1
290
     0
176
     1
 40
1.0
176
     1
 40
1.0
176
     1
  0
VISUALSTYLE
  5
32
102
{ACAD_REACTORS
330
29
102
}
330
29
100
AcDbVisualStyle
  2
Conceptual
 70
     9
177
     3
291
     0
 70
    58
 90
        3
176
     1
 90
        2
176
     1
 90
        0
176
     1
 90
        0
176
     1
 40
0.6
176
     1
 40
30.0
176
     1
 62
     7
420
 16777215
176
     1
 90
        2
176
     1
 90
        2
176
     1
 62
     7
176
     1
 62
   257
176
     1
 90
        1
176
     1
 90
        1
176
     1
 40
179.0
176
     1
 90
        8
176
     1
 62
     7
176
     1
 40
1.0
176
     1
 90
        1
176
     1
 90
        6
176
     1
 90
        2
176
     1
 62
     7
176
     1
 90
        3
176
     1
 90
        0
176
     1
 90
        0
176
     1
290
     0
176
     1
 90
        1
176
     1
 40
0.0
176
     1
 90
        0
176
     1
290
     0
176
     1
290
     1
176
     1
290
     1
176
     1
290
     0
176
     1
290
     0
176
     1
290
     0
176
     1
290
     0
176
     1
290
     0
176
     1
290
     0
176
     1
 90
       50
176
     1
 40
0.0
176
     1
 40
1.0
176
     1
 90
        0
176
     1
 62
    18
420
        0
176
     1
 90
       50
176
     1
 90
        3
176
     1
 62
     5
420
      255
176
     1
290
     0
176
     1
 90
       50
176
     1
 90
       50
176
     1
 90
       50
176
     1
290
     0
176
     1
 90
       50
176
     1
 62
   256
176
     0
 40
1.0
176
     0
 90
        2
176
     1
  1
strokes_ogs.tif
176
     1
290
     0
176
     1
 40
1.0
176
     1
 40
1.0
176
     1
  0
VISUALSTYLE
  5
34
102
{ACAD_REACTORS
330
29
102
}
330
29
100
AcDbVisualStyle
  2
Dim
 70
    11
177
     3
291
     1
 70
    58
 90
        2
176
     1
 90
        2
176
     1
 90
        0
176
     1
 90
        0
176
     1
 40
0.6
176
     1
 40
30.0
176
     1
 62
     7
420
 16777215
176
     1
 90
        1
176
     1
 90
        4
176
     1
 62
     7
176
     1
 62
   257
176
     1
 90
        1
176
     1
 90
        1
176
     1
 40
1.0
176
     1
 90
        8
176
     1
 62
     7
176
     1
 40
1.0
176
     1
 90
        1
176
     1
 90
        6
176
     1
 90
        2
176
     1
 62
     7
176
     1
 90
        5
176
     1
 90
        0
176
     1
 90
        0
176
     1
290
     0
176
     1
 90
        1
176
     1
 40
-50.0
176
     1
 90
        0
176
     1
290
     0
176
     1
290
     1
176
     1
290
     1
176
     1
290
     0
176
     1
290
     0
176
     1
290
     0
176
     1
290
     0
176
     1
290
     0
176
     1
290
     0
176
     1
 90
       50
176
     1
 40
0.0
176
     1
 40
1.0
176
     1
 90
        0
176
     1
 62
    18
420
        0
176
     1
 90
       50
176
     1
 90
        3
176
     1
 62
     5
420
      255
176
     1
290
     0
176
     1
 90
       50
176
     1
 90
       50
176
     1
 90
       50
176
     1
290
     0
176
     1
 90
       50
176
     1
 62
   256
176
     0
 40
1.0
176
     0
 90
        2
176
     1
  1
strokes_ogs.tif
176
     1
290
     0
176
     1
 40
1.0
176
     1
 40
1.0
176
     1
  0
VISUALSTYLE
  5
41
102
{ACAD_REACTORS
330
29
102
}
330
29
100
AcDbVisualStyle
  2
EdgeColorOff
 70
    22
177
     3
291
     1
 70
    58
 90
        2
176
     0
 90
        2
176
     0
 90
        0
176
     0
 90
        0
176
     0
 40
0.6
176
     0
 40
30.0
176
     0
 62
     7
420
 16777215
176
     0
 90
        1
176
     0
 90
        4
176
     0
 62
     7
176
     0
 62
   257
176
     0
 90
        1
176
     0
 90
        1
176
     0
 40
1.0
176
     0
 90
        8
176
     2
 62
     7
176
     0
 40
1.0
176
     0
 90
        1
176
     0
 90
        6
176
     0
 90
        2
176
     0
 62
     7
176
     0
 90
        5
176
     0
 90
        0
176
     0
 90
        0
176
     0
290
     0
176
     0
 90
        1
176
     0
 40
0.0
176
     0
 90
        0
176
     0
290
     0
176
     0
290
     1
176
     0
290
     1
176
     0
290
     0
176
     0
290
     0
176
     0
290
     0
176
     0
290
     0
176
     0
290
     0
176
     0
290
     0
176
     0
 90
       50
176
     0
 40
0.0
176
     0
 40
1.0
176
     0
 90
        0
176
     0
 62
    18
420
        0
176
     0
 90
       50
176
     0
 90
        3
176
     0
 62
     5
420
      255
176
     0
290
     0
176
     0
 90
       50
176
     0
 90
       50
176
     0
 90
       50
176
     0
290
     0
176
     0
 90
       50
176
     0
 62
   256
176
     0
 40
1.0
176
     0
 90
        2
176
     0
  1
strokes_ogs.tif
176
     0
290
     0
176
     0
 40
1.0
176
     0
 40
1.0
176
     0
  0
VISUALSTYLE
  5
38
102
{ACAD_REACTORS
330
29
102
}
330
29
100
AcDbVisualStyle
  2
Facepattern
 70
    15
177
     3
291
     1
 70
    58
 90
        2
176
     1
 90
        2
176
     1
 90
        0
176
     1
 90
        0
176
     1
 40
0.6
176
     1
 40
30.0
176
     1
 62
     7
420
 16777215
176
     1
 90
        1
176
     1
 90
        4
176
     1
 62
     7
176
     1
 62
   257
176
     1
 90
        1
176
     1
 90
        1
176
     1
 40
1.0
176
     1
 90
        8
176
     1
 62
     7
176
     1
 40
1.0
176
     1
 90
        1
176
     1
 90
        6
176
     1
 90
        2
176
     1
 62
     7
176
     1
 90
        5
176
     1
 90
        0
176
     1
 90
        0
176
     1
290
     0
176
     1
 90
        1
176
     1
 40
0.0
176
     1
 90
        0
176
     1
290
     0
176
     1
290
     1
176
     1
290
     1
176
     1
290
     0
176
     1
290
     0
176
     1
290
     0
176
     1
290
     0
176
     1
290
     0
176
     1
290
     0
176
     1
 90
       50
176
     1
 40
0.0
176
     1
 40
1.0
176
     1
 90
        0
176
     1
 62
    18
420
        0
176
     1
 90
       50
176
     1
 90
        3
176
     1
 62
     5
420
      255
176
     1
290
     0
176
     1
 90
       50
176
     1
 90
       50
176
     1
 90
       50
176
     1
290
     0
176
     1
 90
       50
176
     1
 62
   256
176
     0
 40
1.0
176
     0
 90
        2
176
     1
  1
strokes_ogs.tif
176
     1
290
     0
176
     1
 40
1.0
176
     1
 40
1.0
176
     1
  0
VISUALSTYLE
  5
2A
102
{ACAD_REACTORS
330
29
102
}
330
29
100
AcDbVisualStyle
  2
Flat
 70
     0
177
     3
291
     1
 70
    58
 90
        2
176
     1
 90
        1
176
     1
 90
        1
176
     1
 90
        2
176
     1
 40
0.6
176
     1
 40
30.0
176
     1
 62
     7
420
 16777215
176
     1
 90
        0
176
     1
 90
        0
176
     1
 62
     7
176
     1
 62
   257
176
     1
 90
        1
176
     1
 90
        1
176
     1
 40
1.0
176
     1
 90
        8
176
     1
 62
     7
176
     1
 40
1.0
176
     1
 90
        1
176
     1
 90
        6
176
     1
 90
        2
176
     1
 62
     7
176
     1
 90
        5
176
     1
 90
        0
176
     1
 90
        0
176
     1
290
     0
176
     1
 90
       13
176
     1
 40
0.0
176
     1
 90
        0
176
     1
290
     0
176
     1
290
     1
176
     1
290
     1
176
     1
290
     0
176
     1
290
     0
176
     1
290
     0
176
     1
290
     0
176
     1
290
     0
176
     1
290
     0
176
     1
 90
       50
176
     1
 40
0.0
176
     1
 40
1.0
176
     1
 90
        0
176
     1
 62
    18
420
        0
176
     1
 90
       50
176
     1
 90
        3
176
     1
 62
     5
420
      255
176
     1
290
     0
176
     1
 90
       50
176
     1
 90
       50
176
     1
 90
       50
176
     1
290
     0
176
     1
 90
       50
176
     1
 62
   256
176
     0
 40
1.0
176
     0
 90
        2
176
     1
  1
strokes_ogs.tif
176
     1
290
     0
176
     1
 40
1.0
176
     1
 40
1.0
176
     1
  0
VISUALSTYLE
  5
2B
102
{ACAD_REACTORS
330
29
102
}
330
29
100
AcDbVisualStyle
  2
FlatWithEdges
 70
     1
177
     3
291
     1
 70
    58
 90
        2
176
     1
 90
        1
176
     1
 90
        1
176
     1
 90
        2
176
     1
 40
0.6
176
     1
 40
30.0
176
     1
 62
     7
420
 16777215
176
     1
 90
        1
176
     1
 90
        0
176
     1
 62
     7
176
     1
 62
   257
176
     1
 90
        1
176
     1
 90
        1
176
     1
 40
1.0
176
     1
 90
        0
176
     1
 62
   257
176
     1
 40
1.0
176
     1
 90
        1
176
     1
 90
        6
176
     1
 90
        2
176
     1
 62
     7
176
     1
 90
        5
176
     1
 90
        0
176
     1
 90
        0
176
     1
290
     0
176
     1
 90
       13
176
     1
 40
0.0
176
     1
 90
        0
176
     1
290
     0
176
     1
290
     1
176
     1
290
     1
176
     1
290
     0
176
     1
290
     0
176
     1
290
     0
176
     1
290
     0
176
     1
290
     0
176
     1
290
     0
176
     1
 90
       50
176
     1
 40
0.0
176
     1
 40
1.0
176
     1
 90
        0
176
     1
 62
    18
420
        0
176
     1
 90
       50
176
     1
 90
        3
176
     1
 62
     5
420
      255
176
     1
290
     0
176
     1
 90
       50
176
     1
 90
       50
176
     1
 90
       50
176
     1
290
     0
176
     1
 90
       50
176
     1
 62
   256
176
     0
 40
1.0
176
     0
 90
        2
176
     1
  1
strokes_ogs.tif
176
     1
290
     0
176
     1
 40
1.0
176
     1
 40
1.0
176
     1
  0
VISUALSTYLE
  5
2C
102
{ACAD_REACTORS
330
29
102
}
330
29
100
AcDbVisualStyle
  2
Gouraud
 70
     2
177
     3
291
     1
 70
    58
 90
        2
176
     1
 90
        2
176
     1
 90
        1
176
     1
 90
        2
176
     1
 40
0.6
176
     1
 40
30.0
176
     1
 62
     7
420
 16777215
176
     1
 90
        0
176
     1
 90
        0
176
     1
 62
     7
176
     1
 62
   257
176
     1
 90
        1
176
     1
 90
        1
176
     1
 40
1.0
176
     1
 90
        0
176
     1
 62
     7
176
     1
 40
1.0
176
     1
 90
        1
176
     1
 90
        6
176
     1
 90
        2
176
     1
 62
     7
176
     1
 90
        5
176
     1
 90
        0
176
     1
 90
        0
176
     1
290
     0
176
     1
 90
       13
176
     1
 40
0.0
176
     1
 90
        0
176
     1
290
     0
176
     1
290
     1
176
     1
290
     1
176
     1
290
     0
176
     1
290
     0
176
     1
290
     0
176
     1
290
     0
176
     1
290
     0
176
     1
290
     0
176
     1
 90
       50
176
     1
 40
0.0
176
     1
 40
1.0
176
     1
 90
        0
176
     1
 62
    18
420
        0
176
     1
 90
       50
176
     1
 90
        3
176
     1
 62
     5
420
      255
176
     1
290
     0
176
     1
 90
       50
176
     1
 90
       50
176
     1
 90
       50
176
     1
290
     0
176
     1
 90
       50
176
     1
 62
   256
176
     0
 40
1.0
176
     0
 90
        2
176
     1
  1
strokes_ogs.tif
176
     1
290
     0
176
     1
 40
1.0
176
     1
 40
1.0
176
     1
  0
VISUALSTYLE
  5
2D
102
{ACAD_REACTORS
330
29
102
}
330
29
100
AcDbVisualStyle
  2
GouraudWithEdges
 70
     3
177
     3
291
     1
 70
    58
 90
        2
176
     1
 90
        2
176
     1
 90
        1
176
     1
 90
        2
176
     1
 40
0.6
176
     1
 40
30.0
176
     1
 62
     7
420
 16777215
176
     1
 90
        1
176
     1
 90
        0
176
     1
 62
     7
176
     1
 62
   257
176
     1
 90
        1
176
     1
 90
        1
176
     1
 40
1.0
176
     1
 90
        0
176
     1
 62
   257
176
     1
 40
1.0
176
     1
 90
        1
176
     1
 90
        6
176
     1
 90
        2
176
     1
 62
     7
176
     1
 90
        5
176
     1
 90
        0
176
     1
 90
        0
176
     1
290
     0
176
     1
 90
       13
176
     1
 40
0.0
176
     1
 90
        0
176
     1
290
     0
176
     1
290
     1
176
     1
290
     1
176
     1
290
     0
176
     1
290
     0
176
     1
290
     0
176
     1
290
     0
176
     1
290
     0
176
     1
290
     0
176
     1
 90
       50
176
     1
 40
0.0
176
     1
 40
1.0
176
     1
 90
        0
176
     1
 62
    18
420
        0
176
     1
 90
       50
176
     1
 90
        3
176
     1
 62
     5
420
      255
176
     1
290
     0
176
     1
 90
       50
176
     1
 90
       50
176
     1
 90
       50
176
     1
290
     0
176
     1
 90
       50
176
     1
 62
   256
176
     0
 40
1.0
176
     0
 90
        2
176
     1
  1
strokes_ogs.tif
176
     1
290
     0
176
     1
 40
1.0
176
     1
 40
1.0
176
     1
  0
VISUALSTYLE
  5
31
102
{ACAD_REACTORS
330
29
102
}
330
29
100
AcDbVisualStyle
  2
Hidden
 70
     6
177
     3
291
     0
 70
    58
 90
        1
176
     1
 90
        2
176
     1
 90
        2
176
     1
 90
        0
176
     1
 40
0.6
176
     1
 40
30.0
176
     1
 62
     7
420
 16777215
176
     1
 90
        2
176
     1
 90
        2
176
     1
 62
     7
176
     1
 62
   257
176
     1
 90
        2
176
     1
 90
        1
176
     1
 40
40.0
176
     1
 90
        0
176
     1
 62
   257
176
     1
 40
1.0
176
     1
 90
        1
176
     1
 90
        6
176
     1
 90
        2
176
     1
 62
     7
176
     1
 90
        3
176
     1
 90
        0
176
     1
 90
        0
176
     1
290
     0
176
     1
 90
        1
176
     1
 40
0.0
176
     1
 90
        0
176
     1
290
     0
176
     1
290
     1
176
     1
290
     1
176
     1
290
     0
176
     1
290
     0
176
     1
290
     0
176
     1
290
     0
176
     1
290
     0
176
     1
290
     0
176
     1
 90
       50
176
     1
 40
0.0
176
     1
 40
1.0
176
     1
 90
        0
176
     1
 62
    18
420
        0
176
     1
 90
       50
176
     1
 90
        3
176
     1
 62
     5
420
      255
176
     1
290
     0
176
     1
 90
       50
176
     1
 90
       50
176
     1
 90
       50
176
     1
290
     0
176
     1
 90
       50
176
     1
 62
   256
176
     0
 40
1.0
176
     0
 90
        2
176
     1
  1
strokes_ogs.tif
176
     1
290
     0
176
     1
 40
1.0
176
     1
 40
1.0
176
     1
  0
VISUALSTYLE
  5
3F
102
{ACAD_REACTORS
330
29
102
}
330
29
100
AcDbVisualStyle
  2
JitterOff
 70
    20
177
     3
291
     1
 70
    58
 90
        2
176
     0
 90
        2
176
     0
 90
        0
176
     0
 90
        0
176
     0
 40
0.6
176
     0
 40
30.0
176
     0
 62
     7
420
 16777215
176
     0
 90
        1
176
     0
 90
        4
176
     0
 62
     7
176
     0
 62
   257
176
     0
 90
        1
176
     0
 90
        1
176
     0
 40
1.0
176
     0
 90
       10
176
     2
 62
     7
176
     0
 40
1.0
176
     0
 90
        1
176
     0
 90
        6
176
     0
 90
        2
176
     0
 62
     7
176
     0
 90
        5
176
     0
 90
        0
176
     0
 90
        0
176
     0
290
     0
176
     0
 90
        1
176
     0
 40
0.0
176
     0
 90
        0
176
     0
290
     0
176
     0
290
     1
176
     0
290
     1
176
     0
290
     0
176
     0
290
     0
176
     0
290
     0
176
     0
290
     0
176
     0
290
     0
176
     0
290
     0
176
     0
 90
       50
176
     0
 40
0.0
176
     0
 40
1.0
176
     0
 90
        0
176
     0
 62
    18
420
        0
176
     0
 90
       50
176
     0
 90
        3
176
     0
 62
     5
420
      255
176
     0
290
     0
176
     0
 90
       50
176
     0
 90
       50
176
     0
 90
       50
176
     0
290
     0
176
     0
 90
       50
176
     0
 62
   256
176
     0
 40
1.0
176
     0
 90
        2
176
     0
  1
strokes_ogs.tif
176
     0
290
     0
176
     0
 40
1.0
176
     0
 40
1.0
176
     0
  0
VISUALSTYLE
  5
37
102
{ACAD_REACTORS
330
29
102
}
330
29
100
AcDbVisualStyle
  2
Linepattern
 70
    14
177
     3
291
     1
 70
    58
 90
        2
176
     1
 90
        2
176
     1
 90
        0
176
     1
 90
        0
176
     1
 40
0.6
176
     1
 40
30.0
176
     1
 62
     7
420
 16777215
176
     1
 90
        1
176
     1
 90
        4
176
     1
 62
     7
176
     1
 62
   257
176
     1
 90
        7
176
     1
 90
        7
176
     1
 40
1.0
176
     1
 90
        8
176
     1
 62
     7
176
     1
 40
1.0
176
     1
 90
        1
176
     1
 90
        6
176
     1
 90
        2
176
     1
 62
     7
176
     1
 90
        5
176
     1
 90
        0
176
     1
 90
        0
176
     1
290
     0
176
     1
 90
        1
176
     1
 40
0.0
176
     1
 90
        0
176
     1
290
     0
176
     1
290
     1
176
     1
290
     1
176
     1
290
     0
176
     1
290
     0
176
     1
290
     0
176
     1
290
     0
176
     1
290
     0
176
     1
290
     0
176
     1
 90
       50
176
     1
 40
0.0
176
     1
 40
1.0
176
     1
 90
        0
176
     1
 62
    18
420
        0
176
     1
 90
       50
176
     1
 90
        3
176
     1
 62
     5
420
      255
176
     1
290
     0
176
     1
 90
       50
176
     1
 90
       50
176
     1
 90
       50
176
     1
290
     0
176
     1
 90
       50
176
     1
 62
   256
176
     0
 40
1.0
176
     0
 90
        2
176
     1
  1
strokes_ogs.tif
176
     1
290
     0
176
     1
 40
1.0
176
     1
 40
1.0
176
     1
  0
VISUALSTYLE
  5
40
102
{ACAD_REACTORS
330
29
102
}
330
29
100
AcDbVisualStyle
  2
OverhangOff
 70
    21
177
     3
291
     1
 70
    58
 90
        2
176
     0
 90
        2
176
     0
 90
        0
176
     0
 90
        0
176
     0
 40
0.6
176
     0
 40
30.0
176
     0
 62
     7
420
 16777215
176
     0
 90
        1
176
     0
 90
        4
176
     0
 62
     7
176
     0
 62
   257
176
     0
 90
        1
176
     0
 90
        1
176
     0
 40
1.0
176
     0
 90
        9
176
     2
 62
     7
176
     0
 40
1.0
176
     0
 90
        1
176
     0
 90
        6
176
     0
 90
        2
176
     0
 62
     7
176
     0
 90
        5
176
     0
 90
        0
176
     0
 90
        0
176
     0
290
     0
176
     0
 90
        1
176
     0
 40
0.0
176
     0
 90
        0
176
     0
290
     0
176
     0
290
     1
176
     0
290
     1
176
     0
290
     0
176
     0
290
     0
176
     0
290
     0
176
     0
290
     0
176
     0
290
     0
176
     0
290
     0
176
     0
 90
       50
176
     0
 40
0.0
176
     0
 40
1.0
176
     0
 90
        0
176
     0
 62
    18
420
        0
176
     0
 90
       50
176
     0
 90
        3
176
     0
 62
     5
420
      255
176
     0
290
     0
176
     0
 90
       50
176
     0
 90
       50
176
     0
 90
       50
176
     0
290
     0
176
     0
 90
       50
176
     0
 62
   256
176
     0
 40
1.0
176
     0
 90
        2
176
     0
  1
strokes_ogs.tif
176
     0
290
     0
176
     0
 40
1.0
176
     0
 40
1.0
176
     0
  0
VISUALSTYLE
  5
33
102
{ACAD_REACTORS
330
29
102
}
330
29
100
AcDbVisualStyle
  2
Realistic
 70
     8
177
     3
291
     0
 70
    58
 90
        2
176
     1
 90
        3
176
     1
 90
        0
176
     1
 90
        2
176
     1
 40
0.6
176
     1
 40
30.0
176
     1
 62
     7
420
 16777215
176
     1
 90
        0
176
     1
 90
        0
176
     1
 62
     7
176
     1
 62
   257
176
     1
 90
        1
176
     1
 90
        1
176
     1
 40
1.0
176
     1
 90
        8
176
     1
 62
   257
176
     1
 40
1.0
176
     1
 90
        1
176
     1
 90
        6
176
     1
 90
        2
176
     1
 62
     7
176
     1
 90
        3
176
     1
 90
        0
176
     1
 90
        0
176
     1
290
     0
176
     1
 90
       13
176
     1
 40
0.0
176
     1
 90
        0
176
     1
290
     0
176
     1
290
     1
176
     1
290
     1
176
     1
290
     0
176
     1
290
     0
176
     1
290
     0
176
     1
290
     0
176
     1
290
     0
176
     1
290
     0
176
     1
 90
       50
176
     1
 40
0.0
176
     1
 40
1.0
176
     1
 90
        0
176
     1
 62
    18
420
        0
176
     1
 90
       50
176
     1
 90
        3
176
     1
 62
     5
420
      255
176
     1
290
     0
176
     1
 90
       50
176
     1
 90
       50
176
     1
 90
       50
176
     1
290
     0
176
     1
 90
       50
176
     1
 62
   256
176
     0
 40
1.0
176
     0
 90
        2
176
     1
  1
strokes_ogs.tif
176
     1
290
     0
176
     1
 40
1.0
176
     1
 40
1.0
176
     1
  0
VISUALSTYLE
  5
3E
102
{ACAD_REACTORS
330
29
102
}
330
29
100
AcDbVisualStyle
  2
Shaded
 70
    27
177
     3
291
     0
 70
    58
 90
        2
176
     1
 90
        2
176
     1
 90
        1
176
     1
 90
        2
176
     1
 40
0.6
176
     1
 40
30.0
176
     1
 62
     7
420
 16777215
176
     1
 90
        0
176
     1
 90
        4
176
     1
 62
     7
176
     1
 62
   257
176
     1
 90
        1
176
     1
 90
        1
176
     1
 40
1.0
176
     1
 90
        8
176
     1
 62
   257
176
     1
 40
1.0
176
     1
 90
        1
176
     1
 90
        6
176
     1
 90
        2
176
     1
 62
     8
420
  7895160
176
     1
 90
        3
176
     1
 90
        0
176
     1
 90
        0
176
     1
290
     0
176
     1
 90
        5
176
     1
 40
0.0
176
     1
 90
        0
176
     1
290
     0
176
     1
290
     1
176
     1
290
     1
176
     1
290
     0
176
     1
290
     0
176
     1
290
     0
176
     1
290
     0
176
     1
290
     0
176
     1
290
     0
176
     1
 90
       50
176
     1
 40
0.0
176
     1
 40
1.0
176
     1
 90
        0
176
     1
 62
    18
420
        0
176
     1
 90
       50
176
     1
 90
        3
176
     1
 62
     5
420
      255
176
     1
290
     0
176
     1
 90
       50
176
     1
 90
       50
176
     1
 90
       50
176
     1
290
     0
176
     1
 90
       50
176
     1
 62
   256
176
     0
 40
1.0
176
     0
 90
        2
176
     1
  1
strokes_ogs.tif
176
     1
290
     0
176
     1
 40
1.0
176
     1
 40
1.0
176
     1
  0
VISUALSTYLE
  5
3D
102
{ACAD_REACTORS
330
29
102
}
330
29
100
AcDbVisualStyle
  2
Shaded with edges
 70
    26
177
     3
291
     0
 70
    58
 90
        2
176
     1
 90
        2
176
     1
 90
        1
176
     1
 90
        2
176
     1
 40
0.6
176
     1
 40
30.0
176
     1
 62
     7
420
 16777215
176
     1
 90
        1
176
     1
 90
       10
176
     1
 62
     7
176
     1
 62
   257
176
     1
 90
        2
176
     1
 90
        1
176
     1
 40
1.0
176
     1
 90
        8
176
     1
 62
   257
176
     1
 40
1.0
176
     1
 90
        1
176
     1
 90
        6
176
     1
 90
        2
176
     1
 62
     7
176
     1
 90
        3
176
     1
 90
        0
176
     1
 90
        0
176
     1
290
     0
176
     1
 90
        5
176
     1
 40
0.0
176
     1
 90
        0
176
     1
290
     0
176
     1
290
     1
176
     1
290
     1
176
     1
290
     0
176
     1
290
     0
176
     1
290
     0
176
     1
290
     0
176
     1
290
     0
176
     1
290
     0
176
     1
 90
       50
176
     1
 40
0.0
176
     1
 40
1.0
176
     1
 90
        0
176
     1
 62
    18
420
        0
176
     1
 90
       50
176
     1
 90
        3
176
     1
 62
     5
420
      255
176
     1
290
     0
176
     1
 90
       50
176
     1
 90
       50
176
     1
 90
       50
176
     1
290
     0
176
     1
 90
       50
176
     1
 62
   256
176
     0
 40
1.0
176
     0
 90
        2
176
     1
  1
strokes_ogs.tif
176
     1
290
     0
176
     1
 40
1.0
176
     1
 40
1.0
176
     1
  0
VISUALSTYLE
  5
3A
102
{ACAD_REACTORS
330
29
102
}
330
29
100
AcDbVisualStyle
  2
Shades of Gray
 70
    23
177
     3
291
     0
 70
    58
 90
        2
176
     1
 90
        2
176
     1
 90
        3
176
     1
 90
        0
176
     1
 40
0.6
176
     1
 40
30.0
176
     1
 62
     7
420
 16777215
176
     1
 90
        2
176
     1
 90
        2
176
     1
 62
     7
176
     1
 62
     7
176
     1
 90
        1
176
     1
 90
        1
176
     1
 40
40.0
176
     1
 90
        8
176
     1
 62
     7
176
     1
 40
1.0
176
     1
 90
        1
176
     1
 90
        6
176
     1
 90
        2
176
     1
 62
     7
176
     1
 90
        3
176
     1
 90
        0
176
     1
 90
        0
176
     1
290
     0
176
     1
 90
        1
176
     1
 40
0.0
176
     1
 90
        0
176
     1
290
     0
176
     1
290
     1
176
     1
290
     1
176
     1
290
     0
176
     1
290
     0
176
     1
290
     0
176
     1
290
     0
176
     1
290
     0
176
     1
290
     0
176
     1
 90
       50
176
     1
 40
0.0
176
     1
 40
1.0
176
     1
 90
        0
176
     1
 62
    18
420
        0
176
     1
 90
       50
176
     1
 90
        3
176
     1
 62
     5
420
      255
176
     1
290
     0
176
     1
 90
       50
176
     1
 90
       50
176
     1
 90
       50
176
     1
290
     0
176
     1
 90
       50
176
     1
 62
   256
176
     0
 40
1.0
176
     0
 90
        2
176
     1
  1
strokes_ogs.tif
176
     1
290
     0
176
     1
 40
1.0
176
     1
 40
1.0
176
     1
  0
VISUALSTYLE
  5
3B
102
{ACAD_REACTORS
330
29
102
}
330
29
100
AcDbVisualStyle
  2
Sketchy
 70
    24
177
     3
291
     0
 70
    58
 90
        1
176
     1
 90
        2
176
     1
 90
        2
176
     1
 90
        0
176
     1
 40
0.6
176
     1
 40
30.0
176
     1
 62
     7
420
 16777215
176
     1
 90
        2
176
     1
 90
        2
176
     1
 62
     7
176
     1
 62
     7
176
     1
 90
        1
176
     1
 90
        1
176
     1
 40
40.0
176
     1
 90
       11
176
     1
 62
     7
176
     1
 40
1.0
176
     1
 90
        1
176
     1
 90
        6
176
     1
 90
        2
176
     1
 62
     7
176
     1
 90
        6
176
     1
 90
        0
176
     1
 90
        0
176
     1
290
     0
176
     1
 90
        1
176
     1
 40
0.0
176
     1
 90
        0
176
     1
290
     0
176
     1
290
     1
176
     1
290
     1
176
     1
290
     0
176
     1
290
     0
176
     1
290
     0
176
     1
290
     0
176
     1
290
     0
176
     1
290
     0
176
     1
 90
       50
176
     1
 40
0.0
176
     1
 40
1.0
176
     1
 90
        0
176
     1
 62
    18
420
        0
176
     1
 90
       50
176
     1
 90
        3
176
     1
 62
     5
420
      255
176
     1
290
     0
176
     1
 90
       50
176
     1
 90
       50
176
     1
 90
       50
176
     1
290
     0
176
     1
 90
       50
176
     1
 62
   256
176
     0
 40
1.0
176
     0
 90
        2
176
     1
  1
strokes_ogs.tif
176
     1
290
     0
176
     1
 40
1.0
176
     1
 40
1.0
176
     1
  0
VISUALSTYLE
  5
36
102
{ACAD_REACTORS
330
29
102
}
330
29
100
AcDbVisualStyle
  2
Thicken
 70
    13
177
     3
291
     1
 70
    58
 90
        2
176
     1
 90
        2
176
     1
 90
        0
176
     1
 90
        0
176
     1
 40
0.6
176
     1
 40
30.0
176
     1
 62
     7
420
 16777215
176
     1
 90
        1
176
     1
 90
        4
176
     1
 62
     7
176
     1
 62
   257
176
     1
 90
        1
176
     1
 90
        1
176
     1
 40
1.0
176
     1
 90
       12
176
     1
 62
     7
176
     1
 40
1.0
176
     1
 90
        1
176
     1
 90
        6
176
     1
 90
        2
176
     1
 62
     7
176
     1
 90
        5
176
     1
 90
        0
176
     1
 90
        0
176
     1
290
     0
176
     1
 90
        1
176
     1
 40
0.0
176
     1
 90
        0
176
     1
290
     0
176
     1
290
     1
176
     1
290
     1
176
     1
290
     0
176
     1
290
     0
176
     1
290
     0
176
     1
290
     0
176
     1
290
     0
176
     1
290
     0
176
     1
 90
       50
176
     1
 40
0.0
176
     1
 40
1.0
176
     1
 90
        0
176
     1
 62
    18
420
        0
176
     1
 90
       50
176
     1
 90
        3
176
     1
 62
     5
420
      255
176
     1
290
     0
176
     1
 90
       50
176
     1
 90
       50
176
     1
 90
       50
176
     1
290
     0
176
     1
 90
       50
176
     1
 62
   256
176
     0
 40
1.0
176
     0
 90
        2
176
     1
  1
strokes_ogs.tif
176
     1
290
     0
176
     1
 40
1.0
176
     1
 40
1.0
176
     1
  0
VISUALSTYLE
  5
30
102
{ACAD_REACTORS
330
29
102
}
330
29
100
AcDbVisualStyle
  2
Wireframe
 70
     5
177
     3
291
     0
 70
    58
 90
        0
176
     1
 90
        2
176
     1
 90
        0
176
     1
 90
        0
176
     1
 40
0.6
176
     1
 40
30.0
176
     1
 62
     7
420
 16777215
176
     1
 90
        1
176
     1
 90
        4
176
     1
 62
     7
176
     1
 62
   257
176
     1
 90
        1
176
     1
 90
        1
176
     1
 40
1.0
176
     1
 90
        0
176
     1
 62
   257
176
     1
 40
1.0
176
     1
 90
        1
176
     1
 90
        6
176
     1
 90
        2
176
     1
 62
     7
176
     1
 90
        3
176
     1
 90
        0
176
     1
 90
        0
176
     1
290
     0
176
     1
 90
        1
176
     1
 40
0.0
176
     1
 90
        0
176
     1
290
     0
176
     1
290
     1
176
     1
290
     1
176
     1
290
     0
176
     1
290
     0
176
     1
290
     0
176
     1
290
     0
176
     1
290
     0
176
     1
290
     0
176
     1
 90
       50
176
     1
 40
0.0
176
     1
 40
1.0
176
     1
 90
        0
176
     1
 62
    18
420
        0
176
     1
 90
       50
176
     1
 90
        3
176
     1
 62
     5
420
      255
176
     1
290
     0
176
     1
 90
       50
176
     1
 90
       50
176
     1
 90
       50
176
     1
290
     0
176
     1
 90
       50
176
     1
 62
   256
176
     0
 40
1.0
176
     0
 90
        2
176
     1
  1
strokes_ogs.tif
176
     1
290
     0
176
     1
 40
1.0
176
     1
 40
1.0
176
     1
  0
VISUALSTYLE
  5
3C
102
{ACAD_REACTORS
330
29
102
}
330
29
100
AcDbVisualStyle
  2
X-Ray
 70
    25
177
     3
291
     0
 70
    58
 90
        2
176
     1
 90
        2
176
     1
 90
        1
176
     1
 90
        1
176
     1
 40
0.5
176
     1
 40
30.0
176
     1
 62
     7
420
 16777215
176
     1
 90
        1
176
     1
 90
        0
176
     1
 62
     7
176
     1
 62
   257
176
     1
 90
        1
176
     1
 90
        1
176
     1
 40
1.0
176
     1
 90
        8
176
     1
 62
     7
176
     1
 40
1.0
176
     1
 90
        1
176
     1
 90
        6
176
     1
 90
        2
176
     1
 62
     7
176
     1
 90
        3
176
     1
 90
        0
176
     1
 90
        0
176
     1
290
     0
176
     1
 90
       13
176
     1
 40
0.0
176
     1
 90
        0
176
     1
290
     0
176
     1
290
     1
176
     1
290
     1
176
     1
290
     0
176
     1
290
     0
176
     1
290
     0
176
     1
290
     0
176
     1
290
     0
176
     1
290
     0
176
     1
 90
       50
176
     1
 40
0.0
176
     1
 40
1.0
176
     1
 90
        0
176
     1
 62
    18
420
        0
176
     1
 90
       50
176
     1
 90
        3
176
     1
 62
     5
420
      255
176
     1
290
     0
176
     1
 90
       50
176
     1
 90
       50
176
     1
 90
       50
176
     1
290
     0
176
     1
 90
       50
176
     1
 62
   256
176
     0
 40
1.0
176
     0
 90
        2
176
     1
  1
strokes_ogs.tif
176
     1
290
     0
176
     1
 40
1.0
176
     1
 40
1.0
176
     1
  0
DICTIONARYVAR
  5
31E
102
{ACAD_REACTORS
330
319
102
}
330
319
100
DictionaryVariables
280
     0
  1
1:1
  0
DICTIONARYVAR
  5
31B
102
{ACAD_REACTORS
330
319
102
}
330
319
100
DictionaryVariables
280
     0
  1
STANDARD
  0
DICTIONARYVAR
  5
31A
102
{ACAD_REACTORS
330
319
102
}
330
319
100
DictionaryVariables
280
     0
  1
STANDARD
  0
DICTIONARYVAR
  5
31C
102
{ACAD_REACTORS
330
319
102
}
330
319
100
DictionaryVariables
280
     0
  1
Imperial24
  0
DICTIONARYVAR
  5
31D
102
{ACAD_REACTORS
330
319
102
}
330
319
100
DictionaryVariables
280
     0
  1
Imperial24
  0
DICTIONARY
  5
323
330
6B
100
AcDbDictionary
280
     1
281
     1
  3
ACAD_XREC_ROUNDTRIP
360
324
  0
DICTIONARY
  5
1A
330
19
100
AcDbDictionary
280
     1
281
     1
  3
BUMPTILE
360
1C
  3
DIFFUSETILE
360
1B
  3
OPACITYTILE
360
1F
  3
REFLECTIONTILE
360
1E
  3
REFRACTIONTILE
360
20
  3
SPECULARTILE
360
1D
  0
DICTIONARY
  5
12
330
11
100
AcDbDictionary
280
     1
281
     1
  3
BUMPTILE
360
14
  3
DIFFUSETILE
360
13
  3
FBXASSET
360
E3
  3
OPACITYTILE
360
17
  3
REFLECTIONTILE
360
16
  3
REFRACTIONTILE
360
18
  3
SPECULARTILE
360
15
  0
DICTIONARY
  5
22
330
21
100
AcDbDictionary
280
     1
281
     1
  3
BUMPTILE
360
24
  3
DIFFUSETILE
360
23
  3
OPACITYTILE
360
27
  3
REFLECTIONTILE
360
26
  3
REFRACTIONTILE
360
28
  3
SPECULARTILE
360
25
  0
DICTIONARY
  5
321
330
69
100
AcDbDictionary
280
     1
281
     1
  3
ACAD_XREC_ROUNDTRIP
360
322
  0
DICTIONARY
  5
31F
330
65
100
AcDbDictionary
280
     1
281
     1
  3
ACAD_ROUNDTRIP_2008_TABLESTYLE_CELLSTYLEMAP
360
320
  0
XRECORD
  5
324
102
{ACAD_REACTORS
330
323
102
}
330
323
100
AcDbXrecord
280
     1
102
DISPLAYNAME
  1
Imperial24
102
FLAGS
 90
        0
  0
XRECORD
  5
1C
102
{ACAD_REACTORS
330
1A
102
}
330
1A
100
AcDbXrecord
280
     1
270
     1
271
     1
  0
XRECORD
  5
1B
102
{ACAD_REACTORS
330
1A
102
}
330
1A
100
AcDbXrecord
280
     1
270
     1
271
     1
  0
XRECORD
  5
1F
102
{ACAD_REACTORS
330
1A
102
}
330
1A
100
AcDbXrecord
280
     1
270
     1
271
     1
  0
XRECORD
  5
1E
102
{ACAD_REACTORS
330
1A
102
}
330
1A
100
AcDbXrecord
280
     1
270
     1
271
     1
  0
XRECORD
  5
20
102
{ACAD_REACTORS
330
1A
102
}
330
1A
100
AcDbXrecord
280
     1
270
     1
271
     1
  0
XRECORD
  5
1D
102
{ACAD_REACTORS
330
1A
102
}
330
1A
100
AcDbXrecord
280
     1
270
     1
271
     1
  0
XRECORD
  5
14
102
{ACAD_REACTORS
330
12
102
}
330
12
100
AcDbXrecord
280
     1
270
     1
271
     1
  0
XRECORD
  5
13
102
{ACAD_REACTORS
330
12
102
}
330
12
100
AcDbXrecord
280
     1
270
     1
271
     1
  0
XRECORD
  5
E3
102
{ACAD_REACTORS
330
12
102
}
330
12
100
AcDbXrecord
280
     1
 70
     1
 90
1959938040
 71
     1
  1
95FF9A28-0FE8-4EC9-AE79-B6D250465573
311
504B03041400060808009D8187519C0CF094DB000000200100004F00000035333241334646412D313243452D343844432D394546442D3141303943363839383539432F4173736574446174612F446566696E6974696F6E4974657261746F7250726F706572746965732E62696E454E3D4FC33010352CA80303FF803F609C26
311
716AA322E43A360B5DCAC6824C38DA484E5AC58EA01B23FF1ACE6A1027BDBB77DFEF9B10F23319527286F8427F89F1017A18DAE6A9D941E7C8055656C747778421D1A9798E34A535BCBBD1C7B4B66E4303DEBB1EF663B8FA1FBDEE5CC47BCEDFA4A519E2AF10D285EDE95B12F071D2F48994B8B7C3EDBD0B01E21DE345AE0A
311
6B159DE7DAD052D49A4A636B3A5799D49590824BCD3610F6E3D04060925B2B552E68668DA0A5D1922AB3907455D539CFCA8AF345C1E26EEC5E7BD77A96B149C2CBA1DFCAE7258B6D07BF504B03041400060808009D81875168BB798F3D010000300200004500000035333241334646412D313243452D343844432D39454644
311
2D3141303943363839383539432F4173736574446174612F496E7374616E636550726F706572746965732E62696E6D91BD4EC33010C75D406201D48D35B23A14904BBE5B4B49F3D58407E8CA1225168D4452E4A640B78E480C3C044FC1CA33F0003C421766B8A42101A5279DEFEEEFDFDF96EC2784D07715D0A20EE41AD663
311
A8572C633C89A6D18CA5610F04AA050175E41111037F4454DFA3C4F18794B8FA44D64455D7B4A172D8180B8B22A9135FD628D1545521AA2E4BC40DDC0991868AE8E99E471D9F0256DE8BCEAE5FDEBFFA1F16D43DD0D690BF73596186D8585B1AA1AE8DBAA5542E3DBBE9777660DC46DDECC440AC81CD3E4C6BC8CAFA59D523
311
90DA51BC63B3531FD202E337BBA5FD13DAD6E2E8FE1F66631DC054FCD609E4F421CCA319717998C52C2E765266E22C4C191EC70967513EE7ABC1637A6B5C2E79323616394FB21BA1004C9CAFEE183E479D8BE757FBD4B08012EE195F24F3CCC4D240C402CBA2790CBC8997F90F504B03041400060808009D81875188E57597
311
CD3F0000904100006B00000035333241334646412D313243452D343844432D394546442D3141303943363839383539432F5265736F75726365732F39354646394132382D304645382D344543392D414537392D4236443235303436353537332F7468756D626E61696C2F302F67656E657269635F706E67355B773CD4FF1FBF
311
73E71C0E67EF7576C9DEF3EC995D46C6A1EC5046649CBDF79E192942562825CE965D8A868C2842C8DE9FDFD1F7E7F138F7078FCF6B3F5FCFD7EBFDFEC41B196891913091804020321D6D7513FC77D8C5070EC3FFEE51B21F068154CC75D455CC028A3EA68992803810109FDDE5D5CEC5521B28A1B422BF80741695D5B529DA
311
1C2D058AD2388BDA9F476F7C2CADC939304173DBF48A452BF8A700C0C70C3D121C1AA15A5270C22E2B9E28763651F7DA0D12CE11077B2ECD0D560B5E3DE2368B1E65C5E1C87384A4CC5F2D9FB8BE39E9B77C753783A37998F5CEF1B4FEE553463245C9712270880DF339E0B882A6BA713D865F6F384C842D440934EF264F4A
311
304F8DE4EEFA1E2BF5E2D91F5ADD9613D6E31DDB33ED31DB1D7916CAF091286EA3D31B9CFECB78BB0060245B943C4C040119FF780A74DD308BA9D028678674EB5504ECF284EE814DAED07440BAF649BE4B55DA2890F4D73E2D489A59EE54FDB0A85B59F2F52C4858A02705C4815A792B0C4A996A2023ECB195073E115E3E36
311
47F64243A8338F2000BCB58DA5692C7E7C3D413F963FEDF3CF00FBB0F831A9D51360FECA43819F527B89FA260EB63C5DA676830AA3626A3693B23F1A17A0DFFCE3EE164E31B5365EDF0C89EF64D8E38AB0BA9A1117D7C3A0EC44F44F4023095E80BA610DE336D0F99593A88BFC5306E72DF98F7FD132ED95878DF2964EA7E4
311
3071359FD83B2BDF9C6B5BDF768F0F3C0FC351199526F53D9460A34511F75D1B63E488178569472C91A94497807A3FD4A390C6558F26D416365C3656DE6E769DA9D8FC73774E1709812842DD8EF96AED1960F79D21B395CDDFE6F92CB4EB962A4668C76990E2EF29798C8941D67DA50F4A5F947872460F1F6FDB794E8A29FD
311
7AC0C0D6E0714339CE258FB17AE8535221E3464A10F29A0BE5EEECEFC5675926A89F49EB14E5711894F6586DB5754EB4D5DA9C6437EBA57DB97A24F8B8A8DB295FFD73266CF57E82694DF5166DDF93573AFE9C9C5EB05F8FEF8E89E0A8917B0B3724DB7BEBB53252581EFC3E38166BA131A3A5B42FE2AD00A769BBFA4458D2
311
DE7822F8C4F63D0B8E21B285AE13325F3410A435C648C9D91FDEB109E73CEDA7BC796961AF79175E1A3CE4C5E8B0D009B0C9E29EFD98BC8E97554E3D8D838424E270F7685226E5AC268E021EDE3522D583E8F20C0BDE2959EF5BBFEEDAB32FE9A3ED0E39F211A86AA9DEBFC68182EDED132AB8BB794442D2D7EA9F4D8BFF52
311
BC4D55BB165124EE90A42D101E67BBBB292FFB4F66DE5BF2300E44546757DA7CEF8932BFC9F92A0707953491A55C5A5ACEDABD9FA1AEA01BAC3DC5A24E22E7C47213493996EFBC369D086ED9397C9BA6C7F9855C7BD5E15BFC8C53DB3D2A4C5901A57ACD2FBDF4D1676E95338B2C2BCE65FDA4C64F5FEFDC7D9CA5AA1FCF11
311
E193F2FDABF0F4916BF13FB916A224380E6462A9815F2300DC49CC4DF8D055CEF76462F4B7A7ACA7365C2707891370BC1D0AA6203C44CCAB47084FEC057F27FFCD57F89B8B9852459798A675C66BD7CE572CAF71FF7E6D7ECF7BF62CAB7B3F1107DCD04DC55A3F9961700286141C94A4F771FEB2BCDA2DDEE0CB0BAE402FF1
311
DB0100F8E475DFFFC074DDB4498AB7D186A7654DDB1CB680D703D47CEB4E72F8CB13D86A4AA68116E26387B93FD6738779B34FEDB8E517EDF2BAF28D9BE93A1D3A164320E07D42E514725C29515FF361754213EDE06B079A2E99EB1CA82A02019EADEEB87B9AF005BD04BBCECB14AACD6B24EFBE482194A97DD32400685FF1
311
FEF1544D1B14EFB1E7F08E6D2CD2AF52DE757F35F5E62332EE88EA26417AD5C3E0E319D68F25414E6D672BD4522B278C57D18F0113921C71D96527E091F00CEB15AE23D24667369BD3CEFA10C7549D930890BA4366F4EBC55F01F746109F98ABCDD5A3EE06619C6AD78AB33E48E4C9BD21BF7478B385EC05C4F8987E2C1BFA
311
0A60EBEDAA0AE0B015C2720ECE180FB6F2DEFBEB822D96338C9B63822183BBF52FB664A7AE57003AABCE512BF77E7E31BDA2E739AC4C131657DDFE5225E900FB56CC01CDE808FA4A9C9DA16AC679656BB64796283D89812B8F91136AE18EE5EBBAF47A73BE3C153EB5D4CD491B4BFB4FE690A4CF9ABA08C0D8AA64220C438C
311
96EA6CA80B58FE5761E697B3A292EB9FBDA502FA863E49FE694ADDFFF9D62C520BDD1A22014147A0903A05B9B729F54272EF83931FEEC057BFF8C8055C279EAC5C0011804828734024F6CFA319C9CC6867C727184465CD9BB7ED386AFFD96B294A85E3802FAE47244602D8273615952B98C4F23F7EAE4463D9D638EEE374A2
311
0959E0FE519C4CFB0FBFE5DD80C2AA3F9DB961D1BDE57E67C9BB47B77FDD74EE3094F5DBBE3EBC1FBDB7393F5116263009E2EFE1AF9A221B2AE234C902BF70E9F280ED23E73908361565964333A3F01D0B006AF32FB21AA1316744B489D5A198E85299241735BE559675130955C902A8ED761FC0DBE337A9F91919AF5CE32A
311
F902ADF9AB2615E00E8A94586BA1A90839B61832FF1BFB76D2EFADE6DB1BA04CCAD3DA649E7E2A0219F592E22F2AD54847EEA8E42271011E9074F8F3DD9FBA6CDF88FFC9FC7E811AD1CA8F4557CE4AFC7BBEDCF0114A48689F20A584520C74DA8127124B767E2FB91A6B186246727BE63C9445BAE02088D58B8EFDC0F10724
311
07CD9B89A13F6303B4A928F593AD489B58E6869325790ADC406036C591729FE14021F94B7796BB11848D463536A092A26F077F94639F7CEEE2A724C66EC885F4A24F8B8A0AC321F8FD149BA529460FAA34E4663C02D41FDF80BCA222D42F0ABFF8490F4FA74C673807C2051D8E467B47B616072860069A9A303ABA9B319D58
311
404461401B0A0F9BE5E1E151C14BC33B32ABE03DDE91708DFAEB15E7C0D593C86BB7D7EC17BE56E57975F077BFD5525F3A1A361D584A75E08CF29FC7B44B2B3085014F3A5A14517377C3F6B8F37E59514C3B12F8AACDEDDA4DFC49BE5710101534CD6FB6DE15B50F11A09472AABA727F0C49D9CB906B158030065F48EB3625
311
E010CEC1D511D0053474B11E6A4F01C0D6EF1BED3A944FDEC70E0DDCDC756C86545910E0DAE3BE3AA9A404574C2995CD5CAF9549226BC94B4F4F0F5F9086F418F6B32346464610D8BC7391D3C3A3CCF04CFC1FB2A3A3170E369511868F14EEA4E5E438CC73DB1F3248AA94B6B2FF33B222FF3D1E7BF146CAD229770158063B
311
CE4F5391964DF62F7E52A7BE0EEA829C9E13C4C147D6F93FE59E111DAB5E4594D6F3CD1AD375EE039930EFE5AF2BB2D41C83C7DABD8C659BAFBE8FAB392CA634F3D15C1D945DB4588D2B0824A4EC928AAC565557CA2F0DAA588CA5BE30B3A8004F7BF005E96CBF891D7F18112A3619FDF530DC8AA64954258E1811789B5189
311
B49B4EB53F5F89F7D37523894F3EB57B373763C91E502F52CC99EB7BDDF933FC324C4FFC2561DFFA7339FAFDD0A4BFBE6D3A8FF9ED1FC49898139864602458968913181918F719CCF5A68B2EE9C1FF050E34E63107003B8120FA982C21B30A874E4F5E4B38D5A8290C4B8D9BE48A0BE31EA995BDC37AC6DE90BA17D259DEF5
311
3605D55922FEB1855D915B659FBEB350EE0DFB2F9F766E1C84CC8964B75D08667445EAB966015F63A18A9E0A325C1B3DC628C0D3CB60F767FA93CC65F25458BD23C3B312716E5F40E5858AC06EBA9AB14F95DB99147B832069201541D09A0D856E12C629CF32683760EE855537D1901988D5EBC156676C7DD51D7207CF3267
311
AF1D76C2AD867315E44618015313A98B19941C696FED3461CAA9B5415F918556D7802EDACEFD6B2E45853A9735DFC9DBF7E440F9319F8B6805A973BCCDC76C069A9144E51F187EDCC12FC31B5DEAAF0A76137199B106EC84ADA6B6EE697D4E6A96E007417F4E880E8B1E89B4BCE9D81EF611E2ED8F0C1A6C25F620FAFAAB65
311
6A7C42D464880E8AFAB0E0FC8EA38CA9A8AEEAEE3E4648BA4680270A89743CDD3E6C6CBF34B7B640EFA285ABC7EA0A1E28F3CC963D114A80123EE66D0AF7D5380EB41909B605AB4765B709B808590458157E69BA1378FEC4B48CAF6A730E3BE3C5EF2DD1A5EAF94B1DDE50CEB55DDFD7EE9A16747FA4B223359FB1FCC69E11
311
94892BABB93A1D5C4E807AC0EA2E30180811E77A2291F6E7F7FAA5E0F60215BC6024E48DE436C511F0628B8CA189982D4D83CCA17D305A7E923C37941CFDFDCD93ACAF735EF5F0E61BBD3E6C41A59B242790D3A3BAC7064DCD89AA2E37214EC839820949D5CAA31E240D2948E48F690298974A96BA9A8432BC90F5071D6537
311
C9666EA4564796B7AFFFA548077BEEA75F63083435074BA182F3699557397F71548383FDA8CA34D99B981E72835ECDA5DDDC151315173D05A21F651AAF8524E88209E2E7A737ED1045800CE3390050BCFB8BE588DF111617874C62575039CA588EEFDEFEFE319B739DE2EDC147092A262611E159650E787917885EF08F1F51
311
B8F2D8A71D60B58B190FEF9541A1BE94BC19FEA50784DA1419FE4B0FB51B8D36B5FF8E1286FD8AF42B91E59A5F1CC4D60174E764045FD8C57B18209B217F89A62252BD20BE0E63E12B8E8F029FE19E0E8D0870F58721A557082250D5424F7909369376E41666C0EE77CD87CB283F661D5FB6D0DA023CB67320A20DC7BE661E
311
9E1BFE5463085C557DA1FF9BE835733766C3D139F2CF9E2208873AD0EB4814DE9E6BF2CAF81614D4D43906ED1C05A3265CABBFE192770FC2F64F940CB6B17B5F166F133C9AEEAD2641807C3E69515171DD74C4A85311513D6EC9530B3B601B6BA3EBFF3B5C3D2F7D69765141E345F75433953D013ADDF8F6AA7DC3F4A7563F
311
E5C7D367937E2900D7EAD0F9FC9A4A1A9B5BDF1FEF08532660C01C5D6DE22199AA774383E306DAB87E301ABB7D213887F9869D4942D0D71E94B27EDF216A318BD488D45DF84529EF575AF3C3938C0AAA0215B01994153E2054A0B894DA5C784980633AAD48576957CF4AEAEAFADC7C587368551C73DBE1E57C58AC713303A8
311
BFC258BD04B51724459FF9E24C03A81E0E0679CEB9B348C0DC998FEB9C6D6EFA77D247CC8F92D3848599ED89A23218D0636465AD1CEEB7DC140D7426F83491C4E8E8281C2FB35240918FFECE880CA2A42D70E8B20B34DF5221C7DB0CF90ECCB9C745B37A47E9B716FF7A97B7A252C1F3814DC7B1E1A7F72B8751D524EF7CAE
311
45B0C73B3BE7D08ED39781B380DDFC9AA4A4749C9493DB5BAD07A6EA6C092FBD0E85DB004DF06B8C9D3089C5320187E4CE1846158C7EA7DDAE8AD9AFFF21AA3A1026BB06A259845E8232DEE62811A4DA9CEAB3A4887320B76E2AE5615EAB7BDF738CBDD01F1E64064BC13D9EC53576751CA8CACD58B3CEB0E6CA585BD089B2
311
A59B9FC101403387AADBDBE70586B93D64BF3AD4453EF9C3B6A93817E8346991798601344F79A83C51F3D50F7BF2683A3605F51A72449489E0EE6169C749C60B1035651103AEE24D24E51A759C840DD3FC6504DA6FE107510E447B43461C79D22970B75DE5E1BD3007D1AFC619A4A4A69B5626AF5E9B8374E20677F77E2F8E
311
73DF868E8BEC7EBA7B6A75EEF7205E1AB9486CB642741D6E03FF13FCCEDB1C4AC129886268B01CDF4B124AF797CF784F3C6DEC97A17D4B558070A0F1C04DA4FF9BDBF34159AEFE958479824B3F58EBD1E19088A2AFDE501B6F2052368A3FD0E650A179EFAB1561E1D27527077136E652676C3670F42DCB3352F48F6BC86D2C
311
3B0051727E41A0A4DC6CE2BE9D47F5CAA2935A3C0539AF080665997194ABECD723B08129CC5B6B21D2E7D54CD4D12610E7E9FB8306771A89576C7A982002775ED44F3F744CF21EEBB27A631671D921938AAEE3EB0D19CD1E083727F607823E817BF599DCED5394E37EEBC2E88782E638920CA641EF74D4CDFCDEF06F4278EC
311
B18E31E7E9876F2D783C8BF429C75395F57E98C2B495A3DA077EB3AC3C158608B6B57FE3EA48484D9A480096FCEE0DE880950E7E5A5714131C5C41AAA29FD19AE81AC145FA1B9E85C7169A5AB837B213493DF7E9AA4B5FBF9CDEB36EBD21EF1181B7CF7366AB2A951D01E37AF4EB835D1BE8C117CFBE7625D2EBCDB0B20C5A
311
4B45CED0BCDE3EE8DA9DA78C2E21DEAAFFD1197E463C33CC6A80FB785669B856EFF7A8CCCA2841B5A5369173320B1170C368B2748D81062EA0296E5E2D95D7667A4A46D98A6FF475C76AAB0A8C8D45E226FAFC9FE0133EA9F60111F99CA81ACE03A1D14C89E8B0D69079C91464FA1D99E651D0EAF606F345C42A8A1AA9BA39
311
1031582B96D5B4176A77AADB01F12FD298A75DEEBB2C82F0B8650E880722F8DDD90C56A7A058E5FDEF1AC93545BA27367C76F5D8F9690CB6F8DAE141EDD7971F0FB548A2AE435F224D6E5954CA155512F7332029D5A1230854B79F258EC5FFDB09F5F6343A8EB193229B7F7E79B3E48F8E183860B38C8269D1B53738FF1E0B
311
ACF6AADA6D4869E9DE708E79B5DADCC09B1BC76F649731CFAF59A83FD8BAE4C749D66FA87A3810D4D62FFE826FA400C0F325D2BC0F3CA35F5847B82A2ACC7961745C823E4D863D54460AF792CE6F79B5C7A33B25C3AEA6CDE15A919B6367D781E9D44F61BF828672594A3E1D9EDD6DF179A81F27EAC05B936575D73E05C209
311
DDD2115CFB705DF9BBF3C911589B3640735E9E618FC9C36A7326C82B2205E244C55D56FDB9D5DC93CE958D4BF8174D2B3DA54CB3C09F2C2A6DFF73D23B2197355761AD421EC581284A7EF8DE2CE3497C0C804D49B41DFD6A7360844E5BEFFB495CFCDB97A4595911CDBA623274CE852B5E278AF0BEB1770E9D37CD977B2766
311
A7DED0E94B840E1E95E8C77DE5CB6354AF7871427C28ADBEEF7BA0A28E19DE9ACD75F379FE373EAE6DDDAE3834692F9C2B03B4FCA8FCA9ABE8EEEBEBB725B88A7C90941E850682CA04061A7DF0CE82ED49BFAFFD42C309818FAE14755CAAE78B0F73243ECCCAD7DF58FCB9CDFAE7A4D3E6671A613639130D056C8383C8F4FC
311
F4808C331E544DD26E4755D09EA05253B3049A1E32587CC25D72E073E2CD96D04A71BBCB0038FEC3F53D254199C3CDC67CD66640269431860225392B2CB3ECD0B4498AAE78BA1994246AE1EE78F2EDFB79F6C6CB6B5E279C4D373FBC21CB2698C9ACBBEB6A4BB6B39E16AB0E421CCBFC7654D81ED86022F9BB522146F9F477
311
2E2D0E4FA70120C95A85A417BF5078B232F4754363EB1750B2AC2148EB46B1EA72AD9B4D23ADCBC589D70106C3EC2ABEEED84DFE28E718C6C83502C28E9FDD3B09DA0A6F6F7B72B706A31C9E2A331EE70DA56A083D2177BFD63C55B11D8D949FAFCF90B23A1E24B9B5018B9A17E99F2890EC302F330FE7936E2C23F0D237EC
311
8916F5166AB84B62A21BB0B950146962D754F92CC2C8877BED8FC7B7B25726DD19545392570B3A2C66B58F027BEF412E552D12A588C4A3CC5C3193FCB3485EFFF700D0B9EEC077754A33DC1FB9E25AF814628F91DDFECB667D3F7690803F38D13F8AE39353523BB08FC6760144AFA2CE28236F65EDBB3D5F59A57D612B99E3
311
D7E5F8A851666BF9B5A6658EFC96EEB37A378ABB0EB3FDDF1303AF32C41BD1C8560745D7BD81066B0D6313359CF488563D3BA3F8E2185D1FAA3EBA1397C9D0E3DD232180A4DCADB6AF25DB3AC3CC26589C8239E66E81547BC7E2F328F9884764CA37EB5DBE390DFC03A5246B456A7C3684C4377D0EEF9A350680FA9A077E8B
311
2957B489E09AB1AD41316944C2254B5984830F691C93CAA767EECF976FA5647538830B5E63236A6F0365C1E0F3E327F24FE35EDDBD7360B0F7374837409F7A6311BECC12B7026D4FA1AE204FA3F5FE904B1F420C7A9044AE58E403E7C4848E7DA25DC9EDAC79DD756FAA26B9EA83ACE8A214A2612A22AFA19DAE7DBAC5F8CD
311
E1292A485F98DAC731A29FE01A3966E96BCB9FB5A4C8830E1B9AF0C54B87FBE221A097036E5D28D1F869F810C06A9BB0AC0612F69AEBAF893C6E7AD59460208BAB3A6B09CA4F6BDDAB8CF0D1F84B72487498395A70DCD754796E271099A567A55CF242BBED64696378BB6CF25EF0FCDB589F3A82F1116D010A9AB9FA435880
311
9EE0C973A2B4229BAA876A70B03AB49CBA7FBE71DB1832FFD32F9BF2C8E98075CACAFB36921235D0F552B6A67E94E094097A5D7DF681B40623DA535ADA7A9AD8E9A62407D7C9A5AE51D62A17A83A23728DE86BB56115804D3F2675F2C6B87541A0FC497BF0CA86420F558C9859EBE9FAD62747E323E3AADC03FDCDDFE7407B
311
09DA90B44E3185723C5381EAEF589765E2F7A099BA46695BAD60CEF3491B8A171F5F56444F7CE9455312C3498C74173AEA0214EC029833B34B650CBB5A5508D5091665309642791708ECF27CF11DB3D797D6CFE474453BD4BFADB768094B2147814D81C7CBAF8228DCAF5564B5891F5EF6A860EB2E323CB82AB868D8EA0488
311
80D63B0DE5341F1B3D53297B928A11E15F25E5148990F710747C3509ED14909C552EBE3973246FCE55D00564D8310BC3EBC5085D08D806799B77D6C57FDF5E55837F9E934F09C03C729271B64F12D0A9F9E938107CAF7BF1EC8CF1BB9B42363D33070F4CACB425E605DDB0A34A12BB936DE286B9887A4E2E558F0886498BFF
311
49C311D96C277CF6A9FC0D75AD0ECC5226D7E0E3572012E56D7FDE4410CEC7A6D0F997F225A2055B8B92E3956E875AE4993CB3D4C9063AF98FD45E1BAB165640A43439A2C9181A7C355B297C0A0CCFFAE19B6FA3C2BA238A885FBC98B8F6DAF4B94B97304878DF4D8BFF6A4AEDF79E90ED4E68F00CD7299F4E0D83E35601AF
311
0CBEF18C1E870E74758FA91F5131075004DB3CFCF09AE1DABC11957FD9808C92E8A678CE9DBE40DDA0E0D1D505AAFBCBA208232BFB6FB3704E8985E61ADE53DE74152F5C7DE74B1DEDCD37DC3E8FB30D7EBA8B9EFFC3606BF90B8D438279CB7709FC7C00D327F41817EEA71CD9E49FE9C8C9A81C70915D9F0F15958EC5AA4C
311
3BBFAF46986B90F188BDB24B89DE3C6F29EC3E6F66D84856EE96A35E657CA41B41EFD8DBFA16AD6E91439EA92B40B21C053249F51AE50EB0B24C770FFAF40DF12C8436366819C48E36547D4E7B72FE2BBF10828583057814A668BDF183F6B2E58DFB151103E56303E63D00F39C27C4661605DB644D19175D02E3F0241E8FC3
311
458D17AAAADB117CE9EEA690D0DB01E634878C04C2C9310B69FCAB831151E3AD293BEF6E46B0ABCECB50F5939B39C613D41E81FAE8D34CAE3C4566B761D37185FE864AC32FCB71AEF39DAA5BAB88609BB980CD2F07A8F941653B529567726E2B2A58D079DD57E1E5E31426CF184A04D7B03B985F276D47406AF276FE32E332
311
8BA866EB1FD39BEF57863A317634AA5FE467409B3873F5069EF0D71AF00AD189D17BA1974ECDB2D623E9E14086386A6AAB5807825C37B015BFE892AFD154920EC437EB945D958E18622E1E0FE2FA06557CE4BB9BBD05A2D40E774DA2B65473791E314B7D6C886820B2FCFE4AA272B3B8B15E7344A145E8AF919B5454D89D36
311
D413E87211186BF6F645E5EC94DCCE8E1C799022E4EC9BC86D7A0F2AFB1FC4B2CE48F84B3F49ECE65BAD24CADCC07EFF39AB06BE9E6B27A059938EA7208838455383DDBCFCD967DDE4650EF92A14FF933C975DB20BD7FEEBC4487576485963D757D16340D9599FEB362F775F38CA4185A86F74B629C81B133644A3B18FD056
311
E997E0734F9BE26D11C0AAFC669E2AC9FC41D281F8B2E1C35AE27BCE05F3DA295488096688719D974DF1B5D182DB7792288697F8763CFB43562C1CDEE11C4AABD5C22B6E33F6F389CFC3477C5919DC0D533F8A7A1846B7ADB60ABDC26C43D0CFC8910B7C15EE22675BD02702ED39DB77A87A192CA7A543E6205B979B9F5A6B
311
512A3CA799E198B2D5797C0AF8D1D872CA455D4D431A7879D4DD76110B5FF7F4176B54477A9EB5E4A5D11214FDA585F0382751D8E2582BA5D2075053298FEB8F1537304E32CB22C2E2B693DC0A760B1DFCA751BDC445AFDCBB12820ED85F6D5298933C7EF1211E9E057684056CDA3FEF3BB6052355E162DF27C59E965A8DDB
311
7F9437EB72CDDA3A090DE65A5B2F50326247B7EC67B73ACC7047FC9B353D6EE990F772207C6EC52B39DC2F3C0754821DAB559F7C1809C7D0DD5B0499D0442E0A6E391B3D5DB46D11E731E6794EC77523FBDAA242ED67F9FA1FB684255671F63C9BCFE6E7E896D51001A6113EF2298BA494E0B0980D1FA5B9D60796554C0225
311
6B1E0345FB7C6186B6A19D2DCA270416262845FA4F42DB5D9B0A0B6F07FCA2E56C242522E001E0CEB734AF310FC8BFB57E38E03AACE93B3326A2197891E68452B26A6307FDABFEE0223D3C03C3C73D2D5BC054C8311F12004CAE488E5C29287F8156A2CAA4AD0D7BE6B97264E4139F437CE73ADF52E5134C52B819777C18B3
311
23A5924E4F67AFD13B1CDC3A61793A79FAF5C0CEB718E441071E797C6DCCB9EFCF7E4A1E9F3DF3C2F9C9E8294E9586868788C972857FB0556D7A26941A7EEB9B580AD78EC40B85DC906B4120A563CA3B87797ED612D3B035962BB75F6515A393F4CB057F564CDF54F2E5A024514E6A1F901DB80C7E70B1FC05E356A7E72FAB
311
F4775B3E3FB8F70A2A8E7B6A94542BB304157978CCC999E707A29CC795E67A59CC546A5D47B368954CA7B6E75EC9E1F6FC73CE3B4F71F8CB1A6B15923D61EAAEB14626AAA9D04A26EB9C66CD1BE86CA31A5D8703DE04CD1EBCE4F5CCB62F93909AD11E55799A781A956ED27D3E738F4538CB04ADABC7DAEF20BC35BA6A90BC
311
C1DC61BA05F20D8832FFB9BC9B15E2DB838A0AFBB7E0C82A562127E0446894F427794C3037186F622BF24DE1B00AA10A23BFA47B2A180D6DA5AD6F7326FEB8C100C2D7142EB2A0B2A9D1008A09BA343D70E054AB69E2A7EDB783CBD92537FAF4A44D1296AC2792729104B3276C276C951D0CF3CF3F1E6B017720A7B8505A5F
311
F9589365979678C36F1BAF759EAF57C60F1FF5FE9DCF5F8E764FF25A2D06CF25117A8FED51884C13B2B750DB0E4F5E3D64124FCF11F0AD8F1CC3B3DA4B38ED22BF1CB2585EE6BFEBBA63FBFD44F9537B9B37BDD6B358720F98A8125AED4349CCFEB0E135F19E208A04CA7E2B10711185D72E381F448036EF57C9F874E54A97
311
1CA37A639E986AC0226DC5AA00D5B14FEA9192234B3DE617814FC221C92F33F1D392F297731B567FD98FD91D989379AF567A65B8ADF177591DB90FBEA99BF4ED11B16E50A0AB1DBF1156D034BBE04D69D08F939D8E92BF525A1DDAFF80ECBC95D8F45D3FDD289FD23F7D8B452F8EBB34EC082DEEE68E18EDDF072060FAD2AB
311
1504DD4879BF67099FC58F6E9DEFBF645D16334A3E9A127C6F1AF6132CF287E433B43A0EE93812B4AA0B194E03EE3FF91EF9C6ED0074A2F6EB18A96A7C9890B1FCDA1F2095E944DB911ED54C60DF16FB74C8CE9BDC7C54C4F14078CF73C2FFF1F1BBCCD7CF64F71407EA1683DBC410D226627F66E509060D5C0AFD611DE681
311
D509DB8DD12FB1265B03C6F5C55FF4C30BD94187FF692B4F152982502F193098A789526A038AB529A52BC0DC4FB6285CBAC10A8B8DB75DCD9BDABBB221E27D1F8DA9F5EE5926A1C8AA9BA9BC09239C6A7F12914EA3B59EFF7AAEC3FFCCE56F1C5C2980AD072793527565E774F4631DB178CEEC691B1F367BEA0CF2907E1D6B
311
854D527065979DDEF002D8B2ACEA7CE21AE297737EDE1D45B31233B73FEA35BCFDD0B09721FDBAF6432681F2FD10C3E9EFB246FD6E854B344ACC9D8A0EEF876A7314B49B6A499FC650B099D650DBFEC7638ADFD245E2B7839DA5AC5F7D5623FC0ECEEC8653FC9B2BDD1AD4D00A566FBA7186DD3C9CD26512551637498CADB9
311
50FEC71ADB9A5524285DE328B8EC7EC75D2345AEC6A27C42AF6D9B92155315C80DBFCABBB7DA0FAE425C4FB896B15C9BFAC4FE67DF5A23D30C93DA4D8F36FB15D100050DA6062E22AEC5F4DAC4F6FEEF97AE05DE63C6D38F9E068A20BC5E3B6BCD75320C5090924E7F93640A7735B1A43451C2D91EE62C6238B797349E5989
311
0AF3A520DF4A87095F3ABEC2E61F0593416CE46CDCBE0E00E2523FCCD04408588B5B6C9DB6459C786CE378770B54F51DA3A5E1DF2A3349BEAAC234A6CF8993B598B3B25B4B113E353A4D750FA7534749430F3EBF2512E7EA3FD43C6AB9A1F765A58463B306721A15D224FAFE8C6F5E3432D57EE697DA0DD5A9D4866A8BCCAA
311
A9DFF1F06047851408FEC060471D0E3EB86BFAF46E4B5E60311DC3E3CEA147C75CF971BE74689507154FF2D2E92F15CDB2B9182B11459FD8ACAC5A85F174BC94A7F4EE4C4F5CAFA7C02E37BF0BC77B7DCD0C047BC316F562A01A441AFA7931CC84A28CB9F4AA367EB515778F29BFE61195FA671F4352E5E46E3A64773F1F76
311
EE5EB36D7BCE9BCEAD837A4D77F8DB8C92AEEF6711920D7C7D0F76B0FD0EB7AB83724CD35BCA7D36DDDF5FBB7FF6F04A91F3E2BB3B8F1A43CD659639507FF6331C5F697BCC782AE57D757A27D97F1AB9E0AEDB43F92F1B2AACDF5FEC8ADBAF9F814E2027003BA2F9E144B1938A7A04050AE5D953B82C45619165C813A10E76
311
DD6906B3C16438064D14CDA713AEC420034613E1AC7241904A49FBF87409AFB1FCB9B72FE7933A87D8FBEDACECE4EDCF6A4FE9FB94D5DEB74FAB7CFEAE17EE965DF980DCCA2D04134994F9A2E94D2265DA4FE6AA7B7AC15FACAC2B5ABBCD7DFF542C5314FDAB2E1B9D8B65220B8E2B638BE008E8DCA22678C820C5053664D1
311
5E89F2D735B51A84955E81A443545E9FF787BE0FA700A76D136C27DA179A7C6E8939E01BE756E19CB292798063D8B97F44E8A27BCF3A614FEB8BE974A718E86F7EC99B53CA35FA24F61F2B07266684623A3D4CF073E511F3A10A8FDAFAF0078C577F4DF9D339FE7862E5FA47CF4344209E5BF76D783B1B48E152AD281B15FC
311
B934DCDA49CEC5706B1EE8B460F435324A5CAD154725E21AB8044B75A557A79F6C807B9340AA3D92503E866F4274412926C8C504E4D5EF8C0E68DD0B028781A6B4054F11CF18941F101C57CCC796773ABC8DED9CD91FE5788806C05E548895354AEAC96546D55B0E94A59F148D061F42AA398D822CDECA4CDE79E13469BDCC
311
44FDC990F366BA5978C15F97ED80CBFD73B0CD9B8B83A4F6845BDFBFAF034019473FB9A63BD55D3A4A7284757071574029A4D016DCCBE95DD679EF3C4880BF169422F8C89B68A988D2B13793CAED4F74DE7486C72DC94DF46B8E93D8E02EFCB1FF9B3BA10C8AE7F653DF94F4AF466CDDCEF5776687F7C4C14B63E4EED1719D
311
C2EC482D7DBCC7AE518CDE3D5FF86D39000EC3673C0044E1D308BF05F74D1B5F033A7D1BE7F74BC55BBE3E4A20F920946CA0271EB17BD2B80E5660ACB8A29A79F5E4BBA49D4D945B6EEF4A7EFEAA65E5555BBB57A7E15D2F83C69F30BBB978D2B39F1F26FC097424D39BB33CA3D87ABF64E307938B685BAD44F71556A30B7E
311
712CA4FE600613C3E554B69ADE949A7CFE214DF1FFF05CB82151EC6FC31950239F94CF7AD39DC473F6EA356E5EC2C4EFA04383CEFE985A127484366FBEE3C0EC4FEA363E4F6632AE781392FD45D67B63FB8DF70E82734F431FD3443172A0E30A83D60982D55FA6A2CF86DBA8382502ACC6CDEF3B907982EED1160E14863FA2
311
42F9757347E1544275CCDCF71ECD5F8621CBEA326B8BA884AD7F825781923E66971F04010D574C541D8427A438A37EEF8AF88240EED7362C953F5A81DE2D56109CDE2524EA0F5D2F87308C0C47BD97AD605878AB8589E17CA83930CB5E0DCCD75853D68B1AB136594926DE426C367428E9334AFAFF90ECE221BB5DC9E5BB53
311
D2CDEF954EAA9CD814F0E5725F1965DD458E5F8487683AD86B9D0076BE3EE91EB1CECC5331A67A3F79D8B27587C12EC2A6A70474749F27B4C0BBAFB94B34189E88DC18964BE4121B9137FD516C7755356E50D6714E31ACD222621EBBCD1CFF81D87479056A9DA0E0B8EA19D24CF937DA89F78E8650CCBDC110AAB6C4E46DCB
311
FD0446BA9E2060E81F314AC2031E88135E5476AC0160EF5C0DD2EEF1B8B5CB2D198BE9A554A9093B5F7D7E4B5407DDFCA1D9C152FD97F55BFFFDFE802954DFEC8995B983E28AC92F1971E28F531DC407A1280EB125F64A72E617EFB27DFBCEDCDA2D6F2BDADA36873EE46B9BE1782998C63DA7182BC383FB6FD15DA472B175
311
D7E8B4FC88F38D6E07FEAA3FA3CBB8F6B449ECF14D2175E5C5CCA3A42ABF24CA6C9395AF74535F4DDB38CB84F56614B0FD32D7E19CA5CF988DB4449C40E23DF2B16772594554579094450F56F253CD25EA7F77366FB1CFE79696C428BB64D5A41E986189427E5E4D7E2DAE3D5BB4972B3DC44EAABDDDD63A2264ECFA5C786E
311
B0EE1FDC5BE34FA0F08376869FD1E61EA06CAE15191135445EE8F0394161C3266A596AA035572BB0C8876180D8B9C77D307DF9DCDF7365ABDA6F3A2366436457A4DFC1F259666569A9E4A79C817BDD5610E5200FCE894A358EC72858D50EF67545DA81C6FACE3D457BAF70367E1E6BDD9A952FB4F56247F58F523B97E64024
311
6051A72F79BE42FFA0B3187F63097F91C48B868586F714B0EBD5A00A8412C1236E1298F60C72BE6C96B82B404CADAA304AE9F303176B14BA53FBC2D5E86377E35542019E24D97B96A49B2C0E5006E7795954DEAF5DA58958839043C6C70BD3B1B33B6DC5C31316D8A6923F142E26F6711A2258AF977DDF1F970ECC4F1F2B43
311
4B96D81BEB6E89BF3BBB3C7C8CC80505070723D6D7D7D3C8CA27CA164A26024FED94B12A86031867241DA53D929636DA600F050BC40CE48B8BA03D69224720DEE2ED2127390BDF5E6EA64527BBD4C4C63FA76BB801FEEC0E61218EC98A8A86CD8313781617877E66692839B9468CF4DB8E50A73986E558E309C0D6F676F921
311
BE02F1185454DC75B111572FF9D27D85EA14C05AD7271225B391C4275659CA4A43759D0BA44639BE4C30A84DB7F67A41399FB95CBF923B1B1672ABC807C1590557FB18D811983FA97F5E609516D62281D38B1281F68FC75528C35E4CD7DF0F7DBB5E5DD69C414EBEA2F4A5B241B996BA77AE6C772E367408C633EA3E438B68
311
563EA8BE7667F3A4C4FDEEA52ABD78A2820F443B7914A15F180018D231E64519C56A12F6CA7C8DAE18F06F6B769DBF92329EF6A5D18FBCE600F36BD8E8198DE5CDAA96181F3A756EBA5501CEE58F497EA4F418A2B82565B9BCC611713C0B708CCA1F398B78C5F7D03B3437CC18F13061F55C7BEDADD5ACB1DB0E36D3CE47FF
311
6EA1A563A57E9649EA5D14D1A50EAA457463381C073777EF1600607BAF6428A7DDC079D47A204EF1E1F1F0589FB054D45E02CE623B3823C317C601E589E22B1E88B448524B86A82828E32345EC18AE17214B42F8C41C6D428016D9BA31DDCB47572561E5A402E5BA4FCE55F78AF7268524AA04130F3A20BA5D1E9F9948EA48
311
FC8F5314FDB35E21898198060034ACE5E3E2BBCA34092518F275190AF65F45867FF0900AA4B81F25427414C372BF51DC29AA855C5428EE1EEDD6B849AD60F6E73475C2D2523F8A2772C840A478DED18A8C5C91B085F255DC4F54EA7AA8947354FD17ECF8FB3B4A0DE7B483CAF3A1165EE05BBA413E5C1FEF3DE1D6B8F2F3F3
311
251C17D9FCAB48A9AAF63AC773A0E413BBC46A9ADF84A566FC920E4D8C52C9769EE3301CADEEEDD92B312E02E2A7E35B7F1E7D203FE5A7D75578B06E99D0E46FFADB8FDA17ED8880390DA29094202D6F645F76F6F96409CDA05495A96E84B04A00D1A6C6C81D7F3DE9376E828CCF144EE50E364ACCE7237EA0BFB5607ED1AC
311
3CFE73794E5B61739D14DF1743441B1AC98F00ECEDE9E7301FA29755FBEFA68C91EF2B314CF510537EF1ABFC9A762496280B546F5EDAAF8A5B387D469FC9A878A92828C88608453ACEC6094DCA54111E7AD5B2663DFE2DD151B7F123B9F4FEF8EE36AB125FD7AD52A59B1B765B3E3F73E3F73DEA93875004D2AFFE3CDE9493
311
B87A9904DD052028949041A91DC0E1BA47BA714343FD5B25E0A6A09503AFC17C790058A836A324FE31D7893512E28230332F153181C1E018E1124EBE1BA262AA428A518237D1EA7275E48C5C561BD19ED6912EDD8367DA0F31E40EEAE9683DA9257525AEA7B632B97119E17145A90231768A4F3B9120FF32E8319B015E3CBE
311
26F1A754177D8185345817C096B0CE443A955D13AC15E1FB5DEEA0239EC32A3C92241A237B0B02FFCB4F93CF2B02570C8D192E2F2A68CEEB42F12E6F8CEEFF46C251E22B4341C56FB08CCE550E7A9D6F4D6564B9EA52A83D5BF2C6E03FA19D2775E15A8A7ACF30A13C259EE7F5EF2AC3BA354F1500E1A07FC63FB4686E2F12
311
EC69719F9ECF5FE3F35598DF2CE944008CE78F0911BA5BE5D0A34E0098FF038669C26030BA9B300303039852A8F6F496341737CA7E0D2E3AAA36DE0A70AA7D9CA0D54D9AD84B18A44C9E625475E1C97B93BEBB38DCE7D227E67A2D00F531436136355F243D1FC0D712C5765754FA22FCFFAE97919161F46D6E61ACB37D8377
311
7B385889770B50765B127768443A5C4D3A4E35A3151111F146B7CA116F918A049F1C272F2CD7976C69A0068773451659A97E0F4A08FE604C3FF6CE7385DB19F4D3ABC8A0D80DA8A42096AC377DB49382B36E270B6FA7570188B4B7D1DDDDA82ACA487CCA5D38BD3BD039ADBAFA4ACFF27809239B722081E2EB9F145320553D
311
183F28471C388BC8814E5045676767AB58A8E72D1CED2CA731379515D2E533E4CF0B39DFC625F97AC4836831A4DE330E87A8126FA17EBE583D614E71E22A8DBF2825599743E0640037303E8E1B1E8EA4E1ABFA4F62907B5E4E0E5DCFDAB417C36C6848A2B8D15F1E505434C0707E16B1CFC2A1C36A42BBF55734F8F4301DDC
311
2A5110CEE8C0747F69519265012A2174BF4E955ECD4FDE095A3ABC70536B7AD0B9D7892F81287D667C108703C9B66A221E9A0929D030008F77FF6F5D2108EF5706FC87A3069B976F7C9FC3239D13D283CDEA83597461079FEEE049B0F392889898B7D87D31F8D60ED7B56B91823A8E4EDDB36C6172ECEE42BD42B12CD67994
311
FA0F0DFAE9389356F4CD4425A4B8AA55CBF7ECD585C6A2C2316791E43D5C06841ADBB226A87FD61515FFBB0167B74E56BD7F3E90A57A97FEDCBDF483A0D6699A8C0849CAEB4947FAA90D8E332D9DEBD9F4738C37DA0CAF9CF3DAA68BCB67C420459C7A64498D6E848E5CADE92BB6901F607AA331104A67F7CD650EE169B1DA
311
E94D2C31C2F993632259B6957E246EFE4C5481107B07118607700040E5812A2A2A38DA0076875258C753F60E0F2662C748EDD5F3F3686B8FC3BD6FE631ECCAA1E8B1C1E565AD117E54893E79F4672E32F9E46B2A183DFDCF3EECB4D4D077DBEA0DA254D256045109670050129E9B9B1A9E4A11344D61497A99277809515151
311
0C4BB7EF2009B63AA4360635312E4CF668B7E0D3D85A8688E2BD83B569439892ADB63461930D428E0DE42E4AC57CE48DA5CC1449530D8BD3D6A0F08DF20C8E8F570F2CFFFCEA286E30969B4654D498A58D9DA782E19FE3F002181838925592C4A1EF0B332D88B61A92C644547BED490D3A42CFFAB70E36D961F694F6307F72
311
FF15A1C79D5B1B5CEFD353D9E2B52566DEC8F8F09CB3E8359C0F68EBBB7898243E34E12A015B2685AB303C04D3A9E00671FF3DFF0A184E4A2ABEB2B666AF5B3A209C73D8EF29DCDB069C9F391EEE9DD0F74C7BCDE16F8F02E3B8816122BBEB50665775B600549D8BB33A54A6BF940C028118BC6878C79958D6784F9DEAA6E2
311
6748386FFAF8D0D0101E2847B6563F5D8DC1D78F787BE00E2C941AE12148D4A81599FE8F68D4DA5CDED75530ADE138240300EE13B0FC13A1687FED6774662C05A2B7DFB186732F0D7A93545D8B0A6390AE5054D9CB582DA846D7A061B3358B45E2B52DDE63E114397EDB7E09233A579155D795BE76102CF277F4DF8B188C4F
311
2879BEAE3C08347124BF9ED23B128259FE107D31E34A652F090B30B39E0D9AF917B76A2806135621A8A60681F16AF216514BBD02711585B5B1AE823F4B2D0369EA5B6BCB863072727FFC871CA6C9AB79A814D989057E9470A3D238BC87CBB4A0EA49AFE2B86F22E499793CAA9047080450166BDC357524561E258C77CB697F
311
1ABB32562CF87C3B7AA12F911EF19FB3E5C02222E887D08202A60A17151F5E053A86B437771088B4FEE14D652C43E8D939995D34545E12E2FF93D4E366EAD25F10CB7DED141563C3D0C447AF06078A91135FD4B9611583CB4BF3BD167F2399CEAB0E0100F8FFC305F00F1711717173138B4B48C83022295DE657EFEDD97F23
311
8ECA80F528AFB4F8D67AD4E2594B9A3AA86D7487EFC313BA95745C186F0CDD84CC12DC9CB0424B42203D351FD9C0A3AF10CC7F388E0329279087386421F194F4A29464C1DEF7EF8BE515E4A199DCD5B909342598D8FE6A231F71336248D5CEC5454455C7BE383B3BC7B260FED27F703FDC39A170F3827239102F59D4DEE7FE
311
F82EAA1A5E4BA94DCC4CC44E7E2EDE20F24244E4454369D2E87C3F823F193FD4FD27E1C23984B01898D15ABC20711A8A558054951A6AE280096BA36CBA439603B7B0B4C45F248C14B2383B4B5CD8ECECE4FF859AD4A6CA2326D020EF090F4041D28DB66E5256B56232CC52829DE8060BAE6BBF37D4B7469B822454FE93210A
311
3E8D15E69FFCF01123222611C51C4FD0A041A0CFA2471CF6BE38D2B20FA4C3525B5B8B586759475CF80ADFE67A284AC24651E52B8E683D24C2622642F27E7C3C22783BCF63648BC398BD6CD0D9C97E7E7E3EACB6126DB7A6C1FD9F1031302EE67ED96F22B77C7CA0239BB324207559B105E4693EB26EC46182A92C9C0DBD24
311
F29B31C5C5AC1F84300E0E17CEEAC15F5736FA4A98971E2F1423BFCD68D4BBD5F86E74B40A369F39507C88FCDB35D2DD8DEBEA4AF999E23CF2816D204200DF6E611781B9884C1AC8888B4DE397320472959434323A5A36B22A8E1F721A270DF3BD65E4A31C11FF048AFB0D8B7B6881423793963A23CFCE935FC189ED36FAE3
311
5C46DA3574C979E4394BE52084F3081837BE033396D2EBD80F1F691B273F660D2B32FA27A33B1DE4ADA5F0FA4651511102DFA410DDA86E065272CA314D5249DF91B06BB92807B28EFD54F08F7B525252782CD276DD02E6B0319B13DF87B1F6361AD6B28FC0D711CF445429B9E5A433CD493051C49A9E03DDB1B147D8802535
311
14A5DED88009018620EE229101C041950E2D8AA8E1F5F5438E0C0C0C60EEDEE9E3E0C051948C69F84BB7B2A48A1F3C8EB9E6864687F4F4F6F6E2FA87608ADAF9C5E117B7C1A737E710769DA1D15ECE6A84502AA855398712D5FB51BE92E4EF824969CE18278798AC303C2C7980DD2500ADF8FB1E6D6C2FAAFF998717892333
311
4A244758BAA01A9A1B70FA5097D01E1CC2A58DAD0EC94CE6430AA9B0C10D75E3C6BAC670EFBADEE1607739CE0FC18A2587E3EC3058562014C64219C69BC269082D5C2F4A659278D585755912176D78A1B641719C2A394CED495A1AC5D583FD2F5EDD93308EA7EAE8A6DD396598BDBD3D4CFED62D18A5BDFDE0DD5C80D1A89B
311
A62697B131AE7CE9A6594138582F1B37D68F1749AC7CB67A70695D48A4A056AC1FBD4E82358CEAE38F54B95A9016F9000F9879C0D9D131768635CA798895F27D6F1614F11F2838A83611AA51C9A3DDB539D42979C29F10465655C17BEC3E2760B80DCBF609198C7B171A531905F3EC218D696025975E986C6B4C6666667872
311
71F202805577DD5A3EF0CAFAF91B62DC4B2DB4217A7606282F31D8DDBC290593BAA93EA6353AFA9939B877978481E15CFC9F2755CDC00C538F63A4BA3E80AE009B73CA0185687D339A507D165B74290D6EE46D5C58148F020C3668ABE9EF2F7549170DC80DB41FFC1D678FF19AEB10C7133832B104B80F691B3138F97A92D2
311
6E551F1F110400D45AC71A9B9AC41A1A1B1DAEED0B0810638EFFB511D46B121C6FEA0F38CD00E03CFFEB9713FE1F9C263E4DDEC160D0497FA9A132BA608584057FB15380825DE6C7FC3C667EE947D488A09898D8E939C4953BF4EC9836344D2CC6B2971B2A21A572B06096F4982D2CC7232D46E8EA69DC83722E267754D777
311
F97F96D5DA74E1E75178084D0E70F12AD33E5F71EF2AFA599B2BEBF60A5BE475F444F240CBFE8143C334E7ED9150FEEFEF7EB020C4DBED388DD1D6A167A76F3CBF119B578AE8CFA7736ACAFA4440A1C47185638A0D2F3EB5BDDEFDA958FB13CE4AA4923D5BF840392D45544329525749734866684BF7F8D9D54D892E19BCA9
311
F829A0F8BFCBEEA6CFDFC61D74EA1A645ED7A1FF241739F15694BD835B66FEC5677E40FE69BD3F91AE402F036537218A401CB0828604AD189E575015C6F3F6BBC8AC79CF6C70653847254B31551EFCBEB5978B9DB85D58D0FA41A9DFE9C624834AA04949D24B5AE6D299E072D152D12097920F14AA92C31C3B97E28B6C2E6E
311
9C23D63043ECBBC0A60FDF5BD0C33C127EA8A3308B8B6AFFEB28B4455BF6E7AF4FC6222728357EB8E46E85053E6A8843AB23295BF838ABDA94658FEF3F832F147046B4ACD6F7D48E8FCC9618582961C898D1C7A253C91BFECBDA6BA18A1FCF70755DCCEE2222F41B76D23CA98D0CB3D95F0CF66D57FFF65E2A90F5DF40FC31
311
87621E981BD0BC1D992787212688976B94A8F0C6EF646624B570B78E068826F87CE27041A95C9A4871FF65CC17FCB1639629AD6A9517000D63AC231F3D741CB8430777E7ECF80CE7A3F73C0F162F7E56AA71F4DA80A33CD6ACEE78E2C11FAC03DAFCE929B106F8F6B3ED2DC71FF994BD9CEF4E9A94896EF1B6E2B7B4978168
311
BCF0847A3D2A4F1B0500B926E634B174548E9FBAD27153FB5FC36799B1E6C7C38A94E1F9E996796D7B485E635D5287A2AE76FBD11A341DB3F8F810385BB7296391973DC6C37C452A9305AEBBE0CDB6C566DB59FE60C8E94B1FD090354BF51439FFD1B48D725228FFA88C84F686F547107A7A235665A4593B7C34D748C1AC8D
311
56DD5DA861EEFBADDECBBD65117E65851F90351AEB65F0EFCFF4BCFEF24CB7A5879699FAC437A7AF9099186CF006BB923A59E37D7A36A29FD8D2CBB914A5E9D0A8FD212FBF796AE9A67958FF1D5D8B85F78F96219D4714EB919929241B6C018AAE0C02069F8D919961EC5DDFBFB7573E3AC8E08BFB7C8534BE6DE045B3CD63
311
DBD71F7638BA2309CAE398EA3A7D8F98BBBC7AEB367EFA5CFA27A9F8F2F52FE878058E6209C026453F8E7E8A237DFC389E9590F6059B397CFD65183BBF936E86896612A5B5FEE49DAC8455D026218AFEBEC12B3523A45B57B82C9C97E02ACFA1184DB18E48CF615DBF39C3CC6F0B4AE6BBEEA2E39D944E290302FA3DE33FA7
311
E40296E2EF7BF1CD855BBECFAD0FD622BEE9746FC4FDFDE545AE6E3BC234CADF83A0FB76DFB145BF3828AE3436368AC24989454F8FF70A177672C711CAA1A76107218CF948CA01F873520E7A2B118EBB161ABAD432932029628B6761590C98AB590C8C8C79798CE9F715BA696E839E9131A4BB68BE923F1747FBFF165331FF
311
DD4D05997ACD168F12CA75348DAC04C7F509FE83898A8B421181AF492861CE81E4A2DD0A30850CFA95E05F097FF70F9E777310D584A75BA7018922E271DAB1D785671157685B7D383D3E074DDB4F1E44EF04B07BAAC75A062077C54B9752C738C9D804D402E02851F3F89605AF189738C18C021D2139EAF72513824E10DDD3
311
047BACC8521ED7E98B257D1166903B1B08FA6F918FD7E162913FEC7D0EF4787E29C35FBA8C6E2C9C20E9AB30AE42CA2A01A090E7D010C1B5BF9CEE2A304BF3A987FB40D836979B79E18D70F257DA61E808472DD85B82761825779D6B90CAEB0F23360C6F80A7D7D77545E95B3DFF0CF96A827F9B5BCECD2C9698718417EF80
311
FEEDEE938AFF55859D0D540B7FE09435583A6F04874A0C7E8CF234DF4879722000167F5872CEC6BF3EF7E5A8CC8121E6A359227C8A29C95212F9F735BC72A887D56B8F309FC525BFB4FD767AAEC4AEFF249CFBBD2DE1AB9969A6155C7D8DABC307E47324C1F916C7BCFF40ABA5644E9FFB9238D19ADADA49D9610F01ABBA57
311
E4DFCBDCCBB2B93C8953206C91DE01B0E2651A6D6C31721915B31F7B7CBCE55466F6D70402788FA91D73BE4ADCBA99A35F17D6B83383704917D6833F0FA3CD45C926ADB8BC17999A4A0AFBCE2541F7B8CF4C2F5FBA611B3E626D64407CB32C122DFF4EF8674D6EDBB86C8F7C6A16D50FA685E2CCA34F8F7D1D8265BB0042E9
311
D7F1F666F7BE5FAA5184DF58E12122A42EF02F461B3F369AC746F96528AD208512AB56844CF75B97F352DF7995024FB02855385854F3798670D01CAC771AC3E1889EC25F61A20C1F8CAB46898817F9C47E2CDA1F286BF2F358298709FE567C91133E2638C8B53975E753EA8BFD3578B5F7186B7BF084EBA3F77BAC3132A577
311
9902EC22AF2D2E79F42D324E083386DAEE9810D1B44A5DAA54513C7A71E52A4AB9257D975B621308FE4D2141CC3DCFE946C154A3C1DFCCA7629EC69ACFA831634ADDA93C0388D2A9A2DDAFCF957C6995BCE7FBB6DC4EBAE79E63EB08E9A25F52F67076F7093CA545CA3053B5BF576DEAD4E0017143C5F759F32B2D6F145B52
311
B67B48909B7C7FCA6586EE385A2189C16932CB6DDFD9152AE317C430492A578ED27B72D85D40C7C93C097939E1B50F4D67F05334FE9DC362C30B7FF561B95259138ECFD9274C8D695C31B14D4EAA9F3D7FA8DDF652F8C5DEFA23284C799B7D94416DEE81E05A866302DC70192A5368EA65E1CED8BF107A1E2D3119A71E85DC
311
1A7B0C1E93274CE04DD0F2ABC8AC7C987FDB002B6F81757B43502EF7A0D92E416494FAEEA4C9C090CD9557AA4D532F4996A272B94355C5A0E4974EEA9627476F30809B94D8D8D860062E02204643BEC7D0438AF800FC7E2B26955D595421E83C69E1A07E0E3122285835F014AD538188CF9737CE76D464A353FA55A001AB25
311
26B84E985083693BC76FE211CA1D000679C889E3C009832C87E1AC2EDD05C302557422DF0800E316FCAC86978A371F025A6C7DAA9F333E7BD160403A1A06EA75AA9888FF01504B03041400060808009D81875128BB58AF800100009E0500003D00000035333241334646412D313243452D343844432D394546442D31413039
311
43363839383539432F536368656D61732F436F6D6D6F6E536368656D612E786D6CBD544D4FC23018BEFB2B96DE15493C78601010A34B880709DEDFB52FD0D8B54BD70DF6EFED3AC0B12E6442E2716BFB3CEFF3D18E26FB440405EA8C2B1992E1C323095052C5B8DC842437EBFB673219DF8DA659866649B798C078B48AE641
311
0122242F2A4994AC7F93815DF85C049C8564CA0A901499DD886B2EB9B1E02448F358701A9235880C49A0119892A20C89D1B9FD768815CAD268CB5E0355B40B1E47F3E37A2020464BED06AA57CE8FCC20C3C3446D46761A2632A8C1283D07031EFF2AE7CCB1BFEEE916E406DFAC8E36FFD99A9D60A6944090EEDC3B670C7DC1
311
3DE86B6B2C5C240D6E503BB85ACD579D513F1B9F9A69DC9CC22AFA80C426D40AF0B21EA168559156B6276F0F726A6BFF04DCD513A87A62CAD41FB24FCB2858B3952E3D852084DA25B9303C15687973CC8E8AAE11DF2836C38C6A9E765E8C1BA1BFB1DC29CDFE518C8B5A7655A4ED7E77291ABEB80DBD82EC866ADE1B8D05AF
311
9E35CF09D7A061F38A986D9EC412B8F0F65E5D81534D9B231D1E5A8FE577A241F3A5FD01504B03041400060808009D8187512CCEBD668A040000E01200003E00000035333241334646412D313243452D343844432D394546442D3141303943363839383539432F536368656D61732F47656E65726963536368656D612E786D
311
6CD5586D6FDB380CFE7EBF42F0F7A649B70E1B90744856B4970F450FCD7A5F05459613EDE4174872DADCAF3F522F8ED3B88D2F1D06AC4050DBA2493EE4438AF2F8EB73AEC8466823CB62928C06C384888297A92C5693A4B6D9D9E7E4EBD51FE3A931C22EF85AE4EC6AFC38BF261BA626C9AD288496DC3F4FCEAFC63366845F
311
7A10452AF41DB320C0D44EC26EAB20918735565582695670811A6A49643A49A6E9069FA4604A64B29016DC4B48552F95E4932463CA888468C1D2B250DB4962750DF7CE273069CE8363F1FF4EDB00E0A21999574AE4A2B00C353B93F3BD4777B8A61ED8F604ABFEDD79CE56A2B7BDFBDBC50996E0ADDE16FED26223C5D30956
311
C29BDF4A55EA686E5E58B112DA45CE67F76F4FA27EFA3FB672FD7372FC388FAECDCA5209E693CAD167BADCD272F943701B3812F8A3D852008B1D2E32DB927B2F833C6EA95879925356D254582695095A3CE982924720BE5774A3CB9CDCDB350427D2DF20DA1B5532EBE2D5D6288D75D4F7E4FD9890A0EF8E3D93EBB8F8BA47
311
58158EF6FB90A6F9520281C93DE7AAC6D24607DA296BB96018123F821A7D6A5C5884050C475DA4865442732C8B95684A50165CBB3A32F25F783A4A480ED59AD7F924B968AEA50131F46303223E6A397B0E52976030DC1DCA81D7E7C1EDEEA42C19FF27635C505E2BD5198A599020DF50A2330FCB3AAF28CB0124108429553E
311
F1B228802E2265D8F7CC2401042B155BCC7070F1E5C55F13B4A9577362CCCE46C32174E010C3C378C44841A4BDA00FE3A12006CE11EE6AEC59894D3526DDE1CD59D503ECC324017F8061B7F162162FA62EDD81AE3308617770796DCBDAD2B2625C5AE8A63DE20B2C8AA5E95E76E5730823955956E33E705425A2187C185D36
311
489A1B44D3DCEC2172F6BA2105C3546287A7194B2331768EBBE64F6E70A9930ABE0ADEA89E9E2C38523B810287AD67A54A039C1606EAFE68F8304610BB9093DBDDABC0B2AE4E290DCDA15376D7E39F72B556F0B32EAB5D3D498B4C41ABADEC3A1434C422D87E8025A84BDCB2B1417ED750FAE4DA8976863974C577C7F902D3
311
F156AD354DEA3540DE6BEAE2BEA52F7A2EB4CA43802ECE5BF2CE2EDC9347179FFB023CE412E60BE16DA0BE29B374988A553F561DC04615DD35F7D2C8979F60E5955CE93DF29DED8AFA1EE6642D53418086C03C47C377910F75F7E8F5EF665F70B60FFB22AEDF897D119E8423C773E819A3C1E55E550599EE6EDCA34D0C86FD
311
72057DF2CD46F16A470682471C164E4346D5306BF12D7D12D82CFF673D41636C347443FEB51B50D72EA171A8E4A58623A4A16E0FA2B8B10A0D23268D87C33896EE8FB73305A74BF224EDBADFA0BD674AB354D63DB7BD5D83426761C077DE767728235446A552754EB93B755891C3C4CC6CADE37CF0E912A7BB38DBA010F9DE
311
1282EDF470CA69A9CDA482E334C4A6EA4107987980B17E72F31730EBF88BBD39E7C629F56797A3C0009C2C5AE7951D9A05A02773440F02EEB4DE396A3B6A570C72CCFBCD823B0B8ED3F1D5CEDDFED772FA70236C83FB7D86C385D570B87107535572A60A96035F8F7C6A7192F13007246BBE0521855E6AC46F3E27689CEE7D
311
186A6FD679D98CDCAD13333E04EBE7ED6F55FF01504B03041400060808009D8187516180134D5F0100006B0300004500000035333241334646412D313243452D343844432D394546442D3141303943363839383539432F536368656D61732F52656E6465724D6174657269616C536368656D612E786D6CA5934D6FC2300C86
311
EFFB1551EEE343DBA41D1A103009551ADAD40EAE28A4A68D9426284961FCFBE5A340113B2071746D3F765EBF4DC6BFB5407BD0862B49F0B037C0082453059725C18DDD3EBFE3F1E829991803366715D474942CD30FB4A782E00C64017A412D684E454CE3FE28995203B162A6EA5AC94B66997D225E109CD63B0135484BAD1B
311
3C07E9080CA35DB3119C11BCA5C200461A68A1A438126C75E3E230D40FF81FB3F03C91D1E3A3A0AF79FE28E25BC39EC3E17E4C2A2D94A0833A51AF55BCCA7D88572FCBAC529C4140B020FC3AAFA886621DCED7EAD7664CC86024E806DC297DA1BB393E4156543457A4537DB8817349A70F8ACBF09B3EEE2CB2F33E91B65D60
311
786E4E3B39B77E3FEEEF5650424525DA657FB8B46BE6BF064646F0A0F7327C0BC1BC1B4CBBC1C419FA3CCB23500007872A2580CAAE5461865565294E4EDB4617B62FF579DF9A5B2F54E834076A597573A020912FED777F9B3F504B03041400060808009D81875162F4B6575100000057000000470000003533324133464641
311
2D313243452D343844432D394546442D3141303943363839383539432F4173736574446174612F41737365745461626C654F66436F6E74656E74732E62696E53616060B0347573B37434B2D0357073B5D0357175B6D4757435B7D47532733132353031333535371602AACB4D2C492DCA4CCC492C28484D2C4ACC4B4E050A82
311
012F90744FCD03CA26072767A4E6260200504B03041400060808009D818751F865834058000000680000004500000035333241334646412D313243452D343844432D394546442D3141303943363839383539432F4173736574446174612F53747265616D56657273696F6E5461626C652E696E66558CBD0A80300C06F73E4B
311
117FB66E451741D041DC5BF98480A492E4FDD18EAEC7DD4555D89EF28DF51A0B1BD8340C4DE7DD848B988C0ACF0649566493F2408C508DDEBB99D5129FF8F1AF8CF5B9503E20FAE5A16B5AF702504B03041400060808009D818751A79E3928340100009A0400003600000035333241334646412D313243452D343844432D39
311
4546442D3141303943363839383539432F4173736574446174612F636E782E786D6CCD943F4FC33010C5BF4AE43D7612897F95E30AC1D209242A06B6AB7329561D3BB22F08BE3D769A0154C4D4A1EBF9DDF9F927BF93EBCFC1161F18A2F1AE6535AF58814EFBCEB87DCB26EACB5B56AC950CDED30F192B1C0CD8B25C664AEE
311
839FC6A5D4610F93CD556BDC6129DEC788B4859DC5A7FEC13B42479115DA428C2D8BFA1D07E03091EF301E780704BCE601A39F82C63489CC80CB241D10083BA69AAAA9CABA29AB9B6D7DBDAA9BD5D5DD9B1459A9E4CE7BBBE84DBA2CF8B1D0C75B99AAA4C8C74A4EC12C9AFC16A6FEF2C877C64991944A460A89C9D2415F63
311
EA8071B446032574C26B422A93086190E22856526406BF483C626F9CC92D9B640CC887E7640F0319BC3822FF793D3F998D8B044EE3E5F23875787E0A2FF30F7A3D06724ECCA5E5E4D42137AE3F434AC4BC465268F25651DF504B03041400060808009D81875172514402E40000005E0100006700000035333241334646412D
311
313243452D343844432D394546442D3141303943363839383539432F5265736F75726365732F39354646394132382D304645382D344543392D414537392D4236443235303436353537332F7468756D626E61696C2F302F636E782E786D6C4D90CD6EC4200C845F05714F4822F56F45D897E8692F954BBC295A82119855FBF6
311
8596C39E6CCD7CB23CA3CFDF8717774CD95158E53C4E5260B0B4B9B0AFB2F0757895E26C7422E2074C8A0007AEB2C9D2E83D51895DDAF00AC537D5BB70EBE28E0193B31F31EC52580F39AF32DB2F3C6084C2B461BE8D1B308CF39830534916EB017607F6033621306ED22CD3320DF3324C2FEFF3F3695E4E4F6F17AD1A69F4
311
2791EFBC0B8C89A2B0549750BF99B46AB6D125B9CEB408D23CBCA655358DCE9C6AFA0EF14FAC10C4E89D05AE2529B28C3C5408E1D0EA1F365AB5B475FC5551676BC6FC02504B03041400060808009D818751A233C2345D000000800000006500000035333241334646412D313243452D343844432D394546442D3141303943
311
363839383539432F5265736F75726365732F39354646394132382D304645382D344543392D414537392D4236443235303436353537332F7468756D626E61696C2F636E782E786D6C4D8B490E80201004BF42E6EE76F3C0F216234B883063108CCF170C074F95AE5473F5C4C06E932E4F28601967600677D21E9D8092EDB002
311
539227A2FCCB80E1168D80A6417297A89C5D6963B7129A0D1E8F2EE73AA7B62BBEB8B27DE50B504B03041400060808009D818751BE89762363000000880000005B00000035333241334646412D313243452D343844432D394546442D3141303943363839383539432F5265736F75726365732F39354646394132382D304645
311
382D344543392D414537392D4236443235303436353537332F636E782E786D6C4DCC3B0E80201004D0AB90EDFD75167CCE820A4A845D83603CBE602CAC26799919AEEEE0D965E2E908050C6D0FCCE04C8BC355404EB6198129C92351FAD580A10E464065907C8D948F8F166375F655BDC3FDC3B4E530A176BE7057BDC43B2A
311
593FE403504B03041400060808009D8187519E888EE77F000000A30000003600000035333241334646412D313243452D343844432D394546442D3141303943363839383539432F5265736F75726365732F636E782E786D6C4D8CD10E822018465F85FDF71499286C80B382F77089CE85D0485A8F1F342FBAFAB6B3EF1CD17D
311
5687DE36BE96E0259C0E0490F5F7302E7E9690B60933409D123184EDEF06C80FAB9550302831C7909E3B1AED342457A85BFC63879C1AC3FB8A616234C3B5BE72DCEB96E34B73AB28A91B4ADB73368E45C9F3EBE52D79F505504B03041400060808009D8187512F7AC31E080100004F0300003400000035333241334646412D
311
313243452D343844432D394546442D3141303943363839383539432F536368656D61732F636E782E786D6CCD933B4F04211485FF0AA15F9899C4D786610B0B2B1BB5B243B8BB9205EE8487D17F2F8C14BB899D16DBC1E10B39E77011BB4FEFC807C46431CC7464032510341A1B0E332D79BFB9A564274544CC271825417998
311
6993A914878865E99281BD2AAEA9CE866317EFD17B0CCFFA1DBCA2443B95D24CD3BA65AA6434908ECCA8ACD8C822242C5143BD215B0FFD061D416530544EC3346CC66933DCBC8CD7DB71DA5EDDBD0ADE4829DE105DE76DC81071211AEB22543B83E0ED588A126D675A062A4FBDB1DA86E0959022E5583BE864FE5A2AA996C5
311
59AD72AD8AAFE00F23056F51CF023F408068F565263E33F76F919F2018888FF595A255EE3293FFE6F16F05F075F6EB08B4AF20BF01504B03041400060808009D818751E3603EBE7A000000C20000002C00000035333241334646412D313243452D343844432D394546442D3141303943363839383539432F636E782E786D6C
311
6DCD410EC2201085E1AB90D9DBEACE05D09878023D01A1D34A8419C380F1F82DA68B9AB8FDFEC93C3D7C52546FCC12980C9CBA232824CF63A0D9402DD3E10C6AB03A3397DD192872090D3406ABE7CCF5B5D18893ABB1690CF4DCF02282E5EA8A5BB96FFE536F285CB347F95BEFFE81C9ED5AFF9D5B1FB575BB00504B030414
311
00060808009D818751FF8DD3977E000000A300000007000000636E782E786D6C4D8CD10A832018465F45FE7BB7AC3514D410CBF78865212B0D97638F3F1D5DECEA83C3770EEF3EDB8ADE36BE5CF002C8A50264FD234CCE2F02D231630AA8933C8670FCDD00F971B3020A06C99718D27EA2C9CE635A0B5D9D7F9EB06D6AD518
311
A330A9F5806FB4D7980DA6C744554CDF29A32DD3D9B81625CFAF97B7E4E517504B03041400060808009D818751CA1DF9C9A900000073010000130000005B436F6E74656E745F54797065735D2E786D6CA590410EC2300C04BF12E5DEBA70400835E500FC800F84E0B411AD13252E2ABF27A55740421CEDDDD9B55CEFA7A117
311
778CC979527255565220197F75D42A39B22DB652EC9BFAFC089844F65252B2630E3B80643A1C742A7D40CA8AF571D09CC7D842D0E6A65B8475556DC07862242E78CE904D7D44ABC79EC569CAEBA537E3521C16DF5CA5A40EA17746733E0B6615DE7217475F386F18B9481C510F1F021CD9FF027EA0E1F5C4E609504B030414
311
00060808009D8187513DEE336E64000000790000001B0000006175746F6465736B2D64657369676E2D7061636B6167652E786D6C35CBC10E83200C00D05F21DCA56CA76D41FC96062B120735B69A7DBE268BB7777961F8D5AF396893C2ADB70FE7ADA196782C2DF776D7A97B5933C430F15651E5469C55D70F80A4992A3ADC
311
954792C525AE70A1E4D6AD9816CC044FEFDF01FE3FDE907802504B03041400060808009D818751D2B1758DF8000000960100003700000035333241334646412D313243452D343844432D394546442D3141303943363839383539432F4173736574446174612F636F72652E786D6C8550CB6EC32010FC156BEFD8401C278E30
311
5124A75FD0536F0888831283C5A3EAE71762576A4F3DED6A76667677D8F96B7E569FDA07E3EC00A4C650692B9D32761A20C51B3A4275E6CC3B177FD1A0B262D6031418389BBC4BCB064967A3B605B54EE90D1421E808957CE6668020EF7A16B5483133C2A35E847C8849D7A45E799CA564D426352ABB999BD11E7877C0F8D2
311
5F29EA5BDCA3766C3BD4EFC911916B77ECDEC88877B8654D117316CDFCB35D7A2DA256C029A618118AF0E19D7427424FFBFE833585C959883EFFBC2D2DDF01BF94AB4711056BD6E91FD7B4A8FF5D93B1714737D7551180937CE46BC0595352CAE51561AE2551FE0D504B03041400060808009D818751E3D14FCAF30000008E
311
0100006800000035333241334646412D313243452D343844432D394546442D3141303943363839383539432F5265736F75726365732F39354646394132382D304645382D344543392D414537392D4236443235303436353537332F7468756D626E61696C2F302F636F72652E786D6C8550CB6EC32010FC156BEFD8401CC78E
311
3051A5A45FD0536F08888B1283C523CAE71762576A4F3DED6A76667677D8E939DFAB87F6C1383B02A93154DA4AA78C9D4648F18A7AA84E9C79E7E22F1A5456CC7A84020367937769D920E96CD4B6A0D629BD8122041DA192F7DC8C10E4979E452D52CC8C70AB17216F62D235A9571E672919B5498DCA6EE66AB407DE1D307E
311
1B2E140D2D1E507B6E3B34EC498FC8A5EBBB7772C63BDCB2A688398B66FED92EBD16512BE014538C0845F8F041BA23A1C7FDF0C99AC2E42C449F7FDE9696EF8063D6ACE81FB7B4A8FFDD92B1714737B7551180937CDC6BC05953D2C9E5155DAE2549FE0D504B03041400060808009D818751B27F448FF90000009601000066
311
00000035333241334646412D313243452D343844432D394546442D3141303943363839383539432F5265736F75726365732F39354646394132382D304645382D344543392D414537392D4236443235303436353537332F7468756D626E61696C2F636F72652E786D6C8550CB6EC32010FC156BEFD8401C278E3051A5A45FD0
311
536F1488836283C5A3EAE71762576A4F3DED6A76667677D8F96B9EAA4FED837176005263A8B4954E193B0E90E20D1DA13A73E69D8BBF68505931EB010A0C9C8DDEA56583A4B351DB825AA7F4068A1074844A4EB91920C8BB9E452D52CC8CF0A817211F62D435A9571E672919B5498DCA6EE666B407DE1D307EE9AF14F52DEE
311
517B693BD4EFC911916B77EC5EC905EF70CB9A22E62C9AF967BBF45A44AD80534C312214E1C31BE94E849EF6FD3B6B0A93B3107DFE795B5ABE031EEF69FEB0C24CAC59A77F5CD3A2FE774DC6C61DDD5C5745004EF291CF01674D4929976784B99644F937504B03041400060808009D818751F10BC0C10E010000B10100005C
311
00000035333241334646412D313243452D343844432D394546442D3141303943363839383539432F5265736F75726365732F39354646394132382D304645382D344543392D414537392D4236443235303436353537332F636F72652E786D6C8590C16EC32010447FC5DA3B36101B9B0813A58DFD053DF5866C92A2C41019A8
311
FAF985C495DA534F8B86191E3BE2F0B5DC8A4FBD7AE36C0FA4C450683BB9D9D84B0F319C5107C5418AD5B9F0CB0685558BEE21CB20C56575F1BE4993B341DBAC5A37EB4D54DEEB00C5744B871EFCF4A11755AA1892C35FCBBB9AAEEAA24B523E7D52C468E62D6AE6F49A391BBD82642DC6473E50C46BCC517DAA19E20DE910
311
1958C74672C23B5C8B2A87A50866F9A14FAB5641CF2029A618118A70FB46D89ED07DC3DF45959D52F8B0A69D3768DE0E246FC6911F6987F03874A81E5E393A0E2D472FEC441B5CB3A66977A27A06FF00E37DFE1F188D0D3BBA019F090F92A4FF3F2EA4A87281693CDA4D33972DBF01504B03041400060808009D81875146ED
311
12D0F9000000960100003700000035333241334646412D313243452D343844432D394546442D3141303943363839383539432F5265736F75726365732F636F72652E786D6C8550CB6E833010FC15B477834D0881C838AA94F403AA9E7AB3CC86580936F2A3EAE7D70E546A4F3DED6A76667677F8E96B7E149FE8BCB6660056
311
5228D0283B6A330D10C39574509C0477D6865F34288C9C71800C83E093B371D920654D4093516347DC40E93D0628D42335037875C359963286C4F0F77291EA2E272C59B9F2048F518F9B548FC94D5F353A10ED81D297FE5293BEA13D69CE4D4BFA3DEB08BBB45DFBCACE74471B5E65B1E041CF3FDB954319700451D39A1256
311
137A7867ED91D5C77DFFC1ABCC14DC07977EDE96E6EF40BCA1B7D129F4BC5AA77F5CE332FEEF1AB509BB7A735D151E044B473E07825739A5549E11A69A1315DF504B03041400060808009D818751F0EE29DDF7000000940100003500000035333241334646412D313243452D343844432D394546442D314130394336383938
311
3539432F536368656D61732F636F72652E786D6C8550CB6EC32010FC156BEFD8401C278E3051A5A43FD09E7A43401C94182C1E553FBF60BB527BEA6957B333B3BBC3CE5FD3B3FAD43E1867072035864A5BE994B1E30029DED011AA3367DEB9F88B069515931EA0C0C0D9E85D9A37483A1BB52DA8754A6FA0084147A8E43337
311
030479D793A8458A99111EF52CE4438CBA26F5CAE32C25A336A951D9CDDC8CF6C0BB03C62FFD95A2BEC53D6A2F6D87FA3D392272ED8EDD2BB9E01D6E5953C49C4533FD6C975E8BA815708A294684227C7827DD89D0D3BEFF604D617216A2CF3F6F4BCB77C0DF963B036BD6D91FCF34ABFF3D93B1714737CF551180937CE232
311
E0AC2919E5B204986BC9937F03504B03041400060808009D81875184CF9E9701010000D70100002D00000035333241334646412D313243452D343844432D394546442D3141303943363839383539432F636F72652E786D6C9591DD6E842010855FC5708F0AD6AD6E908D71D727E855EFA8CC5AB22B187E9A3E7EA1DAB4BD6B
311
AF2087EFCC7066D8E97DB9676F609D32BA43242F51067A3252E9B943C15F7183B21367D618FF034399160B7428C988B3D99AB0EED264B4079D546D24ECA2700E3CCAA67BBC74C84DAFB0885C041F0977CB5731DDC40C39C9378E33AF962FEB6441789088D3929698505C3E3E91C391D063DD3EB322919C05A57D45F766B0BC
311
80CCCCEA6324C46B566CAF910A4AEE8C92F18FEAAAC046A2A27D358E7D2C3E5CF043731E707B19CF98F4653B1C9AB6A9DB21168966CE9CB771327B913483BFDA37E3AF646195FF4CB6391CE2E43B5491C6CC59F1B98378A695F00F504B03041400060808009D818751788F32F706010000B201000008000000636F72652E78
311
6D6C8D50416EC32010FC0ADA3B3610C7B1234C5429E90B7AEA8D1AE2A0D860018EDADF1762576A6F3D2D9A99DD19869F3EA7113DB40FC6D90E68410069DB3B65ECD0C112AFB8017412DC3B177FC9005939E90E320C820FDE2DF306F5CE466D336A9DD21B2843D011503FA64707A1BFE9491672894911EEC52CFBBB1C74418B
311
55277834D3CF6AEFB58C5A816084114C192687375A1F293BEEDB775E66A5E0CB62D4666554723757A33D88FA40C84B7B61B8AD488BAB7355E3764F1B4C2F7553BFD233D9918A977959F0107DFAF37624E58C28C847F6E5E54A09FEE1DCB8095228859C1DBF40105E66E24FE86556FF086D6CDCB1EDE0BA1140D014E84924E3
311
DC601ACF7AD3CC6D8B6F504B010214001400060808009D8187519C0CF094DB000000200100004F000000000000000000000000000000000035333241334646412D313243452D343844432D394546442D3141303943363839383539432F4173736574446174612F446566696E6974696F6E4974657261746F7250726F706572
311
746965732E62696E504B010214001400060808009D81875168BB798F3D0100003002000045000000000000000000000000004801000035333241334646412D313243452D343844432D394546442D3141303943363839383539432F4173736574446174612F496E7374616E636550726F706572746965732E62696E504B0102
311
14001400060808009D81875188E57597CD3F0000904100006B00000000000000000000000000E802000035333241334646412D313243452D343844432D394546442D3141303943363839383539432F5265736F75726365732F39354646394132382D304645382D344543392D414537392D4236443235303436353537332F74
311
68756D626E61696C2F302F67656E657269635F706E67504B010214001400060808009D81875128BB58AF800100009E0500003D000000000000000000000000003E43000035333241334646412D313243452D343844432D394546442D3141303943363839383539432F536368656D61732F436F6D6D6F6E536368656D612E78
311
6D6C504B010214001400060808009D8187512CCEBD668A040000E01200003E000000000000000000000000001945000035333241334646412D313243452D343844432D394546442D3141303943363839383539432F536368656D61732F47656E65726963536368656D612E786D6C504B010214001400060808009D81875161
311
80134D5F0100006B0300004500000000000000000000000000FF49000035333241334646412D313243452D343844432D394546442D3141303943363839383539432F536368656D61732F52656E6465724D6174657269616C536368656D612E786D6C504B010214001400060808009D81875162F4B657510000005700000047
311
00000000000000000000000000C14B000035333241334646412D313243452D343844432D394546442D3141303943363839383539432F4173736574446174612F41737365745461626C654F66436F6E74656E74732E62696E504B010214001400060808009D818751F865834058000000680000004500000000000000000000
311
000000774C000035333241334646412D313243452D343844432D394546442D3141303943363839383539432F4173736574446174612F53747265616D56657273696F6E5461626C652E696E66504B010214001400060808009D818751A79E3928340100009A0400003600000000000000000000000000324D00003533324133
311
4646412D313243452D343844432D394546442D3141303943363839383539432F4173736574446174612F636E782E786D6C504B010214001400060808009D81875172514402E40000005E0100006700000000000000000000000000BA4E000035333241334646412D313243452D343844432D394546442D3141303943363839
311
383539432F5265736F75726365732F39354646394132382D304645382D344543392D414537392D4236443235303436353537332F7468756D626E61696C2F302F636E782E786D6C504B010214001400060808009D818751A233C2345D0000008000000065000000000000000000000000002350000035333241334646412D31
311
3243452D343844432D394546442D3141303943363839383539432F5265736F75726365732F39354646394132382D304645382D344543392D414537392D4236443235303436353537332F7468756D626E61696C2F636E782E786D6C504B010214001400060808009D818751BE89762363000000880000005B00000000000000
311
0000000000000351000035333241334646412D313243452D343844432D394546442D3141303943363839383539432F5265736F75726365732F39354646394132382D304645382D344543392D414537392D4236443235303436353537332F636E782E786D6C504B010214001400060808009D8187519E888EE77F000000A300
311
00003600000000000000000000000000DF51000035333241334646412D313243452D343844432D394546442D3141303943363839383539432F5265736F75726365732F636E782E786D6C504B010214001400060808009D8187512F7AC31E080100004F0300003400000000000000000000000000B252000035333241334646
311
412D313243452D343844432D394546442D3141303943363839383539432F536368656D61732F636E782E786D6C504B010214001400060808009D818751E3603EBE7A000000C20000002C000000000000000000000000000C54000035333241334646412D313243452D343844432D394546442D314130394336383938353943
311
2F636E782E786D6C504B010214001400060808009D818751FF8DD3977E000000A30000000700000000000000000000000000D0540000636E782E786D6C504B010214001400060808009D818751CA1DF9C9A9000000730100001300000000000000000000000000735500005B436F6E74656E745F54797065735D2E786D6C50
311
4B010214001400060808009D8187513DEE336E64000000790000001B000000000000000000000000004D5600006175746F6465736B2D64657369676E2D7061636B6167652E786D6C504B010214001400060808009D818751D2B1758DF8000000960100003700000000000000000000000000EA56000035333241334646412D
311
313243452D343844432D394546442D3141303943363839383539432F4173736574446174612F636F72652E786D6C504B010214001400060808009D818751E3D14FCAF30000008E01000068000000000000000000000000003758000035333241334646412D313243452D343844432D394546442D3141303943363839383539
311
432F5265736F75726365732F39354646394132382D304645382D344543392D414537392D4236443235303436353537332F7468756D626E61696C2F302F636F72652E786D6C504B010214001400060808009D818751B27F448FF9000000960100006600000000000000000000000000B059000035333241334646412D313243
311
452D343844432D394546442D3141303943363839383539432F5265736F75726365732F39354646394132382D304645382D344543392D414537392D4236443235303436353537332F7468756D626E61696C2F636F72652E786D6C504B010214001400060808009D818751F10BC0C10E010000B10100005C0000000000000000
311
00000000002D5B000035333241334646412D313243452D343844432D394546442D3141303943363839383539432F5265736F75726365732F39354646394132382D304645382D344543392D414537392D4236443235303436353537332F636F72652E786D6C504B010214001400060808009D81875146ED12D0F90000009601
311
00003700000000000000000000000000B55C000035333241334646412D313243452D343844432D394546442D3141303943363839383539432F5265736F75726365732F636F72652E786D6C504B010214001400060808009D818751F0EE29DDF7000000940100003500000000000000000000000000035E0000353332413346
311
46412D313243452D343844432D394546442D3141303943363839383539432F536368656D61732F636F72652E786D6C504B010214001400060808009D81875184CF9E9701010000D70100002D000000000000000000000000004D5F000035333241334646412D313243452D343844432D394546442D31413039433638393835
311
39432F636F72652E786D6C504B010214001400060808009D818751788F32F706010000B2010000080000000000000000000000000099600000636F72652E786D6C504B0506000000001A001A00210B0000C56100000000
310
504B03041400060808009D818751000000000000000000000000370000006662782F45313931413644332D443531442D343844452D383639312D3641434542324535413639312F617474726962757465732E62696E504B03041400060808009D818751000000000000000000000000350000006662782F4531393141364433
310
2D443531442D343844452D383639312D3641434542324535413639312F76657274696365732E62696E504B03041400060808009D818751F270F1330600000004000000360000006662782F45313931413644332D443531442D343844452D383639312D3641434542324535413639312F747269616E676C65732E62696E6366
310
60600000504B03041400060808009D81875188E57597CD3F000090410000420000006662782F45313931413644332D443531442D343844452D383639312D3641434542324535413639312F7265736F75726365732F322F305F67656E657269632E706E67355B773CD4FF1FBF73E71C0E67EF7576C9DEF3EC995D46C6A1EC50
310
46649CBDF79E192942562825CE965D8A868C2842C8DE9FDFD1F7E7F138F7078FCF6B3F5FCFD7EBFDFEC41B196891913091804020321D6D7513FC77D8C5070EC3FFEE51B21F068154CC75D455CC028A3EA68992803810109FDDE5D5CEC5521B28A1B422BF80741695D5B529DA1C2D058AD2388BDA9F476F7C2CADC939304173
310
DBF48A452BF8A700C0C70C3D121C1AA15A5270C22E2B9E28763651F7DA0D12CE11077B2ECD0D560B5E3DE2368B1E65C5E1C87384A4CC5F2D9FB8BE39E9B77C753783A37998F5CEF1B4FEE553463245C9712270880DF339E0B882A6BA713D865F6F384C842D440934EF264F4A304F8DE4EEFA1E2BF5E2D91F5ADD9613D6E31D
310
DB33ED31DB1D7916CAF091286EA3D31B9CFECB78BB0060245B943C4C040119FF780A74DD308BA9D028678674EB5504ECF284EE814DAED07440BAF649BE4B55DA2890F4D73E2D489A59EE54FDB0A85B59F2F52C4858A02705C4815A792B0C4A996A2023ECB195073E115E3E3647F64243A8338F2000BCB58DA5692C7E7C3D41
310
3F963FEDF3CF00FBB0F831A9D51360FECA43819F527B89FA260EB63C5DA676830AA3626A3693B23F1A17A0DFFCE3EE164E31B5365EDF0C89EF64D8E38AB0BA9A1117D7C3A0EC44F44F4023095E80BA610DE336D0F99593A88BFC5306E72DF98F7FD132ED95878DF2964EA7E43071359FD83B2BDF9C6B5BDF768F0F3C0FC351
310
199526F53D9460A34511F75D1B63E488178569472C91A94497807A3FD4A390C6558F26D416365C3656DE6E769DA9D8FC73774E1709812842DD8EF96AED1960F79D21B395CDDFE6F92CB4EB962A4668C76990E2EF29798C8941D67DA50F4A5F947872460F1F6FDB794E8A29FD7AC0C0D6E0714339CE258FB17AE8535221E346
310
4A10F29A0BE5EEECEFC5675926A89F49EB14E5711894F6586DB5754EB4D5DA9C6437EBA57DB97A24F8B8A8DB295FFD73266CF57E82694DF5166DDF93573AFE9C9C5EB05F8FEF8E89E0A8917B0B3724DB7BEBB53252581EFC3E38166BA131A3A5B42FE2AD00A769BBFA4458D2DE7822F8C4F63D0B8E21B285AE13325F3410A4
310
35C648C9D91FDEB109E73CEDA7BC796961AF79175E1A3CE4C5E8B0D009B0C9E29EFD98BC8E97554E3D8D838424E270F7685226E5AC268E021EDE3522D583E8F20C0BDE2959EF5BBFEEDAB32FE9A3ED0E39F211A86AA9DEBFC68182EDED132AB8BB794442D2D7EA9F4D8BFF52BC4D55BB165124EE90A42D101E67BBBB292FFB
310
4F66DE5BF2300E44546757DA7CEF8932BFC9F92A0707953491A55C5A5ACEDABD9FA1AEA01BAC3DC5A24E22E7C47213493996EFBC369D086ED9397C9BA6C7F9855C7BD5E15BFC8C53DB3D2A4C5901A57ACD2FBDF4D1676E95338B2C2BCE65FDA4C64F5FEFDC7D9CA5AA1FCF11E193F2FDABF0F4916BF13FB916A224380E6462
310
A9815F2300DC49CC4DF8D055CEF76462F4B7A7ACA7365C2707891370BC1D0AA6203C44CCAB47084FEC057F27FFCD57F89B8B9852459798A675C66BD7CE572CAF71FF7E6D7ECF7BF62CAB7B3F1107DCD04DC55A3F9961700286141C94A4F771FEB2BCDA2DDEE0CB0BAE402FF1DB0100F8E475DFFFC074DDB4498AB7D186A765
310
4DDB1CB680D703D47CEB4E72F8CB13D86A4AA68116E26387B93FD6738779B34FEDB8E517EDF2BAF28D9BE93A1D3A164320E07D42E514725C29515FF361754213EDE06B079A2E99EB1CA82A02019EADEEB87B9AF005BD04BBCECB14AACD6B24EFBE482194A97DD32400685FF1FEF1544D1B14EFB1E7F08E6D2CD2AF52DE757F
310
35F5E62332EE88EA26417AD5C3E0E319D68F25414E6D672BD4522B278C57D18F0113921C71D96527E091F00CEB15AE23D24667369BD3CEFA10C7549D930890BA4366F4EBC55F01F746109F98ABCDD5A3EE06619C6AD78AB33E48E4C9BD21BF7478B385EC05C4F8987E2C1BFA0A60EBEDAA0AE0B015C2720ECE180FB6F2DEFB
310
EB822D96338C9B63822183BBF52FB664A7AE57003AABCE512BF77E7E31BDA2E739AC4C131657DDFE5225E900FB56CC01CDE808FA4A9C9DA16AC679656BB64796283D89812B8F91136AE18EE5EBBAF47A73BE3C153EB5D4CD491B4BFB4FE690A4CF9ABA08C0D8AA64220C438C96EA6CA80B58FE5761E697B3A292EB9FBDA502
310
FA863E49FE694ADDFFF9D62C520BDD1A22014147A0903A05B9B729F54272EF83931FEEC057BFF8C8055C279EAC5C0011804828734024F6CFA319C9CC6867C727184465CD9BB7ED386AFFD96B294A85E3802FAE47244602D8273615952B98C4F23F7EAE4463D9D638EEE374A20959E0FE519C4CFB0FBFE5DD80C2AA3F9DB961
310
D1BDE57E67C9BB47B77FDD74EE3094F5DBBE3EBC1FBDB7393F5116263009E2EFE1AF9A221B2AE234C902BF70E9F280ED23E73908361565964333A3F01D0B006AF32FB21AA1316744B489D5A198E85299241735BE559675130955C902A8ED761FC0DBE337A9F91919AF5CE32AF902ADF9AB2615E00E8A94586BA1A90839B618
310
32FF1BFB76D2EFADE6DB1BA04CCAD3DA649E7E2A0219F592E22F2AD54847EEA8E42271011E9074F8F3DD9FBA6CDF88FFC9FC7E811AD1CA8F4557CE4AFC7BBEDCF0114A48689F20A584520C74DA8127124B767E2FB91A6B186246727BE63C9445BAE02088D58B8EFDC0F1072407CD9B89A13F6303B4A928F593AD489B58E686
310
9325790ADC406036C591729FE14021F94B7796BB11848D463536A092A26F077F94639F7CEEE2A724C66EC885F4A24F8B8A0AC321F8FD149BA529460FAA34E4663C02D41FDF80BCA222D42F0ABFF8490F4FA74C673807C2051D8E467B47B616072860069A9A303ABA9B319D58404461401B0A0F9BE5E1E151C14BC33B32ABE0
310
3DDE91708DFAEB15E7C0D593C86BB7D7EC17BE56E57975F077BFD5525F3A1A361D584A75E08CF29FC7B44B2B3085014F3A5A14517377C3F6B8F37E59514C3B12F8AACDEDDA4DFC49BE5710101534CD6FB6DE15B50F11A09472AABA727F0C49D9CB906B158030065F48EB3625E010CEC1D511D0053474B11E6A4F01C0D6EF1B
310
ED3A944FDEC70E0DDCDC756C86545910E0DAE3BE3AA9A404574C2995CD5CAF9549226BC94B4F4F0F5F9086F418F6B32346464610D8BC7391D3C3A3CCF04CFC1FB2A3A3170E369511868F14EEA4E5E438CC73DB1F3248AA94B6B2FF33B222FF3D1E7BF146CAD229770158063BCE4F5391964DF62F7E52A7BE0EEA829C9E13C4
310
C147D6F93FE59E111DAB5E4594D6F3CD1AD375EE039930EFE5AF2BB2D41C83C7DABD8C659BAFBE8FAB392CA634F3D15C1D945DB4588D2B0824A4EC928AAC565557CA2F0DAA588CA5BE30B3A8004F7BF005E96CBF891D7F18112A3619FDF530DC8AA64954258E1811789B5189B49B4EB53F5F89F7D37523894F3EB57B373763
310
C91E502F52CC99EB7BDDF933FC324C4FFC2561DFFA7339FAFDD0A4BFBE6D3A8FF9ED1FC49898139864602458968913181918F719CCF5A68B2EE9C1FF050E34E63107003B8120FA982C21B30A874E4F5E4B38D5A8290C4B8D9BE48A0BE31EA995BDC37AC6DE90BA17D259DEF53605D55922FEB1855D915B659FBEB350EE0DFB
310
2F9F766E1C84CC8964B75D08667445EAB966015F63A18A9E0A325C1B3DC628C0D3CB60F767FA93CC65F25458BD23C3B312716E5F40E5858AC06EBA9AB14F95DB99147B832069201541D09A0D856E12C629CF32683760EE855537D1901988D5EBC156676C7DD51D7207CF3267AF1D76C2AD867315E44618015313A98B19941C
310
696FED3461CAA9B5415F918556D7802EDACEFD6B2E45853A9735DFC9DBF7E440F9319F8B6805A973BCCDC76C069A9144E51F187EDCC12FC31B5DEAAF0A76137199B106EC84ADA6B6EE697D4E6A96E007417F4E880E8B1E89B4BCE9D81EF611E2ED8F0C1A6C25F620FAFAAB656A7C42D464880E8AFAB0E0FC8EA38CA9A8AEEA
310
EE3E4648BA4680270A89743CDD3E6C6CBF34B7B640EFA285ABC7EA0A1E28F3CC963D114A80123EE66D0AF7D5380EB41909B605AB4765B709B808590458157E69BA1378FEC4B48CAF6A730E3BE3C5EF2DD1A5EAF94B1DDE50CEB55DDFD7EE9A16747FA4B223359FB1FCC69E1194892BABB93A1D5C4E807AC0EA2E30180811E7
310
7A2291F6E7F7FAA5E0F60215BC6024E48DE436C511F0628B8CA189982D4D83CCA17D305A7E923C37941CFDFDCD93ACAF735EF5F0E61BBD3E6C41A59B242790D3A3BAC7064DCD89AA2E37214EC839820949D5CAA31E240D2948E48F690298974A96BA9A8432BC90F5071D6537C9666EA4564796B7AFFFA548077BEEA75F6308
310
3435074BA182F3699557397F71548383FDA8CA34D99B981E72835ECDA5DDDC151315173D05A21F651AAF8524E88209E2E7A737ED1045800CE3390050BCFB8BE588DF111617874C62575039CA588EEFDEFEFE319B739DE2EDC147092A262611E159650E787917885EF08F1F51B8F2D8A71D60B58B190FEF9541A1BE94BC19FE
310
A50784DA1419FE4B0FB51B8D36B5FF8E1286FD8AF42B91E59A5F1CC4D60174E764045FD8C57B18209B217F89A62252BD20BE0E63E12B8E8F029FE19E0E8D0870F58721A557082250D5424F7909369376E41666C0EE77CD87CB283F661D5FB6D0DA023CB67320A20DC7BE661E9E1BFE5463085C557DA1FF9BE835733766C3D1
310
39F2CF9E2208873AD0EB4814DE9E6BF2CAF81614D4D43906ED1C05A3265CABBFE192770FC2F64F940CB6B17B5F166F133C9AEEAD2641807C3E69515171DD74C4A85311513D6EC9530B3B601B6BA3EBFF3B5C3D2F7D69765141E345F75433953D013ADDF8F6AA7DC3F4A7563FE5C7D367937E2900D7EAD0F9FC9A4A1A9B5BDF
310
1FEF08532660C01C5D6DE22199AA774383E306DAB87E301ABB7D213887F9869D4942D0D71E94B27EDF216A318BD488D45DF84529EF575AF3C3938C0AAA0215B01994153E2054A0B894DA5C784980633AAD48576957CF4AEAEAFADC7C587368551C73DBE1E57C58AC713303A8BFC258BD04B51724459FF9E24C03A81E0E0679
310
CEB9B348C0DC998FEB9C6D6EFA77D247CC8F92D3848599ED89A23218D0636465AD1CEEB7DC140D7426F83491C4E8E8281C2FB35240918FFECE880CA2A42D70E8B20B34DF5221C7DB0CF90ECCB9C745B37A47E9B716FF7A97B7A252C1F3814DC7B1E1A7F72B8751D524EF7CAE45B0C73B3BE7D08ED39781B380DDFC9AA4A474
310
9C9493DB5BAD07A6EA6C092FBD0E85DB004DF06B8C9D3089C5320187E4CE1846158C7EA7DDAE8AD9AFFF21AA3A1026BB06A259845E8232DEE62811A4DA9CEAB3A4887320B76E2AE5615EAB7BDF738CBDD01F1E64064BC13D9EC53576751CA8CACD58B3CEB0E6CA585BD089B2A59B9FC101403387AADBDBE70586B93D64BF3A
310
D4453EF9C3B6A93817E8346991798601344F79A83C51F3D50F7BF2683A3605F51A72449489E0EE6169C749C60B1035651103AEE24D24E51A759C840DD3FC6504DA6FE107510E447B43461C79D22970B75DE5E1BD3007D1AFC619A4A4A69B5626AF5E9B8374E20677F77E2F8E73DF868E8BEC7EBA7B6A75EEF7205E1AB9486C
310
B642741D6E03FF13FCCEDB1C4AC129886268B01CDF4B124AF797CF784F3C6DEC97A17D4B558070A0F1C04DA4FF9BDBF34159AEFE958479824B3F58EBD1E19088A2AFDE501B6F2052368A3FD0E650A179EFAB1561E1D27527077136E652676C3670F42DCB3352F48F6BC86D2C3B0051727E41A0A4DC6CE2BE9D47F5CAA2935A
310
3C0539AF080665997194ABECD723B08129CC5B6B21D2E7D54CD4D12610E7E9FB8306771A89576C7A982002775ED44F3F744CF21EEBB27A631671D921938AAEE3EB0D19CD1E083727F607823E817BF599DCED5394E37EEBC2E88782E638920CA641EF74D4CDFCDEF06F4278ECB18E31E7E9876F2D783C8BF429C75395F57E98
310
C2B495A3DA077EB3AC3C158608B6B57FE3EA48484D9A480096FCEE0DE880950E7E5A5714131C5C41AAA29FD19AE81AC145FA1B9E85C7169A5AB837B213493DF7E9AA4B5FBF9CDEB36EBD21EF1181B7CF7366AB2A951D01E37AF4EB835D1BE8C117CFBE7625D2EBCDB0B20C5A4B45CED0BCDE3EE8DA9DA78C2E21DEAAFFD119
310
7E463C33CC6A80FB785669B856EFF7A8CCCA2841B5A5369173320B1170C368B2748D81062EA0296E5E2D95D7667A4A46D98A6FF475C76AAB0A8C8D45E226FAFC9FE0133EA9F60111F99CA81ACE03A1D14C89E8B0D69079C91464FA1D99E651D0EAF606F345C42A8A1AA9BA391031582B96D5B4176A77AADB01F12FD298A75D
310
EEBB2C82F0B8650E880722F8DDD90C56A7A058E5FDEF1AC93545BA27367C76F5D8F9690CB6F8DAE141EDD7971F0FB548A2AE435F224D6E5954CA155512F7332029D5A1230854B79F258EC5FFDB09F5F6343A8EB193229B7F7E79B3E48F8E183860B38C8269D1B53738FF1E0BACF6AADA6D4869E9DE708E79B5DADCC09B1BC7
310
6F649731CFAF59A83FD8BAE4C749D66FA87A3810D4D62FFE826FA400C0F325D2BC0F3CA35F5847B82A2ACC7961745C823E4D863D54460AF792CE6F79B5C7A33B25C3AEA6CDE15A919B6367D781E9D44F61BF828672594A3E1D9EDD6DF179A81F27EAC05B936575D73E05C209DDD2115CFB705DF9BBF3C911589B3640735E9E
310
618FC9C36A7326C82B2205E244C55D56FDB9D5DC93CE958D4BF8174D2B3DA54CB3C09F2C2A6DFF73D23B2197355761AD421EC581284A7EF8DE2CE3497C0C804D49B41DFD6A7360844E5BEFFB495CFCDB97A4595911CDBA623274CE852B5E278AF0BEB1770E9D37CD977B2766A7DED0E94B840E1E95E8C77DE5CB6354AF7871
310
427C28ADBEEF7BA0A28E19DE9ACD75F379FE373EAE6DDDAE3834692F9C2B03B4FCA8FCA9ABE8EEEBEBB725B88A7C90941E850682CA04061A7DF0CE82ED49BFAFFD42C309818FAE14755CAAE78B0F73243ECCCAD7DF58FCB9CDFAE7A4D3E6671A613639130D056C8383C8F4FCF4808C331E544DD26E4755D09EA05253B3049A
310
1E32587CC25D72E073E2CD96D04A71BBCB0038FEC3F53D254199C3CDC67CD66640269431860225392B2CB3ECD0B4498AAE78BA1994246AE1EE78F2EDFB79F6C6CB6B5E279C4D373FBC21CB2698C9ACBBEB6A4BB6B39E16AB0E421CCBFC7654D81ED86022F9BB522146F9F4772E2D0E4FA70120C95A85A417BF5078B232F475
310
4363EB1750B2AC2148EB46B1EA72AD9B4D23ADCBC589D70106C3EC2ABEEED84DFE28E718C6C83502C28E9FDD3B09DA0A6F6F7B72B706A31C9E2A331EE70DA56A083D2177BFD63C55B11D8D949FAFCF90B23A1E24B9B5018B9A17E99F2890EC302F330FE7936E2C23F0D237EC8916F5166AB84B62A21BB0B950146962D754F9
310
2CC2C8877BED8FC7B7B25726DD19545392570B3A2C66B58F027BEF412E552D12A588C4A3CC5C3193FCB3485EFFF700D0B9EEC077754A33DC1FB9E25AF814628F91DDFECB667D3F7690803F38D13F8AE39353523BB08FC6760144AFA2CE28236F65EDBB3D5F59A57D612B99E3D7E5F8A851666BF9B5A6658EFC96EEB37A378A
310
BB0EB3FDDF1303AF32C41BD1C8560745D7BD81066B0D6313359CF488563D3BA3F8E2185D1FAA3EBA1397C9D0E3DD232180A4DCADB6AF25DB3AC3CC26589C8239E66E81547BC7E2F328F9884764CA37EB5DBE390DFC03A5246B456A7C3684C4377D0EEF9A350680FA9A077E8B2957B489E09AB1AD41316944C2254B5984830F
310
691C93CAA767EECF976FA5647538830B5E63236A6F0365C1E0F3E327F24FE35EDDBD7360B0F7374837409F7A6311BECC12B7026D4FA1AE204FA3F5FE904B1F420C7A9044AE58E403E7C4848E7DA25DC9EDAC79DD756FAA26B9EA83ACE8A214A2612A22AFA19DAE7DBAC5F8CDE1292A485F98DAC731A29FE01A3966E96BCB9F
310
B5A4C8830E1B9AF0C54B87FBE221A097036E5D28D1F869F810C06A9BB0AC0612F69AEBAF893C6E7AD59460208BAB3A6B09CA4F6BDDAB8CF0D1F84B72487498395A70DCD754796E271099A567A55CF242BBED64696378BB6CF25EF0FCDB589F3A82F1116D010A9AB9FA4358809EE0C973A2B4229BAA876A70B03AB49CBA7FBE
310
71DB1832FFD32F9BF2C8E98075CACAFB36921235D0F552B6A67E94E094097A5D7DF681B40623DA535ADA7A9AD8E9A62407D7C9A5AE51D62A17A83A23728DE86BB56115804D3F2675F2C6B87541A0FC497BF0CA86420F558C9859EBE9FAD62747E323E3AADC03FDCDDFE7407B09DA90B44E3185723C5381EAEF589765E2F7A0
310
99BA46695BAD60CEF3491B8A171F5F56444F7CE9455312C3498C74173AEA0214EC029833B34B650CBB5A5508D5091665309642791708ECF27CF11DB3D797D6CFE474453BD4BFADB768094B2147814D81C7CBAF8228DCAF5564B5891F5EF6A860EB2E323CB82AB868D8EA048880D63B0DE5341F1B3D53297B928A11E15F25E5
310
148990F710747C3509ED14909C552EBE3973246FCE55D00564D8310BC3EBC5085D08D806799B77D6C57FDF5E55837F9E934F09C03C729271B64F12D0A9F9E938107CAF7BF1EC8CF1BB9B42363D33070F4CACB425E605DDB0A34A12BB936DE286B9887A4E2E558F0886498BFF49C311D96C277CF6A9FC0D75AD0ECC5226D7E0
310
E3572012E56D7FDE4410CEC7A6D0F997F225A2055B8B92E3956E875AE4993CB3D4C9063AF98FD45E1BAB165640A43439A2C9181A7C355B297C0A0CCFFAE19B6FA3C2BA238A885FBC98B8F6DAF4B94B97304878DF4D8BFF6A4AEDF79E90ED4E68F00CD7299F4E0D83E35601AF0CBEF18C1E870E74758FA91F5131075004DB3C
310
FCF09AE1DABC11957FD9808C92E8A678CE9DBE40DDA0E0D1D505AAFBCBA208232BFB6FB3704E8985E61ADE53DE74152F5C7DE74B1DEDCD37DC3E8FB30D7EBA8B9EFFC3606BF90B8D438279CB7709FC7C00D327F41817EEA71CD9E49FE9C8C9A81C70915D9F0F15958EC5AA4C3BBFAF46986B90F188BDB24B89DE3C6F29EC3E
310
6F66D84856EE96A35E657CA41B41EFD8DBFA16AD6E91439EA92B40B21C053249F51AE50EB0B24C770FFAF40DF12C8436366819C48E36547D4E7B72FE2BBF10828583057814A668BDF183F6B2E58DFB151103E56303E63D00F39C27C4661605DB644D19175D02E3F0241E8FC3458D17AAAADB117CE9EEA690D0DB01E634878C
310
04C2C9310B69FCAB831151E3AD293BEF6E46B0ABCECB50F5939B39C613D41E81FAE8D34CAE3C4566B761D37185FE864AC32FCB71AEF39DAA5BAB88609BB980CD2F07A8F941653B529567726E2B2A58D079DD57E1E5E31426CF184A04D7B03B985F276D47406AF276FE32E3328BA866EB1FD39BEF57863A317634AA5FE46740
310
9B3873F5069EF0D71AF00AD189D17BA1974ECDB2D623E9E14086386A6AAB5807825C37B015BFE892AFD154920EC437EB945D958E18622E1E0FE2FA06557CE4BB9BBD05A2D40E774DA2B65473791E314B7D6C886820B2FCFE4AA272B3B8B15E7344A145E8AF919B5454D89D36D413E87211186BF6F645E5EC94DCCE8E1C7990
310
22E4EC9BC86D7A0F2AFB1FC4B2CE48F84B3F49ECE65BAD24CADCC07EFF39AB06BE9E6B27A059938EA7208838455383DDBCFCD967DDE4650EF92A14FF933C975DB20BD7FEEBC4487576485963D757D16340D9599FEB362F775F38CA4185A86F74B629C81B133644A3B18FD056E997E0734F9BE26D11C0AAFC669E2AC9FC41D2
310
81F8B2E1C35AE27BCE05F3DA295488096688719D974DF1B5D182DB7792288697F8763CFB43562C1CDEE11C4AABD5C22B6E33F6F389CFC3477C5919DC0D533F8A7A1846B7ADB60ABDC26C43D0CFC8910B7C15EE22675BD02702ED39DB77A87A192CA7A543E6205B979B9F5A6B512A3CA799E198B2D5797C0AF8D1D872CA455D
310
4D431A7879D4DD76110B5FF7F4176B54477A9EB5E4A5D11214FDA585F0382751D8E2582BA5D2075053298FEB8F1537304E32CB22C2E2B693DC0A760B1DFCA751BDC445AFDCBB12820ED85F6D5298933C7EF1211E9E057684056CDA3FEF3BB6052355E162DF27C59E965A8DDB7F9437EB72CDDA3A090DE65A5B2F50326247B7
310
EC67B73ACC7047FC9B353D6EE990F772207C6EC52B39DC2F3C0754821DAB559F7C1809C7D0DD5B0499D0442E0A6E391B3D5DB46D11E731E6794EC77523FBDAA242ED67F9FA1FB684255671F63C9BCFE6E7E896D51001A6113EF2298BA494E0B0980D1FA5B9D60796554C02256B1E0345FB7C6186B6A19D2DCA270416262845
310
FA4F42DB5D9B0A0B6F07FCA2E56C242522E001E0CEB734AF310FC8BFB57E38E03AACE93B3326A2197891E68452B26A6307FDABFEE0223D3C03C3C73D2D5BC054C8311F12004CAE488E5C29287F8156A2CAA4AD0D7BE6B97264E4139F437CE73ADF52E5134C52B819777C18B323A5924E4F67AFD13B1CDC3A61793A79FAF5C0
310
CEB718E441071E797C6DCCB9EFCF7E4A1E9F3DF3C2F9C9E8294E9586868788C972857FB0556D7A26941A7EEB9B580AD78EC40B85DC906B4120A563CA3B87797ED612D3B035962BB75F6515A393F4CB057F564CDF54F2E5A024514E6A1F901DB80C7E70B1FC05E356A7E72FABF4775B3E3FB8F70A2A8E7B6A94542BB3041579
310
78CCC999E707A29CC795E67A59CC546A5D47B368954CA7B6E75EC9E1F6FC73CE3B4F71F8CB1A6B15923D61EAAEB14626AAA9D04A26EB9C66CD1BE86CA31A5D8703DE04CD1EBCE4F5CCB62F93909AD11E55799A781A956ED27D3E738F4538CB04ADABC7DAEF20BC35BA6A90BCC1DC61BA05F20D8832FFB9BC9B15E2DB838A0A
310
FBB7E0C82A562127E0446894F427794C3037186F622BF24DE1B00AA10A23BFA47B2A180D6DA5AD6F7326FEB8C100C2D7142EB2A0B2A9D1008A09BA343D70E054AB69E2A7EDB783CBD92537FAF4A44D1296AC2792729104B3276C276C951D0CF3CF3F1E6B017720A7B8505A5FF9589365979678C36F1BAF759EAF57C60F1FF5
310
FE9DCF5F8E764FF25A2D06CF25117A8FED51884C13B2B750DB0E4F5E3D64124FCF11F0AD8F1CC3B3DA4B38ED22BF1CB2585EE6BFEBBA63FBFD44F9537B9B37BDD6B358720F98A8125AED4349CCFEB0E135F19E208A04CA7E2B10711185D72E381F448036EF57C9F874E54A971CA37A639E986AC0226DC5AA00D5B14FEA9192
310
234B3DE617814FC221C92F33F1D392F297731B567FD98FD91D989379AF567A65B8ADF177591DB90FBEA99BF4ED11B16E50A0AB1DBF1156D034BBE04D69D08F939D8E92BF525A1DDAFF80ECBC95D8F45D3FDD289FD23F7D8B452F8EBB34EC082DEEE68E18EDDF072060FAD2AB1504DD4879BF67099FC58F6E9DEFBF645D1633
310
4A3E9A127C6F1AF6132CF287E433B43A0EE93812B4AA0B194E03EE3FF91EF9C6ED0074A2F6EB18A96A7C9890B1FCDA1F2095E944DB911ED54C60DF16FB74C8CE9BDC7C54C4F14078CF73C2FFF1F1BBCCD7CF64F71407EA1683DBC410D226627F66E509060D5C0AFD611DE681D509DB8DD12FB1265B03C6F5C55FF4C30BD941
310
87FF692B4F152982502F193098A789526A038AB529A52BC0DC4FB6285CBAC10A8B8DB75DCD9BDABBB221E27D1F8DA9F5EE5926A1C8AA9BA9BC09239C6A7F12914EA3B59EFF7AAEC3FFCCE56F1C5C2980AD072793527565E774F4631DB178CEEC691B1F367BEA0CF2907E1D6B854D527065979DDEF002D8B2ACEA7CE21AE297
310
737EDE1D45B31233B73FEA35BCFDD0B09721FDBAF6432681F2FD10C3E9EFB246FD6E854B344ACC9D8A0EEF876A7314B49B6A499FC650B099D650DBFEC7638ADFD245E2B7839DA5AC5F7D5623FC0ECEEC8653FC9B2BDD1AD4D00A566FBA7186DD3C9CD26512551637498CADB950FEC71ADB9A5524285DE328B8EC7EC75D2345
310
AEC6A27C42AF6D9B92155315C80DBFCABBB7DA0FAE425C4FB896B15C9BFAC4FE67DF5A23D30C93DA4D8F36FB15D100050DA6062E22AEC5F4DAC4F6FEEF97AE05DE63C6D38F9E068A20BC5E3B6BCD75320C5090924E7F93640A7735B1A43451C2D91EE62C6238B797349E59890AF3A520DF4A87095F3ABEC2E61F0593416CE4
310
6CDCBE0E00E2523FCCD04408588B5B6C9DB6459C786CE378770B54F51DA3A5E1DF2A3349BEAAC234A6CF8993B598B3B25B4B113E353A4D750FA7534749430F3EBF2512E7EA3FD43C6AB9A1F765A58463B306721A15D224FAFE8C6F5E3432D57EE697DA0DD5A9D4866A8BCCAAA9DFF1F06047851408FEC060471D0E3EB86BFA
310
F46E4B5E60311DC3E3CEA147C75CF971BE74689507154FF2D2E92F15CDB2B9182B11459FD8ACAC5A85F174BC94A7F4EE4C4F5CAFA7C02E37BF0BC77B7DCD0C047BC316F562A01A441AFA7931CC84A28CB9F4AA367EB515778F29BFE61195FA671F4352E5E46E3A64773F1F76EE5EB36D7BCE9BCEAD837A4D77F8DB8C92AEEF
310
6711920D7C7D0F76B0FD0EB7AB83724CD35BCA7D36DDDF5FBB7FF6F04A91F3E2BB3B8F1A43CD659639507FF6331C5F697BCC782AE57D757A27D97F1AB9E0AEDB43F92F1B2AACDF5FEC8ADBAF9F814E2027003BA2F9E144B1938A7A04050AE5D953B82C45619165C813A10E76DD6906B3C16438064D14CDA713AEC420034613
310
E1AC7241904A49FBF87409AFB1FCB9B72FE7933A87D8FBEDACECE4EDCF6A4FE9FB94D5DEB74FAB7CFEAE17EE965DF980DCCA2D04134994F9A2E94D2265DA4FE6AA7B7AC15FACAC2B5ABBCD7DFF542C5314FDAB2E1B9D8B65220B8E2B638BE008E8DCA22678C820C5053664D15E89F2D735B51A84955E81A443545E9FF787BE
310
0FA700A76D136C27DA179A7C6E8939E01BE756E19CB292798063D8B97F44E8A27BCF3A614FEB8BE974A718E86F7EC99B53CA35FA24F61F2B07266684623A3D4CF073E511F3A10A8FDAFAF0078C577F4DF9D339FE7862E5FA47CF4344209E5BF76D783B1B48E152AD281B15FCB934DCDA49CEC5706B1EE8B460F435324A5CAD
310
154725E21AB8044B75A557A79F6C807B9340AA3D92503E866F4274412926C8C504E4D5EF8C0E68DD0B028781A6B4054F11CF18941F101C57CCC796773ABC8DED9CD91FE5788806C05E548895354AEAC96546D55B0E94A59F148D061F42AA398D822CDECA4CDE79E13469BDCC44FDC990F366BA5978C15F97ED80CBFD73B0CD
310
9B8B83A4F6845BDFBFAF034019473FB9A63BD55D3A4A7284757071574029A4D016DCCBE95DD679EF3C4880BF169422F8C89B68A988D2B13793CAED4F74DE7486C72DC94DF46B8E93D8E02EFCB1FF9B3BA10C8AE7F653DF94F4AF466CDDCEF5776687F7C4C14B63E4EED1719DC2EC482D7DBCC7AE518CDE3D5FF86D39000EC3
310
673C0044E1D308BF05F74D1B5F033A7D1BE7F74BC55BBE3E4A20F920946CA0271EB17BD2B80E5660ACB8A29A79F5E4BBA49D4D945B6EEF4A7EFEAA65E5555BBB57A7E15D2F83C69F30BBB978D2B39F1F26FC097424D39BB33CA3D87ABF64E307938B685BAD44F71556A30B7E712CA4FE600613C3E554B69ADE949A7CFE214D
310
F1FFF05CB82151EC6FC31950239F94CF7AD39DC473F6EA356E5EC2C4EFA04383CEFE985A127484366FBEE3C0EC4FEA363E4F6632AE781392FD45D67B63FB8DF70E82734F431FD3443172A0E30A83D60982D55FA6A2CF86DBA8382502ACC6CDEF3B907982EED1160E14863FA242F9757347E1544275CCDCF71ECD5F8621CBEA
310
326B8BA884AD7F825781923E66971F04010D574C541D8427A438A37EEF8AF88240EED7362C953F5A81DE2D56109CDE2524EA0F5D2F87308C0C47BD97AD605878AB8589E17CA83930CB5E0DCCD75853D68B1AB136594926DE426C367428E9334AFAFF90ECE221BB5DC9E5BB53D2CDEF954EAA9CD814F0E5725F1965DD458E5F
310
8487683AD86B9D0076BE3EE91EB1CECC5331A67A3F79D8B27587C12EC2A6A70474749F27B4C0BBAFB94B34189E88DC18964BE4121B9137FD516C7755356E50D6714E31ACD222621EBBCD1CFF81D87479056A9DA0E0B8EA19D24CF937DA89F78E8650CCBDC110AAB6C4E46DCBFD0446BA9E2060E81F314AC2031E88135E5476
310
AC0160EF5C0DD2EEF1B8B5CB2D198BE9A554A9093B5F7D7E4B5407DDFCA1D9C152FD97F55BFFFDFE802954DFEC8995B983E28AC92F1971E28F531DC407A1280EB125F64A72E617EFB27DFBCEDCDA2D6F2BDADA36873EE46B9BE1782998C63DA7182BC383FB6FD15DA472B175D7E8B4FC88F38D6E07FEAA3FA3CBB8F6B449EC
310
F14D2175E5C5CCA3A42ABF24CA6C9395AF74535F4DDB38CB84F56614B0FD32D7E19CA5CF988DB4449C40E23DF2B16772594554579094450F56F253CD25EA7F77366FB1CFE79696C428BB64D5A41E986189427E5E4D7E2DAE3D5BB4972B3DC44EAABDDDD63A2264ECFA5C786EB0EE1FDC5BE34FA0F08376869FD1E61EA06CAE
310
15191135445EE8F0394161C3266A596AA035572BB0C8876180D8B9C77D307DF9DCDF7365ABDA6F3A2366436457A4DFC1F259666569A9E4A79C817BDD5610E5200FCE894A358EC72858D50EF67545DA81C6FACE3D457BAF70367E1E6BDD9A952FB4F56247F58F523B97E640246051A72F79BE42FFA0B3187F63097F91C48B86
310
8586F714B0EBD5A00A8412C1236E1298F60C72BE6C96B82B404CADAA304AE9F303176B14BA53FBC2D5E86377E35542019E24D97B96A49B2C0E5006E7795954DEAF5DA58958839043C6C70BD3B1B33B6DC5C31316D8A6923F142E26F6711A2258AF977DDF1F970ECC4F1F2B434B96D81BEB6E89BF3BBB3C7C8CC80505070723
310
D6D7D7D3C8CA27CA164A26024FED94B12A86031867241DA53D929636DA600F050BC40CE48B8BA03D69224720DEE2ED2127390BDF5E6EA64527BBD4C4C63FA76BB801FEEC0E61218EC98A8A86CD8313781617877E66692839B9468CF4DB8E50A73986E558E309C0D6F676F921BE02F1185454DC75B111572FF9D27D85EA14C0
310
5AD7271225B391C4275659CA4A43759D0BA44639BE4C30A84DB7F67A41399FB95CBF923B1B1672ABC807C1590557FB18D811983FA97F5E609516D62281D38B1281F68FC75528C35E4CD7DF0F7DBB5E5DD69C414EBEA2F4A5B241B996BA77AE6C772E367408C633EA3E438B68563EA8BE7667F3A4C4FDEEA52ABD78A2820F44
310
3B7914A15F180018D231E64519C56A12F6CA7C8DAE18F06F6B769DBF92329EF6A5D18FBCE600F36BD8E8198DE5CDAA96181F3A756EBA5501CEE58F497EA4F418A2B82565B9BCC611713C0B708CCA1F398B78C5F7D03B3437CC18F13061F55C7BEDADD5ACB1DB0E36D3CE47FF6EA1A563A57E9649EA5D14D1A50EAA45746338
310
1C073777EF1600607BAF6428A7DDC079D47A204EF1E1F1F0589FB054D45E02CE623B3823C317C601E589E22B1E88B448524B86A82828E32345EC18AE17214B42F8C41C6D428016D9BA31DDCB47572561E5A402E5BA4FCE55F78AF7268524AA04130F3A20BA5D1E9F9948EA48FC8F5314FDB35E21898198060034ACE5E3E2BB
310
CA34092518F275190AF65F45867FF0900AA4B81F25427414C372BF51DC29AA855C5428EE1EEDD6B849AD60F6E73475C2D2523F8A2772C840A478DED18A8C5C91B085F255DC4F54EA7AA8947354FD17ECF8FB3B4A0DE7B483CAF3A1165EE05BBA413E5C1FEF3DE1D6B8F2F3F3251C17D9FCAB48A9AAF63AC773A0E413BBC46A
310
9ADF84A566FC920E4D8C52C9769EE3301CADEEEDD92B312E02E2A7E35B7F1E7D203FE5A7D75578B06E99D0E46FFADB8FDA17ED8880390DA29094202D6F645F76F6F96409CDA05495A96E84B04A00D1A6C6C81D7F3DE9376E828CCF144EE50E364ACCE7237EA0BFB5607ED1AC3CFE73794E5B61739D14DF1743441B1AC98F00
310
ECEDE9E7301FA29755FBEFA68C91EF2B314CF510537EF1ABFC9A762496280B546F5EDAAF8A5B387D469FC9A878A92828C88608453ACEC6094DCA54111E7AD5B2663DFE2DD151B7F123B9F4FEF8EE36AB125FD7AD52A59B1B765B3E3F73E3F73DEA93875004D2AFFE3CDE9493B87A9904DD052028949041A91DC0E1BA47BA71
310
4343FD5B25E0A6A09503AFC17C790058A836A324FE31D7893512E28230332F153181C1E018E1124EBE1BA262AA428A518237D1EA7275E48C5C561BD19ED6912EDD8367DA0F31E40EEAE9683DA9257525AEA7B632B97119E17145A90231768A4F3B9120FF32E8319B015E3CBE26F1A754177D8185345817C096B0CE443A955D
310
13AC15E1FB5DEEA0239EC32A3C92241A237B0B02FFCB4F93CF2B02570C8D192E2F2A68CEEB42F12E6F8CEEFF46C251E22B4341C56FB08CCE550E7A9D6F4D6564B9EA52A83D5BF2C6E03FA19D2775E15A8A7ACF30A13C259EE7F5EF2AC3BA354F1500E1A07FC63FB4686E2F12EC69719F9ECF5FE3F35598DF2CE944008CE78F
310
0911BA5BE5D0A34E0098FF038669C26030BA9B300303039852A8F6F496341737CA7E0D2E3AAA36DE0A70AA7D9CA0D54D9AD84B18A44C9E625475E1C97B93BEBB38DCE7D227E67A2D00F531436136355F243D1FC0D712C5765754FA22FCFFAE97919161F46D6E61ACB37D83777B385889770B50765B127768443A5C4D3A4E35
310
A3151111F146B7CA116F918A049F1C272F2CD7976C69A0068773451659A97E0F4A08FE604C3FF6CE7385DB19F4D3ABC8A0D80DA8A42096AC377DB49382B36E270B6FA7570188B4B7D1DDDDA82ACA487CCA5D38BD3BD039ADBAFA4ACFF27809239B722081E2EB9F145320553D183F28471C388BC8814E5045676767AB58A8E7
310
2D1CED2CA731379515D2E533E4CF0B39DFC625F97AC4836831A4DE330E87A8126FA17EBE583D614E71E22A8DBF2825599743E0640037303E8E1B1E8EA4E1ABFA4F62907B5E4E0E5DCFDAB417C36C6848A2B8D15F1E505434C0707E16B1CFC2A1C36A42BBF55734F8F4301DDC2A5110CEE8C0747F69519265012A2174BF4E95
310
5ECD4FDE095A3ABC70536B7AD0B9D7892F81287D667C108703C9B66A221E9A0929D030008F77FF6F5D2108EF5706FC87A3069B976F7C9FC3239D13D283CDEA83597461079FEEE049B0F392889898B7D87D31F8D60ED7B56B91823A8E4EDDB36C6172ECEE42BD42B12CD67994FA0F0DFAE9389356F4CD4425A4B8AA55CBF7EC
310
D585C6A2C2316791E43D5C06841ADBB226A87FD61515FFBB0167B74E56BD7F3E90A57A97FEDCBDF483A0D6699A8C0849CAEB4947FAA90D8E332D9DEBD9F4738C37DA0CAF9CF3DAA68BCB67C420459C7A64498D6E848E5CADE92BB6901F607AA331104A67F7CD650EE169B1DAE94D2C31C2F993632259B6957E246EFE4C5481
310
107B07118607700040E5812A2A2A38DA0076875258C753F60E0F2662C748EDD5F3F3686B8FC3BD6FE631ECCAA1E8B1C1E565AD117E54893E79F4672E32F9E46B2A183DFDCF3EECB4D4D077DBEA0DA254D256045109670050129E9B9B1A9E4A11344D61497A992778095151510C4BB7EF2009B63AA4360635312E4CF668B7E0
310
D3D85A8688E2BD83B569439892ADB63461930D428E0DE42E4AC57CE48DA5CC1449530D8BD3D6A0F08DF20C8E8F570F2CFFFCEA286E30969B4654D498A58D9DA782E19FE3F002181838925592C4A1EF0B332D88B61A92C644547BED490D3A42CFFAB70E36D961F694F6307F72FF15A1C79D5B1B5CEFD353D9E2B52566DEC8F8
310
F09CB3E8359C0F68EBBB7898243E34E12A015B2685AB303C04D3A9E00671FF3DFF0A184E4A2ABEB2B666AF5B3A209C73D8EF29DCDB069C9F391EEE9DD0F74C7BCDE16F8F02E3B8816122BBEB50665775B600549D8BB33A54A6BF940C028118BC6878C79958D6784F9DEAA6E26748386FFAF8D0D0101E2847B6563F5D8DC1D7
310
8F787BE00E2C941AE12148D4A81599FE8F68D4DA5CDED75530ADE138240300EE13B0FC13A1687FED6774662C05A2B7DFB186732F0D7A93545D8B0A6390AE5054D9CB582DA846D7A061B3358B45E2B52DDE63E114397EDB7E09233A579155D795BE76102CF277F4DF8B188C4F2879BEAE3C08347124BF9ED23B128259FE107D
310
31E34A652F090B30B39E0D9AF917B76A2806135621A8A60681F16AF216514BBD02711585B5B1AE823F4B2D0369EA5B6BCB863072727FFC871CA6C9AB79A814D989057E9470A3D238BC87CBB4A0EA49AFE2B86F22E499793CAA9047080450166BDC357524561E258C77CB697F1ABB32562CF87C3B7AA12F911EF19FB3E5C022
310
22E887D08202A60A17151F5E053A86B437771088B4FEE14D652C43E8D939995D34545E12E2FF93D4E366EAD25F10CB7DED141563C3D0C447AF06078A91135FD4B9611583CB4BF3BD167F2399CEAB0E0100F8FFC305F00F1711717173138B4B48C83022295DE657EFEDD97F238ECA80F528AFB4F8D67AD4E2594B9A3AA86D74
310
87EFC313BA95745C186F0CDD84CC12DC9CB0424B42203D351FD9C0A3AF10CC7F388E0329279087386421F194F4A29464C1DEF7EF8BE515E4A199DCD5B909342598D8FE6A231F71336248D5CEC5454455C7BE383B3BC7B260FED27F703FDC39A170F3827239102F59D4DEE7FEF82EAA1A5E4BA94DCC4CC44E7E2EDE20F24244
310
E4454369D2E87C3F823F193FD4FD27E1C23984B01898D15ABC20711A8A558054951A6AE280096BA36CBA439603B7B0B4C45F248C14B2383B4B5CD8ECECE4FF859AD4A6CA2326D020EF090F4041D28DB66E5256B56232CC52829DE8060BAE6BBF37D4B7469B822454FE93210A3E8D15E69FFCF01123222611C51C4FD0A041A0
310
CFA2471CF6BE38D2B20FA4C3525B5B8B586759475CF80ADFE67A284AC24651E52B8E683D24C2622642F27E7C3C22783BCF63648BC398BD6CD0D9C97E7E7E3EACB6126DB7A6C1FD9F1031302EE67ED96F22B77C7CA0239BB324207559B105E4693EB26EC46182A92C9C0DBD24F29B31C5C5AC1F84300E0E17CEEAC15F5736FA
310
4A98971E2F1423BFCD68D4BBD5F86E74B40A369F39507C88FCDB35D2DD8DEBEA4AF999E23CF2816D204200DF6E611781B9884C1AC8888B4DE397320472959434323A5A36B22A8E1F721A270DF3BD65E4A31C11FF048AFB0D8B7B6881423793963A23CFCE935FC189ED36FAE35C46DA3574C979E4394BE52084F3081837BE03
310
3396D2EBD80F1F691B273F660D2B32FA27A33B1DE4ADA5F0FA4651511102DFA410DDA86E065272CA314D5249DF91B06BB92807B28EFD54F08F7B525252782CD276DD02E6B0319B13DF87B1F6361AD6B28FC0D711CF445429B9E5A433CD493051C49A9E03DDB1B147D880253514A5DED88009018620EE229101C041950E2D8A
310
A8E1F5F5438E0C0C0C60EEDEE9E3E0C051948C69F84BB7B2A48A1F3C8EB9E6864687F4F4F6F6E2FA87608ADAF9C5E117B7C1A737E710769DA1D15ECE6A84502AA855398712D5FB51BE92E4EF824969CE18278798AC303C2C7980DD2500ADF8FB1E6D6C2FAAFF9987178923334A244758BAA01A9A1B70FA5097D01E1CC2A58D
310
AD0EC94CE6430AA9B0C10D75E3C6BAC670EFBADEE1607739CE0FC18A2587E3EC3058562014C64219C69BC269082D5C2F4A659278D585755912176D78A1B641719C2A394CED495A1AC5D583FD2F5EDD93308EA7EAE8A6DD396598BDBD3D4CFED62D18A5BDFDE0DD5C80D1A89BA62697B131AE7CE9A6594138582F1B37D68F17
310
49AC7CB67A70695D48A4A056AC1FBD4E82358CEAE38F54B95A9016F9000F9879C0D9D131768635CA798895F27D6F1614F11F2838A83611AA51C9A3DDB539D42979C29F10465655C17BEC3E2760B80DCBF609198C7B171A531905F3EC218D696025975E986C6B4C666666787271F202805577DD5A3EF0CAFAF91B62DC4B2DB4
310
217A7606282F31D8DDBC290593BAA93EA6353AFA9939B877978481E15CFC9F2755CDC00C538F63A4BA3E80AE009B73CA0185687D339A507D165B74290D6EE46D5C58148F020C3668ABE9EF2F7549170DC80DB41FFC1D678FF19AEB10C7133832B104B80F691B3138F97A92D26E551F1F110400D45AC71A9B9AC41A1A1B1DAE
310
ED0B0810638EFFB511D46B121C6FEA0F38CD00E03CFFEB9713FE1F9C263E4DDEC160D0497FA9A132BA608584057FB15380825DE6C7FC3C667EE947D488A09898D8E939C4953BF4EC9836344D2CC6B2971B2A21A572B06096F4982D2CC7232D46E8EA69DC83722E267754D777F97F96D5DA74E1E75178084D0E70F12AD33E5F
310
71EF2AFA599B2BEBF60A5BE475F444F240CBFE8143C334E7ED9150FEEFEF7EB020C4DBED388DD1D6A167A76F3CBF119B578AE8CFA7736ACAFA4440A1C47185638A0D2F3EB5BDDEFDA958FB13CE4AA4923D5BF840392D45544329525749734866684BF7F8D9D54D892E19BCA9F829A0F8BFCBEEA6CFDFC61D74EA1A645ED7A1
310
FF241739F15694BD835B66FEC5677E40FE69BD3F91AE402F036537218A401CB0828604AD189E575015C6F3F6BBC8AC79CF6C70653847254B31551EFCBEB5978B9DB85D58D0FA41A9DFE9C624834AA04949D24B5AE6D299E072D152D12097920F14AA92C31C3B97E28B6C2E6E9C23D63043ECBBC0A60FDF5BD0C33C127EA8A3
310
308B8B6AFFEB28B4455BF6E7AF4FC6222728357EB8E46E85053E6A8843AB23295BF838ABDA94658FEF3F832F147046B4ACD6F7D48E8FCC9618582961C898D1C7A253C91BFECBDA6BA18A1FCF70755DCCEE2222F41B76D23CA98D0CB3D95F0CF66D57FFF65E2A90F5DF40FC3187621E981BD0BC1D992787212688976B94A8F0
310
C6EF646624B570B78E068826F87CE27041A95C9A4871FF65CC17FCB1639629AD6A9517000D63AC231F3D741CB8430777E7ECF80CE7A3F73C0F162F7E56AA71F4DA80A33CD6ACEE78E2C11FAC03DAFCE929B106F8F6B3ED2DC71FF994BD9CEF4E9A94896EF1B6E2B7B4978168BCF0847A3D2A4F1B0500B926E634B174548E9F
310
BAD27153FB5FC36799B1E6C7C38A94E1F9E996796D7B485E635D5287A2AE76FBD11A341DB3F8F810385BB7296391973DC6C37C452A9305AEBBE0CDB6C566DB59FE60C8E94B1FD090354BF51439FFD1B48D725228FFA88C84F686F547107A7A235665A4593B7C34D748C1AC8D56DD5DA861EEFBADDECBBD65117E65851F9035
310
1AEB65F0EFCFF4BCFEF24CB7A5879699FAC437A7AF9099186CF006BB923A59E37D7A36A29FD8D2CBB914A5E9D0A8FD212FBF796AE9A67958FF1D5D8B85F78F96219D4714EB919929241B6C018AAE0C02069F8D919961EC5DDFBFB7573E3AC8E08BFB7C8534BE6DE045B3CD63DBD71F7638BA2309CAE398EA3A7D8F98BBBC7A
310
EB367EFA5CFA27A9F8F2F52FE878058E6209C026453F8E7E8A237DFC389E9590F6059B397CFD65183BBF936E86896612A5B5FEE49DAC8455D026218AFEBEC12B3523A45B57B82C9C97E02ACFA1184DB18E48CF615DBF39C3CC6F0B4AE6BBEEA2E39D944E290302FA3DE33FA7E40296E2EF7BF1CD855BBECFAD0FD622BEE974
310
6FC4FDFDE545AE6E3BC234CADF83A0FB76DFB145BF3828AE3436368AC24989454F8FF70A177672C711CAA1A76107218CF948CA01F873520E7A2B118EBB161ABAD432932029628B6761590C98AB590C8C8C79798CE9F715BA696E839E9131A4BB68BE923F1747FBFF165331FFDD4D05997ACD168F12CA75348DAC04C7F509FE
310
83898A8B421181AF492861CE81E4A2DD0A30850CFA95E05F097FF70F9E777310D584A75BA7018922E271DAB1D785671157685B7D383D3E074DDB4F1E44EF04B07BAAC75A062077C54B9752C738C9D804D402E02851F3F89605AF189738C18C021D2139EAF72513824E10DDD3047BACC8521ED7E98B257D1166903B1B08FA6F
310
918FD7E162913FEC7D0EF4787E29C35FBA8C6E2C9C20E9AB30AE42CA2A01A090E7D010C1B5BF9CEE2A304BF3A987FB40D836979B79E18D70F257DA61E808472DD85B82761825779D6B90CAEB0F23360C6F80A7D7D77545E95B3DFF0CF96A827F9B5BCECD2C9698718417EF80FEEDEE938AFF55859D0D540B7FE09435583A6F
310
04874A0C7E8CF234DF4879722000167F5872CEC6BF3EF7E5A8CC8121E6A359227C8A29C95212F9F735BC72A887D56B8F309FC525BFB4FD767AAEC4AEFF249CFBBD2DE1AB9969A6155C7D8DABC307E47324C1F916C7BCFF40ABA5644E9FFB9238D19ADADA49D9610F01ABBA57E4DFCBDCCBB2B93C8953206C91DE01B0E2651A
310
6D6C31721915B31F7B7CBCE55466F6D70402788FA91D73BE4ADCBA99A35F17D6B83383704917D6833F0FA3CD45C926ADB8BC17999A4A0AFBCE2541F7B8CF4C2F5FBA611B3E626D64407CB32C122DFF4EF8674D6EDBB86C8F7C6A16D50FA685E2CCA34F8F7D1D8265BB0042E9D7F1F666F7BE5FAA5184DF58E12122A42EF02F
310
461B3F369AC746F96528AD208512AB56844CF75B97F352DF7995024FB02855385854F3798670D01CAC771AC3E1889EC25F61A20C1F8CAB46898817F9C47E2CDA1F286BF2F358298709FE567C91133E2638C8B53975E753EA8BFD3578B5F7186B7BF084EBA3F77BAC3132A5779902EC22AF2D2E79F42D324E083386DAEE9810
310
D1B44A5DAA54513C7A71E52A4AB9257D975B621308FE4D2141CC3DCFE946C154A3C1DFCCA7629EC69ACFA831634ADDA93C0388D2A9A2DDAFCF957C6995BCE7FBB6DC4EBAE79E63EB08E9A25F52F67076F7093CA545CA3053B5BF576DEAD4E0017143C5F759F32B2D6F145B52B67B48909B7C7FCA6586EE385A2189C16932CB
310
6DDFD9152AE317C430492A578ED27B72D85D40C7C93C097939E1B50F4D67F05334FE9DC362C30B7FF561B95259138ECFD9274C8D695C31B14D4EAA9F3D7FA8DDF652F8C5DEFA23284C799B7D94416DEE81E05A866302DC70192A5368EA65E1CED8BF107A1E2D3119A71E85DC1A7B0C1E93274CE04DD0F2ABC8AC7C987FDB00
310
2B6F81757B43502EF7A0D92E416494FAEEA4C9C090CD9557AA4D532F4996A272B94355C5A0E4974EEA9627476F30809B94D8D8D860062E02204643BEC7D0438AF800FC7E2B26955D595421E83C69E1A07E0E3122285835F014AD538188CF9737CE76D464A353FA55A001AB2526B84E985083693BC76FE211CA1D000679C889
310
E3C009832C87E1AC2EDD05C302557422DF0800E316FCAC86978A371F025A6C7DAA9F333E7BD160403A1A06EA75AA9888FF01504B03041400060808009D81875151464CB48900000043010000360000006662782F45313931413644332D443531442D343844452D383639312D3641434542324535413639312F646972656374
310
6F72792E786D6C9D8F310EC2300C45AF127987122606C71DD918B841D4B851A43646695A717C52A85029031293A5A76FBF6FACEF7DA7264E43906840EF0FA03836E242F406C6DCEE4EA06AC22492573150D1F66C60C640E8938CB705396EEDD86DE9B5042FE27813D640EA63BB001C722AF6E55CB61E4863F58284D5D3F53D
310
D715CE1C3985E63FD7F1B7EBDD617E9F1E504B03041400060808009D81875177C11BD83E070000211C0000340000006662782F45313931413644332D443531442D343844452D383639312D3641434542324535413639312F6F626A656374732E786D6CDD595B6FE23814FE2B56F665F721376E8551CA88021DA1D9CE8C06CD
310
6ADF22130CF5363739490BFBEBF7D8B1439C06C8DCA4D152A904C7393EE73BF713EFED210AD13361194DE25BC3B51C03913848B634DEDF1A45BE33C7067A3B451E4B92BCB6CF40318EC8ADC1978DA9B7674991CAA52DD9E1226CAEDEDFFD8DB280C4C4404188B3ECD6C8824712610B1779B225D993B5C539B6F6BB83E55AE5
310
469DEC9EE1F4B171548A1989736015D663A0223970F59F20923DF56CBE41DBD6EFB6AD77619B2D04D719A57196E33878C555E3B8DE19AE1AC7F5DDC162D91B4ECCE160D03707A39E6BDEDDDF2D4CF7A6EFCC47F3F964B69C1868EA6D9224AC149092780B5A3C1A53D7B3F99D4A7C89421BDF4112C7249068B66DD812499792
310
AC898906AC2B44AB29A494B5B6D0EF28FC996D9D40D158D2D056C2A9EFBAF5269B7F0084AC8B95B28C702BCF7206BA96D897FEE07876B9AAE9856628C23961148728A41B86192808B6960AD2C8706FE1A410C74C6851D1ABF30A867DDD97DAB8DC1561C8FDD7980A4FF3C11F499E09CEE8BF849DB8AF9F063C81B4058DF3B1
310
14363FA64062E2D962B1BCD7EFC99B25906817E23D580B88C937F57B0DBCE63C16AC16C6F4FDFDE6B0E6F1A1FDF09425296139B73CE1CCD2EF94066BA605C6D7019412575D7727543E03F41F00F98A17E481E6183D0C0E03253BC371B64B5804DA410E321DF8E7207EF9EACAB3AB87A70869B1F21CA6E0B63F08534D0CEDEC
310
1AA453EF198C3E617D29DC3AC021D8F4038DB99F83A1A030812588F7BBCDC198AE2098C2223C8543901EFE3C9B5F22F82AE940BC6968A82DFC7650947298A69F9D74F50E6C86D1A0529526E3397C873F04DFD962FD7E5DB01D0EC88374EC05D9D198E6904CDB19D240D75CFECBEA83F0C8BBE39FF858F7416D5700E7EC131E
310
385AF4B2967A414231C00ACFC3A56AC4CA0305770F431C93A4C8E47A5BA00A923061FEE6E8973EDC7AD65FCA08CAC3A405B40633C8EE01A32907C5984A755591D03AE194818961264D705FAAD5DF1451EAE32829621E6B5FDB62930F0834DC1481AAA0A62C5BB9AD22BBA5BB5D9141F46A2539D780940EAD0897263E8040D6
310
C62F233B86218B26B14F210983B7B49EA01D50817799E78C843B9F866111F93B1A4222F1239C9EA1DF51827AEA7A22C797846D5B09EA96A59C52D910075C02AB4052E9AA0CFA52A78C3C535E678A84A6D281B64316A2C67470265FF054D102A8324661E693E1FDFD64D61B9BCEFD726C0E96F389395BDE4CCCBBD1A2377406
310
A3E1F0A6DFE45385AB7AC20355F23A47F3BFFCB1883631A621DCE062E36DFAE6AD489FB736C4467BE94EDCD968D137174377610EC68BA5391E4D5C73349B2FEF7ACBE10C7ED88C6449C10292D93DDBF19549A6F1FE1C578ABBD74114EA9AEBD94EE9AB29CCFF3788BE6B26054D89BF6A10AD62574B45D83588F2479B211407
310
4F3C47F901947DADEED308A24D3EDAE2DC57C665C7EA3BE2E3BA939E33E98D27A3CAD82F066A71CE77C7B9360902683C8BDC4F521CD0BC3DA13670E918A7BF2AB7587D7788009DEA7F75C8E53C230FF16984F7C4DF61DE26B404C66B12B4E6B07D9864198D4926DABC57E55F83A6634135A5E7DC1623A4991F911C7F8BFD89
310
BEA161D3109B431F1AD29C8F04AE56059541CB16E41C45DEFE42E216F21FFD0C476958B6BAD730707B0A02D5E4B4591C679A1FF10CF6E6E3DC77B6444C2EAE51AFD857F541ABD69AD427DF4CFE0C3CAAAEF989F0A823BA974ED6D09DF0CF1882CA68E8F66F9422AE61A58ECA79231716D07A0647FF85D0FD63A742B39B4E6A
310
255B5954E724823E16E705EBE4AFA3A1F3EA2019171A0E513BE92B8B43D1C0A9160ED0131DDCB9F2B6760CD4A13486415727415E49D16AC2421762A8C767575FE1D717955DA7FADDF1F2A757CC75E78BC4F4E73A0E502D970158461FADA66EADBAB57A287BC1790081742DBECD3BF0882DD99E1A338D5C5B89AEEAD36BD5F3
310
8A07D40846B698C7D9077E117EC6A06A689F335B166D76B9BEE289CD82E9F4890F8D699DD6C777EB061558E9FCF4278E1179695090AB73DE0D5F20F565756AFA1B14A4445F56171EFF253A0AA5C0DA1C0DC6C159125298CA932DDA9304B2378C1D3A741B2C2299C8CA60BC3248A957021D9E7E2E87AA39DE84EAE9E011C364
310
3A94BD5811C0541432E6AD21D7D16F3007E5A348319DB29EA00D9331CC4005A3B706586C4EA1DBB23630CF12D34341BD31AF04C7C6F19EE7FBF2A9EAF7E9318E0E44A5935CD59E2EB848C9346782C236152F0AA0EA2B6F4CBD6F175DB183700E979B22AF84392D9CA49120A83702A57030F67B92F01EA0A0B82C976B893D1A
310
249D46F317EDA0A46AE698EDC57CBD86F76CF1C9E6A3F1D5479486C59EABF352F7AB513279D71D16E514CA03C39062A698D790F337F62796C03BA608DD533002F4FB613CFAC39E275194C4E5923D936FAAD0FA11DE3B6D6D35F38336DE7187B69802C8B9BEBFC119B1F0367B8205502DA37C385A42AC1940154D6B06A034C2
310
75018F69FB570B246BA3DA84A41E76393C62A88FC091F8CB1CEE36F50DB50924F80270256E9E2ED482673398824FFF03504B03041400060808009D818751AEEC7F39DD000000530100003C0000006662782F45313931413644332D443531442D343844452D383639312D3641434542324535413639312F7265736F75726365
310
732F322F636E782E786D6C4D90CD6A042110845F45BC8F3A03F95B1CF72572CA6531DA6B64D51EFC09C9DB47370672EAA6EAA3A96A79FE8A817C422E1ED34E5726288164D0FAE476DAEA7579A6E4AC6446ACFF304A928EB0D32153255DC6764CC9C255B730D4E0D36D8AE2E22041F6E67224478909BA949D16F3015133DD2A
310
5A28376675D56C65190AB66CA09FA83EC23C6132E80A96AA4D6C6259B7453CBDAE8FA7753B3DBCBC493E4825DF11C3E47DAA90F12006FB927A1E21F9B0956CD94F6694E8C65F38D6C349DE6D254BCDFD0313ABDF47C77CD40EF81DF97595E4A3621FF7FE7D8E77A81F504B03041400060808009D818751FF15A4A45D000000
310
800000003A0000006662782F45313931413644332D443531442D343844452D383639312D3641434542324535413639312F7265736F75726365732F636E782E786D6C4D8B3B0E80201005AF42B6F75B59F0390B113044D83508C6E30BC6C26AF226F3B8BA6360974DA7271430F523308B2B198F9B80925DB700539227A2FCCB
310
80A18E5640D320F996A81C9F32D6E9129A0D1EF74FCE750E6D57BC7165FBCA07504B03041400060808009D818751FBCCD99F3E01000046050000300000006662782F45313931413644332D443531442D343844452D383639312D3641434542324535413639312F636E782E786D6CCD94CB6AC33010457FC5686FF9017D0559
310
812EFA055D94EE6479E2AAB135461A97E6EF2BA572DA5252BA08243B31BA03F7CC5C46ACDFC7217B03E70DDA8655BC6419588D9DB17DC366DAE4B72C5B4BE110E99B8C65568DD0B0586652F40EE729953AD8A87988D5C1D86D2A2A2267DA99C0B34C0FCAFB8679FD02A3E26A26ECC06F79A748F18A3BF0383B0DA19FCC08A9
310
5F3B50041D937559977955E7E5CD6375BDAAEAD5D5DDB328A2528A1671487A63091C4E99C6F0B0C14C298AF82DC5EC4CD2440226BF9CF1D65851847F297C706BFBA4A3DD1475D33418AD288CA9404D407910811A45F12996A288BC3FA81FEE9F160759671C6842B73BD300AA63033818E32109FFE3DF0BFFC6C6F635E09E6B
310
DB476193AD93A12E69F521AEBFF71F52A46C3F5C5EE80FC64E9FF9704AC8E8CB435E7C9D88B8D89FBCB0F47801E507504B03041400060808009D8187516B0F49477D000000A30000000B0000006662782F636E782E786D6C4D8C410EC2201444AF42FE9E2AAD2534011A140ED258DA1029182CC6E30BA60B572FF332337CFC
310
6C1EBD6D7AB9180490E60CC8867B9C5D5805E47DC10CD028798A71FFAB010AD36605540D92AF29E6E7A166BB4CD957EB5D781CD2908128AA3BAC7BA2F1856983191D08A6EA66AEADE955096571AA9382DF5F61BD975F504B03041400060808009D818751A6D797065F0000008200000007000000636E782E786D6C4DCB3B0E
310
80201045D1AD90E9FD7516806B51190811670C8A61F982B1B0BAC9C97B72CA7B1037C6D3332918DA1E04D2CAC69353902EDB8C20262D23F3F59B81A079470595414B17391D1F19B4730A5583A7ED43BBE4025D9592775E5ADFFA01504B03041400060808009D818751ECFD112DA800000026010000130000005B436F6E7465
310
6E745F54797065735D2E786D6C7D4F4B0EC22010BD0A61DF525D18634ABB506FE00510A79458060253536F2FD89D5197F3FED3F68B9BD80362B21E25DFD40D6780DADF2C1AC9671AAA3D677DD75E9E0112CB5A4C928F44E12044D22338956A1F003333F8E814E5331A1194BE2B0362DB343BA13D122055543278D79E6050F3
310
44ECBC6478EDCD76CE8EABAE5449AE4298AC56946789C28AAFBEABC53F3EAF09A84A1441B91F0101CD4780756578C173A578FFDDBD00504B03041400060808009D8187513DEE336E64000000790000001B0000006175746F6465736B2D64657369676E2D7061636B6167652E786D6C35CBC10E83200C00D05F21DCA56CA76D
310
41FC96062B120735B69A7DBE268BB7777961F8D5AF396893C2ADB70FE7ADA196782C2DF776D7A97B5933C430F15651E5469C55D70F80A4992A3ADC954792C525AE70A1E4D6AD9816CC044FEFDF01FE3FDE907802504B03041400060808009D818751435145A3F20000008E0100003D0000006662782F45313931413644332D
310
443531442D343844452D383639312D3641434542324535413639312F7265736F75726365732F322F636F72652E786D6C8550CB6E833010FC15B47703369042641C252A7FD0536F96ED502BC1467E54F9FCD8814AEDA9A75DCDCECCEE0E3D3D967BF1AD9CD7D68C80CB1A0A658495DACC23C470453D1427469DB5E1170D0AC3
310
1735428681D1D9D9B8EE90B02628935163A5DA41EEBD0A50887B6A46F0E24B2DBCE4312486BF952B17373EAB12971B8FD118B5DCA55A26377DD5CA019B0E2D211D99D065981AD49E5B8CCEEFA4470D1EBAFE52E3A9E908ADB298D1A0979FEDC2291E9404466A52234C50FDF6810F474C8EDDF049ABCC64D407977EDE97E6EF
310
129D561BFAC72DAEF27FB7A84D68C8EEB6293C309C8E7B0D18AD723AA9BCA24B3527C99E504B03041400060808009D818751A3D42BECF8000000960100003B0000006662782F45313931413644332D443531442D343844452D383639312D3641434542324535413639312F7265736F75726365732F636F72652E786D6C8550
310
CB6E833010FC15B47703369092C8384A54FEA0A7DE2CB3A156828DFCA8FAF9B50395DA534FBB9A9D99DD1D7EFE5A1EC5273AAFAD198096351468949DB4990788E1467A28CE823B6BC32F1A14462E38408641F0D9D9B8EE90B226A0C9A8B113EEA0F41E0314EA919A01BCFAC045963286C4F0F77295EA2E672C69B9F1048F51
310
4FBB544FC94DDF343A10E3A165AC6323B91EC786B4979692CB2BEB49438F5D7FADE9D8748C57592C78D0CBCF76E550069C40B09AD5843252BFBCD1C389B253777CE755660AEE834B3FEF4BF377201C7A1B9D42CFAB6DFAC735AED3FFAE519BD0B0DD75537810341DF91C085EE594527946986A4E547C03504B030414000608
310
08009D81875127CA9F41F0000000B1010000310000006662782F45313931413644332D443531442D343844452D383639312D3641434542324535413639312F636F72652E786D6C8D504B6EC32014BC8AF5F6D886D4AE136122B7F60DBAEA0E01715062B0F8543D7E2176A57697D58361869937F4FCBDDC8B2FE5BCB6A6075C
310
D6502823ACD466EE21860BEAA03833EAAC0D7F685018BEA81E320C8CCECEC67587843541998C1A2BD50E72EF558042DCD3A1072FAE6AE1258F2131FCAD5CB9B8F15995B8DC788C06BDFC4A85533C28098CD4A44698A0FAF503B7274C4ECDF1935699C9688C5AEE565A26777DD1CA019BF0110FED7840638347F4D28D13EADA
310
2346EDF03EBD91A919D2855659CCA80F2EEDBC7F92B77B56BE09FF658EAB7C22B336E14076C34DE181E53C8F0746AB5C601A8F76D3CC65B31F504B03041400060808009D818751B7FB7A2853010000DD0200000C0000006662782F636F72652E786D6C8D525D6F832014FD2B86775450BBB6419A36F31FEC696F14A9235530
310
08A63F7FE0473A1FD62D2648CEBDF79C7B4E20A747D746A33083D4AA04284E412414D7B5544D099CBDC13D884E9418ADED8F361029D68912041850D218EDFA05E25A59A102AA742D16900D83B020E2ADBF9460E05FA2633173D6770CF7B867FCCE1A11A378EEA3C439592FA3B2F66CF2268501B4DAE51817B882974395C1FC
310
9C23787EC77B98A143B1BFA4A8CA0A4C92304C8995DDAACE8D6056D480E214A7106198BE7DA0DD11E16371F82449E8A464B0C67B5E44833B406FD70749667CC3E7FAFA6F3E2795CDF0C2374F0C8022BFDE54A02409F9F8DF14DE36432FECF3B3ECDAAE16EE1E1A05B7DAE4BE526BF72C8DAC75C253A7D1F49164AE7AE689E0
310
371EFC82E735870F8AA9C6AFC6ACBF5E9D0DEADB9D7A61E0681F91D2A663ED73B979C5E7F914DA585AC7B96EB5F9CFF46A750D33090F937E03504B03041400060808009D81875165A5F1FF06010000B201000008000000636F72652E786D6C8D50C16E842014FC15F2EEA8A06E75836C7653FFA0A7DEA8B02E590523B869FF
310
BEB0D2A4BDF5F4C8CCBC37C3B0D3E73CA1875A9DB6A6039215809419ACD466EC60F357DC003A71B65AEB7FC9001931AB0E220C9C8DABDD96040DD67865226AAC540914CE290F6898C2A30337DCD42C32B1F9A070F76C11C35D8C2A23D9AEE3CCEBF967755895F04A02A7052D30A1B87879238723A1C7BA7D67795472B66D5A
310
262B2D83BBBE6AB502EF0F15A535EDF1A5ED4B5C9D2B82CFAFB4C12569EBE65290BEAC29CBE33267CEAFE1CFE948C8E991138FE8CBF29DE2ECC3DA2909422889AC99BE80172C8FC49FD0DB22FF115A1B5FD27470DF70C04908F42482716C308C67BD61C6B6F937504B010214001400060808009D8187510000000000000000
310
000000003700000000000000000000000000000000006662782F45313931413644332D443531442D343844452D383639312D3641434542324535413639312F617474726962757465732E62696E504B010214001400060808009D8187510000000000000000000000003500000000000000000000000000550000006662782F
310
45313931413644332D443531442D343844452D383639312D3641434542324535413639312F76657274696365732E62696E504B010214001400060808009D818751F270F13306000000040000003600000000000000000000000000A80000006662782F45313931413644332D443531442D343844452D383639312D36414345
310
42324535413639312F747269616E676C65732E62696E504B010214001400060808009D81875188E57597CD3F0000904100004200000000000000000000000000020100006662782F45313931413644332D443531442D343844452D383639312D3641434542324535413639312F7265736F75726365732F322F305F67656E65
310
7269632E706E67504B010214001400060808009D81875151464CB4890000004301000036000000000000000000000000002F4100006662782F45313931413644332D443531442D343844452D383639312D3641434542324535413639312F6469726563746F72792E786D6C504B010214001400060808009D81875177C11BD8
310
3E070000211C000034000000000000000000000000000C4200006662782F45313931413644332D443531442D343844452D383639312D3641434542324535413639312F6F626A656374732E786D6C504B010214001400060808009D818751AEEC7F39DD000000530100003C000000000000000000000000009C490000666278
310
2F45313931413644332D443531442D343844452D383639312D3641434542324535413639312F7265736F75726365732F322F636E782E786D6C504B010214001400060808009D818751FF15A4A45D000000800000003A00000000000000000000000000D34A00006662782F45313931413644332D443531442D343844452D38
310
3639312D3641434542324535413639312F7265736F75726365732F636E782E786D6C504B010214001400060808009D818751FBCCD99F3E010000460500003000000000000000000000000000884B00006662782F45313931413644332D443531442D343844452D383639312D3641434542324535413639312F636E782E786D
310
6C504B010214001400060808009D8187516B0F49477D000000A30000000B00000000000000000000000000144D00006662782F636E782E786D6C504B010214001400060808009D818751A6D797065F000000820000000700000000000000000000000000BA4D0000636E782E786D6C504B010214001400060808009D818751
310
ECFD112DA80000002601000013000000000000000000000000003E4E00005B436F6E74656E745F54797065735D2E786D6C504B010214001400060808009D8187513DEE336E64000000790000001B00000000000000000000000000174F00006175746F6465736B2D64657369676E2D7061636B6167652E786D6C504B010214
310
001400060808009D818751435145A3F20000008E0100003D00000000000000000000000000B44F00006662782F45313931413644332D443531442D343844452D383639312D3641434542324535413639312F7265736F75726365732F322F636F72652E786D6C504B010214001400060808009D818751A3D42BECF800000096
310
0100003B00000000000000000000000000015100006662782F45313931413644332D443531442D343844452D383639312D3641434542324535413639312F7265736F75726365732F636F72652E786D6C504B010214001400060808009D81875127CA9F41F0000000B101000031000000000000000000000000005252000066
310
62782F45313931413644332D443531442D343844452D383639312D3641434542324535413639312F636F72652E786D6C504B010214001400060808009D818751B7FB7A2853010000DD0200000C00000000000000000000000000915300006662782F636F72652E786D6C504B010214001400060808009D81875165A5F1FF06
310
010000B201000008000000000000000000000000000E550000636F72652E786D6C504B050600000000120012002D0600003A5600000000
  0
XRECORD
  5
17
102
{ACAD_REACTORS
330
12
102
}
330
12
100
AcDbXrecord
280
     1
270
     1
271
     1
  0
XRECORD
  5
16
102
{ACAD_REACTORS
330
12
102
}
330
12
100
AcDbXrecord
280
     1
270
     1
271
     1
  0
XRECORD
  5
18
102
{ACAD_REACTORS
330
12
102
}
330
12
100
AcDbXrecord
280
     1
270
     1
271
     1
  0
XRECORD
  5
15
102
{ACAD_REACTORS
330
12
102
}
330
12
100
AcDbXrecord
280
     1
270
     1
271
     1
  0
XRECORD
  5
24
102
{ACAD_REACTORS
330
22
102
}
330
22
100
AcDbXrecord
280
     1
270
     1
271
     1
  0
XRECORD
  5
23
102
{ACAD_REACTORS
330
22
102
}
330
22
100
AcDbXrecord
280
     1
270
     1
271
     1
  0
XRECORD
  5
27
102
{ACAD_REACTORS
330
22
102
}
330
22
100
AcDbXrecord
280
     1
270
     1
271
     1
  0
XRECORD
  5
26
102
{ACAD_REACTORS
330
22
102
}
330
22
100
AcDbXrecord
280
     1
270
     1
271
     1
  0
XRECORD
  5
28
102
{ACAD_REACTORS
330
22
102
}
330
22
100
AcDbXrecord
280
     1
270
     1
271
     1
  0
XRECORD
  5
25
102
{ACAD_REACTORS
330
22
102
}
330
22
100
AcDbXrecord
280
     1
270
     1
271
     1
  0
XRECORD
  5
322
102
{ACAD_REACTORS
330
321
102
}
330
321
100
AcDbXrecord
280
     1
102
DISPLAYNAME
  1
Imperial24
102
FLAGS
 90
        0
  0
CELLSTYLEMAP
  5
320
102
{ACAD_REACTORS
330
31F
102
}
330
31F
100
AcDbCellStyleMap
 90
        3
300
CELLSTYLE
  1
TABLEFORMAT_BEGIN
 90
        5
170
     1
 91
        0
 92
    32768
 62
   257
 93
        1
300
CONTENTFORMAT
  1
CONTENTFORMAT_BEGIN
 90
        0
 91
        0
 92
      512
 93
        0
300

 40
0.0
140
1.0
 94
        5
 62
     0
340
55
144
0.25
309
CONTENTFORMAT_END
171
     0
 94
        0
309
TABLEFORMAT_END
  1
CELLSTYLE_BEGIN
 90
        1
 91
        1
300
_TITLE
309
CELLSTYLE_END
300
CELLSTYLE
  1
TABLEFORMAT_BEGIN
 90
        5
170
     1
 91
        0
 92
        0
 62
   257
 93
        1
300
CONTENTFORMAT
  1
CONTENTFORMAT_BEGIN
 90
        0
 91
        0
 92
      512
 93
        0
300

 40
0.0
140
1.0
 94
        5
 62
     0
340
55
144
0.18
309
CONTENTFORMAT_END
171
     0
 94
        0
309
TABLEFORMAT_END
  1
CELLSTYLE_BEGIN
 90
        2
 91
        1
300
_HEADER
309
CELLSTYLE_END
300
CELLSTYLE
  1
TABLEFORMAT_BEGIN
 90
        5
170
     1
 91
        0
 92
        0
 62
   257
 93
        1
300
CONTENTFORMAT
  1
CONTENTFORMAT_BEGIN
 90
        0
 91
        0
 92
      512
 93
        0
300

 40
0.0
140
1.0
 94
        2
 62
     0
340
55
144
0.18
309
CONTENTFORMAT_END
171
     0
 94
        0
309
TABLEFORMAT_END
  1
CELLSTYLE_BEGIN
 90
        3
 91
        2
300
_DATA
309
CELLSTYLE_END
  0
ENDSEC
  0
EOF
