  0
SECTION
  2
HEADER
  9
$ACADVER
  1
AC1015
  9
$ACADMAINTVER
 70
     6
  9
$DWGCODEPAGE
  3
DOS932
  9
$INSBASE
 10
0.0
 20
0.0
 30
0.0
  9
$EXTMIN
 10
0.0
 20
0.0
 30
0.0
  9
$EXTMAX
 10
297.0
 20
210.0
 30
0.0
  9
$LIMMIN
 10
0.0
 20
0.0
  9
$LIMMAX
 10
297.0
 20
210.0
  9
$ORTHOMODE
 70
     0
  9
$REGENMODE
 70
     1
  9
$FILLMODE
 70
     1
  9
$QTEXTMODE
 70
     0
  9
$MIRRTEXT
 70
     1
  9
$LTSCALE
 40
1.0
  9
$ATTMODE
 70
     1
  9
$TEXTSIZE
 40
3.5277777778
  9
$TRACEWID
 40
1.0
  9
$TEXTSTYLE
  7
Standard
  9
$CLAYER
  8
0
  9
$CELTYPE
  6
ByLayer
  9
$CECOLOR
 62
   256
  9
$CELTSCALE
 40
1.0
  9
$DISPSILH
 70
     0
  9
$DIMSCALE
 40
1.0
  9
$DIMASZ
 40
2.728515625
  9
$DIMEXO
 40
1.0
  9
$DIMDLI
 40
3.75
  9
$DIMRND
 40
0.0
  9
$DIMDLE
 40
0.0
  9
$DIMEXE
 40
1.0
  9
$DIMTP
 40
0.0
  9
$DIMTM
 40
0.0
  9
$DIMTXT
 40
3.5277777778
  9
$DIMCEN
 40
2.5
  9
$DIMTSZ
 40
0.0
  9
$DIMTOL
 70
     0
  9
$DIMLIM
 70
     0
  9
$DIMTIH
 70
     1
  9
$DIMTOH
 70
     1
  9
$DIMSE1
 70
     0
  9
$DIMSE2
 70
     0
  9
$DIMTAD
 70
     1
  9
$DIMZIN
 70
     0
  9
$DIMBLK
  1

  9
$DIMASO
 70
     1
  9
$DIMSHO
 70
     1
  9
$DIMPOST
  1

  9
$DIMAPOST
  1

  9
$DIMALT
 70
     0
  9
$DIMALTD
 70
     3
  9
$DIMALTF
 40
0.0393700787
  9
$DIMLFAC
 40
1.0
  9
$DIMTOFL
 70
     1
  9
$DIMTVP
 40
0.0
  9
$DIMTIX
 70
     0
  9
$DIMSOXD
 70
     0
  9
$DIMSAH
 70
     0
  9
$DIMBLK1
  1

  9
$DIMBLK2
  1

  9
$DIMSTYLE
  2
ISO-25
  9
$DIMCLRD
 70
     0
  9
$DIMCLRE
 70
     0
  9
$DIMCLRT
 70
     0
  9
$DIMTFAC
 40
1.0
  9
$DIMGAP
 40
1.524
  9
$DIMJUST
 70
     0
  9
$DIMSD1
 70
     0
  9
$DIMSD2
 70
     0
  9
$DIMTOLJ
 70
     0
  9
$DIMTZIN
 70
     0
  9
$DIMALTZ
 70
     0
  9
$DIMALTTZ
 70
     0
  9
$DIMUPT
 70
     0
  9
$DIMDEC
 70
     2
  9
$DIMTDEC
 70
     2
  9
$DIMALTU
 70
     2
  9
$DIMALTTD
 70
     3
  9
$DIMTXSTY
  7
Standard
  9
$DIMAUNIT
 70
     0
  9
$DIMADEC
 70
     2
  9
$DIMALTRND
 40
0.0
  9
$DIMAZIN
 70
     0
  9
$DIMDSEP
 70
    44
  9
$DIMATFIT
 70
     3
  9
$DIMFRAC
 70
     0
  9
$DIMLDRBLK
  1

  9
$DIMLUNIT
 70
     2
  9
$DIMLWD
 70
    -2
  9
$DIMLWE
 70
    -2
  9
$DIMTMOVE
 70
     0
  9
$LUNITS
 70
     2
  9
$LUPREC
 70
     2
  9
$SKETCHINC
 40
1.0
  9
$FILLETRAD
 40
0.0
  9
$AUNITS
 70
     0
  9
$AUPREC
 70
     2
  9
$MENU
  1
.
  9
$ELEVATION
 40
0.0
  9
$PELEVATION
 40
0.0
  9
$THICKNESS
 40
0.0
  9
$LIMCHECK
 70
     0
  9
$CHAMFERA
 40
0.0
  9
$CHAMFERB
 40
0.0
  9
$CHAMFERC
 40
0.0
  9
$CHAMFERD
 40
0.0
  9
$SKPOLY
 70
     0
  9
$TDCREATE
 40
2460426.717899155
  9
$TDUCREATE
 40
2460426.342899155
  9
$TDUPDATE
 40
2460426.71789985
  9
$TDUUPDATE
 40
2460426.34289985
  9
$TDINDWG
 40
0.0000000116
  9
$TDUSRTIMER
 40
0.0000000116
  9
$USRTIMER
 70
     1
  9
$ANGBASE
 50
0.0
  9
$ANGDIR
 70
     0
  9
$PDMODE
 70
     0
  9
$PDSIZE
 40
-1.0
  9
$PLINEWID
 40
0.0
  9
$SPLFRAME
 70
     0
  9
$SPLINETYPE
 70
     6
  9
$SPLINESEGS
 70
     8
  9
$HANDSEED
  5
245
  9
$SURFTAB1
 70
     6
  9
$SURFTAB2
 70
     6
  9
$SURFTYPE
 70
     6
  9
$SURFU
 70
     6
  9
$SURFV
 70
     6
  9
$UCSBASE
  2

  9
$UCSNAME
  2

  9
$UCSORG
 10
0.0
 20
0.0
 30
0.0
  9
$UCSXDIR
 10
1.0
 20
0.0
 30
0.0
  9
$UCSYDIR
 10
0.0
 20
1.0
 30
0.0
  9
$UCSORTHOREF
  2

  9
$UCSORTHOVIEW
 70
     0
  9
$UCSORGTOP
 10
0.0
 20
0.0
 30
0.0
  9
$UCSORGBOTTOM
 10
0.0
 20
0.0
 30
0.0
  9
$UCSORGLEFT
 10
0.0
 20
0.0
 30
0.0
  9
$UCSORGRIGHT
 10
0.0
 20
0.0
 30
0.0
  9
$UCSORGFRONT
 10
0.0
 20
0.0
 30
0.0
  9
$UCSORGBACK
 10
0.0
 20
0.0
 30
0.0
  9
$PUCSBASE
  2

  9
$PUCSNAME
  2

  9
$PUCSORG
 10
0.0
 20
0.0
 30
0.0
  9
$PUCSXDIR
 10
1.0
 20
0.0
 30
0.0
  9
$PUCSYDIR
 10
0.0
 20
1.0
 30
0.0
  9
$PUCSORTHOREF
  2

  9
$PUCSORTHOVIEW
 70
     0
  9
$PUCSORGTOP
 10
0.0
 20
0.0
 30
0.0
  9
$PUCSORGBOTTOM
 10
0.0
 20
0.0
 30
0.0
  9
$PUCSORGLEFT
 10
0.0
 20
0.0
 30
0.0
  9
$PUCSORGRIGHT
 10
0.0
 20
0.0
 30
0.0
  9
$PUCSORGFRONT
 10
0.0
 20
0.0
 30
0.0
  9
$PUCSORGBACK
 10
0.0
 20
0.0
 30
0.0
  9
$USERI1
 70
     0
  9
$USERI2
 70
     0
  9
$USERI3
 70
     0
  9
$USERI4
 70
     0
  9
$USERI5
 70
     0
  9
$USERR1
 40
0.0
  9
$USERR2
 40
0.0
  9
$USERR3
 40
0.0
  9
$USERR4
 40
0.0
  9
$USERR5
 40
0.0
  9
$WORLDVIEW
 70
     1
  9
$SHADEDGE
 70
     3
  9
$SHADEDIF
 70
    70
  9
$TILEMODE
 70
     1
  9
$MAXACTVP
 70
    64
  9
$PINSBASE
 10
0.0
 20
0.0
 30
0.0
  9
$PLIMCHECK
 70
     0
  9
$PEXTMIN
 10
1.0000000000E+20
 20
1.0000000000E+20
 30
1.0000000000E+20
  9
$PEXTMAX
 10
-1.0000000000E+20
 20
-1.0000000000E+20
 30
-1.0000000000E+20
  9
$PLIMMIN
 10
0.0
 20
0.0
  9
$PLIMMAX
 10
420.0
 20
297.0
  9
$UNITMODE
 70
     0
  9
$VISRETAIN
 70
     1
  9
$PLINEGEN
 70
     0
  9
$PSLTSCALE
 70
     1
  9
$TREEDEPTH
 70
  3020
  9
$CMLSTYLE
  2
Standard
  9
$CMLJUST
 70
     0
  9
$CMLSCALE
 40
20.0
  9
$PROXYGRAPHICS
 70
     1
  9
$MEASUREMENT
 70
     1
  9
$CELWEIGHT
370
    -1
  9
$ENDCAPS
280
     0
  9
$JOINSTYLE
280
     0
  9
$LWDISPLAY
290
     1
  9
$INSUNITS
 70
     4
  9
$HYPERLINKBASE
  1

  9
$STYLESHEET
  1

  9
$XEDIT
290
     1
  9
$CEPSNTYPE
380
     0
  9
$PSTYLEMODE
290
     1
  9
$FINGERPRINTGUID
  2
{d5509bae-8ac1-4c11-b23c-5d23b9250e97}
  9
$VERSIONGUID
  2
{FAEB1C32-E019-11D5-929B-00C0DF256EC4}
  9
$EXTNAMES
290
     1
  9
$PSVPSCALE
 40
0.0
  9
$OLESTARTUP
290
     0
  0
ENDSEC
  0
SECTION
  2
CLASSES
  0
CLASS
  1
ACDBDICTIONARYWDFLT
  2
AcDbDictionaryWithDefault
  3
ObjectDBX Classes
 90
        0
280
     0
281
     0
  0
CLASS
  1
VISUALSTYLE
  2
AcDbVisualStyle
  3
ObjectDBX Classes
 90
     4095
280
     0
281
     0
  0
CLASS
  1
MATERIAL
  2
AcDbMaterial
  3
ObjectDBX Classes
 90
     1153
280
     0
281
     0
  0
CLASS
  1
SCALE
  2
AcDbScale
  3
ObjectDBX Classes
 90
     1153
280
     0
281
     0
  0
CLASS
  1
TABLESTYLE
  2
AcDbTableStyle
  3
ObjectDBX Classes
 90
     4095
280
     0
281
     0
  0
CLASS
  1
MLEADERSTYLE
  2
AcDbMLeaderStyle
  3
ACDB_MLEADERSTYLE_CLASS
 90
     4095
280
     0
281
     0
  0
CLASS
  1
SUN
  2
AcDbSun
  3
SCENEOE
 90
     1153
280
     0
281
     0
  0
CLASS
  1
ACDBPLACEHOLDER
  2
AcDbPlaceHolder
  3
ObjectDBX Classes
 90
        0
280
     0
281
     0
  0
CLASS
  1
LAYOUT
  2
AcDbLayout
  3
ObjectDBX Classes
 90
        0
280
     0
281
     0
  0
ENDSEC
  0
SECTION
  2
TABLES
  0
TABLE
  2
VPORT
  5
8
330
0
100
AcDbSymbolTable
 70
     1
  0
VPORT
  5
29
330
8
100
AcDbSymbolTableRecord
100
AcDbViewportTableRecord
  2
*Active
 70
     0
 10
0.0
 20
0.0
 11
1.0
 21
1.0
 12
148.5
 22
105.0
 13
0.0
 23
0.0
 14
10.0
 24
10.0
 15
10.0
 25
10.0
 16
0.0
 26
0.0
 36
1.0
 17
0.0
 27
0.0
 37
0.0
 40
210.0
 41
1.4142857143
 42
50.0
 43
0.0
 44
0.0
 50
0.0
 51
0.0
 71
     0
 72
  2000
 73
     1
 74
     3
 75
     0
 76
     0
 77
     0
 78
     0
281
     0
 65
     1
110
0.0
120
0.0
130
0.0
111
1.0
121
0.0
131
0.0
112
0.0
122
1.0
132
0.0
 79
     0
146
0.0
  0
ENDTAB
  0
TABLE
  2
LTYPE
  5
5
330
0
100
AcDbSymbolTable
 70
     6
  0
LTYPE
  5
14
330
5
100
AcDbSymbolTableRecord
100
AcDbLinetypeTableRecord
  2
ByBlock
 70
     0
  3

 72
    65
 73
     0
 40
0.0
  0
LTYPE
  5
15
330
5
100
AcDbSymbolTableRecord
100
AcDbLinetypeTableRecord
  2
ByLayer
 70
     0
  3

 72
    65
 73
     0
 40
0.0
  0
LTYPE
  5
16
330
5
100
AcDbSymbolTableRecord
100
AcDbLinetypeTableRecord
  2
Continuous
 70
     0
  3
Solid line
 72
    65
 73
     0
 40
0.0
  0
LTYPE
  5
5E
330
5
100
AcDbSymbolTableRecord
100
AcDbLinetypeTableRecord
  2
HIDDEN
 70
     0
  3
Hidden __ __ __ __ __ __ __ __ __ __ __ __ __ __
 72
    65
 73
     2
 40
1.905
 49
1.27
 74
     0
 49
-0.635
 74
     0
  0
LTYPE
  5
5F
330
5
100
AcDbSymbolTableRecord
100
AcDbLinetypeTableRecord
  2
PHANTOM
 70
     0
  3
Phantom ______  __  __  ______  __  __  ______
 72
    65
 73
     6
 40
12.7
 49
6.35
 74
     0
 49
-1.27
 74
     0
 49
1.27
 74
     0
 49
-1.27
 74
     0
 49
1.27
 74
     0
 49
-1.27
 74
     0
  0
LTYPE
  5
60
330
5
100
AcDbSymbolTableRecord
100
AcDbLinetypeTableRecord
  2
CENTER
 70
     0
  3
Center ____ _ ____ _ ____ _ ____ _ ____ _ ____
 72
    65
 73
     4
 40
10.16
 49
6.35
 74
     0
 49
-1.27
 74
     0
 49
1.27
 74
     0
 49
-1.27
 74
     0
  0
LTYPE
  5
61
330
5
100
AcDbSymbolTableRecord
100
AcDbLinetypeTableRecord
  2
CENTERX2
 70
     0
  3
Center (2x) ________  __  ________  __  _____
 72
    65
 73
     4
 40
20.32
 49
12.7
 74
     0
 49
-2.54
 74
     0
 49
2.54
 74
     0
 49
-2.54
 74
     0
  0
LTYPE
  5
62
330
5
100
AcDbSymbolTableRecord
100
AcDbLinetypeTableRecord
  2
DOT2
 70
     0
  3
Dot (.5x) ........................................
 72
    65
 73
     2
 40
0.635
 49
0.0
 74
     0
 49
-0.635
 74
     0
  0
ENDTAB
  0
TABLE
  2
LAYER
  5
2
330
0
100
AcDbSymbolTable
 70
     2
  0
LAYER
  5
10
330
2
100
AcDbSymbolTableRecord
100
AcDbLayerTableRecord
  2
0
 70
     0
 62
     7
  6
Continuous
370
    -3
390
F
  0
LAYER
  5
63
330
2
100
AcDbSymbolTableRecord
100
AcDbLayerTableRecord
  2
FORMAT
 70
     0
 62
     7
  6
Continuous
370
    -3
390
F
  0
ENDTAB
  0
TABLE
  2
STYLE
  5
3
330
0
100
AcDbSymbolTable
 70
     2
  0
STYLE
  5
11
330
3
100
AcDbSymbolTableRecord
100
AcDbTextStyleTableRecord
  2
Standard
 70
     0
 40
0.0
 41
1.0
 50
0.0
 71
     0
 42
3.5277777778
  3
txt
  4
bigfont
  0
STYLE
  5
64
330
3
100
AcDbSymbolTableRecord
100
AcDbTextStyleTableRecord
  2
SLDTEXTSTYLE0
 70
     0
 40
0.0
 41
0.7
 50
0.0
 71
     0
 42
3.5277777778
  3
TXT
  4
bigfont
  0
ENDTAB
  0
TABLE
  2
VIEW
  5
6
330
0
100
AcDbSymbolTable
 70
     0
  0
ENDTAB
  0
TABLE
  2
UCS
  5
7
330
0
100
AcDbSymbolTable
 70
     0
  0
ENDTAB
  0
TABLE
  2
APPID
  5
9
330
0
100
AcDbSymbolTable
 70
     1
  0
APPID
  5
12
330
9
100
AcDbSymbolTableRecord
100
AcDbRegAppTableRecord
  2
ACAD
 70
     0
  0
ENDTAB
  0
TABLE
  2
DIMSTYLE
  5
A
330
0
100
AcDbSymbolTable
 70
     1
100
AcDbDimStyleTable
  0
DIMSTYLE
105
27
330
A
100
AcDbSymbolTableRecord
100
AcDbDimStyleTableRecord
  2
ISO-25
 70
     0
 41
2.5
 42
0.625
 43
3.75
 44
1.25
 73
     0
 74
     0
 77
     1
 78
     8
140
2.5
141
2.5
143
0.0393700787
147
0.625
171
     3
172
     1
178
     0
271
     2
272
     2
274
     3
278
    44
283
     0
284
     8
340
11
  0
ENDTAB
  0
TABLE
  2
BLOCK_RECORD
  5
1
330
0
100
AcDbSymbolTable
 70
     3
  0
BLOCK_RECORD
  5
1F
330
1
100
AcDbSymbolTableRecord
100
AcDbBlockTableRecord
  2
*Model_Space
340
22
  0
BLOCK_RECORD
  5
1B
330
1
100
AcDbSymbolTableRecord
100
AcDbBlockTableRecord
  2
*Paper_Space
340
1E
  0
BLOCK_RECORD
  5
23
330
1
100
AcDbSymbolTableRecord
100
AcDbBlockTableRecord
  2
*Paper_Space0
340
26
  0
BLOCK_RECORD
  5
181
330
1
100
AcDbSymbolTableRecord
100
AcDbBlockTableRecord
  2
SW_CENTERMARKSYMBOL_0
340
0
102
{BLKREFS
331
18C
102
}
  0
BLOCK_RECORD
  5
235
330
1
100
AcDbSymbolTableRecord
100
AcDbBlockTableRecord
  2
SW_CENTERMARKSYMBOL_1
340
0
102
{BLKREFS
331
240
102
}
  0
ENDTAB
  0
ENDSEC
  0
SECTION
  2
BLOCKS
  0
BLOCK
  5
20
330
1F
100
AcDbEntity
  8
0
100
AcDbBlockBegin
  2
*Model_Space
 70
     0
 10
0.0
 20
0.0
 30
0.0
  3
*Model_Space
  1

  0
ENDBLK
  5
21
330
1F
100
AcDbEntity
  8
0
100
AcDbBlockEnd
  0
BLOCK
  5
1C
330
1B
100
AcDbEntity
 67
     1
  8
0
100
AcDbBlockBegin
  2
*Paper_Space
 70
     0
 10
0.0
 20
0.0
 30
0.0
  3
*Paper_Space
  1

  0
ENDBLK
  5
1D
330
1B
100
AcDbEntity
 67
     1
  8
0
100
AcDbBlockEnd
  0
BLOCK
  5
24
330
23
100
AcDbEntity
  8
0
100
AcDbBlockBegin
  2
*Paper_Space0
 70
     0
 10
0.0
 20
0.0
 30
0.0
  3
*Paper_Space0
  1

  0
ENDBLK
  5
25
330
23
100
AcDbEntity
  8
0
100
AcDbBlockEnd
  0
BLOCK
  5
182
330
181
100
AcDbEntity
  8
0
100
AcDbBlockBegin
  2
SW_CENTERMARKSYMBOL_0
 70
     0
 10
0.0
 20
0.0
 30
0.0
  3
SW_CENTERMARKSYMBOL_0
  1

  0
LINE
  5
184
330
181
100
AcDbEntity
  8
FORMAT
 62
     0
100
AcDbLine
 10
0.0
 20
0.0
 30
0.0
 11
0.0
 21
2.5
 31
0.0
  0
LINE
  5
185
330
181
100
AcDbEntity
  8
FORMAT
 62
     0
100
AcDbLine
 10
0.0
 20
0.0
 30
0.0
 11
-2.5
 21
0.0
 31
0.0
  0
LINE
  5
186
330
181
100
AcDbEntity
  8
FORMAT
 62
     0
100
AcDbLine
 10
0.0
 20
0.0
 30
0.0
 11
0.0
 21
-2.5
 31
0.0
  0
LINE
  5
187
330
181
100
AcDbEntity
  8
FORMAT
 62
     0
100
AcDbLine
 10
0.0
 20
0.0
 30
0.0
 11
2.5
 21
0.0
 31
0.0
  0
LINE
  5
188
330
181
100
AcDbEntity
  8
FORMAT
 62
     0
100
AcDbLine
 10
0.0
 20
5.0
 30
0.0
 11
0.0
 21
29.8015489406
 31
0.0
  0
LINE
  5
189
330
181
100
AcDbEntity
  8
FORMAT
 62
     0
100
AcDbLine
 10
-5.0
 20
0.0
 30
0.0
 11
-12.5
 21
0.0
 31
0.0
  0
LINE
  5
18A
330
181
100
AcDbEntity
  8
FORMAT
 62
     0
100
AcDbLine
 10
0.0
 20
-5.0
 30
0.0
 11
0.0
 21
-12.5
 31
0.0
  0
LINE
  5
18B
330
181
100
AcDbEntity
  8
FORMAT
 62
     0
100
AcDbLine
 10
5.0
 20
0.0
 30
0.0
 11
12.5
 21
0.0
 31
0.0
  0
ENDBLK
  5
183
330
181
100
AcDbEntity
  8
0
100
AcDbBlockEnd
  0
BLOCK
  5
236
330
235
100
AcDbEntity
  8
0
100
AcDbBlockBegin
  2
SW_CENTERMARKSYMBOL_1
 70
     0
 10
0.0
 20
0.0
 30
0.0
  3
SW_CENTERMARKSYMBOL_1
  1

  0
LINE
  5
238
330
235
100
AcDbEntity
  8
FORMAT
 62
     0
100
AcDbLine
 10
0.0
 20
0.0
 30
0.0
 11
0.0
 21
2.5
 31
0.0
  0
LINE
  5
239
330
235
100
AcDbEntity
  8
FORMAT
 62
     0
100
AcDbLine
 10
0.0
 20
0.0
 30
0.0
 11
-2.5
 21
0.0
 31
0.0
  0
LINE
  5
23A
330
235
100
AcDbEntity
  8
FORMAT
 62
     0
100
AcDbLine
 10
0.0
 20
0.0
 30
0.0
 11
0.0
 21
-2.5
 31
0.0
  0
LINE
  5
23B
330
235
100
AcDbEntity
  8
FORMAT
 62
     0
100
AcDbLine
 10
0.0
 20
0.0
 30
0.0
 11
2.5
 21
0.0
 31
0.0
  0
LINE
  5
23C
330
235
100
AcDbEntity
  8
FORMAT
 62
     0
100
AcDbLine
 10
0.0
 20
5.0
 30
0.0
 11
0.0
 21
9.95
 31
0.0
  0
LINE
  5
23D
330
235
100
AcDbEntity
  8
FORMAT
 62
     0
100
AcDbLine
 10
-5.0
 20
0.0
 30
0.0
 11
-41.1997210759
 21
0.0
 31
0.0
  0
LINE
  5
23E
330
235
100
AcDbEntity
  8
FORMAT
 62
     0
100
AcDbLine
 10
0.0
 20
-5.0
 30
0.0
 11
0.0
 21
-9.95
 31
0.0
  0
LINE
  5
23F
330
235
100
AcDbEntity
  8
FORMAT
 62
     0
100
AcDbLine
 10
5.0
 20
0.0
 30
0.0
 11
21.5974180693
 21
0.0
 31
0.0
  0
ENDBLK
  5
237
330
235
100
AcDbEntity
  8
0
100
AcDbBlockEnd
  0
ENDSEC
  0
SECTION
  2
ENTITIES
  0
MTEXT
  5
65
330
1F
100
AcDbEntity
  8
FORMAT
100
AcDbMText
 10
127.9704387991
 20
94.4475803841
 30
0.0
 40
3.7041666667
 41
0.0
 71
     1
 72
     1
  1
エースボール　BM-9022R
  7
SLDTEXTSTYLE0
 73
     1
 44
1.0
  0
LINE
  5
66
330
1F
100
AcDbEntity
  8
0
  6
Continuous
 62
     7
370
    25
100
AcDbLine
 10
99.7965985394
 20
62.2797351767
 30
0.0
 11
98.8930715935
 21
60.7147806005
 31
0.0
  0
LINE
  5
67
330
1F
100
AcDbEntity
  8
0
  6
Continuous
 62
     7
370
    25
100
AcDbLine
 10
98.8930715935
 20
44.2147806005
 30
0.0
 11
99.7965985394
 21
42.6498260242
 31
0.0
  0
LINE
  5
68
330
1F
100
AcDbEntity
  8
0
  6
Continuous
 62
     7
370
    25
100
AcDbLine
 10
110.9895446477
 20
42.6498260242
 30
0.0
 11
111.8930715935
 21
44.2147806005
 31
0.0
  0
LINE
  5
69
330
1F
100
AcDbEntity
  8
0
  6
Continuous
 62
     7
370
    25
100
AcDbLine
 10
111.8930715935
 20
60.7147806005
 30
0.0
 11
110.9895446477
 21
62.2797351767
 31
0.0
  0
LINE
  5
6A
330
1F
100
AcDbEntity
  8
0
  6
Continuous
 62
     7
370
    25
100
AcDbLine
 10
112.1430715935
 20
62.4647806005
 30
0.0
 11
111.8930715935
 21
62.2147806005
 31
0.0
  0
LINE
  5
6B
330
1F
100
AcDbEntity
  8
0
  6
Continuous
 62
     7
370
    25
100
AcDbLine
 10
111.8930715935
 20
42.7147806005
 30
0.0
 11
112.1430715935
 21
42.4647806005
 31
0.0
  0
ARC
  5
6C
330
1F
100
AcDbEntity
  8
0
  6
Continuous
 62
     7
370
    25
100
AcDbCircle
 10
130.8930715935
 20
61.4647806005
 30
0.0
 40
1.5
100
AcDbArc
 50
138.1896851042
 51
180.0
  0
ARC
  5
6D
330
1F
100
AcDbEntity
  8
0
  6
Continuous
 62
     7
370
    25
100
AcDbCircle
 10
130.8930715935
 20
43.4647806005
 30
0.0
 40
1.5
100
AcDbArc
 50
180.0
 51
221.8103148958
  0
LINE
  5
6E
330
1F
100
AcDbEntity
  8
0
  6
Continuous
 62
     7
370
    25
100
AcDbLine
 10
112.1430715935
 20
42.4647806005
 30
0.0
 11
114.0111055823
 21
42.4647806005
 31
0.0
  0
LINE
  5
6F
330
1F
100
AcDbEntity
  8
0
  6
Continuous
 62
     7
370
    25
100
AcDbLine
 10
114.0111055823
 20
62.4647806005
 30
0.0
 11
112.1430715935
 21
62.4647806005
 31
0.0
  0
LINE
  5
70
330
1F
100
AcDbEntity
  8
0
  6
Continuous
 62
     7
370
    25
100
AcDbLine
 10
131.3930715935
 20
42.4647806005
 30
0.0
 11
131.8930715935
 21
42.9647806005
 31
0.0
  0
LINE
  5
71
330
1F
100
AcDbEntity
  8
0
  6
Continuous
 62
     7
370
    25
100
AcDbLine
 10
131.8930715935
 20
61.9647806005
 30
0.0
 11
131.3930715935
 21
62.4647806005
 31
0.0
  0
LINE
  5
72
330
1F
100
AcDbEntity
  8
0
  6
Continuous
 62
     7
370
    25
100
AcDbLine
 10
131.3930715935
 20
62.4647806005
 30
0.0
 11
129.7750376048
 21
62.4647806005
 31
0.0
  0
LINE
  5
73
330
1F
100
AcDbEntity
  8
0
  6
Continuous
 62
     7
370
    25
100
AcDbLine
 10
129.7750376048
 20
42.4647806005
 30
0.0
 11
131.3930715935
 21
42.4647806005
 31
0.0
  0
ARC
  5
74
330
1F
100
AcDbEntity
  8
0
  6
Continuous
 62
     7
370
    25
100
AcDbCircle
 10
112.8930715935
 20
43.4647806005
 30
0.0
 40
1.5
100
AcDbArc
 50
318.1896851042
 51
0.0
  0
ARC
  5
75
330
1F
100
AcDbEntity
  8
0
  6
Continuous
 62
     7
370
    25
100
AcDbCircle
 10
112.8930715935
 20
61.4647806005
 30
0.0
 40
1.5
100
AcDbArc
 50
0.0
 51
41.8103148958
  0
ARC
  5
76
330
1F
100
AcDbEntity
  8
0
  6
Continuous
 62
     7
370
    25
100
AcDbCircle
 10
128.8930715935
 20
61.4647806005
 30
0.0
 40
0.5
100
AcDbArc
 50
270.0
 51
0.0
  0
ARC
  5
77
330
1F
100
AcDbEntity
  8
0
  6
Continuous
 62
     7
370
    25
100
AcDbCircle
 10
114.8930715935
 20
43.4647806005
 30
0.0
 40
0.5
100
AcDbArc
 50
90.0
 51
180.0
  0
ARC
  5
78
330
1F
100
AcDbEntity
  8
0
  6
Continuous
 62
     7
370
    25
100
AcDbCircle
 10
114.8930715935
 20
61.4647806005
 30
0.0
 40
0.5
100
AcDbArc
 50
180.0
 51
270.0
  0
ARC
  5
79
330
1F
100
AcDbEntity
  8
0
  6
Continuous
 62
     7
370
    25
100
AcDbCircle
 10
128.8930715935
 20
43.4647806005
 30
0.0
 40
0.5
100
AcDbArc
 50
0.0
 51
90.0
  0
LINE
  5
7A
330
1F
100
AcDbEntity
  8
0
  6
Continuous
 62
     7
370
    25
100
AcDbLine
 10
131.8930715935
 20
45.6978431005
 30
0.0
 11
139.6875471359
 21
45.9414204612
 31
0.0
  0
LINE
  5
7B
330
1F
100
AcDbEntity
  8
0
  6
Continuous
 62
     7
370
    25
100
AcDbLine
 10
139.6875471359
 20
58.9881407398
 30
0.0
 11
131.8930715935
 21
59.2317181005
 31
0.0
  0
LINE
  5
7C
330
1F
100
AcDbEntity
  8
0
  6
Continuous
 62
     7
370
    25
100
AcDbLine
 10
115.5107507186
 20
60.9647806005
 30
0.0
 11
114.8930715935
 21
60.9647806005
 31
0.0
  0
LINE
  5
7D
330
1F
100
AcDbEntity
  8
0
  6
Continuous
 62
     7
370
    25
100
AcDbLine
 10
128.8930715935
 20
60.9647806005
 30
0.0
 11
128.2930715935
 21
60.9647806005
 31
0.0
  0
LINE
  5
7E
330
1F
100
AcDbEntity
  8
0
  6
Continuous
 62
     7
370
    25
100
AcDbLine
 10
114.8930715935
 20
43.9647806005
 30
0.0
 11
128.8930715935
 21
43.9647806005
 31
0.0
  0
LINE
  5
7F
330
1F
100
AcDbEntity
  8
0
  6
Continuous
 62
     7
370
    25
100
AcDbLine
 10
139.6875471359
 20
45.9414204612
 30
0.0
 11
141.8930715935
 21
47.2147806005
 31
0.0
  0
LINE
  5
80
330
1F
100
AcDbEntity
  8
0
  6
Continuous
 62
     7
370
    25
100
AcDbLine
 10
141.8930715935
 20
57.7147806005
 30
0.0
 11
139.6875471359
 21
58.9881407398
 31
0.0
  0
SPLINE
  5
81
330
1F
100
AcDbEntity
  8
0
  6
Continuous
 62
     7
370
    25
100
AcDbSpline
210
0.0
220
0.0
230
1.0
 70
     8
 71
     3
 72
    13
 73
     9
 74
     0
 42
0.00000001
 43
0.00000001
 40
0.0
 40
0.0
 40
0.0
 40
0.0
 40
0.1657648999013929
 40
0.3288516425910938
 40
0.5079757807440833
 40
0.6908230418584143
 40
0.8659232900064849
 40
1.0
 40
1.0
 40
1.0
 40
1.0
 10
128.2933795407156
 20
60.96811397204086
 30
0.0
 10
128.2496853744164
 20
60.96999638914976
 30
0.0
 10
128.1630029804494
 20
60.97373081036122
 30
0.0
 10
128.0388191557543
 20
61.02788890022124
 30
0.0
 10
127.9284516941401
 20
61.11232433434254
 30
0.0
 10
127.8456392236558
 20
61.22811919135873
 30
0.0
 10
127.7992061547277
 20
61.35088164565163
 30
0.0
 10
127.7959194765831
 20
61.43211617345113
 30
0.0
 10
127.7944941860469
 20
61.46734408400017
 30
0.0
  0
SPLINE
  5
82
330
1F
100
AcDbEntity
  8
0
  6
Continuous
 62
     7
370
    25
100
AcDbSpline
210
0.0
220
0.0
230
1.0
 70
     8
 71
     3
 72
    13
 73
     9
 74
     0
 42
0.00000001
 43
0.00000001
 40
0.0
 40
0.0
 40
0.0
 40
0.0
 40
0.1607063118245939
 40
0.3468543103550863
 40
0.5363367921067442
 40
0.7155426209750598
 40
0.8707860443061729
 40
0.9999999999999999
 40
0.9999999999999999
 40
0.9999999999999999
 40
0.9999999999999999
 10
115.9919715169301
 20
61.45566878476952
 30
0.0
 10
115.9887472882989
 20
61.41496252314024
 30
0.0
 10
115.9817883979753
 20
61.32710572309141
 30
0.0
 10
115.9253026671969
 20
61.20091662179922
 30
0.0
 10
115.8354940371675
 20
61.09108463228171
 30
0.0
 10
115.7246616852245
 20
61.01591830495121
 30
0.0
 10
115.6135144744538
 20
60.97415378082875
 30
0.0
 10
115.5416222485274
 20
60.96825832993128
 30
0.0
 10
115.5089654092939
 20
60.9655803381222
 30
0.0
  0
LINE
  5
83
330
1F
100
AcDbEntity
  8
0
  6
Continuous
 62
     7
370
    25
100
AcDbLine
 10
127.7930715935
 20
61.4647806005
 30
0.0
 11
127.7930715935
 21
62.9647806005
 31
0.0
  0
LINE
  5
84
330
1F
100
AcDbEntity
  8
0
  6
Continuous
 62
     7
370
    25
100
AcDbLine
 10
115.9930715935
 20
62.9647806005
 30
0.0
 11
115.9930715935
 21
61.4535098605
 31
0.0
  0
LINE
  5
85
330
1F
100
AcDbEntity
  8
0
  6
Continuous
 62
     7
370
    25
100
AcDbLine
 10
129.3430715935
 20
70.9647806005
 30
0.0
 11
127.3930715935
 21
78.9647806004
 31
0.0
  0
LINE
  5
86
330
1F
100
AcDbEntity
  8
0
  6
Continuous
 62
     7
370
    25
100
AcDbLine
 10
128.8930715935
 20
62.9647806005
 30
0.0
 11
129.3430715935
 21
70.9647806005
 31
0.0
  0
LINE
  5
87
330
1F
100
AcDbEntity
  8
0
  6
Continuous
 62
     7
370
    25
100
AcDbLine
 10
114.8224149678
 20
64.2208983918
 30
0.0
 11
114.8930715935
 21
62.9647806005
 31
0.0
  0
LINE
  5
88
330
1F
100
AcDbEntity
  8
0
  6
Continuous
 62
     7
370
    25
100
AcDbLine
 10
116.3930715935
 20
78.9647806004
 30
0.0
 11
116.1390947532
 21
77.9228243326
 31
0.0
  0
SPLINE
  5
89
330
1F
100
AcDbEntity
  8
0
  6
Continuous
 62
     7
370
    25
100
AcDbSpline
210
0.0
220
0.0
230
1.0
 70
     8
 71
     3
 72
    15
 73
    11
 74
     0
 42
0.00000001
 43
0.00000001
 40
0.0
 40
0.0
 40
0.0
 40
0.0
 40
0.1120153983757068
 40
0.2377549203659886
 40
0.3634619113170183
 40
0.4922603936509138
 40
0.621057198910818
 40
0.7152884045190208
 40
0.8095295379031143
 40
1.0
 40
1.0
 40
1.0
 40
1.0
 10
99.79659853938568
 20
47.55730331235016
 30
0.0
 10
99.6979215084863
 20
47.9160544419766
 30
0.0
 10
99.48847753949963
 20
48.67751088004112
 30
0.0
 10
99.24832588050148
 20
49.86156251184783
 30
0.0
 10
99.08093331857732
 20
51.11436245383403
 30
0.0
 10
99.01984443510793
 20
52.38744930768057
 30
0.0
 10
99.06364401644161
 20
53.55660302793723
 30
0.0
 10
99.18220772945477
 20
54.60403073736067
 30
0.0
 10
99.38947651283807
 20
55.84631524920725
 30
0.0
 10
99.63340904329736
 20
56.7606039024469
 30
0.0
 10
99.79659853938568
 20
57.37225788857382
 30
0.0
  0
SPLINE
  5
8A
330
1F
100
AcDbEntity
  8
0
  6
Continuous
 62
     7
370
    25
100
AcDbSpline
210
0.0
220
0.0
230
1.0
 70
     8
 71
     3
 72
    15
 73
    11
 74
     0
 42
0.00000001
 43
0.00000001
 40
0.0
 40
0.0
 40
0.0
 40
0.0
 40
0.1323052378296956
 40
0.2645730682660303
 40
0.3997997819746812
 40
0.5350020935366635
 40
0.6501929590834554
 40
0.7654017933211806
 40
0.8826895567076665
 40
1.0
 40
1.0
 40
1.0
 40
1.0
 10
99.79659853938568
 20
42.64982602423825
 30
0.0
 10
99.68102856754568
 20
42.86184856789475
 30
0.0
 10
99.44992129960451
 20
43.28583370889856
 30
0.0
 10
99.20125866802817
 20
43.93873329455371
 30
0.0
 10
99.05174472087464
 20
44.60394014677659
 30
0.0
 10
99.02213443382627
 20
45.24505079307394
 30
0.0
 10
99.0989558364769
 20
45.85152555793729
 30
0.0
 10
99.25636530759793
 20
46.42388851768968
 30
0.0
 10
99.48726766812892
 20
46.99366365794391
 30
0.0
 10
99.6934816036863
 20
47.36941131901338
 30
0.0
 10
99.79659853938568
 20
47.55730331235016
 30
0.0
  0
SPLINE
  5
8B
330
1F
100
AcDbEntity
  8
0
  6
Continuous
 62
     7
370
    25
100
AcDbSpline
210
0.0
220
0.0
230
1.0
 70
     8
 71
     3
 72
    15
 73
    11
 74
     0
 42
0.00000001
 43
0.00000001
 40
0.0
 40
0.0
 40
0.0
 40
0.0
 40
0.1323052378296971
 40
0.2645730682660337
 40
0.3997997819746862
 40
0.5350020935366703
 40
0.6501929590834606
 40
0.7654017933211842
 40
0.8826895567076684
 40
1.0
 40
1.0
 40
1.0
 40
1.0
 10
99.79659853938568
 20
57.37225788857382
 30
0.0
 10
99.68102856754568
 20
57.58428043223032
 30
0.0
 10
99.44992129960453
 20
58.00826557323413
 30
0.0
 10
99.20125866802817
 20
58.66116515888925
 30
0.0
 10
99.05174472087467
 20
59.32637201111211
 30
0.0
 10
99.0221344338263
 20
59.96748265740943
 30
0.0
 10
99.09895583647693
 20
60.57395742227276
 30
0.0
 10
99.25636530759795
 20
61.14632038202512
 30
0.0
 10
99.48726766812894
 20
61.71609552227933
 30
0.0
 10
99.6934816036863
 20
62.09184318334878
 30
0.0
 10
99.79659853938567
 20
62.27973517668554
 30
0.0
  0
LINE
  5
8C
330
1F
100
AcDbEntity
  8
0
  6
Continuous
 62
     7
370
    25
100
AcDbLine
 10
98.8930715935
 20
52.4647806005
 30
0.0
 11
98.8930715935
 21
60.7147806005
 31
0.0
  0
LINE
  5
8D
330
1F
100
AcDbEntity
  8
0
  6
Continuous
 62
     7
370
    25
100
AcDbLine
 10
98.8930715935
 20
44.2147806005
 30
0.0
 11
98.8930715935
 21
52.4647806005
 31
0.0
  0
LINE
  5
8E
330
1F
100
AcDbEntity
  8
0
  6
Continuous
 62
     7
370
    25
100
AcDbLine
 10
99.7965985394
 20
47.5573033124
 30
0.0
 11
110.9895446477
 21
47.5573033124
 31
0.0
  0
SPLINE
  5
8F
330
1F
100
AcDbEntity
  8
0
  6
Continuous
 62
     7
370
    25
100
AcDbSpline
210
0.0
220
0.0
230
1.0
 70
     8
 71
     3
 72
    15
 73
    11
 74
     0
 42
0.00000001
 43
0.00000001
 40
0.0
 40
0.0
 40
0.0
 40
0.0
 40
0.1323052378296956
 40
0.2645730682660303
 40
0.3997997819746812
 40
0.5350020935366635
 40
0.6501929590834554
 40
0.7654017933211806
 40
0.8826895567076665
 40
1.0
 40
1.0
 40
1.0
 40
1.0
 10
110.9895446476812
 20
42.64982602423825
 30
0.0
 10
111.1051146195212
 20
42.86184856789475
 30
0.0
 10
111.3362218874623
 20
43.28583370889856
 30
0.0
 10
111.5848845190387
 20
43.93873329455371
 30
0.0
 10
111.7343984661922
 20
44.60394014677659
 30
0.0
 10
111.7640087532406
 20
45.24505079307394
 30
0.0
 10
111.68718735059
 20
45.85152555793729
 30
0.0
 10
111.5297778794689
 20
46.42388851768968
 30
0.0
 10
111.2988755189379
 20
46.99366365794391
 30
0.0
 10
111.0926615833806
 20
47.36941131901338
 30
0.0
 10
110.9895446476812
 20
47.55730331235016
 30
0.0
  0
LINE
  5
90
330
1F
100
AcDbEntity
  8
0
  6
Continuous
 62
     7
370
    25
100
AcDbLine
 10
99.7965985394
 20
42.6498260242
 30
0.0
 11
110.9895446477
 21
42.6498260242
 31
0.0
  0
LINE
  5
91
330
1F
100
AcDbEntity
  8
0
  6
Continuous
 62
     7
370
    25
100
AcDbLine
 10
99.7965985394
 20
57.3722578886
 30
0.0
 11
110.9895446477
 21
57.3722578886
 31
0.0
  0
SPLINE
  5
92
330
1F
100
AcDbEntity
  8
0
  6
Continuous
 62
     7
370
    25
100
AcDbSpline
210
0.0
220
0.0
230
1.0
 70
     8
 71
     3
 72
    15
 73
    11
 74
     0
 42
0.00000001
 43
0.00000001
 40
0.0
 40
0.0
 40
0.0
 40
0.0
 40
0.1120153983757068
 40
0.2377549203659886
 40
0.3634619113170183
 40
0.4922603936509138
 40
0.621057198910818
 40
0.7152884045190208
 40
0.8095295379031143
 40
1.0
 40
1.0
 40
1.0
 40
1.0
 10
110.9895446476812
 20
47.55730331235016
 30
0.0
 10
111.0882216785805
 20
47.9160544419766
 30
0.0
 10
111.2976656475672
 20
48.67751088004112
 30
0.0
 10
111.5378173065654
 20
49.86156251184783
 30
0.0
 10
111.7052098684895
 20
51.11436245383403
 30
0.0
 10
111.7662987519589
 20
52.38744930768057
 30
0.0
 10
111.7224991706253
 20
53.55660302793723
 30
0.0
 10
111.6039354576121
 20
54.60403073736067
 30
0.0
 10
111.3966666742288
 20
55.84631524920725
 30
0.0
 10
111.1527341437695
 20
56.7606039024469
 30
0.0
 10
110.9895446476812
 20
57.37225788857382
 30
0.0
  0
SPLINE
  5
93
330
1F
100
AcDbEntity
  8
0
  6
Continuous
 62
     7
370
    25
100
AcDbSpline
210
0.0
220
0.0
230
1.0
 70
     8
 71
     3
 72
    15
 73
    11
 74
     0
 42
0.00000001
 43
0.00000001
 40
0.0
 40
0.0
 40
0.0
 40
0.0
 40
0.1323052378296971
 40
0.2645730682660337
 40
0.3997997819746862
 40
0.5350020935366703
 40
0.6501929590834606
 40
0.7654017933211842
 40
0.8826895567076684
 40
1.0
 40
1.0
 40
1.0
 40
1.0
 10
110.9895446476812
 20
57.37225788857382
 30
0.0
 10
111.1051146195212
 20
57.58428043223032
 30
0.0
 10
111.3362218874623
 20
58.00826557323413
 30
0.0
 10
111.5848845190387
 20
58.66116515888925
 30
0.0
 10
111.7343984661922
 20
59.32637201111211
 30
0.0
 10
111.7640087532406
 20
59.96748265740943
 30
0.0
 10
111.6871873505899
 20
60.57395742227276
 30
0.0
 10
111.5297778794689
 20
61.14632038202512
 30
0.0
 10
111.2988755189379
 20
61.71609552227933
 30
0.0
 10
111.0926615833806
 20
62.09184318334878
 30
0.0
 10
110.9895446476812
 20
62.27973517668554
 30
0.0
  0
LINE
  5
94
330
1F
100
AcDbEntity
  8
0
  6
Continuous
 62
     7
370
    25
100
AcDbLine
 10
99.7965985394
 20
62.2797351767
 30
0.0
 11
110.9895446477
 21
62.2797351767
 31
0.0
  0
LINE
  5
95
330
1F
100
AcDbEntity
  8
0
  6
Continuous
 62
     7
370
    25
100
AcDbLine
 10
111.8930715935
 20
52.4647806005
 30
0.0
 11
111.8930715935
 21
62.2147806005
 31
0.0
  0
LINE
  5
96
330
1F
100
AcDbEntity
  8
0
  6
Continuous
 62
     7
370
    25
100
AcDbLine
 10
111.8930715935
 20
42.7147806005
 30
0.0
 11
111.8930715935
 21
52.4647806005
 31
0.0
  0
LINE
  5
97
330
1F
100
AcDbEntity
  8
0
  6
Continuous
 62
     7
370
    25
100
AcDbLine
 10
112.1430715935
 20
52.4647806005
 30
0.0
 11
112.1430715935
 21
42.4647806005
 31
0.0
  0
LINE
  5
98
330
1F
100
AcDbEntity
  8
0
  6
Continuous
 62
     7
370
    25
100
AcDbLine
 10
112.1430715935
 20
62.4647806005
 30
0.0
 11
112.1430715935
 21
52.4647806005
 31
0.0
  0
LINE
  5
99
330
1F
100
AcDbEntity
  8
0
  6
Continuous
 62
     7
370
    25
100
AcDbLine
 10
129.7750376048
 20
42.4647806005
 30
0.0
 11
129.7750376048
 21
62.4647806005
 31
0.0
  0
SPLINE
  5
9A
330
1F
100
AcDbEntity
  8
0
  6
Continuous
 62
     7
370
    25
100
AcDbSpline
210
0.0
220
0.0
230
1.0
 70
     8
 71
     3
 72
     8
 73
     4
 74
     0
 42
0.00000001
 43
0.00000001
 40
0.0
 40
0.0
 40
0.0
 40
0.0
 40
1.0
 40
1.0
 40
1.0
 40
1.0
 10
129.4902727181874
 20
47.06509074896601
 30
0.0
 10
129.4224363006113
 20
47.03372780795522
 30
0.0
 10
129.3930715935334
 20
47.00025964730567
 30
0.0
 10
129.3930715935334
 20
46.9647806004619
 30
0.0
  0
SPLINE
  5
9B
330
1F
100
AcDbEntity
  8
0
  6
Continuous
 62
     7
370
    25
100
AcDbSpline
210
0.0
220
0.0
230
1.0
 70
     8
 71
     3
 72
    12
 73
     8
 74
     0
 42
0.00000001
 43
0.00000001
 40
0.0
 40
0.0
 40
0.0
 40
0.0
 40
0.5000000000000001
 40
0.5000000000000001
 40
0.75
 40
0.75
 40
1.0
 40
1.0
 40
1.0
 40
1.0
 10
129.4902727181874
 20
47.06509074896601
 30
0.0
 10
129.5581424781972
 20
47.0964691052481
 30
0.0
 10
129.6341770294509
 20
47.23017762574665
 30
0.0
 10
129.6808216278279
 20
47.50820373541243
 30
0.0
 10
129.6852606243505
 20
47.61504991941639
 30
0.0
 10
129.6695300105577
 20
47.84193139347214
 30
0.0
 10
129.6496495806153
 20
47.96210036577675
 30
0.0
 10
129.6221576606355
 20
48.08355001058699
 30
0.0
  0
SPLINE
  5
9C
330
1F
100
AcDbEntity
  8
0
  6
Continuous
 62
     7
370
    25
100
AcDbSpline
210
0.0
220
0.0
230
1.0
 70
     8
 71
     3
 72
    12
 73
     8
 74
     0
 42
0.00000001
 43
0.00000001
 40
0.0
 40
0.0
 40
0.0
 40
0.0
 40
0.5
 40
0.5
 40
0.75
 40
0.75
 40
1.0
 40
1.0
 40
1.0
 40
1.0
 10
129.3930715935334
 20
52.46478060046191
 30
0.0
 10
129.3930715935334
 20
51.73082357830469
 30
0.0
 10
129.3885141985342
 20
50.99784513394189
 30
0.0
 10
129.4156978629135
 20
49.90102102099547
 30
0.0
 10
129.4311475338307
 20
49.53587343242503
 30
0.0
 10
129.4940111353625
 20
48.80708541856099
 30
0.0
 10
129.5410410585308
 20
48.44189466316267
 30
0.0
 10
129.6221576606355
 20
48.08355001058699
 30
0.0
  0
SPLINE
  5
9D
330
1F
100
AcDbEntity
  8
0
  6
Continuous
 62
     7
370
    25
100
AcDbSpline
210
0.0
220
0.0
230
1.0
 70
     8
 71
     3
 72
    12
 73
     8
 74
     0
 42
0.00000001
 43
0.00000001
 40
0.0
 40
0.0
 40
0.0
 40
0.0
 40
0.25
 40
0.25
 40
0.5
 40
0.5
 40
1.0
 40
1.0
 40
1.0
 40
1.0
 10
129.6221576606355
 20
56.8460111903368
 30
0.0
 10
129.5410410585308
 20
56.48766653776113
 30
0.0
 10
129.4940111353625
 20
56.12247578236281
 30
0.0
 10
129.4311475338307
 20
55.39368776849876
 30
0.0
 10
129.4156978629135
 20
55.02854017992833
 30
0.0
 10
129.3885141985342
 20
53.93171606698192
 30
0.0
 10
129.3930715935334
 20
53.19873762261911
 30
0.0
 10
129.3930715935334
 20
52.46478060046189
 30
0.0
  0
SPLINE
  5
9E
330
1F
100
AcDbEntity
  8
0
  6
Continuous
 62
     7
370
    25
100
AcDbSpline
210
0.0
220
0.0
230
1.0
 70
     8
 71
     3
 72
    14
 73
    10
 74
     0
 42
0.00000001
 43
0.00000001
 40
0.0
 40
0.0
 40
0.0
 40
0.0
 40
0.25
 40
0.25
 40
0.5
 40
0.5
 40
0.75
 40
0.75
 40
1.0
 40
1.0
 40
1.0
 40
1.0
 10
129.6221576606355
 20
56.8460111903368
 30
0.0
 10
129.6496786483805
 20
56.96758924632252
 30
0.0
 10
129.6695985702169
 20
57.08811398334764
 30
0.0
 10
129.685265612035
 20
57.31509024245575
 30
0.0
 10
129.6807737802227
 20
57.42206022002192
 30
0.0
 10
129.6495174349391
 20
57.60752577180165
 30
0.0
 10
129.6231448515574
 20
57.68641103292049
 30
0.0
 10
129.560308300413
 20
57.80704882409358
 30
0.0
 10
129.5242687215529
 20
57.84875301453619
 30
0.0
 10
129.4902727181874
 20
57.86447045195779
 30
0.0
  0
SPLINE
  5
9F
330
1F
100
AcDbEntity
  8
0
  6
Continuous
 62
     7
370
    25
100
AcDbSpline
210
0.0
220
0.0
230
1.0
 70
     8
 71
     3
 72
     8
 73
     4
 74
     0
 42
0.00000001
 43
0.00000001
 40
0.0
 40
0.0
 40
0.0
 40
0.0
 40
1.0
 40
1.0
 40
1.0
 40
1.0
 10
129.3930715935334
 20
57.96478060046189
 30
0.0
 10
129.3930715935334
 20
57.92930155361812
 30
0.0
 10
129.4224363006113
 20
57.89583339296858
 30
0.0
 10
129.4902727181874
 20
57.86447045195779
 30
0.0
  0
LINE
  5
A0
330
1F
100
AcDbEntity
  8
0
  6
Continuous
 62
     7
370
    25
100
AcDbLine
 10
129.3930715935
 20
57.9647806005
 30
0.0
 11
129.3930715935
 21
61.4647806005
 31
0.0
  0
LINE
  5
A1
330
1F
100
AcDbEntity
  8
0
  6
Continuous
 62
     7
370
    25
100
AcDbLine
 10
129.3930715935
 20
43.4647806005
 30
0.0
 11
129.3930715935
 21
46.9647806005
 31
0.0
  0
LINE
  5
A2
330
1F
100
AcDbEntity
  8
0
  6
Continuous
 62
     7
370
    25
100
AcDbLine
 10
114.0111055823
 20
52.4647806005
 30
0.0
 11
114.0111055823
 21
42.4647806005
 31
0.0
  0
LINE
  5
A3
330
1F
100
AcDbEntity
  8
0
  6
Continuous
 62
     7
370
    25
100
AcDbLine
 10
114.0111055823
 20
62.4647806005
 30
0.0
 11
114.0111055823
 21
52.4647806005
 31
0.0
  0
LINE
  5
A4
330
1F
100
AcDbEntity
  8
0
  6
Continuous
 62
     7
370
    25
100
AcDbLine
 10
131.3930715935
 20
42.4647806005
 30
0.0
 11
131.3930715935
 21
62.4647806005
 31
0.0
  0
LINE
  5
A5
330
1F
100
AcDbEntity
  8
0
  6
Continuous
 62
     7
370
    25
100
AcDbLine
 10
131.8930715935
 20
61.9647806005
 30
0.0
 11
131.8930715935
 21
42.9647806005
 31
0.0
  0
LINE
  5
A6
330
1F
100
AcDbEntity
  8
0
  6
Continuous
 62
     7
370
    25
100
AcDbLine
 10
114.3930715935
 20
61.4647806005
 30
0.0
 11
114.3930715935
 21
57.9647806005
 31
0.0
  0
SPLINE
  5
A7
330
1F
100
AcDbEntity
  8
0
  6
Continuous
 62
     7
370
    25
100
AcDbSpline
210
0.0
220
0.0
230
1.0
 70
     8
 71
     3
 72
     8
 73
     4
 74
     0
 42
0.00000001
 43
0.00000001
 40
0.0
 40
0.0
 40
0.0
 40
0.0
 40
1.0
 40
1.0
 40
1.0
 40
1.0
 10
114.2958704688795
 20
57.86447045195779
 30
0.0
 10
114.3637068864556
 20
57.89583339296858
 30
0.0
 10
114.3930715935334
 20
57.92930155361812
 30
0.0
 10
114.3930715935334
 20
57.96478060046189
 30
0.0
  0
SPLINE
  5
A8
330
1F
100
AcDbEntity
  8
0
  6
Continuous
 62
     7
370
    25
100
AcDbSpline
210
0.0
220
0.0
230
1.0
 70
     8
 71
     3
 72
    12
 73
     8
 74
     0
 42
0.00000001
 43
0.00000001
 40
0.0
 40
0.0
 40
0.0
 40
0.0
 40
0.4999999999999992
 40
0.4999999999999992
 40
0.7499999999999996
 40
0.7499999999999996
 40
1.0
 40
1.0
 40
1.0
 40
1.0
 10
114.2958704688795
 20
57.86447045195779
 30
0.0
 10
114.2280007088697
 20
57.8330920956757
 30
0.0
 10
114.151966157616
 20
57.69938357517715
 30
0.0
 10
114.105321559239
 20
57.42135746551136
 30
0.0
 10
114.1008825627163
 20
57.31451128150741
 30
0.0
 10
114.1166131765092
 20
57.08762980745166
 30
0.0
 10
114.1364936064515
 20
56.96746083514704
 30
0.0
 10
114.1639855264314
 20
56.8460111903368
 30
0.0
  0
SPLINE
  5
A9
330
1F
100
AcDbEntity
  8
0
  6
Continuous
 62
     7
370
    25
100
AcDbSpline
210
0.0
220
0.0
230
1.0
 70
     8
 71
     3
 72
    12
 73
     8
 74
     0
 42
0.00000001
 43
0.00000001
 40
0.0
 40
0.0
 40
0.0
 40
0.0
 40
0.4999999999999998
 40
0.4999999999999998
 40
0.7499999999999999
 40
0.7499999999999999
 40
1.0
 40
1.0
 40
1.0
 40
1.0
 10
114.3930715935334
 20
52.46478060046189
 30
0.0
 10
114.3930715935334
 20
53.1987376226191
 30
0.0
 10
114.3976289885327
 20
53.93171606698192
 30
0.0
 10
114.3704453241534
 20
55.02854017992832
 30
0.0
 10
114.3549956532362
 20
55.39368776849876
 30
0.0
 10
114.2921320517044
 20
56.12247578236281
 30
0.0
 10
114.245102128536
 20
56.48766653776113
 30
0.0
 10
114.1639855264314
 20
56.8460111903368
 30
0.0
  0
SPLINE
  5
AA
330
1F
100
AcDbEntity
  8
0
  6
Continuous
 62
     7
370
    25
100
AcDbSpline
210
0.0
220
0.0
230
1.0
 70
     8
 71
     3
 72
    12
 73
     8
 74
     0
 42
0.00000001
 43
0.00000001
 40
0.0
 40
0.0
 40
0.0
 40
0.0
 40
0.2500000000000001
 40
0.2500000000000001
 40
0.5000000000000002
 40
0.5000000000000002
 40
1.0
 40
1.0
 40
1.0
 40
1.0
 10
114.1639855264314
 20
48.08355001058699
 30
0.0
 10
114.245102128536
 20
48.44189466316266
 30
0.0
 10
114.2921320517044
 20
48.80708541856099
 30
0.0
 10
114.3549956532362
 20
49.53587343242503
 30
0.0
 10
114.3704453241534
 20
49.90102102099547
 30
0.0
 10
114.3976289885327
 20
50.99784513394188
 30
0.0
 10
114.3930715935334
 20
51.73082357830468
 30
0.0
 10
114.3930715935334
 20
52.4647806004619
 30
0.0
  0
SPLINE
  5
AB
330
1F
100
AcDbEntity
  8
0
  6
Continuous
 62
     7
370
    25
100
AcDbSpline
210
0.0
220
0.0
230
1.0
 70
     8
 71
     3
 72
    14
 73
    10
 74
     0
 42
0.00000001
 43
0.00000001
 40
0.0
 40
0.0
 40
0.0
 40
0.0
 40
0.25
 40
0.25
 40
0.5
 40
0.5
 40
0.75
 40
0.75
 40
1.0
 40
1.0
 40
1.0
 40
1.0
 10
114.1639855264314
 20
48.08355001058699
 30
0.0
 10
114.1364645386863
 20
47.96197195460128
 30
0.0
 10
114.1165446168499
 20
47.84144721757615
 30
0.0
 10
114.1008775750318
 20
47.61447095846805
 30
0.0
 10
114.1053694068442
 20
47.50750098090187
 30
0.0
 10
114.1366257521277
 20
47.32203542912214
 30
0.0
 10
114.1629983355095
 20
47.24315016800331
 30
0.0
 10
114.2258348866538
 20
47.12251237683021
 30
0.0
 10
114.2618744655139
 20
47.0808081863876
 30
0.0
 10
114.2958704688795
 20
47.065090748966
 30
0.0
  0
SPLINE
  5
AC
330
1F
100
AcDbEntity
  8
0
  6
Continuous
 62
     7
370
    25
100
AcDbSpline
210
0.0
220
0.0
230
1.0
 70
     8
 71
     3
 72
     8
 73
     4
 74
     0
 42
0.00000001
 43
0.00000001
 40
0.0
 40
0.0
 40
0.0
 40
0.0
 40
1.0
 40
1.0
 40
1.0
 40
1.0
 10
114.3930715935334
 20
46.9647806004619
 30
0.0
 10
114.3930715935334
 20
47.00025964730567
 30
0.0
 10
114.3637068864556
 20
47.03372780795522
 30
0.0
 10
114.2958704688795
 20
47.06509074896601
 30
0.0
  0
LINE
  5
AD
330
1F
100
AcDbEntity
  8
0
  6
Continuous
 62
     7
370
    25
100
AcDbLine
 10
114.3930715935
 20
46.9647806005
 30
0.0
 11
114.3930715935
 21
43.4647806005
 31
0.0
  0
LINE
  5
AE
330
1F
100
AcDbEntity
  8
0
  6
Continuous
 62
     7
370
    25
100
AcDbLine
 10
129.3930715935
 20
52.4647806005
 30
0.0
 11
128.8930715935
 21
52.4647806005
 31
0.0
  0
SPLINE
  5
AF
330
1F
100
AcDbEntity
  8
0
  6
Continuous
 62
     7
370
    25
100
AcDbSpline
210
0.0
220
0.0
230
1.0
 70
     8
 71
     3
 72
    14
 73
    10
 74
     0
 42
0.00000001
 43
0.00000001
 40
0.0
 40
0.0
 40
0.0
 40
0.0
 40
0.2499999999999999
 40
0.2499999999999999
 40
0.4999999999999999
 40
0.4999999999999999
 40
0.7499999999999999
 40
0.7499999999999999
 40
1.0
 40
1.0
 40
1.0
 40
1.0
 10
128.8930715935334
 20
52.46478060046189
 30
0.0
 10
128.8930715935334
 20
52.84129731254887
 30
0.0
 10
128.8926623318138
 20
53.21783337017783
 30
0.0
 10
128.8959736799197
 20
53.97071026902641
 30
0.0
 10
128.8997371653843
 20
54.34704908354176
 30
0.0
 10
128.925510421164
 20
55.0988642222569
 30
0.0
 10
128.9474285158426
 20
55.47434487990591
 30
0.0
 10
129.0326461790278
 20
56.22335011917459
 30
0.0
 10
129.0959591651787
 20
56.59895803461605
 30
0.0
 10
129.1985196830028
 20
56.96478060046189
 30
0.0
  0
LINE
  5
B0
330
1F
100
AcDbEntity
  8
0
  6
Continuous
 62
     7
370
    25
100
AcDbLine
 10
129.6221576606
 20
56.8460111903
 30
0.0
 11
129.198519683
 21
56.9647806005
 31
0.0
  0
SPLINE
  5
B1
330
1F
100
AcDbEntity
  8
0
  6
Continuous
 62
     7
370
    25
100
AcDbSpline
210
0.0
220
0.0
230
1.0
 70
     8
 71
     3
 72
    14
 73
    10
 74
     0
 42
0.00000001
 43
0.00000001
 40
0.0
 40
0.0
 40
0.0
 40
0.0
 40
0.2500000000000001
 40
0.2500000000000001
 40
0.5000000000000001
 40
0.5000000000000001
 40
0.7500000000000001
 40
0.7500000000000001
 40
1.0
 40
1.0
 40
1.0
 40
1.0
 10
114.8930715935334
 20
52.4647806004619
 30
0.0
 10
114.8930715935334
 20
52.08826388837493
 30
0.0
 10
114.8934808552531
 20
51.71172783074596
 30
0.0
 10
114.8901695071472
 20
50.95885093189738
 30
0.0
 10
114.8864060216825
 20
50.58251211738203
 30
0.0
 10
114.8606327659028
 20
49.83069697866689
 30
0.0
 10
114.8387146712243
 20
49.45521632101788
 30
0.0
 10
114.753497008039
 20
48.7062110817492
 30
0.0
 10
114.6901840218881
 20
48.33060316630775
 30
0.0
 10
114.587623504064
 20
47.9647806004619
 30
0.0
  0
LINE
  5
B2
330
1F
100
AcDbEntity
  8
0
  6
Continuous
 62
     7
370
    25
100
AcDbLine
 10
114.5876235041
 20
47.9647806005
 30
0.0
 11
114.1639855264
 21
48.0835500106
 31
0.0
  0
LINE
  5
B3
330
1F
100
AcDbEntity
  8
0
  6
Continuous
 62
     7
370
    25
100
AcDbLine
 10
114.8930715935
 20
52.4647806005
 30
0.0
 11
114.3930715935
 21
52.4647806005
 31
0.0
  0
LINE
  5
B4
330
1F
100
AcDbEntity
  8
0
  6
Continuous
 62
     7
370
    25
100
AcDbLine
 10
129.6221576606
 20
48.0835500106
 30
0.0
 11
129.198519683
 21
47.9647806005
 31
0.0
  0
SPLINE
  5
B5
330
1F
100
AcDbEntity
  8
0
  6
Continuous
 62
     7
370
    25
100
AcDbSpline
210
0.0
220
0.0
230
1.0
 70
     8
 71
     3
 72
    14
 73
    10
 74
     0
 42
0.00000001
 43
0.00000001
 40
0.0
 40
0.0
 40
0.0
 40
0.0
 40
0.2500000000000002
 40
0.2500000000000002
 40
0.5000000000000003
 40
0.5000000000000003
 40
0.7500000000000002
 40
0.7500000000000002
 40
1.0
 40
1.0
 40
1.0
 40
1.0
 10
129.1985196830028
 20
47.9647806004619
 30
0.0
 10
129.0959591651787
 20
48.33060316630775
 30
0.0
 10
129.0326461790278
 20
48.7062110817492
 30
0.0
 10
128.9474285158426
 20
49.45521632101789
 30
0.0
 10
128.925510421164
 20
49.83069697866689
 30
0.0
 10
128.8997371653843
 20
50.58251211738204
 30
0.0
 10
128.8959736799197
 20
50.95885093189739
 30
0.0
 10
128.8926623318138
 20
51.71172783074597
 30
0.0
 10
128.8930715935334
 20
52.08826388837493
 30
0.0
 10
128.8930715935334
 20
52.46478060046191
 30
0.0
  0
SPLINE
  5
B6
330
1F
100
AcDbEntity
  8
0
  6
Continuous
 62
     7
370
    25
100
AcDbSpline
210
0.0
220
0.0
230
1.0
 70
     8
 71
     3
 72
    14
 73
    10
 74
     0
 42
0.00000001
 43
0.00000001
 40
0.0
 40
0.0
 40
0.0
 40
0.0
 40
0.2500000000000001
 40
0.2500000000000001
 40
0.5000000000000001
 40
0.5000000000000001
 40
0.75
 40
0.75
 40
1.0
 40
1.0
 40
1.0
 40
1.0
 10
114.587623504064
 20
56.96478060046189
 30
0.0
 10
114.6901840218881
 20
56.59895803461605
 30
0.0
 10
114.753497008039
 20
56.22335011917458
 30
0.0
 10
114.8387146712243
 20
55.47434487990591
 30
0.0
 10
114.8606327659028
 20
55.09886422225689
 30
0.0
 10
114.8864060216825
 20
54.34704908354175
 30
0.0
 10
114.8901695071472
 20
53.9707102690264
 30
0.0
 10
114.8934808552531
 20
53.21783337017781
 30
0.0
 10
114.8930715935334
 20
52.84129731254886
 30
0.0
 10
114.8930715935334
 20
52.46478060046189
 30
0.0
  0
LINE
  5
B7
330
1F
100
AcDbEntity
  8
0
  6
Continuous
 62
     7
370
    25
100
AcDbLine
 10
114.5876235041
 20
56.9647806005
 30
0.0
 11
114.1639855264
 21
56.8460111903
 31
0.0
  0
SPLINE
  5
B8
330
1F
100
AcDbEntity
  8
0
  6
Continuous
 62
     7
370
    25
100
AcDbSpline
210
0.0
220
0.0
230
1.0
 70
     8
 71
     3
 72
    14
 73
    10
 74
     0
 42
0.00000001
 43
0.00000001
 40
0.0
 40
0.0
 40
0.0
 40
0.0
 40
0.25
 40
0.25
 40
0.5
 40
0.5
 40
0.75
 40
0.75
 40
1.0
 40
1.0
 40
1.0
 40
1.0
 10
114.7634700939949
 20
47.4647806004619
 30
0.0
 10
114.7249946103733
 20
47.4647806004619
 30
0.0
 10
114.6839056889033
 20
47.47556717144512
 30
0.0
 10
114.6046228414627
 20
47.51849895851027
 30
0.0
 10
114.5673399403522
 20
47.54991646681515
 30
0.0
 10
114.5145341810405
 20
47.64123131239136
 30
0.0
 10
114.5025649209468
 20
47.70246179515562
 30
0.0
 10
114.522566709319
 20
47.83332515581134
 30
0.0
 10
114.5520231648713
 20
47.90128927014893
 30
0.0
 10
114.587623504064
 20
47.9647806004619
 30
0.0
  0
ARC
  5
B9
330
1F
100
AcDbEntity
  8
0
  6
Continuous
 62
     7
370
    25
100
AcDbCircle
 10
114.7720186775
 20
46.9814107897
 30
0.0
 40
0.4834453973191896
100
AcDbArc
 50
91.0131925738
 51
170.032425387
  0
SPLINE
  5
BA
330
1F
100
AcDbEntity
  8
0
  6
Continuous
 62
     7
370
    25
100
AcDbSpline
210
0.0
220
0.0
230
1.0
 70
     8
 71
     3
 72
    14
 73
    10
 74
     0
 42
0.00000001
 43
0.00000001
 40
0.0
 40
0.0
 40
0.0
 40
0.0
 40
0.25
 40
0.25
 40
0.5
 40
0.5
 40
0.75
 40
0.75
 40
1.0
 40
1.0
 40
1.0
 40
1.0
 10
129.022673093072
 20
57.46478060046189
 30
0.0
 10
129.0611485766936
 20
57.46478060046189
 30
0.0
 10
129.1022374981636
 20
57.45399402947868
 30
0.0
 10
129.1815203456042
 20
57.41106224241353
 30
0.0
 10
129.2188032467146
 20
57.37964473410865
 30
0.0
 10
129.2716090060264
 20
57.28832988853243
 30
0.0
 10
129.28357826612
 20
57.22709940576817
 30
0.0
 10
129.2635764777479
 20
57.09623604511245
 30
0.0
 10
129.2341200221956
 20
57.02827193077486
 30
0.0
 10
129.1985196830028
 20
56.96478060046189
 30
0.0
  0
ARC
  5
BB
330
1F
100
AcDbEntity
  8
0
  6
Continuous
 62
     7
370
    25
100
AcDbCircle
 10
129.0141245095
 20
57.9481504112
 30
0.0
 40
0.4834453973191856
100
AcDbArc
 50
271.0131925738
 51
350.032425387
  0
SPLINE
  5
BC
330
1F
100
AcDbEntity
  8
0
  6
Continuous
 62
     7
370
    25
100
AcDbSpline
210
0.0
220
0.0
230
1.0
 70
     8
 71
     3
 72
    16
 73
    12
 74
     0
 42
0.00000001
 43
0.00000001
 40
0.0
 40
0.0
 40
0.0
 40
0.0
 40
0.2500000000000049
 40
0.2500000000000049
 40
0.3750000000000051
 40
0.3750000000000051
 40
0.5000000000000052
 40
0.5000000000000052
 40
0.7500000000000026
 40
0.7500000000000026
 40
1.0
 40
1.0
 40
1.0
 40
1.0
 10
114.587623504064
 20
56.96478060046189
 30
0.0
 10
114.5520695746154
 20
57.02818916144009
 30
0.0
 10
114.5227974333867
 20
57.09545646176091
 30
0.0
 10
114.5075848831658
 20
57.19389577290325
 30
0.0
 10
114.5075242149923
 20
57.22637117925854
 30
0.0
 10
114.5177347994696
 20
57.28499638638473
 30
0.0
 10
114.5275181289948
 20
57.31061919793772
 30
0.0
 10
114.5666826775268
 20
57.37882804163318
 30
0.0
 10
114.6045557508
 20
57.41099079679895
 30
0.0
 10
114.6836287237916
 20
57.45387901591484
 30
0.0
 10
114.7250158563825
 20
57.46478060046189
 30
0.0
 10
114.7634700939949
 20
57.46478060046189
 30
0.0
  0
ARC
  5
BD
330
1F
100
AcDbEntity
  8
0
  6
Continuous
 62
     7
370
    25
100
AcDbCircle
 10
114.7720186775
 20
57.9481504112
 30
0.0
 40
0.4834453973191846
100
AcDbArc
 50
189.967574613
 51
268.9868074262
  0
ARC
  5
BE
330
1F
100
AcDbEntity
  8
0
  6
Continuous
 62
     7
370
    25
100
AcDbCircle
 10
129.0141245095
 20
46.9814107897
 30
0.0
 40
0.4834453973191856
100
AcDbArc
 50
9.967574613
 51
88.9868074262
  0
SPLINE
  5
BF
330
1F
100
AcDbEntity
  8
0
  6
Continuous
 62
     7
370
    25
100
AcDbSpline
210
0.0
220
0.0
230
1.0
 70
     8
 71
     3
 72
    16
 73
    12
 74
     0
 42
0.00000001
 43
0.00000001
 40
0.0
 40
0.0
 40
0.0
 40
0.0
 40
0.2499999999999999
 40
0.2499999999999999
 40
0.3750000000000003
 40
0.3750000000000003
 40
0.5000000000000007
 40
0.5000000000000007
 40
0.7500000000000003
 40
0.7500000000000003
 40
1.0
 40
1.0
 40
1.0
 40
1.0
 10
129.1985196830028
 20
47.9647806004619
 30
0.0
 10
129.2340736124515
 20
47.9013720394837
 30
0.0
 10
129.2633457536802
 20
47.83410473916289
 30
0.0
 10
129.278558303901
 20
47.73566542802055
 30
0.0
 10
129.2786189720746
 20
47.70319002166526
 30
0.0
 10
129.2684083875972
 20
47.64456481453905
 30
0.0
 10
129.258625058072
 20
47.61894200298607
 30
0.0
 10
129.2194605095401
 20
47.55073315929062
 30
0.0
 10
129.1815874362668
 20
47.51857040412484
 30
0.0
 10
129.1025144632752
 20
47.47568218500896
 30
0.0
 10
129.0611273306844
 20
47.4647806004619
 30
0.0
 10
129.022673093072
 20
47.4647806004619
 30
0.0
  0
LINE
  5
C0
330
1F
100
AcDbEntity
  8
0
  6
Continuous
 62
     7
370
    25
100
AcDbLine
 10
129.0226730931
 20
47.4647806005
 30
0.0
 11
114.763470094
 21
47.4647806005
 31
0.0
  0
LINE
  5
C1
330
1F
100
AcDbEntity
  8
0
  6
Continuous
 62
     7
370
    25
100
AcDbLine
 10
114.5876235041
 20
47.9647806005
 30
0.0
 11
129.198519683
 21
47.9647806005
 31
0.0
  0
LINE
  5
C2
330
1F
100
AcDbEntity
  8
0
  6
Continuous
 62
     7
370
    25
100
AcDbLine
 10
123.5856163451
 20
52.1626288027
 30
0.0
 11
123.9589046536
 21
52.5359171112
 31
0.0
  0
ARC
  5
C3
330
1F
100
AcDbEntity
  8
0
  6
Continuous
 62
     7
370
    25
100
AcDbCircle
 10
125.7564376794
 20
51.65973446
 30
0.0
 40
0.7112000000000971
100
AcDbArc
 50
200.9248324276
 51
315.0
  0
LINE
  5
C4
330
1F
100
AcDbEntity
  8
0
  6
Continuous
 62
     7
370
    25
100
AcDbLine
 10
125.0921414804
 20
51.40573446
 30
0.0
 11
126.6326203307
 21
51.40573446
 31
0.0
  0
ARC
  5
C5
330
1F
100
AcDbEntity
  8
0
  6
Continuous
 62
     7
370
    25
100
AcDbCircle
 10
125.7564376794
 20
51.65973446
 30
0.0
 40
0.7112000000000388
100
AcDbArc
 50
45.0
 51
159.0751675723
  0
LINE
  5
C6
330
1F
100
AcDbEntity
  8
0
  6
Continuous
 62
     7
370
    25
100
AcDbLine
 10
126.2593320222
 20
52.1626288027
 30
0.0
 11
126.6326203307
 21
52.5359171112
 31
0.0
  0
LINE
  5
C7
330
1F
100
AcDbEntity
  8
0
  6
Continuous
 62
     7
370
    25
100
AcDbLine
 10
126.6326203307
 20
50.7835518087
 30
0.0
 11
126.2593320222
 21
51.1568401172
 31
0.0
  0
ELLIPSE
  5
C8
330
1F
100
AcDbEntity
  8
0
  6
Continuous
 62
     7
370
    25
100
AcDbEllipse
 10
120.4509774524
 20
50.4653326129
 30
0.0
 11
0.06784129479237322
 21
0.0
 31
0.0
210
0.0
220
0.0
230
1.0
 40
0.9533039403
 41
3.96259465055548
 42
5.81953769817475
  0
LINE
  5
C9
330
1F
100
AcDbEntity
  8
0
  6
Continuous
 62
     7
370
    25
100
AcDbLine
 10
120.5116565512
 20
50.4364098009
 30
0.0
 11
121.1486714788
 21
51.6509474821
 31
0.0
  0
ELLIPSE
  5
CA
330
1F
100
AcDbEntity
  8
0
  6
Continuous
 62
     7
370
    25
100
AcDbEllipse
 10
120.8362766797
 20
52.0756495152
 30
0.0
 11
0.5427303583402932
 21
3.552713678800501E-13
 31
0.0
210
0.0
220
0.0
230
1.0
 40
0.9533039404
 41
3.470145824142405
 42
5.252469180527877
  0
ELLIPSE
  5
CB
330
1F
100
AcDbEntity
  8
0
  6
Continuous
 62
     7
370
    25
100
AcDbEllipse
 10
116.8480930685
 20
52.0763062023
 30
0.0
 11
-0.5427303583406484
 21
3.552713678800501E-13
 31
0.0
210
0.0
220
0.0
230
1.0
 40
0.9533039403
 41
1.047197551196576
 42
2.81303948303929
  0
LINE
  5
CC
330
1F
100
AcDbEntity
  8
0
  6
Continuous
 62
     7
370
    25
100
AcDbLine
 10
116.5767278893
 20
51.6282359261
 30
0.0
 11
116.5354634329
 21
51.6509474821
 31
0.0
  0
LINE
  5
CD
330
1F
100
AcDbEntity
  8
0
  6
Continuous
 62
     7
370
    25
100
AcDbLine
 10
116.5354634329
 20
51.6509474821
 30
0.0
 11
117.1724783605
 21
50.4364098009
 31
0.0
  0
LINE
  5
CE
330
1F
100
AcDbEntity
  8
0
  6
Continuous
 62
     7
370
    25
100
AcDbLine
 10
129.198519683
 20
56.9647806005
 30
0.0
 11
114.5876235041
 21
56.9647806005
 31
0.0
  0
LINE
  5
CF
330
1F
100
AcDbEntity
  8
0
  6
Continuous
 62
     7
370
    25
100
AcDbLine
 10
126.6326203307
 20
51.91373446
 30
0.0
 11
125.0921414804
 21
51.91373446
 31
0.0
  0
LINE
  5
D0
330
1F
100
AcDbEntity
  8
0
  6
Continuous
 62
     7
370
    25
100
AcDbLine
 10
126.6326203307
 20
51.40573446
 30
0.0
 11
126.6326203307
 21
51.91373446
 31
0.0
  0
ELLIPSE
  5
D1
330
1F
100
AcDbEntity
  8
0
  6
Continuous
 62
     7
370
    25
100
AcDbEllipse
 10
118.8420674559
 20
48.8182537165
 30
0.0
 11
2.293035763987604
 21
-1.058708676282549E-12
 31
0.0
210
0.0
220
0.0
230
1.0
 40
0.9533039403
 41
0.8210019969645925
 42
2.320590656625113
  0
LINE
  5
D2
330
1F
100
AcDbEntity
  8
0
  6
Continuous
 62
     7
370
    25
100
AcDbLine
 10
118.369281755
 20
54.7266587066
 30
0.0
 11
117.3617928821
 21
51.9093589103
 31
0.0
  0
ELLIPSE
  5
D3
330
1F
100
AcDbEntity
  8
0
  6
Continuous
 62
     7
370
    25
100
AcDbEllipse
 10
118.8420674559
 20
54.5167863517
 30
0.0
 11
0.5215299537176605
 21
0.0
 31
0.0
210
0.0
220
0.0
230
1.0
 40
0.9533039403
 41
0.4357918987553183
 42
2.705800754834466
  0
LINE
  5
D4
330
1F
100
AcDbEntity
  8
0
  6
Continuous
 62
     7
370
    25
100
AcDbLine
 10
120.3225768661
 20
51.9087022232
 30
0.0
 11
119.3148531567
 21
54.7266587066
 31
0.0
  0
LINE
  5
D5
330
1F
100
AcDbEntity
  8
0
  6
Continuous
 62
     7
370
    25
100
AcDbLine
 10
123.9589046536
 20
50.7835518087
 30
0.0
 11
123.5856163451
 21
51.1568401172
 31
0.0
  0
LINE
  5
D6
330
1F
100
AcDbEntity
  8
0
  6
Continuous
 62
     7
370
    25
100
AcDbLine
 10
121.1486714788
 20
51.6509474821
 30
0.0
 11
121.1153512234
 21
51.6319035382
 31
0.0
  0
ARC
  5
D7
330
1F
100
AcDbEntity
  8
0
  6
Continuous
 62
     7
370
    25
100
AcDbCircle
 10
123.0827220023
 20
51.65973446
 30
0.0
 40
1.239109388553836
100
AcDbArc
 50
45.0
 51
315.0
  0
ELLIPSE
  5
D8
330
1F
100
AcDbEntity
  8
0
  6
Continuous
 62
     7
370
    25
100
AcDbEllipse
 10
117.2331574593
 20
50.4653326129
 30
0.0
 11
0.06784129479235901
 21
0.0
 31
0.0
210
0.0
220
0.0
230
1.0
 40
0.9533039403
 41
3.605240262580685
 42
5.46218331022695
  0
ARC
  5
D9
330
1F
100
AcDbEntity
  8
0
  6
Continuous
 62
     7
370
    25
100
AcDbCircle
 10
123.0827220023
 20
51.65973446
 30
0.0
 40
0.7111999999997624
100
AcDbArc
 50
45.0
 51
315.0
  0
ARC
  5
DA
330
1F
100
AcDbEntity
  8
0
  6
Continuous
 62
     7
370
    25
100
AcDbCircle
 10
125.7564376794
 20
51.65973446
 30
0.0
 40
1.239109388553857
100
AcDbArc
 50
45.0
 51
315.0
  0
LINE
  5
DB
330
1F
100
AcDbEntity
  8
0
  6
Continuous
 62
     7
370
    25
100
AcDbLine
 10
118.7781784669
 20
52.6445324535
 30
0.0
 11
118.5352391219
 21
51.9960663599
 31
0.0
  0
ELLIPSE
  5
DC
330
1F
100
AcDbEntity
  8
0
  6
Continuous
 62
     7
370
    25
100
AcDbEllipse
 10
118.5991281125
 20
51.9743143503
 30
0.0
 11
0.06784129479237322
 21
0.0
 31
0.0
210
0.0
220
0.0
230
1.0
 40
0.9533039403
 41
2.79856871130715
 42
4.712388980384703
  0
ELLIPSE
  5
DD
330
1F
100
AcDbEntity
  8
0
  6
Continuous
 62
     7
370
    25
100
AcDbEllipse
 10
118.8420674575
 20
52.6227804439
 30
0.0
 11
0.06784129479271428
 21
0.0
 31
0.0
210
0.0
220
0.0
230
1.0
 40
0.9533039403
 41
0.3430239385580566
 42
2.798568711308769
  0
LINE
  5
DE
330
1F
100
AcDbEntity
  8
0
  6
Continuous
 62
     7
370
    25
100
AcDbLine
 10
119.1488957902
 20
51.9960663596
 30
0.0
 11
118.9059564482
 21
52.6445324533
 31
0.0
  0
LINE
  5
DF
330
1F
100
AcDbEntity
  8
0
  6
Continuous
 62
     7
370
    25
100
AcDbLine
 10
118.5991281125
 20
51.9096409766
 30
0.0
 11
119.0850067996
 21
51.9096409766
 31
0.0
  0
ELLIPSE
  5
E0
330
1F
100
AcDbEntity
  8
0
  6
Continuous
 62
     7
370
    25
100
AcDbEllipse
 10
119.0850067996
 20
51.9743143503
 30
0.0
 11
-0.06784129479235901
 21
0.0
 31
0.0
210
0.0
220
0.0
230
1.0
 40
0.9533039403
 41
1.570796326794897
 42
3.484616592149486
  0
LINE
  5
E1
330
1F
100
AcDbEntity
  8
0
  6
Continuous
 62
     7
370
    25
100
AcDbLine
 10
114.763470094
 20
57.4647806005
 30
0.0
 11
129.0226730931
 21
57.4647806005
 31
0.0
  0
ARC
  5
E2
330
1F
100
AcDbEntity
  8
0
  6
Continuous
 62
     7
370
    25
100
AcDbCircle
 10
114.8930715935
 20
46.9647806005
 30
0.0
 40
0.5
100
AcDbArc
 50
90.0
 51
180.0
  0
ARC
  5
E3
330
1F
100
AcDbEntity
  8
0
  6
Continuous
 62
     7
370
    25
100
AcDbCircle
 10
128.8930715935
 20
46.9647806005
 30
0.0
 40
0.5
100
AcDbArc
 50
0.0
 51
90.0
  0
ARC
  5
E4
330
1F
100
AcDbEntity
  8
0
  6
Continuous
 62
     7
370
    25
100
AcDbCircle
 10
128.8930715935
 20
57.9647806005
 30
0.0
 40
0.5
100
AcDbArc
 50
270.0
 51
0.0
  0
ARC
  5
E5
330
1F
100
AcDbEntity
  8
0
  6
Continuous
 62
     7
370
    25
100
AcDbCircle
 10
114.8930715935
 20
57.9647806005
 30
0.0
 40
0.5
100
AcDbArc
 50
180.0
 51
270.0
  0
LWPOLYLINE
  5
E6
330
1F
100
AcDbEntity
  8
0
  6
Continuous
 62
     7
370
    25
100
AcDbPolyline
 90
        9
 70
   128
 43
0.0
 10
128.8930715935
 20
57.6592250449
 10
128.9906167545
 20
57.6650962092
 10
129.0844133097
 20
57.6824840766
 10
129.17085671
 20
57.7107204411
 10
129.2466249841
 20
57.7487201951
 10
129.3088063997
 20
57.7950230293
 10
129.3550113598
 20
57.8478495517
 10
129.3834642337
 20
57.9051696687
 10
129.3930715935
 20
57.9647806005
  0
LINE
  5
E7
330
1F
100
AcDbEntity
  8
0
  6
Continuous
 62
     7
370
    25
100
AcDbLine
 10
128.8930715935
 20
57.4647806005
 30
0.0
 11
128.8930715935
 21
57.6592250449
 31
0.0
  0
LWPOLYLINE
  5
E8
330
1F
100
AcDbEntity
  8
0
  6
Continuous
 62
     7
370
    25
100
AcDbPolyline
 90
        9
 70
   128
 43
0.0
 10
114.8930715935
 20
47.270336156
 10
114.7955264325
 20
47.2644649917
 10
114.7017298774
 20
47.2470771243
 10
114.615286477
 20
47.2188407598
 10
114.5395182029
 20
47.1808410058
 10
114.4773367874
 20
47.1345381717
 10
114.4311318273
 20
47.0817116492
 10
114.4026789533
 20
47.0243915322
 10
114.3930715935
 20
46.9647806005
  0
LINE
  5
E9
330
1F
100
AcDbEntity
  8
0
  6
Continuous
 62
     7
370
    25
100
AcDbLine
 10
128.8930715935
 20
47.270336156
 30
0.0
 11
114.8930715935
 21
47.270336156
 31
0.0
  0
LINE
  5
EA
330
1F
100
AcDbEntity
  8
0
  6
Continuous
 62
     7
370
    25
100
AcDbLine
 10
114.8930715935
 20
47.270336156
 30
0.0
 11
114.8930715935
 21
47.4647806005
 31
0.0
  0
LINE
  5
EB
330
1F
100
AcDbEntity
  8
0
  6
Continuous
 62
     7
370
    25
100
AcDbLine
 10
128.8930715935
 20
47.270336156
 30
0.0
 11
128.8930715935
 21
47.4647806005
 31
0.0
  0
LWPOLYLINE
  5
EC
330
1F
100
AcDbEntity
  8
0
  6
Continuous
 62
     7
370
    25
100
AcDbPolyline
 90
        9
 70
   128
 43
0.0
 10
114.3930715935
 20
57.9647806005
 10
114.4026789533
 20
57.9051696687
 10
114.4311318273
 20
57.8478495517
 10
114.4773367874
 20
57.7950230293
 10
114.5395182029
 20
57.7487201951
 10
114.615286477
 20
57.7107204411
 10
114.7017298774
 20
57.6824840766
 10
114.7955264325
 20
57.6650962092
 10
114.8930715935
 20
57.6592250449
  0
LINE
  5
ED
330
1F
100
AcDbEntity
  8
0
  6
Continuous
 62
     7
370
    25
100
AcDbLine
 10
114.8930715935
 20
57.4647806005
 30
0.0
 11
114.8930715935
 21
57.6592250449
 31
0.0
  0
LWPOLYLINE
  5
EE
330
1F
100
AcDbEntity
  8
0
  6
Continuous
 62
     7
370
    25
100
AcDbPolyline
 90
        9
 70
   128
 43
0.0
 10
129.3930715935
 20
46.9647806005
 10
129.3834642337
 20
47.0243915322
 10
129.3550113598
 20
47.0817116492
 10
129.3088063997
 20
47.1345381717
 10
129.2466249841
 20
47.1808410058
 10
129.17085671
 20
47.2188407598
 10
129.0844133097
 20
47.2470771243
 10
128.9906167545
 20
47.2644649917
 10
128.8930715935
 20
47.270336156
  0
LINE
  5
EF
330
1F
100
AcDbEntity
  8
0
  6
Continuous
 62
     7
370
    25
100
AcDbLine
 10
114.8930715935
 20
57.6592250449
 30
0.0
 11
128.8930715935
 21
57.6592250449
 31
0.0
  0
LINE
  5
F0
330
1F
100
AcDbEntity
  8
0
  6
Continuous
 62
     7
370
    25
100
AcDbLine
 10
139.6875471359
 20
52.4647806005
 30
0.0
 11
139.6875471359
 21
45.9414204612
 31
0.0
  0
LINE
  5
F1
330
1F
100
AcDbEntity
  8
0
  6
Continuous
 62
     7
370
    25
100
AcDbLine
 10
139.6875471359
 20
58.9881407398
 30
0.0
 11
139.6875471359
 21
52.4647806005
 31
0.0
  0
LINE
  5
F2
330
1F
100
AcDbEntity
  8
0
  6
Continuous
 62
     7
370
    25
100
AcDbLine
 10
141.8930715935
 20
57.7147806005
 30
0.0
 11
141.8930715935
 21
47.2147806005
 31
0.0
  0
SPLINE
  5
F3
330
1F
100
AcDbEntity
  8
0
  6
Continuous
 62
     7
370
    25
100
AcDbSpline
210
0.0
220
0.0
230
1.0
 70
    11
 71
     3
 72
    26
 73
    22
 74
     0
 42
0.00000001
 43
0.00000001
 40
0.0
 40
0.0
 40
0.0
 40
0.0
 40
0.125
 40
0.125
 40
0.1875
 40
0.1875
 40
0.25
 40
0.25
 40
0.3125
 40
0.3125
 40
0.375
 40
0.375
 40
0.5
 40
0.5
 40
0.625
 40
0.625
 40
0.75
 40
0.75
 40
0.875
 40
0.875
 40
1.0
 40
1.0
 40
1.0
 40
1.0
 10
122.4063905623818
 20
60.46478060046189
 30
0.0
 10
122.4063905623818
 20
60.60389963169072
 30
0.0
 10
122.3535945912328
 20
60.7396273346662
 30
0.0
 10
122.2121390013555
 20
60.89264607116198
 30
0.0
 10
122.1555850649837
 20
60.93414897218251
 30
0.0
 10
122.0300409135402
 20
60.99134886597619
 30
0.0
 10
121.9608893004322
 20
61.00663285472052
 30
0.0
 10
121.8237309256888
 20
61.00641198095688
 30
0.0
 10
121.7546163428826
 20
60.99085191966922
 30
0.0
 10
121.6298565742515
 20
60.93364608517521
 30
0.0
 10
121.5732254859171
 20
60.89189465790826
 30
0.0
 10
121.4331118593942
 20
60.74005378962481
 30
0.0
 10
121.3797913254475
 20
60.60400146235695
 30
0.0
 10
121.3797139668714
 20
60.32586876865359
 30
0.0
 10
121.4334023488931
 20
60.18906675863361
 30
0.0
 10
121.6200971632008
 20
59.98699795496854
 30
0.0
 10
121.7559783725644
 20
59.922828195283
 30
0.0
 10
122.0316095066029
 20
59.92324924808401
 30
0.0
 10
122.1665845450165
 20
59.98751793050732
 30
0.0
 10
122.3524320220825
 20
60.18879548173144
 30
0.0
 10
122.4063905623818
 20
60.32566156923308
 30
0.0
 10
122.4063905623818
 20
60.46478060046189
 30
0.0
  0
SPLINE
  5
F4
330
1F
100
AcDbEntity
  8
0
  6
Continuous
 62
     7
370
    25
100
AcDbSpline
210
0.0
220
0.0
230
1.0
 70
    11
 71
     3
 72
    38
 73
    34
 74
     0
 42
0.00000001
 43
0.00000001
 40
0.0
 40
0.0
 40
0.0
 40
0.0
 40
0.0625
 40
0.0625
 40
0.125
 40
0.125
 40
0.1874999999999999
 40
0.1874999999999999
 40
0.2499999999999999
 40
0.2499999999999999
 40
0.3125
 40
0.3125
 40
0.375
 40
0.375
 40
0.4375000000000001
 40
0.4375000000000001
 40
0.5000000000000001
 40
0.5000000000000001
 40
0.5625000000000001
 40
0.5625000000000001
 40
0.6250000000000001
 40
0.6250000000000001
 40
0.6875000000000001
 40
0.6875000000000001
 40
0.75
 40
0.75
 40
0.8125
 40
0.8125
 40
0.875
 40
0.875
 40
0.9375
 40
0.9375
 40
1.0
 40
1.0
 40
1.0
 40
1.0
 10
120.8930715935334
 20
60.46478060046189
 30
0.0
 10
120.8930715935334
 20
60.33239468555159
 30
0.0
 10
120.9192201446763
 20
60.20250735907288
 30
0.0
 10
121.0196858141341
 20
59.96042836448702
 30
0.0
 10
121.0939706805306
 20
59.84964701043099
 30
0.0
 10
121.2781198602653
 20
59.66553973032523
 30
0.0
 10
121.3894954828596
 20
59.59107105902923
 30
0.0
 10
121.6300439873935
 20
59.49124388290053
 30
0.0
 10
121.7618018833809
 20
59.46485596282723
 30
0.0
 10
122.0231905755448
 20
59.46470556914041
 30
0.0
 10
122.1543626461364
 20
59.49064538955044
 30
0.0
 10
122.3968003321362
 20
59.59101302197573
 30
0.0
 10
122.5068545002858
 20
59.66440192512095
 30
0.0
 10
122.6931078176966
 20
59.8505513919505
 30
0.0
 10
122.7665341455898
 20
59.9605899093505
 30
0.0
 10
122.8668988932187
 20
60.20247262643917
 30
0.0
 10
122.8930201575149
 20
60.33374714495049
 30
0.0
 10
122.8931228750001
 20
60.59502779432302
 30
0.0
 10
122.8668792469064
 20
60.72684319783593
 30
0.0
 10
122.7672108901083
 20
60.9676311159174
 30
0.0
 10
122.6929300981397
 20
61.07896331731541
 30
0.0
 10
122.5087433577062
 20
61.26349351251041
 30
0.0
 10
122.3983197836436
 20
61.33767984178418
 30
0.0
 10
122.1559350684036
 20
61.43850110075434
 30
0.0
 10
122.0260108888372
 20
61.46467533005937
 30
0.0
 10
121.7617207793203
 20
61.46488524004629
 30
0.0
 10
121.6314870206583
 20
61.43879751768311
 30
0.0
 10
121.3895943494876
 20
61.3386490737045
 30
0.0
 10
121.2785784240809
 20
61.26436277853934
 30
0.0
 10
121.0944106881009
 20
61.08047067910256
 30
0.0
 10
121.0198120165988
 20
60.96914052854854
 30
0.0
 10
120.9197612030537
 20
60.72865198873992
 30
0.0
 10
120.8930715935334
 20
60.59716651537219
 30
0.0
 10
120.8930715935334
 20
60.46478060046189
 30
0.0
  0
LINE
  5
F5
330
1F
100
AcDbEntity
  8
0
  6
Continuous
 62
     7
370
    25
100
AcDbLine
 10
116.6539862609
 20
79.5647806005
 30
0.0
 11
116.6539862609
 21
78.9647806005
 31
0.0
  0
LINE
  5
F6
330
1F
100
AcDbEntity
  8
0
  6
Continuous
 62
     7
370
    25
100
AcDbLine
 10
127.1321569262
 20
79.5647806005
 30
0.0
 11
116.6539862609
 21
79.5647806005
 31
0.0
  0
LINE
  5
F7
330
1F
100
AcDbEntity
  8
0
  6
Continuous
 62
     7
370
    25
100
AcDbLine
 10
127.1321569262
 20
78.9647806005
 30
0.0
 11
127.1321569262
 21
79.5647806005
 31
0.0
  0
LINE
  5
F8
330
1F
100
AcDbEntity
  8
0
  6
Continuous
 62
     7
370
    25
100
AcDbLine
 10
116.6539862609
 20
78.9647806005
 30
0.0
 11
127.1321569262
 21
78.9647806005
 31
0.0
  0
SPLINE
  5
F9
330
1F
100
AcDbEntity
  8
0
  6
Continuous
 62
     7
370
    25
100
AcDbSpline
210
0.0
220
0.0
230
1.0
 70
     8
 71
     3
 72
    15
 73
    11
 74
     0
 42
0.00000001
 43
0.00000001
 40
0.0
 40
0.0
 40
0.0
 40
0.0
 40
0.0081667445812695
 40
0.3321939991490082
 40
0.4756279600585605
 40
0.68668309732849
 40
0.8457435502264812
 40
0.8967566214763185
 40
0.9909540928118029
 40
1.0
 40
1.0
 40
1.0
 40
1.0
 10
116.7940520799406
 20
79.81478060046189
 30
0.0
 10
116.7935645457978
 20
79.81477792411611
 30
0.0
 10
116.7737333982657
 20
79.81466905992943
 30
0.0
 10
116.7454526182564
 20
79.80512304765985
 30
0.0
 10
116.7076233197676
 20
79.76776066440533
 30
0.0
 10
116.6810394232001
 20
79.72289514967065
 30
0.0
 10
116.6638695994451
 20
79.66501885009373
 30
0.0
 10
116.6560526032287
 20
79.61434281012184
 30
0.0
 10
116.6540569167928
 20
79.58564853060179
 30
0.0
 10
116.653991952842
 20
79.56646169904631
 30
0.0
 10
116.6539862608753
 20
79.56478060046189
 30
0.0
  0
LINE
  5
FA
330
1F
100
AcDbEntity
  8
0
  6
Continuous
 62
     7
370
    25
100
AcDbLine
 10
116.7940520799
 20
79.8147806005
 30
0.0
 11
126.9920911071
 21
79.8147806005
 31
0.0
  0
SPLINE
  5
FB
330
1F
100
AcDbEntity
  8
0
  6
Continuous
 62
     7
370
    25
100
AcDbSpline
210
0.0
220
0.0
230
1.0
 70
     8
 71
     3
 72
    15
 73
    11
 74
     0
 42
0.00000001
 43
0.00000001
 40
0.0
 40
0.0
 40
0.0
 40
0.0
 40
0.0090459071881971
 40
0.1032433785236873
 40
0.1542564497735245
 40
0.3133169026715109
 40
0.5243720399414425
 40
0.6678060008509904
 40
0.9918332554187292
 40
1.0
 40
1.0
 40
1.0
 40
1.0
 10
127.1321569261915
 20
79.56478060046189
 30
0.0
 10
127.1321512342249
 20
79.56646169904631
 30
0.0
 10
127.1320862702741
 20
79.58564853060183
 30
0.0
 10
127.1300905838382
 20
79.61434281012183
 30
0.0
 10
127.1222735876217
 20
79.66501885009374
 30
0.0
 10
127.1051037638668
 20
79.72289514967065
 30
0.0
 10
127.0785198672993
 20
79.76776066440534
 30
0.0
 10
127.0406905688105
 20
79.80512304765986
 30
0.0
 10
127.0124097888012
 20
79.8146690599294
 30
0.0
 10
126.9925786412691
 20
79.81477792411611
 30
0.0
 10
126.9920911071262
 20
79.81478060046189
 30
0.0
  0
LINE
  5
FC
330
1F
100
AcDbEntity
  8
0
  6
Continuous
 62
     7
370
    25
100
AcDbLine
 10
116.4158460185
 20
79.5647806005
 30
0.0
 11
116.6539862609
 21
79.5647806005
 31
0.0
  0
SPLINE
  5
FD
330
1F
100
AcDbEntity
  8
0
  6
Continuous
 62
     7
370
    25
100
AcDbSpline
210
0.0
220
0.0
230
1.0
 70
     8
 71
     3
 72
    15
 73
    11
 74
     0
 42
0.00000001
 43
0.00000001
 40
0.0
 40
0.0
 40
0.0
 40
0.0
 40
0.0089557228015919
 40
0.0999003359608148
 40
0.153163246058169
 40
0.3125636920784849
 40
0.5249666935695
 40
0.6689893599352452
 40
0.9919152533810159
 40
1.0
 40
1.0
 40
1.0
 40
1.0
 10
116.4158460184818
 20
79.56478060046189
 30
0.0
 10
116.4158617740604
 20
79.5664617260348
 30
0.0
 10
116.4160375262169
 20
79.58521454065925
 30
0.0
 10
116.4214665422365
 20
79.61397676976672
 30
0.0
 10
116.4430020259438
 20
79.66486384323505
 30
0.0
 10
116.4907074542086
 20
79.7229994933677
 30
0.0
 10
116.5630983992005
 20
79.76770736655112
 30
0.0
 10
116.6650175112183
 20
79.80498919001286
 30
0.0
 10
116.7403726026727
 20
79.81466834485052
 30
0.0
 10
116.7927722483965
 20
79.81477792405221
 30
0.0
 10
116.7940520799406
 20
79.81478060046189
 30
0.0
  0
LINE
  5
FE
330
1F
100
AcDbEntity
  8
0
  6
Continuous
 62
     7
370
    25
100
AcDbLine
 10
127.1321569262
 20
79.5647806005
 30
0.0
 11
127.3702971686
 21
79.5647806005
 31
0.0
  0
SPLINE
  5
FF
330
1F
100
AcDbEntity
  8
0
  6
Continuous
 62
     7
370
    25
100
AcDbSpline
210
0.0
220
0.0
230
1.0
 70
     8
 71
     3
 72
    15
 73
    11
 74
     0
 42
0.00000001
 43
0.00000001
 40
0.0
 40
0.0
 40
0.0
 40
0.0
 40
0.0080847466189818
 40
0.3310106400647566
 40
0.4750333064304971
 40
0.6874363079215134
 40
0.8468367539418253
 40
0.9000996640391794
 40
0.9910442771984082
 40
1.0
 40
1.0
 40
1.0
 40
1.0
 10
126.9920911071262
 20
79.81478060046189
 30
0.0
 10
126.9933709386704
 20
79.81477792405221
 30
0.0
 10
127.0457705843941
 20
79.81466834485043
 30
0.0
 10
127.1211256758486
 20
79.80498919001288
 30
0.0
 10
127.2230447878664
 20
79.76770736655112
 30
0.0
 10
127.2954357328583
 20
79.7229994933677
 30
0.0
 10
127.3431411611231
 20
79.66486384323507
 30
0.0
 10
127.3646766448304
 20
79.61397676976672
 30
0.0
 10
127.3701056608499
 20
79.58521454065925
 30
0.0
 10
127.3702814130065
 20
79.5664617260348
 30
0.0
 10
127.3702971685851
 20
79.56478060046189
 30
0.0
  0
LINE
  5
100
330
1F
100
AcDbEntity
  8
0
  6
Continuous
 62
     7
370
    25
100
AcDbLine
 10
116.4158460185
 20
78.9647806005
 30
0.0
 11
116.4158460185
 21
79.5647806005
 31
0.0
  0
LINE
  5
101
330
1F
100
AcDbEntity
  8
0
  6
Continuous
 62
     7
370
    25
100
AcDbLine
 10
116.6539862609
 20
78.9647806005
 30
0.0
 11
116.4158460185
 21
78.9647806005
 31
0.0
  0
LINE
  5
102
330
1F
100
AcDbEntity
  8
0
  6
Continuous
 62
     7
370
    25
100
AcDbLine
 10
127.3702971686
 20
79.5647806005
 30
0.0
 11
127.3702971686
 21
78.9647806005
 31
0.0
  0
LINE
  5
103
330
1F
100
AcDbEntity
  8
0
  6
Continuous
 62
     7
370
    25
100
AcDbLine
 10
127.3702971686
 20
78.9647806005
 30
0.0
 11
127.1321569262
 21
78.9647806005
 31
0.0
  0
LINE
  5
104
330
1F
100
AcDbEntity
  8
0
  6
Continuous
 62
     7
370
    25
100
AcDbLine
 10
116.1430715935
 20
79.8147806005
 30
0.0
 11
116.1430715935
 21
79.5647806005
 31
0.0
  0
LINE
  5
105
330
1F
100
AcDbEntity
  8
0
  6
Continuous
 62
     7
370
    25
100
AcDbLine
 10
116.4158460185
 20
79.5647806005
 30
0.0
 11
116.1430715935
 21
79.5647806005
 31
0.0
  0
LINE
  5
106
330
1F
100
AcDbEntity
  8
0
  6
Continuous
 62
     7
370
    25
100
AcDbLine
 10
116.1430715935
 20
79.8147806005
 30
0.0
 11
116.7940520799
 21
79.8147806005
 31
0.0
  0
LINE
  5
107
330
1F
100
AcDbEntity
  8
0
  6
Continuous
 62
     7
370
    25
100
AcDbLine
 10
116.1430715935
 20
79.5647806005
 30
0.0
 11
116.1430715935
 21
78.9647806005
 31
0.0
  0
LINE
  5
108
330
1F
100
AcDbEntity
  8
0
  6
Continuous
 62
     7
370
    25
100
AcDbLine
 10
116.4158460185
 20
78.9647806005
 30
0.0
 11
116.1430715935
 21
78.9647806005
 31
0.0
  0
LINE
  5
109
330
1F
100
AcDbEntity
  8
0
  6
Continuous
 62
     7
370
    25
100
AcDbLine
 10
115.8930715935
 20
79.5647806005
 30
0.0
 11
116.1430715935
 21
79.5647806005
 31
0.0
  0
ARC
  5
10A
330
1F
100
AcDbEntity
  8
0
  6
Continuous
 62
     7
370
    25
100
AcDbCircle
 10
116.1430715935
 20
79.5647806005
 30
0.0
 40
0.25
100
AcDbArc
 50
90.0
 51
180.0
  0
LINE
  5
10B
330
1F
100
AcDbEntity
  8
0
  6
Continuous
 62
     7
370
    25
100
AcDbLine
 10
115.8930715935
 20
78.9647806005
 30
0.0
 11
115.8930715935
 21
79.5647806005
 31
0.0
  0
LINE
  5
10C
330
1F
100
AcDbEntity
  8
0
  6
Continuous
 62
     7
370
    25
100
AcDbLine
 10
116.1430715935
 20
78.9647806005
 30
0.0
 11
115.8930715935
 21
78.9647806005
 31
0.0
  0
LINE
  5
10D
330
1F
100
AcDbEntity
  8
0
  6
Continuous
 62
     7
370
    25
100
AcDbLine
 10
127.6430715935
 20
79.5647806005
 30
0.0
 11
127.6430715935
 21
79.8147806005
 31
0.0
  0
LINE
  5
10E
330
1F
100
AcDbEntity
  8
0
  6
Continuous
 62
     7
370
    25
100
AcDbLine
 10
127.6430715935
 20
79.5647806005
 30
0.0
 11
127.3702971686
 21
79.5647806005
 31
0.0
  0
LINE
  5
10F
330
1F
100
AcDbEntity
  8
0
  6
Continuous
 62
     7
370
    25
100
AcDbLine
 10
126.9920911071
 20
79.8147806005
 30
0.0
 11
127.6430715935
 21
79.8147806005
 31
0.0
  0
ARC
  5
110
330
1F
100
AcDbEntity
  8
0
  6
Continuous
 62
     7
370
    25
100
AcDbCircle
 10
127.6430715935
 20
79.5647806005
 30
0.0
 40
0.25
100
AcDbArc
 50
0.0
 51
90.0
  0
LINE
  5
111
330
1F
100
AcDbEntity
  8
0
  6
Continuous
 62
     7
370
    25
100
AcDbLine
 10
127.6430715935
 20
79.5647806005
 30
0.0
 11
127.8930715935
 21
79.5647806005
 31
0.0
  0
LINE
  5
112
330
1F
100
AcDbEntity
  8
0
  6
Continuous
 62
     7
370
    25
100
AcDbLine
 10
127.6430715935
 20
78.9647806005
 30
0.0
 11
127.6430715935
 21
79.5647806005
 31
0.0
  0
LINE
  5
113
330
1F
100
AcDbEntity
  8
0
  6
Continuous
 62
     7
370
    25
100
AcDbLine
 10
127.8930715935
 20
79.5647806005
 30
0.0
 11
127.8930715935
 21
78.9647806005
 31
0.0
  0
LINE
  5
114
330
1F
100
AcDbEntity
  8
0
  6
Continuous
 62
     7
370
    25
100
AcDbLine
 10
127.8930715935
 20
78.9647806005
 30
0.0
 11
127.6430715935
 21
78.9647806005
 31
0.0
  0
LINE
  5
115
330
1F
100
AcDbEntity
  8
0
  6
Continuous
 62
     7
370
    25
100
AcDbLine
 10
127.6430715935
 20
78.9647806005
 30
0.0
 11
127.3702971686
 21
78.9647806005
 31
0.0
  0
LINE
  5
116
330
1F
100
AcDbEntity
  8
0
  6
Continuous
 62
     7
370
    25
100
AcDbLine
 10
116.8930715935
 20
79.8247806005
 30
0.0
 11
126.8930715935
 21
79.8247806005
 31
0.0
  0
LINE
  5
117
330
1F
100
AcDbEntity
  8
0
  6
Continuous
 62
     7
370
    25
100
AcDbLine
 10
126.8930715935
 20
79.8147806005
 30
0.0
 11
126.8930715935
 21
79.8247806005
 31
0.0
  0
LINE
  5
118
330
1F
100
AcDbEntity
  8
0
  6
Continuous
 62
     7
370
    25
100
AcDbLine
 10
116.8930715935
 20
79.8147806005
 30
0.0
 11
116.8930715935
 21
79.8247806005
 31
0.0
  0
LINE
  5
119
330
1F
100
AcDbEntity
  8
0
  6
Continuous
 62
     7
370
    25
100
AcDbLine
 10
117.4185247095
 20
70.9647806005
 30
0.0
 11
129.3430715935
 21
70.9647806004
 31
0.0
  0
SPLINE
  5
11A
330
1F
100
AcDbEntity
  8
0
  6
Continuous
 62
     7
370
    25
100
AcDbSpline
210
0.0
220
0.0
230
1.0
 70
     8
 71
     3
 72
     9
 73
     5
 74
     0
 42
0.00000001
 43
0.00000001
 40
0.0
 40
0.0
 40
0.0
 40
0.0
 40
0.4978401817595094
 40
1.0
 40
1.0
 40
1.0
 40
1.0
 10
118.178735465213
 20
71.95952417842882
 30
0.0
 10
118.0424135568424
 20
71.80301299573622
 30
0.0
 10
117.7685869085215
 20
71.48863262141722
 30
0.0
 10
117.5355476574249
 20
71.13990007339095
 30
0.0
 10
117.4185247094513
 20
70.96478060045953
 30
0.0
  0
LINE
  5
11B
330
1F
100
AcDbEntity
  8
0
  6
Continuous
 62
     7
370
    25
100
AcDbLine
 10
116.6692694192
 20
78.9647806004
 30
0.0
 11
114.9411307552
 21
71.9595241784
 31
0.0
  0
LINE
  5
11C
330
1F
100
AcDbEntity
  8
0
  6
Continuous
 62
     7
370
    25
100
AcDbLine
 10
127.1321569262
 20
78.9647806004
 30
0.0
 11
116.6692694192
 21
78.9647806004
 31
0.0
  0
LINE
  5
11D
330
1F
100
AcDbEntity
  8
0
  6
Continuous
 62
     7
370
    25
100
AcDbLine
 10
119.8930715935
 20
62.9647806005
 30
0.0
 11
128.8930715935
 21
62.9647806005
 31
0.0
  0
LINE
  5
11E
330
1F
100
AcDbEntity
  8
0
  6
Continuous
 62
     7
370
    25
100
AcDbLine
 10
119.8930715935
 20
63.0025975243
 30
0.0
 11
119.8930715935
 21
62.9647806005
 31
0.0
  0
SPLINE
  5
11F
330
1F
100
AcDbEntity
  8
0
  6
Continuous
 62
     7
370
    25
100
AcDbSpline
210
0.0
220
0.0
230
1.0
 70
     8
 71
     3
 72
     9
 73
     5
 74
     0
 42
0.00000001
 43
0.00000001
 40
0.0
 40
0.0
 40
0.0
 40
0.0
 40
0.4875141023677128
 40
0.9999999999999999
 40
0.9999999999999999
 40
0.9999999999999999
 40
0.9999999999999999
 10
119.7371263431062
 20
62.96478060046197
 30
0.0
 10
119.7634329170288
 20
62.96650794643366
 30
0.0
 10
119.8173935589771
 20
62.97005111772515
 30
0.0
 10
119.8674290896718
 20
62.99156960367446
 30
0.0
 10
119.8930715935334
 20
63.00259752426188
 30
0.0
  0
SPLINE
  5
120
330
1F
100
AcDbEntity
  8
0
  6
Continuous
 62
     7
370
    25
100
AcDbSpline
210
0.0
220
0.0
230
1.0
 70
     8
 71
     3
 72
    17
 73
    13
 74
     0
 42
0.00000001
 43
0.00000001
 40
0.0
 40
0.0
 40
0.0
 40
0.0
 40
0.3241697628029873
 40
0.542275846362072
 40
0.689509052693928
 40
0.7894036290694506
 40
0.8577090008137827
 40
0.9049823971474139
 40
0.9551712229700868
 40
0.9753097783197817
 40
0.9919572060138849
 40
1.0
 40
1.0
 40
1.0
 40
1.0
 10
117.4185247094513
 20
70.96478060045953
 30
0.0
 10
117.5612400694684
 20
70.05216709785385
 30
0.0
 10
117.7999763784104
 20
68.5255340915925
 30
0.0
 10
118.1795635728621
 20
66.59876118931155
 30
0.0
 10
118.4886977812091
 20
65.31112571837878
 30
0.0
 10
118.7448113094093
 20
64.45197375165704
 30
0.0
 10
118.9591223123042
 20
63.87850586327963
 30
0.0
 10
119.1623565333322
 20
63.45697370924967
 30
0.0
 10
119.3469017978748
 20
63.17648116645423
 30
0.0
 10
119.5329728842429
 20
63.02093249787358
 30
0.0
 10
119.6481834834988
 20
62.97032189867608
 30
0.0
 10
119.7152722889717
 20
62.96614214687143
 30
0.0
 10
119.7371263431062
 20
62.96478060046197
 30
0.0
  0
SPLINE
  5
121
330
1F
100
AcDbEntity
  8
0
  6
Continuous
 62
     7
370
    25
100
AcDbSpline
210
0.0
220
0.0
230
1.0
 70
     8
 71
     3
 72
    14
 73
    10
 74
     0
 42
0.00000001
 43
0.00000001
 40
0.0
 40
0.0
 40
0.0
 40
0.0
 40
0.1576095309202822
 40
0.3152382602707094
 40
0.4726926441579498
 40
0.6301650083177254
 40
0.7907313191165901
 40
0.9513050385928076
 40
1.0
 40
1.0
 40
1.0
 40
1.0
 10
115.3930715935334
 20
62.9647806004619
 30
0.0
 10
115.3265005787514
 20
63.1782823889393
 30
0.0
 10
115.1933504401665
 20
63.60531197256481
 30
0.0
 10
114.8647834784158
 20
64.19055905142113
 30
0.0
 10
114.4513938376838
 20
64.71271359224353
 30
0.0
 10
113.9557189187391
 20
65.16169171966342
 30
0.0
 10
113.3894292134546
 20
65.52097345146979
 30
0.0
 10
112.9131785570616
 20
65.72553963057098
 30
0.0
 10
112.6329839888688
 20
65.80633417892228
 30
0.0
 10
112.5677852040958
 20
65.82513435196906
 30
0.0
  0
LINE
  5
122
330
1F
100
AcDbEntity
  8
0
  6
Continuous
 62
     7
370
    25
100
AcDbLine
 10
112.5677852041
 20
65.825134352
 30
0.0
 11
106.7880283542
 21
67.3937557925
 31
0.0
  0
SPLINE
  5
123
330
1F
100
AcDbEntity
  8
0
  6
Continuous
 62
     7
370
    25
100
AcDbSpline
210
0.0
220
0.0
230
1.0
 70
     8
 71
     3
 72
    11
 73
     7
 74
     0
 42
0.00000001
 43
0.00000001
 40
0.0
 40
0.0
 40
0.0
 40
0.0
 40
0.2488466353289361
 40
0.4976946020535204
 40
0.7488461225871278
 40
1.0
 40
1.0
 40
1.0
 40
1.0
 10
99.71763473199677
 20
68.71695629343745
 30
0.0
 10
100.312070781133
 20
68.6474319169438
 30
0.0
 10
101.5009460597964
 20
68.50838279198264
 30
0.0
 10
103.2756707305055
 20
68.20805405385735
 30
0.0
 10
105.0422513722478
 20
67.8461444356022
 30
0.0
 10
106.2061008732675
 20
67.54455247853765
 30
0.0
 10
106.7880283542405
 20
67.39375579245194
 30
0.0
  0
LINE
  5
124
330
1F
100
AcDbEntity
  8
0
  6
Continuous
 62
     7
370
    25
100
AcDbLine
 10
99.717634732
 20
68.7169562934
 30
0.0
 11
99.717634732
 21
71.9595241785
 31
0.0
  0
LINE
  5
125
330
1F
100
AcDbEntity
  8
0
  6
Continuous
 62
     7
370
    25
100
AcDbLine
 10
99.717634732
 20
71.9595241785
 30
0.0
 11
118.1787354652
 21
71.9595241784
 31
0.0
  0
LINE
  5
126
330
1F
100
AcDbEntity
  8
0
  6
Continuous
 62
     7
370
    25
100
AcDbLine
 10
119.7371263431
 20
62.9647806005
 30
0.0
 11
115.3930715935
 21
62.9647806005
 31
0.0
  0
LINE
  5
127
330
1F
100
AcDbEntity
  8
0
  6
Continuous
 62
     7
370
    25
100
AcDbLine
 10
119.8930715935
 20
63.0025975243
 30
0.0
 11
119.8862722356
 21
62.9647806005
 31
0.0
  0
LINE
  5
128
330
1F
100
AcDbEntity
  8
0
  6
Continuous
 62
     7
370
    25
100
AcDbLine
 10
119.8930715935
 20
62.9647806005
 30
0.0
 11
119.8862722356
 21
62.9647806005
 31
0.0
  0
LINE
  5
129
330
1F
100
AcDbEntity
  8
0
  6
Continuous
 62
     7
370
    25
100
AcDbLine
 10
119.8862722356
 20
62.9647806005
 30
0.0
 11
119.7371263431
 21
62.9647806005
 31
0.0
  0
LINE
  5
12A
330
1F
100
AcDbEntity
  8
0
  6
Continuous
 62
     7
370
    25
100
AcDbLine
 10
81.8930715935
 20
80.9647806005
 30
0.0
 11
99.717634732
 21
80.9647806005
 31
0.0
  0
LINE
  5
12B
330
1F
100
AcDbEntity
  8
0
  6
Continuous
 62
     7
370
    25
100
AcDbLine
 10
99.717634732
 20
80.9647806005
 30
0.0
 11
99.717634732
 21
71.9595241785
 31
0.0
  0
LINE
  5
12C
330
1F
100
AcDbEntity
  8
0
  6
Continuous
 62
     7
370
    25
100
AcDbLine
 10
95.0014037358
 20
68.9647806005
 30
0.0
 11
86.8930715935
 21
68.9647806005
 31
0.0
  0
ARC
  5
12D
330
1F
100
AcDbEntity
  8
0
  6
Continuous
 62
     7
370
    25
100
AcDbCircle
 10
86.8930715935
 20
73.9647806005
 30
0.0
 40
5.0
100
AcDbArc
 50
180.0
 51
270.0
  0
LINE
  5
12E
330
1F
100
AcDbEntity
  8
0
  6
Continuous
 62
     7
370
    25
100
AcDbLine
 10
81.8930715935
 20
73.9647806005
 30
0.0
 11
81.8930715935
 21
80.9647806005
 31
0.0
  0
ARC
  5
12F
330
1F
100
AcDbEntity
  8
0
  6
Continuous
 62
     7
370
    25
100
AcDbCircle
 10
95.0014037358
 20
23.9646513463
 30
0.0
 40
45.00012925418375
100
AcDbArc
 50
83.9840777705
 51
90.0
  0
LINE
  5
130
330
1F
100
AcDbEntity
  8
0
  6
Continuous
 62
     7
370
    25
100
AcDbLine
 10
101.8930715935
 20
80.9647806005
 30
0.0
 11
101.8930715935
 21
78.9837361238
 31
0.0
  0
ARC
  5
131
330
1F
100
AcDbEntity
  8
0
  6
Continuous
 62
     7
370
    25
100
AcDbCircle
 10
107.8930715935
 20
78.9837361238
 30
0.0
 40
6.000000000000003
100
AcDbArc
 50
180.0
 51
275.5801667845
  0
ARC
  5
132
330
1F
100
AcDbEntity
  8
0
  6
Continuous
 62
     7
370
    25
100
AcDbCircle
 10
107.5041180293
 20
82.9647806005
 30
0.0
 40
10.00000000000847
100
AcDbArc
 50
275.5801667845
 51
336.4218215217
  0
LINE
  5
133
330
1F
100
AcDbEntity
  8
0
  6
Continuous
 62
     7
370
    25
100
AcDbLine
 10
99.717634732
 20
80.9647806005
 30
0.0
 11
101.8930715935
 21
80.9647806005
 31
0.0
  0
LINE
  5
134
330
1F
100
AcDbEntity
  8
0
  6
Continuous
 62
     7
370
    25
100
AcDbLine
 10
115.3930715935
 20
62.9647806005
 30
0.0
 11
114.8930715935
 21
62.9647806005
 31
0.0
  0
LINE
  5
135
330
1F
100
AcDbEntity
  8
0
  6
Continuous
 62
     7
370
    25
100
AcDbLine
 10
116.6539862609
 20
78.9647806004
 30
0.0
 11
116.6692694192
 21
78.9647806004
 31
0.0
  0
LINE
  5
136
330
1F
100
AcDbEntity
  8
0
  6
Continuous
 62
     7
370
    25
100
AcDbLine
 10
128.8930715935
 20
57.6592250449
 30
0.0
 11
128.8930715935
 21
60.9647806005
 31
0.0
  0
LINE
  5
137
330
1F
100
AcDbEntity
  8
0
  6
Continuous
 62
     7
370
    25
100
AcDbLine
 10
114.8930715935
 20
47.270336156
 30
0.0
 11
114.8930715935
 21
43.9647806005
 31
0.0
  0
LINE
  5
138
330
1F
100
AcDbEntity
  8
0
  6
Continuous
 62
     7
370
    25
100
AcDbLine
 10
114.8930715935
 20
60.9647806005
 30
0.0
 11
114.8930715935
 21
57.6592250449
 31
0.0
  0
LINE
  5
139
330
1F
100
AcDbEntity
  8
0
  6
Continuous
 62
     7
370
    25
100
AcDbLine
 10
128.8930715935
 20
43.9647806005
 30
0.0
 11
128.8930715935
 21
47.270336156
 31
0.0
  0
SPLINE
  5
13A
330
1F
100
AcDbEntity
  8
0
  6
Continuous
 62
     7
370
    25
100
AcDbSpline
210
0.0
220
0.0
230
1.0
 70
     8
 71
     3
 72
    32
 73
    28
 74
     0
 42
0.00000001
 43
0.00000001
 40
0.0
 40
0.0
 40
0.0
 40
0.0
 40
0.0401450235848357
 40
0.0814946510747366
 40
0.1230108374273918
 40
0.1655335881087852
 40
0.213102689944118
 40
0.2616869956899938
 40
0.3186512837064658
 40
0.3479268696243464
 40
0.3771976325562726
 40
0.4187548087056146
 40
0.4612652019558922
 40
0.5031787598671369
 40
0.5464778200637773
 40
0.5837150053189375
 40
0.6216789039917089
 40
0.649608003238977
 40
0.6775412817538382
 40
0.7348752066615024
 40
0.7907587055724206
 40
0.8195305177303107
 40
0.848297267517085
 40
0.8930422512982819
 40
0.939068727387773
 40
0.9835429316127413
 40
1.0
 40
1.0
 40
1.0
 40
1.0
 10
128.2930715935334
 20
60.9647806004619
 30
0.0
 10
128.281752783165
 20
60.95716191847965
 30
0.0
 10
128.2587755267288
 20
60.94169594600411
 30
0.0
 10
128.0740990942323
 20
60.81847666976719
 30
0.0
 10
127.783519321786
 20
60.62845273670879
 30
0.0
 10
127.3725790329223
 20
60.36791799598981
 30
0.0
 10
126.8399470985477
 20
60.04611370168856
 30
0.0
 10
126.1515023746611
 20
59.66025406673125
 30
0.0
 10
125.4595464219523
 20
59.31608555039494
 30
0.0
 10
124.8136278129801
 20
59.04204366257341
 30
0.0
 10
124.2234417871161
 20
58.82495723442572
 30
0.0
 10
123.5155490394298
 20
58.61940808693777
 30
0.0
 10
122.6854520361916
 20
58.46997040090494
 30
0.0
 10
121.8186571781459
 20
58.42238751624254
 30
0.0
 10
120.9895793655554
 20
58.48585575723035
 30
0.0
 10
120.2138371063091
 20
58.63608126147946
 30
0.0
 10
119.5705202395662
 20
58.82349037455219
 30
0.0
 10
119.015668822058
 20
59.02542509607854
 30
0.0
 10
118.3789393966848
 20
59.29185655921186
 30
0.0
 10
117.6488386040113
 20
59.65128311653977
 30
0.0
 10
117.0099599274721
 20
60.01024956824226
 30
0.0
 10
116.5663509913833
 20
60.27539245608939
 30
0.0
 10
116.2114204656559
 20
60.49514076800311
 30
0.0
 10
115.8680984833392
 20
60.71569122514925
 30
0.0
 10
115.6114407728495
 20
60.88530741664447
 30
0.0
 10
115.4883625999623
 20
60.9679373530736
 30
0.0
 10
115.5059897585511
 20
60.95611214889912
 30
0.0
 10
115.5107507185957
 20
60.95291825214546
 30
0.0
  0
SPLINE
  5
13B
330
1F
100
AcDbEntity
  8
0
  6
Continuous
 62
     7
370
    25
100
AcDbSpline
210
0.0
220
0.0
230
1.0
 70
     8
 71
     3
 72
    32
 73
    28
 74
     0
 42
0.00000001
 43
0.00000001
 40
0.0
 40
0.0
 40
0.0
 40
0.0
 40
0.0148226906036678
 40
0.0619098642308405
 40
0.1074419255042467
 40
0.1543358594329046
 40
0.182598153298089
 40
0.2108647534549355
 40
0.2690259379277178
 40
0.3246070981579414
 40
0.3531531900241039
 40
0.3816927019323051
 40
0.4179901534316578
 40
0.4550296659437936
 40
0.4953226362402814
 40
0.5372317715994345
 40
0.5776049808321276
 40
0.6191596213353762
 40
0.6475096399520571
 40
0.6758659597953307
 40
0.7341701314178916
 40
0.7822939425002001
 40
0.8313627427680195
 40
0.8736469360376942
 40
0.9168681617688612
 40
0.9578489936169664
 40
1.0
 40
1.0
 40
1.0
 40
1.0
 10
116.0075772957423
 20
61.4536015726169
 30
0.0
 10
116.0036333000665
 20
61.4566408122595
 30
0.0
 10
115.9871604313178
 20
61.46933479061131
 30
0.0
 10
116.0979343176826
 20
61.38388213898615
 30
0.0
 10
116.3353670245696
 20
61.203642534169
 30
0.0
 10
116.6481850497562
 20
60.97264660884529
 30
0.0
 10
116.9733073929474
 20
60.74134842458012
 30
0.0
 10
117.3793962326456
 20
60.46209253950352
 30
0.0
 10
117.96162181789
 20
60.08539674114397
 30
0.0
 10
118.6374129948948
 20
59.70228695408063
 30
0.0
 10
119.2239858444859
 20
59.41847171235499
 30
0.0
 10
119.7392471950568
 20
59.20233621880205
 30
0.0
 10
120.3367466449965
 20
59.0014688223013
 30
0.0
 10
121.0428356140278
 20
58.84298227738049
 30
0.0
 10
121.814209255178
 20
58.77288561945952
 30
0.0
 10
122.6110583914506
 20
58.82118644918915
 30
0.0
 10
123.3869983548129
 20
58.98088854824903
 30
0.0
 10
124.0358939901843
 20
59.19699039781856
 30
0.0
 10
124.5769417112538
 20
59.4252573302845
 30
0.0
 10
125.1746440654321
 20
59.71547339773037
 30
0.0
 10
125.8119904884666
 20
60.07937435883643
 30
0.0
 10
126.4513872995612
 20
60.49064161627473
 30
0.0
 10
126.9394307614038
 20
60.82922909801104
 30
0.0
 10
127.3212518851658
 20
61.10711279395777
 30
0.0
 10
127.5875711398974
 20
61.30712185294831
 30
0.0
 10
127.7603477764351
 20
61.43947700137508
 30
0.0
 10
127.7820617714973
 20
61.45626728668852
 30
0.0
 10
127.7930715935334
 20
61.4647806004619
 30
0.0
  0
LINE
  5
13C
330
1F
100
AcDbEntity
  8
FORMAT
100
AcDbLine
 10
141.1952558586
 20
46.811896498
 30
0.0
 11
132.3930715935
 21
46.5368282398
 31
0.0
  0
LINE
  5
13D
330
1F
100
AcDbEntity
  8
FORMAT
100
AcDbLine
 10
141.1952558586
 20
58.1176647029
 30
0.0
 11
132.3930715935
 21
58.3927329612
 31
0.0
  0
LINE
  5
13E
330
1F
100
AcDbEntity
  8
FORMAT
100
AcDbLine
 10
132.3930715935
 20
59.2160931005
 30
0.0
 11
132.3930715935
 21
45.7134681005
 31
0.0
  0
LINE
  5
13F
330
1F
100
AcDbEntity
  8
FORMAT
  6
CENTERX2
370
    18
100
AcDbLine
 10
97.0694064404
 20
52.4647806005
 30
0.0
 11
143.2751958203
 21
52.4647806005
 31
0.0
  0
LINE
  5
140
330
1F
100
AcDbEntity
  8
FORMAT
  6
CENTERX2
370
    18
100
AcDbLine
 10
121.8930715935
 20
81.2384030239
 30
0.0
 11
121.8930715935
 21
42.0657072487
 31
0.0
  0
LINE
  5
141
330
1F
100
AcDbEntity
  8
0
  6
Continuous
 62
     7
370
    25
100
AcDbLine
 10
176.1662817552
 20
60.5388130502
 30
0.0
 11
176.1662817552
 21
62.9647806005
 31
0.0
  0
LINE
  5
142
330
1F
100
AcDbEntity
  8
0
  6
Continuous
 62
     7
370
    25
100
AcDbLine
 10
164.3662817552
 20
62.9647806005
 30
0.0
 11
164.3662817552
 21
61.4628742708
 31
0.0
  0
ARC
  5
143
330
1F
100
AcDbEntity
  8
0
  6
Continuous
 62
     7
370
    25
100
AcDbCircle
 10
164.5662817552
 20
61.0065230308
 30
0.0
 40
0.5000000000000135
100
AcDbArc
 50
113.6449780875
 51
180.007858636
  0
ARC
  5
144
330
1F
100
AcDbEntity
  8
0
  6
Continuous
 62
     7
370
    25
100
AcDbCircle
 10
175.5162817552
 20
79.5647806005
 30
0.0
 40
0.25
100
AcDbArc
 50
0.0
 51
90.0
  0
ARC
  5
145
330
1F
100
AcDbEntity
  8
0
  6
Continuous
 62
     7
370
    25
100
AcDbCircle
 10
165.0162817552
 20
79.5647806005
 30
0.0
 40
0.25
100
AcDbArc
 50
90.0
 51
180.0
  0
LINE
  5
146
330
1F
100
AcDbEntity
  8
0
  6
Continuous
 62
     7
370
    25
100
AcDbLine
 10
175.7662817552
 20
78.9647806005
 30
0.0
 11
175.7662817552
 21
79.5647806005
 31
0.0
  0
LINE
  5
147
330
1F
100
AcDbEntity
  8
0
  6
Continuous
 62
     7
370
    25
100
AcDbLine
 10
164.7662817552
 20
79.5647806005
 30
0.0
 11
164.7662817552
 21
78.9647806005
 31
0.0
  0
LINE
  5
148
330
1F
100
AcDbEntity
  8
0
  6
Continuous
 62
     7
370
    25
100
AcDbLine
 10
177.7162817552
 20
70.9647806005
 30
0.0
 11
175.7662817552
 21
78.9647806004
 31
0.0
  0
LINE
  5
149
330
1F
100
AcDbEntity
  8
0
  6
Continuous
 62
     7
370
    25
100
AcDbLine
 10
164.7662817552
 20
78.9647806004
 30
0.0
 11
162.8162817552
 21
70.9647806005
 31
0.0
  0
LINE
  5
14A
330
1F
100
AcDbEntity
  8
0
  6
Continuous
 62
     7
370
    25
100
AcDbLine
 10
162.8162817552
 20
70.9647806005
 30
0.0
 11
163.2662817552
 21
62.9647806005
 31
0.0
  0
LINE
  5
14B
330
1F
100
AcDbEntity
  8
0
  6
Continuous
 62
     7
370
    25
100
AcDbLine
 10
177.2662817552
 20
62.9647806005
 30
0.0
 11
177.7162817552
 21
70.9647806005
 31
0.0
  0
CIRCLE
  5
14C
330
1F
100
AcDbEntity
  8
0
  6
Continuous
 62
     7
370
    25
100
AcDbCircle
 10
170.2662817552
 20
52.4647806005
 30
0.0
 40
2.900000000000006
  0
CIRCLE
  5
14D
330
1F
100
AcDbEntity
  8
0
  6
Continuous
 62
     7
370
    25
100
AcDbCircle
 10
170.2662817552
 20
52.4647806005
 30
0.0
 40
6.523360139299996
  0
CIRCLE
  5
14E
330
1F
100
AcDbEntity
  8
0
  6
Continuous
 62
     7
370
    25
100
AcDbCircle
 10
170.2662817552
 20
52.4647806005
 30
0.0
 40
5.250000000000028
  0
CIRCLE
  5
14F
330
1F
100
AcDbEntity
  8
0
  6
Continuous
 62
     7
370
    25
100
AcDbCircle
 10
170.2662817552
 20
52.4647806005
 30
0.0
 40
4.5
  0
CIRCLE
  5
150
330
1F
100
AcDbEntity
  8
0
  6
Continuous
 62
     7
370
    25
100
AcDbCircle
 10
170.2662817552
 20
52.4647806005
 30
0.0
 40
4.0
  0
CIRCLE
  5
151
330
1F
100
AcDbEntity
  8
0
  6
Continuous
 62
     7
370
    25
100
AcDbCircle
 10
170.2662817552
 20
52.4647806005
 30
0.0
 40
6.766937500000012
  0
CIRCLE
  5
152
330
1F
100
AcDbEntity
  8
0
  6
Continuous
 62
     7
370
    25
100
AcDbCircle
 10
170.2662817552
 20
52.4647806005
 30
0.0
 40
10.0
  0
CIRCLE
  5
153
330
1F
100
AcDbEntity
  8
0
  6
Continuous
 62
     7
370
    25
100
AcDbCircle
 10
170.2662817552
 20
52.4647806005
 30
0.0
 40
9.5
  0
CIRCLE
  5
154
330
1F
100
AcDbEntity
  8
0
  6
Continuous
 62
     7
370
    25
100
AcDbCircle
 10
170.2662817552
 20
52.4647806005
 30
0.0
 40
3.0
  0
SPLINE
  5
155
330
1F
100
AcDbEntity
  8
0
  6
Continuous
 62
     7
370
    25
100
AcDbSpline
210
0.0
220
0.0
230
1.0
 70
     8
 71
     3
 72
    13
 73
     9
 74
     0
 42
0.00000001
 43
0.00000001
 40
0.0
 40
0.0
 40
0.0
 40
0.0
 40
0.0709002556126979
 40
0.2985326187209611
 40
0.5283503324641392
 40
0.7606230766495086
 40
0.9918193887712565
 40
0.9999999999999999
 40
0.9999999999999999
 40
0.9999999999999999
 40
0.9999999999999999
 10
164.4485500255837
 20
60.57577419704938
 30
0.0
 10
164.4484654735737
 20
60.61030318478654
 30
0.0
 10
164.4481094588776
 20
60.75569094174001
 30
0.0
 10
164.4290087419302
 20
60.99536513396122
 30
0.0
 10
164.3996815866962
 20
61.25483749527029
 30
0.0
 10
164.3749676329874
 20
61.41397611478671
 30
0.0
 10
164.3634295976002
 20
61.48203096705721
 30
0.0
 10
164.3664924056969
 20
61.46350730942422
 30
0.0
 10
164.3665970759465
 20
61.4628742707858
 30
0.0
  0
SPLINE
  5
156
330
1F
100
AcDbEntity
  8
0
  6
Continuous
 62
     7
370
    25
100
AcDbSpline
210
0.0
220
0.0
230
1.0
 70
    24
 71
     3
 72
    14
 73
    10
 74
     0
 42
0.00000001
 43
0.00000001
 40
0.0
 40
0.0
 40
0.0
 40
0.0
 40
0.0686782875714484
 40
0.293216909137959
 40
0.2935197863693179
 40
0.5073359099559678
 40
0.7069537562193142
 40
0.9001971037285486
 40
1.0
 40
1.0
 40
1.0
 40
1.0
 10
164.0662817551962
 20
60.46478060046275
 30
0.0
 10
164.0662817551962
 20
60.48363270169035
 30
0.0
 10
164.0662817551962
 20
60.56412036450467
 30
0.0
 10
164.0662817551962
 20
60.64380937084771
 30
0.0
 10
164.0662817551963
 20
60.75302109362401
 30
0.0
 10
164.0662817551962
 20
60.84971717413428
 30
0.0
 10
164.0662817551962
 20
60.95129971642442
 30
0.0
 10
164.0662817551962
 20
61.00485178587875
 30
0.0
 10
164.0662817551962
 20
61.00064498461388
 30
0.0
 10
164.0662817551962
 20
60.99921227234003
 30
0.0
  0
SPLINE
  5
157
330
1F
100
AcDbEntity
  8
0
  6
Continuous
 62
     7
370
    25
100
AcDbSpline
210
0.0
220
0.0
230
1.0
 70
    24
 71
     3
 72
     9
 73
     5
 74
     0
 42
0.00000001
 43
0.00000001
 40
0.0
 40
0.0
 40
0.0
 40
0.0
 40
0.3143288738672229
 40
1.0
 40
1.0
 40
1.0
 40
1.0
 10
164.0662817551962
 20
60.27935819745252
 30
0.0
 10
164.0662817551962
 20
60.29754146926958
 30
0.0
 10
164.0662817551962
 20
60.35538939012189
 30
0.0
 10
164.0662817551962
 20
60.42028414251159
 30
0.0
 10
164.0662817551962
 20
60.46478060046275
 30
0.0
  0
LINE
  5
158
330
1F
100
AcDbEntity
  8
0
  6
Continuous
 62
     7
370
    25
100
AcDbLine
 10
171.5162817552
 20
79.5647806005
 30
0.0
 11
171.5162817552
 21
79.8147806005
 31
0.0
  0
ARC
  5
159
330
1F
100
AcDbEntity
  8
0
  6
Continuous
 62
     7
370
    25
100
AcDbCircle
 10
171.5162817552
 20
79.5647806005
 30
0.0
 40
0.25
100
AcDbArc
 50
0.0
 51
90.0
  0
LINE
  5
15A
330
1F
100
AcDbEntity
  8
0
  6
Continuous
 62
     7
370
    25
100
AcDbLine
 10
171.5162817552
 20
79.5647806005
 30
0.0
 11
171.7662817552
 21
79.5647806005
 31
0.0
  0
LINE
  5
15B
330
1F
100
AcDbEntity
  8
0
  6
Continuous
 62
     7
370
    25
100
AcDbLine
 10
171.5162817552
 20
78.9647806005
 30
0.0
 11
171.5162817552
 21
79.5647806005
 31
0.0
  0
LINE
  5
15C
330
1F
100
AcDbEntity
  8
0
  6
Continuous
 62
     7
370
    25
100
AcDbLine
 10
171.7662817552
 20
79.5647806005
 30
0.0
 11
171.7662817552
 21
78.9647806005
 31
0.0
  0
LINE
  5
15D
330
1F
100
AcDbEntity
  8
0
  6
Continuous
 62
     7
370
    25
100
AcDbLine
 10
171.7662817552
 20
78.9647806005
 30
0.0
 11
171.5162817552
 21
78.9647806005
 31
0.0
  0
LINE
  5
15E
330
1F
100
AcDbEntity
  8
0
  6
Continuous
 62
     7
370
    25
100
AcDbLine
 10
171.5162817552
 20
79.5647806005
 30
0.0
 11
169.0162817552
 21
79.5647806005
 31
0.0
  0
LINE
  5
15F
330
1F
100
AcDbEntity
  8
0
  6
Continuous
 62
     7
370
    25
100
AcDbLine
 10
169.0162817552
 20
79.8147806005
 30
0.0
 11
169.0162817552
 21
79.5647806005
 31
0.0
  0
LINE
  5
160
330
1F
100
AcDbEntity
  8
0
  6
Continuous
 62
     7
370
    25
100
AcDbLine
 10
169.0162817552
 20
79.8147806005
 30
0.0
 11
171.5162817552
 21
79.8147806005
 31
0.0
  0
LINE
  5
161
330
1F
100
AcDbEntity
  8
0
  6
Continuous
 62
     7
370
    25
100
AcDbLine
 10
169.0162817552
 20
79.5647806005
 30
0.0
 11
169.0162817552
 21
78.9647806005
 31
0.0
  0
LINE
  5
162
330
1F
100
AcDbEntity
  8
0
  6
Continuous
 62
     7
370
    25
100
AcDbLine
 10
171.5162817552
 20
78.9647806005
 30
0.0
 11
169.0162817552
 21
78.9647806005
 31
0.0
  0
LINE
  5
163
330
1F
100
AcDbEntity
  8
0
  6
Continuous
 62
     7
370
    25
100
AcDbLine
 10
168.7662817552
 20
78.9647806005
 30
0.0
 11
168.7662817552
 21
79.5647806005
 31
0.0
  0
LINE
  5
164
330
1F
100
AcDbEntity
  8
0
  6
Continuous
 62
     7
370
    25
100
AcDbLine
 10
168.7662817552
 20
79.5647806005
 30
0.0
 11
169.0162817552
 21
79.5647806005
 31
0.0
  0
LINE
  5
165
330
1F
100
AcDbEntity
  8
0
  6
Continuous
 62
     7
370
    25
100
AcDbLine
 10
169.0162817552
 20
78.9647806005
 30
0.0
 11
168.7662817552
 21
78.9647806005
 31
0.0
  0
ARC
  5
166
330
1F
100
AcDbEntity
  8
0
  6
Continuous
 62
     7
370
    25
100
AcDbCircle
 10
169.0162817552
 20
79.5647806005
 30
0.0
 40
0.25
100
AcDbArc
 50
90.0
 51
180.0
  0
SPLINE
  5
167
330
1F
100
AcDbEntity
  8
0
  6
Continuous
 62
     7
370
    25
100
AcDbSpline
210
0.0
220
0.0
230
1.0
 70
     8
 71
     3
 72
    15
 73
    11
 74
     0
 42
0.00000001
 43
0.00000001
 40
0.0
 40
0.0
 40
0.0
 40
0.0
 40
0.0081667445812973
 40
0.3321939991490802
 40
0.4756279600585562
 40
0.6866830973284892
 40
0.8457435502264752
 40
0.8967566214763124
 40
0.9909540928118028
 40
1.0
 40
1.0
 40
1.0
 40
1.0
 10
171.5162817551962
 20
79.81478060046189
 30
0.0
 10
171.5177192181353
 20
79.8147779241161
 30
0.0
 10
171.5761900760872
 20
79.81466905992933
 30
0.0
 10
171.6606152538064
 20
79.80512304765988
 30
0.0
 10
171.7751943258289
 20
79.76776066440533
 30
0.0
 10
171.8565652130255
 20
79.72289514967065
 30
0.0
 10
171.9095842050271
 20
79.66501885009374
 30
0.0
 10
171.9337861368713
 20
79.61434281012183
 30
0.0
 10
171.9399757575375
 20
79.58564853060182
 30
0.0
 10
171.94017715295
 20
79.56646169904631
 30
0.0
 10
171.9401947986745
 20
79.5647806004619
 30
0.0
  0
LINE
  5
168
330
1F
100
AcDbEntity
  8
0
  6
Continuous
 62
     7
370
    25
100
AcDbLine
 10
171.7662817552
 20
79.5647806005
 30
0.0
 11
171.9401947987
 21
79.5647806005
 31
0.0
  0
LINE
  5
169
330
1F
100
AcDbEntity
  8
0
  6
Continuous
 62
     7
370
    25
100
AcDbLine
 10
168.5923687117
 20
79.5647806005
 30
0.0
 11
168.7662817552
 21
79.5647806005
 31
0.0
  0
SPLINE
  5
16A
330
1F
100
AcDbEntity
  8
0
  6
Continuous
 62
     7
370
    25
100
AcDbSpline
210
0.0
220
0.0
230
1.0
 70
     8
 71
     3
 72
    15
 73
    11
 74
     0
 42
0.00000001
 43
0.00000001
 40
0.0
 40
0.0
 40
0.0
 40
0.0
 40
0.0090459071881971
 40
0.1032433785236873
 40
0.1542564497735245
 40
0.3133169026715109
 40
0.5243720399414425
 40
0.6678060008509904
 40
0.9918332554187292
 40
1.0
 40
1.0
 40
1.0
 40
1.0
 10
168.592368711718
 20
79.56478060046189
 30
0.0
 10
168.5923863574424
 20
79.56646169904631
 30
0.0
 10
168.592587752855
 20
79.58564853060183
 30
0.0
 10
168.5987773735212
 20
79.61434281012183
 30
0.0
 10
168.6229793053653
 20
79.66501885009374
 30
0.0
 10
168.675998297367
 20
79.72289514967065
 30
0.0
 10
168.7573691845636
 20
79.76776066440534
 30
0.0
 10
168.871948256586
 20
79.80512304765986
 30
0.0
 10
168.9563734343055
 20
79.8146690599294
 30
0.0
 10
169.0148442922572
 20
79.81477792411611
 30
0.0
 10
169.0162817551962
 20
79.81478060046189
 30
0.0
  0
LINE
  5
16B
330
1F
100
AcDbEntity
  8
0
  6
Continuous
 62
     7
370
    25
100
AcDbLine
 10
171.9401947987
 20
79.5647806005
 30
0.0
 11
171.9401947987
 21
78.9647806005
 31
0.0
  0
LINE
  5
16C
330
1F
100
AcDbEntity
  8
0
  6
Continuous
 62
     7
370
    25
100
AcDbLine
 10
171.9401947987
 20
78.9647806005
 30
0.0
 11
171.7662817552
 21
78.9647806005
 31
0.0
  0
LINE
  5
16D
330
1F
100
AcDbEntity
  8
0
  6
Continuous
 62
     7
370
    25
100
AcDbLine
 10
168.5923687117
 20
78.9647806005
 30
0.0
 11
168.5923687117
 21
79.5647806005
 31
0.0
  0
LINE
  5
16E
330
1F
100
AcDbEntity
  8
0
  6
Continuous
 62
     7
370
    25
100
AcDbLine
 10
168.7662817552
 20
78.9647806005
 30
0.0
 11
168.5923687117
 21
78.9647806005
 31
0.0
  0
LINE
  5
16F
330
1F
100
AcDbEntity
  8
0
  6
Continuous
 62
     7
370
    25
100
AcDbLine
 10
171.5162817552
 20
79.8147806005
 30
0.0
 11
175.5162817552
 21
79.8147806005
 31
0.0
  0
LINE
  5
170
330
1F
100
AcDbEntity
  8
0
  6
Continuous
 62
     7
370
    25
100
AcDbLine
 10
165.0162817552
 20
79.8147806005
 30
0.0
 11
169.0162817552
 21
79.8147806005
 31
0.0
  0
LINE
  5
171
330
1F
100
AcDbEntity
  8
0
  6
Continuous
 62
     7
370
    25
100
AcDbLine
 10
171.9401947987
 20
78.9647806005
 30
0.0
 11
175.7662817552
 21
78.9647806005
 31
0.0
  0
LINE
  5
172
330
1F
100
AcDbEntity
  8
0
  6
Continuous
 62
     7
370
    25
100
AcDbLine
 10
164.7662817552
 20
78.9647806005
 30
0.0
 11
168.5923687117
 21
78.9647806005
 31
0.0
  0
LINE
  5
173
330
1F
100
AcDbEntity
  8
0
  6
Continuous
 62
     7
370
    25
100
AcDbLine
 10
169.6662817552
 20
79.8247806005
 30
0.0
 11
170.8662817552
 21
79.8247806005
 31
0.0
  0
LINE
  5
174
330
1F
100
AcDbEntity
  8
0
  6
Continuous
 62
     7
370
    25
100
AcDbLine
 10
170.8662817552
 20
79.8147806005
 30
0.0
 11
170.8662817552
 21
79.8247806005
 31
0.0
  0
LINE
  5
175
330
1F
100
AcDbEntity
  8
0
  6
Continuous
 62
     7
370
    25
100
AcDbLine
 10
169.6662817552
 20
79.8147806005
 30
0.0
 11
169.6662817552
 21
79.8247806005
 31
0.0
  0
LINE
  5
176
330
1F
100
AcDbEntity
  8
0
  6
Continuous
 62
     7
370
    25
100
AcDbLine
 10
162.8162817552
 20
70.9647806004
 30
0.0
 11
177.7162817552
 21
70.9647806004
 31
0.0
  0
LINE
  5
177
330
1F
100
AcDbEntity
  8
0
  6
Continuous
 62
     7
370
    25
100
AcDbLine
 10
163.2662817552
 20
62.9647806005
 30
0.0
 11
177.2662817552
 21
62.9647806005
 31
0.0
  0
LINE
  5
178
330
1F
100
AcDbEntity
  8
0
  6
Continuous
 62
     7
370
    25
100
AcDbLine
 10
173.5379810193
 20
80.9647806005
 30
0.0
 11
173.5379810193
 21
79.8147806005
 31
0.0
  0
LINE
  5
179
330
1F
100
AcDbEntity
  8
0
  6
Continuous
 62
     7
370
    25
100
AcDbLine
 10
173.5379810193
 20
80.9647806005
 30
0.0
 11
173.7662817552
 21
80.9647806005
 31
0.0
  0
LINE
  5
17A
330
1F
100
AcDbEntity
  8
0
  6
Continuous
 62
     7
370
    25
100
AcDbLine
 10
173.7662817552
 20
79.8147806005
 30
0.0
 11
173.7662817552
 21
80.9647806005
 31
0.0
  0
LINE
  5
17B
330
1F
100
AcDbEntity
  8
0
  6
Continuous
 62
     7
370
    25
100
AcDbLine
 10
166.7662817552
 20
80.9647806005
 30
0.0
 11
166.7662817552
 21
79.8147806005
 31
0.0
  0
LINE
  5
17C
330
1F
100
AcDbEntity
  8
0
  6
Continuous
 62
     7
370
    25
100
AcDbLine
 10
166.7662817552
 20
80.9647806005
 30
0.0
 11
166.9945824911
 21
80.9647806005
 31
0.0
  0
LINE
  5
17D
330
1F
100
AcDbEntity
  8
0
  6
Continuous
 62
     7
370
    25
100
AcDbLine
 10
166.9945824911
 20
80.9647806005
 30
0.0
 11
166.9945824911
 21
79.8147806005
 31
0.0
  0
LINE
  5
17E
330
1F
100
AcDbEntity
  8
0
  6
Continuous
 62
     7
370
    25
100
AcDbLine
 10
166.9945824911
 20
80.9647806005
 30
0.0
 11
173.5379810193
 21
80.9647806005
 31
0.0
  0
LINE
  5
17F
330
1F
100
AcDbEntity
  8
0
  6
Continuous
 62
     7
370
    25
100
AcDbLine
 10
175.7662817552
 20
79.5647806005
 30
0.0
 11
171.9401947987
 21
79.5647806005
 31
0.0
  0
LINE
  5
180
330
1F
100
AcDbEntity
  8
0
  6
Continuous
 62
     7
370
    25
100
AcDbLine
 10
168.5923687117
 20
79.5647806005
 30
0.0
 11
164.7662817552
 21
79.5647806005
 31
0.0
  0
INSERT
  5
18C
330
1F
100
AcDbEntity
  8
FORMAT
100
AcDbBlockReference
  2
SW_CENTERMARKSYMBOL_0
 10
170.2662817552
 20
52.4647806005
 30
0.0
  0
LINE
  5
18D
330
1F
100
AcDbEntity
  8
0
  6
Continuous
 62
     7
370
    25
100
AcDbLine
 10
99.0374091608
 20
121.3849749979
 30
0.0
 11
98.8930715935
 21
121.1349749979
 31
0.0
  0
LINE
  5
18E
330
1F
100
AcDbEntity
  8
0
  6
Continuous
 62
     7
370
    25
100
AcDbLine
 10
98.8930715935
 20
104.6349749979
 30
0.0
 11
99.0374091608
 21
104.3849749979
 31
0.0
  0
LINE
  5
18F
330
1F
100
AcDbEntity
  8
0
  6
Continuous
 62
     7
370
    25
100
AcDbLine
 10
111.7487340262
 20
104.3849749979
 30
0.0
 11
111.8930715935
 21
104.6349749979
 31
0.0
  0
LINE
  5
190
330
1F
100
AcDbEntity
  8
0
  6
Continuous
 62
     7
370
    25
100
AcDbLine
 10
111.8930715935
 20
121.1349749979
 30
0.0
 11
111.7487340262
 21
121.3849749979
 31
0.0
  0
ARC
  5
191
330
1F
100
AcDbEntity
  8
0
  6
Continuous
 62
     7
370
    25
100
AcDbCircle
 10
112.8930715935
 20
103.8849749979
 30
0.0
 40
1.5
100
AcDbArc
 50
318.1896851042
 51
0.0
  0
ARC
  5
192
330
1F
100
AcDbEntity
  8
0
  6
Continuous
 62
     7
370
    25
100
AcDbCircle
 10
112.8930715935
 20
121.8849749979
 30
0.0
 40
1.5
100
AcDbArc
 50
0.0
 51
41.8103148958
  0
ARC
  5
193
330
1F
100
AcDbEntity
  8
0
  6
Continuous
 62
     7
370
    25
100
AcDbCircle
 10
130.8930715935
 20
121.8849749979
 30
0.0
 40
1.500000000000014
100
AcDbArc
 50
138.1896851042
 51
180.0
  0
ARC
  5
194
330
1F
100
AcDbEntity
  8
0
  6
Continuous
 62
     7
370
    25
100
AcDbCircle
 10
130.8930715935
 20
103.8849749979
 30
0.0
 40
1.500000000000014
100
AcDbArc
 50
180.0
 51
221.8103148958
  0
LINE
  5
195
330
1F
100
AcDbEntity
  8
0
  6
Continuous
 62
     7
370
    25
100
AcDbLine
 10
131.3930715935
 20
122.8849749979
 30
0.0
 11
129.7750376048
 21
122.8849749979
 31
0.0
  0
LINE
  5
196
330
1F
100
AcDbEntity
  8
0
  6
Continuous
 62
     7
370
    25
100
AcDbLine
 10
129.7750376048
 20
102.8849749979
 30
0.0
 11
131.3930715935
 21
102.8849749979
 31
0.0
  0
LINE
  5
197
330
1F
100
AcDbEntity
  8
0
  6
Continuous
 62
     7
370
    25
100
AcDbLine
 10
112.1430715935
 20
102.8849749979
 30
0.0
 11
114.0111055823
 21
102.8849749979
 31
0.0
  0
LINE
  5
198
330
1F
100
AcDbEntity
  8
0
  6
Continuous
 62
     7
370
    25
100
AcDbLine
 10
114.0111055823
 20
122.8849749979
 30
0.0
 11
112.1430715935
 21
122.8849749979
 31
0.0
  0
LINE
  5
199
330
1F
100
AcDbEntity
  8
0
  6
Continuous
 62
     7
370
    25
100
AcDbLine
 10
112.1430715935
 20
122.8849749979
 30
0.0
 11
111.8930715935
 21
122.6349749979
 31
0.0
  0
LINE
  5
19A
330
1F
100
AcDbEntity
  8
0
  6
Continuous
 62
     7
370
    25
100
AcDbLine
 10
111.8930715935
 20
103.1349749979
 30
0.0
 11
112.1430715935
 21
102.8849749979
 31
0.0
  0
LINE
  5
19B
330
1F
100
AcDbEntity
  8
0
  6
Continuous
 62
     7
370
    25
100
AcDbLine
 10
131.3930715935
 20
102.8849749979
 30
0.0
 11
131.8930715935
 21
103.3849749979
 31
0.0
  0
LINE
  5
19C
330
1F
100
AcDbEntity
  8
0
  6
Continuous
 62
     7
370
    25
100
AcDbLine
 10
131.8930715935
 20
122.3849749979
 30
0.0
 11
131.3930715935
 21
122.8849749979
 31
0.0
  0
LINE
  5
19D
330
1F
100
AcDbEntity
  8
0
  6
Continuous
 62
     7
370
    25
100
AcDbLine
 10
131.8930715935
 20
106.1180374979
 30
0.0
 11
139.6875471359
 21
106.3616148586
 31
0.0
  0
LINE
  5
19E
330
1F
100
AcDbEntity
  8
0
  6
Continuous
 62
     7
370
    25
100
AcDbLine
 10
139.6875471359
 20
119.4083351372
 30
0.0
 11
131.8930715935
 21
119.6519124979
 31
0.0
  0
LINE
  5
19F
330
1F
100
AcDbEntity
  8
0
  6
Continuous
 62
     7
370
    25
100
AcDbLine
 10
139.6875471359
 20
106.3616148586
 30
0.0
 11
141.8930715935
 21
107.6349749979
 31
0.0
  0
LINE
  5
1A0
330
1F
100
AcDbEntity
  8
0
  6
Continuous
 62
     7
370
    25
100
AcDbLine
 10
141.8930715935
 20
118.1349749979
 30
0.0
 11
139.6875471359
 21
119.4083351372
 31
0.0
  0
SPLINE
  5
1A1
330
1F
100
AcDbEntity
  8
0
  6
Continuous
 62
     7
370
    25
100
AcDbSpline
210
0.0
220
0.0
230
1.0
 70
     8
 71
     3
 72
    12
 73
     8
 74
     0
 42
0.00000001
 43
0.00000001
 40
0.0
 40
0.0
 40
0.0
 40
0.0
 40
0.2078104264825435
 40
0.4040543264705422
 40
0.6003288386600351
 40
0.8001451001194457
 40
1.0
 40
1.0
 40
1.0
 40
1.0
 10
99.06870506003946
 20
116.3849749979001
 30
0.0
 10
99.05198275822056
 20
116.7357456931807
 30
0.0
 10
99.01946890165986
 20
117.4177635275415
 30
0.0
 10
99.10037796446866
 20
118.4305498123831
 30
0.0
 10
99.25597840126501
 20
119.4218243372585
 30
0.0
 10
99.48736513636459
 20
120.4087271776181
 30
0.0
 10
99.69351409519206
 20
121.0595380853098
 30
0.0
 10
99.79659853938566
 20
121.3849749979002
 30
0.0
  0
LINE
  5
1A2
330
1F
100
AcDbEntity
  8
0
  6
Continuous
 62
     7
370
    25
100
AcDbLine
 10
99.7965985394
 20
121.3849749979
 30
0.0
 11
110.9895446477
 21
121.3849749979
 31
0.0
  0
SPLINE
  5
1A3
330
1F
100
AcDbEntity
  8
0
  6
Continuous
 62
     7
370
    25
100
AcDbSpline
210
0.0
220
0.0
230
1.0
 70
     8
 71
     3
 72
    11
 73
     7
 74
     0
 42
0.00000001
 43
0.00000001
 40
0.0
 40
0.0
 40
0.0
 40
0.0
 40
0.2316679599470022
 40
0.4847178654322306
 40
0.7423340251295177
 40
1.0
 40
1.0
 40
1.0
 40
1.0
 10
111.7385786066305
 20
117.5208699630296
 30
0.0
 10
111.7220726967218
 20
117.824031930513
 30
0.0
 10
111.6875374531783
 20
118.4583363970969
 30
0.0
 10
111.528438170262
 20
119.4218008049714
 30
0.0
 10
111.2992130142996
 20
120.4087331057984
 30
0.0
 10
111.0927740890848
 20
121.0595400614972
 30
0.0
 10
110.9895446476812
 20
121.3849749979001
 30
0.0
  0
SPLINE
  5
1A4
330
1F
100
AcDbEntity
  8
0
  6
Continuous
 62
     7
370
    25
100
AcDbSpline
210
0.0
220
0.0
230
1.0
 70
    24
 71
     3
 72
    11
 73
     7
 74
     0
 42
0.00000001
 43
0.00000001
 40
0.0
 40
0.0
 40
0.0
 40
0.0
 40
0.2421442706382263
 40
0.4305992534208046
 40
0.6190740909725381
 40
0.9999999999999999
 40
0.9999999999999999
 40
0.9999999999999999
 40
0.9999999999999999
 10
99.04102362671057
 20
104.3849749979001
 30
0.0
 10
99.04880089956183
 20
104.3849749979001
 30
0.0
 10
99.06263103427686
 20
104.3849749979001
 30
0.0
 10
99.18311568154985
 20
104.3849749979002
 30
0.0
 10
99.38896604137017
 20
104.3849749979002
 30
0.0
 10
99.63320442754045
 20
104.3849749979002
 30
0.0
 10
99.79659853938566
 20
104.3849749979002
 30
0.0
  0
SPLINE
  5
1A5
330
1F
100
AcDbEntity
  8
0
  6
Continuous
 62
     7
370
    25
100
AcDbSpline
210
0.0
220
0.0
230
1.0
 70
    24
 71
     3
 72
    11
 73
     7
 74
     0
 42
0.00000001
 43
0.00000001
 40
0.0
 40
0.0
 40
0.0
 40
0.0
 40
0.3771075656617491
 40
0.5674909803680871
 40
0.7578536994409708
 40
1.0
 40
1.0
 40
1.0
 40
1.0
 10
99.79659853938566
 20
121.3849749979001
 30
0.0
 10
99.63474984554257
 20
121.3849749979001
 30
0.0
 10
99.39119155527295
 20
121.3849749979001
 30
0.0
 10
99.18424010770583
 20
121.3849749979001
 30
0.0
 10
99.06298735355396
 20
121.3849749979001
 30
0.0
 10
99.04804688352202
 20
121.3849749979001
 30
0.0
 10
99.03968224976265
 20
121.3849749979001
 30
0.0
  0
SPLINE
  5
1A6
330
1F
100
AcDbEntity
  8
0
  6
Continuous
 62
     7
370
    25
100
AcDbSpline
210
0.0
220
0.0
230
1.0
 70
     8
 71
     3
 72
    12
 73
     8
 74
     0
 42
0.00000001
 43
0.00000001
 40
0.0
 40
0.0
 40
0.0
 40
0.0
 40
0.2253923253478585
 40
0.4507209242740498
 40
0.6810902123832241
 40
0.911417929526114
 40
0.9999999999999999
 40
0.9999999999999999
 40
0.9999999999999999
 40
0.9999999999999999
 10
99.79659853938566
 20
104.3849749979002
 30
0.0
 10
99.68111145005169
 20
104.7522043976464
 30
0.0
 10
99.45016992368876
 20
105.4865593683349
 30
0.0
 10
99.20025523334752
 20
106.6174813664124
 30
0.0
 10
99.05560146808538
 20
107.7693943503453
 30
0.0
 10
99.0163435918189
 20
108.6986314888197
 30
0.0
 10
99.06128247763347
 20
109.235775135661
 30
0.0
 10
99.07376494040138
 20
109.3849749979
 30
0.0
  0
LINE
  5
1A7
330
1F
100
AcDbEntity
  8
0
  6
Continuous
 62
     7
370
    25
100
AcDbLine
 10
98.8930715935
 20
104.6349749979
 30
0.0
 11
98.8930715935
 21
109.3849749979
 31
0.0
  0
LINE
  5
1A8
330
1F
100
AcDbEntity
  8
0
  6
Continuous
 62
     7
370
    25
100
AcDbLine
 10
98.8930715935
 20
116.3849749979
 30
0.0
 11
98.8930715935
 21
121.1349749979
 31
0.0
  0
SPLINE
  5
1A9
330
1F
100
AcDbEntity
  8
0
  6
Continuous
 62
     7
370
    25
100
AcDbSpline
210
0.0
220
0.0
230
1.0
 70
     8
 71
     3
 72
    11
 73
     7
 74
     0
 42
0.00000001
 43
0.00000001
 40
0.0
 40
0.0
 40
0.0
 40
0.0
 40
0.2910741074149786
 40
0.5820659178339218
 40
0.8795673292449517
 40
1.0
 40
1.0
 40
1.0
 40
1.0
 10
110.9895446476812
 20
104.3849749979002
 30
0.0
 10
111.1054923028812
 20
104.7522002066297
 30
0.0
 10
111.3373548307579
 20
105.4865467964695
 30
0.0
 10
111.5803120151417
 20
106.617532105848
 30
0.0
 10
111.7176744254139
 20
107.5390909494198
 30
0.0
 10
111.7246681054447
 20
108.0856347321113
 30
0.0
 10
111.7266834174292
 20
108.243127815932
 30
0.0
  0
SPLINE
  5
1AA
330
1F
100
AcDbEntity
  8
0
  6
Continuous
 62
     7
370
    25
100
AcDbSpline
210
0.0
220
0.0
230
1.0
 70
    24
 71
     3
 72
    11
 73
     7
 74
     0
 42
0.00000001
 43
0.00000001
 40
0.0
 40
0.0
 40
0.0
 40
0.0
 40
0.3771075656617491
 40
0.5674909803680872
 40
0.7578536994409709
 40
1.0
 40
1.0
 40
1.0
 40
1.0
 10
110.9895446476812
 20
121.3849749979001
 30
0.0
 10
111.1513933415243
 20
121.3849749979001
 30
0.0
 10
111.3949516317939
 20
121.3849749979001
 30
0.0
 10
111.601903079361
 20
121.3849749979001
 30
0.0
 10
111.7231558335129
 20
121.3849749979001
 30
0.0
 10
111.7380963035448
 20
121.3849749979001
 30
0.0
 10
111.7464609373042
 20
121.3849749979001
 30
0.0
  0
SPLINE
  5
1AB
330
1F
100
AcDbEntity
  8
0
  6
Continuous
 62
     7
370
    25
100
AcDbSpline
210
0.0
220
0.0
230
1.0
 70
    24
 71
     3
 72
    11
 73
     7
 74
     0
 42
0.00000001
 43
0.00000001
 40
0.0
 40
0.0
 40
0.0
 40
0.0
 40
0.2421442706382264
 40
0.4305992534208048
 40
0.6190740909725383
 40
1.0
 40
1.0
 40
1.0
 40
1.0
 10
111.7451195603563
 20
104.3849749979001
 30
0.0
 10
111.737342287505
 20
104.3849749979001
 30
0.0
 10
111.72351215279
 20
104.3849749979001
 30
0.0
 10
111.603027505517
 20
104.3849749979002
 30
0.0
 10
111.3971771456967
 20
104.3849749979002
 30
0.0
 10
111.1529387595264
 20
104.3849749979002
 30
0.0
 10
110.9895446476812
 20
104.3849749979002
 30
0.0
  0
LINE
  5
1AC
330
1F
100
AcDbEntity
  8
0
  6
Continuous
 62
     7
370
    25
100
AcDbLine
 10
99.7965985394
 20
104.3849749979
 30
0.0
 11
110.9895446477
 21
104.3849749979
 31
0.0
  0
LINE
  5
1AD
330
1F
100
AcDbEntity
  8
0
  6
Continuous
 62
     7
370
    25
100
AcDbLine
 10
114.0111055823
 20
122.8849749979
 30
0.0
 11
114.0111055823
 21
117.9760111911
 31
0.0
  0
LINE
  5
1AE
330
1F
100
AcDbEntity
  8
0
  6
Continuous
 62
     7
370
    25
100
AcDbLine
 10
114.0111055823
 20
107.7939388047
 30
0.0
 11
114.0111055823
 21
102.8849749979
 31
0.0
  0
SPLINE
  5
1AF
330
1F
100
AcDbEntity
  8
0
  6
Continuous
 62
     7
370
    25
100
AcDbSpline
210
0.0
220
0.0
230
1.0
 70
     8
 71
     3
 72
    12
 73
     8
 74
     0
 42
0.00000001
 43
0.00000001
 40
0.0
 40
0.0
 40
0.0
 40
0.0
 40
0.2500000000000001
 40
0.2500000000000001
 40
0.5000000000000001
 40
0.5000000000000001
 40
1.0
 40
1.0
 40
1.0
 40
1.0
 10
114.1639855264314
 20
121.6474361776499
 30
0.0
 10
114.245102128536
 20
121.68194131551
 30
0.0
 10
114.2921320517043
 20
121.7147863868105
 30
0.0
 10
114.3549956532362
 20
121.7731389150571
 30
0.0
 10
114.3704453241534
 20
121.7987932786858
 30
0.0
 10
114.3976289885326
 20
121.8618925314255
 30
0.0
 10
114.3930715935334
 20
121.8849749979001
 30
0.0
 10
114.3930715935334
 20
121.8849749979001
 30
0.0
  0
SPLINE
  5
1B0
330
1F
100
AcDbEntity
  8
0
  6
Continuous
 62
     7
370
    25
100
AcDbSpline
210
0.0
220
0.0
230
1.0
 70
     8
 71
     3
 72
    14
 73
    10
 74
     0
 42
0.00000001
 43
0.00000001
 40
0.0
 40
0.0
 40
0.0
 40
0.0
 40
0.25
 40
0.25
 40
0.5
 40
0.5
 40
0.75
 40
0.75
 40
1.0
 40
1.0
 40
1.0
 40
1.0
 10
114.1639855264314
 20
121.6474361776499
 30
0.0
 10
114.1364645386863
 20
121.6357293821044
 30
0.0
 10
114.1165446168499
 20
121.6036874290228
 30
0.0
 10
114.1008775750318
 20
121.5043636783578
 30
0.0
 10
114.1053694068441
 20
121.4365402355771
 30
0.0
 10
114.1366257521277
 20
121.2740986181642
 30
0.0
 10
114.1629983355095
 20
121.1796532214285
 30
0.0
 10
114.2258348866538
 20
120.971424113832
 30
0.0
 10
114.2618744655139
 20
120.8588257209488
 30
0.0
 10
114.2958704688795
 20
120.7390693273487
 30
0.0
  0
SPLINE
  5
1B1
330
1F
100
AcDbEntity
  8
0
  6
Continuous
 62
     7
370
    25
100
AcDbSpline
210
0.0
220
0.0
230
1.0
 70
     8
 71
     3
 72
     8
 73
     4
 74
     0
 42
0.00000001
 43
0.00000001
 40
0.0
 40
0.0
 40
0.0
 40
0.0
 40
1.0
 40
1.0
 40
1.0
 40
1.0
 10
114.3930715935334
 20
120.0088784222876
 30
0.0
 10
114.3930715935334
 20
120.2563078790826
 30
0.0
 10
114.3637068864556
 20
120.50010462799
 30
0.0
 10
114.2958704688795
 20
120.7390693273487
 30
0.0
  0
LINE
  5
1B2
330
1F
100
AcDbEntity
  8
0
  6
Continuous
 62
     7
370
    25
100
AcDbLine
 10
114.3930715935
 20
120.0088784223
 30
0.0
 11
114.3930715935
 21
118.0633234645
 31
0.0
  0
LINE
  5
1B3
330
1F
100
AcDbEntity
  8
0
  6
Continuous
 62
     7
370
    25
100
AcDbLine
 10
114.3930715935
 20
107.7066265313
 30
0.0
 11
114.3930715935
 21
105.7610715735
 31
0.0
  0
SPLINE
  5
1B4
330
1F
100
AcDbEntity
  8
0
  6
Continuous
 62
     7
370
    25
100
AcDbSpline
210
0.0
220
0.0
230
1.0
 70
     8
 71
     3
 72
     8
 73
     4
 74
     0
 42
0.00000001
 43
0.00000001
 40
0.0
 40
0.0
 40
0.0
 40
0.0
 40
1.0
 40
1.0
 40
1.0
 40
1.0
 10
114.2958704688795
 20
105.0308806684515
 30
0.0
 10
114.3637068864556
 20
105.2698453678103
 30
0.0
 10
114.3930715935334
 20
105.5136421167176
 30
0.0
 10
114.3930715935334
 20
105.7610715735126
 30
0.0
  0
SPLINE
  5
1B5
330
1F
100
AcDbEntity
  8
0
  6
Continuous
 62
     7
370
    25
100
AcDbSpline
210
0.0
220
0.0
230
1.0
 70
     8
 71
     3
 72
    12
 73
     8
 74
     0
 42
0.00000001
 43
0.00000001
 40
0.0
 40
0.0
 40
0.0
 40
0.0
 40
0.4999999999999992
 40
0.4999999999999992
 40
0.7499999999999996
 40
0.7499999999999996
 40
1.0
 40
1.0
 40
1.0
 40
1.0
 10
114.2958704688795
 20
105.0308806684515
 30
0.0
 10
114.2280007088697
 20
104.7917985150034
 30
0.0
 10
114.151966157616
 20
104.5760284078266
 30
0.0
 10
114.1053215592389
 20
104.3329338151227
 30
0.0
 10
114.1008825627163
 20
104.2652685396466
 30
0.0
 10
114.1166131765091
 20
104.16611542349
 30
0.0
 10
114.1364936064515
 20
104.1342082489368
 30
0.0
 10
114.1639855264314
 20
104.1225138181503
 30
0.0
  0
SPLINE
  5
1B6
330
1F
100
AcDbEntity
  8
0
  6
Continuous
 62
     7
370
    25
100
AcDbSpline
210
0.0
220
0.0
230
1.0
 70
     8
 71
     3
 72
    12
 73
     8
 74
     0
 42
0.00000001
 43
0.00000001
 40
0.0
 40
0.0
 40
0.0
 40
0.0
 40
0.4999999999999998
 40
0.4999999999999998
 40
0.7499999999999999
 40
0.7499999999999999
 40
1.0
 40
1.0
 40
1.0
 40
1.0
 10
114.3930715935334
 20
103.8849749979001
 30
0.0
 10
114.3930715935334
 20
103.8849749979001
 30
0.0
 10
114.3976289885326
 20
103.9080574643747
 30
0.0
 10
114.3704453241534
 20
103.9711567171145
 30
0.0
 10
114.3549956532362
 20
103.9968110807431
 30
0.0
 10
114.2921320517043
 20
104.0551636089898
 30
0.0
 10
114.245102128536
 20
104.0880086802902
 30
0.0
 10
114.1639855264314
 20
104.1225138181503
 30
0.0
  0
LINE
  5
1B7
330
1F
100
AcDbEntity
  8
0
  6
Continuous
 62
     7
370
    25
100
AcDbLine
 10
129.7750376048
 20
102.8849749979
 30
0.0
 11
129.7750376048
 21
122.8849749979
 31
0.0
  0
SPLINE
  5
1B8
330
1F
100
AcDbEntity
  8
0
  6
Continuous
 62
     7
370
    25
100
AcDbSpline
210
0.0
220
0.0
230
1.0
 70
     8
 71
     3
 72
    12
 73
     8
 74
     0
 42
0.00000001
 43
0.00000001
 40
0.0
 40
0.0
 40
0.0
 40
0.0
 40
0.25
 40
0.25
 40
0.5
 40
0.5
 40
1.0
 40
1.0
 40
1.0
 40
1.0
 10
129.6221576606355
 20
104.1225138181503
 30
0.0
 10
129.5410410585308
 20
104.0880086802902
 30
0.0
 10
129.4940111353625
 20
104.0551636089898
 30
0.0
 10
129.4311475338307
 20
103.9968110807431
 30
0.0
 10
129.4156978629134
 20
103.9711567171145
 30
0.0
 10
129.3885141985342
 20
103.9080574643747
 30
0.0
 10
129.3930715935334
 20
103.8849749979001
 30
0.0
 10
129.3930715935334
 20
103.8849749979001
 30
0.0
  0
SPLINE
  5
1B9
330
1F
100
AcDbEntity
  8
0
  6
Continuous
 62
     7
370
    25
100
AcDbSpline
210
0.0
220
0.0
230
1.0
 70
     8
 71
     3
 72
    14
 73
    10
 74
     0
 42
0.00000001
 43
0.00000001
 40
0.0
 40
0.0
 40
0.0
 40
0.0
 40
0.25
 40
0.25
 40
0.5
 40
0.5
 40
0.75
 40
0.75
 40
1.0
 40
1.0
 40
1.0
 40
1.0
 10
129.6221576606355
 20
104.1225138181503
 30
0.0
 10
129.6496786483805
 20
104.1342206136959
 30
0.0
 10
129.6695985702169
 20
104.1662625667774
 30
0.0
 10
129.685265612035
 20
104.2655863174425
 30
0.0
 10
129.6807737802227
 20
104.3334097602232
 30
0.0
 10
129.6495174349391
 20
104.495851377636
 30
0.0
 10
129.6231448515573
 20
104.5902967743718
 30
0.0
 10
129.560308300413
 20
104.7985258819683
 30
0.0
 10
129.5242687215529
 20
104.9111242748515
 30
0.0
 10
129.4902727181873
 20
105.0308806684515
 30
0.0
  0
SPLINE
  5
1BA
330
1F
100
AcDbEntity
  8
0
  6
Continuous
 62
     7
370
    25
100
AcDbSpline
210
0.0
220
0.0
230
1.0
 70
     8
 71
     3
 72
     8
 73
     4
 74
     0
 42
0.00000001
 43
0.00000001
 40
0.0
 40
0.0
 40
0.0
 40
0.0
 40
1.0
 40
1.0
 40
1.0
 40
1.0
 10
129.3930715935334
 20
105.7610715735126
 30
0.0
 10
129.3930715935334
 20
105.5136421167176
 30
0.0
 10
129.4224363006113
 20
105.2698453678103
 30
0.0
 10
129.4902727181873
 20
105.0308806684515
 30
0.0
  0
LINE
  5
1BB
330
1F
100
AcDbEntity
  8
0
  6
Continuous
 62
     7
370
    25
100
AcDbLine
 10
129.3930715935
 20
105.7610715735
 30
0.0
 11
129.3930715935
 21
120.0088784223
 31
0.0
  0
SPLINE
  5
1BC
330
1F
100
AcDbEntity
  8
0
  6
Continuous
 62
     7
370
    25
100
AcDbSpline
210
0.0
220
0.0
230
1.0
 70
     8
 71
     3
 72
     8
 73
     4
 74
     0
 42
0.00000001
 43
0.00000001
 40
0.0
 40
0.0
 40
0.0
 40
0.0
 40
1.0
 40
1.0
 40
1.0
 40
1.0
 10
129.4902727181873
 20
120.7390693273487
 30
0.0
 10
129.4224363006113
 20
120.50010462799
 30
0.0
 10
129.3930715935334
 20
120.2563078790826
 30
0.0
 10
129.3930715935334
 20
120.0088784222876
 30
0.0
  0
SPLINE
  5
1BD
330
1F
100
AcDbEntity
  8
0
  6
Continuous
 62
     7
370
    25
100
AcDbSpline
210
0.0
220
0.0
230
1.0
 70
     8
 71
     3
 72
    12
 73
     8
 74
     0
 42
0.00000001
 43
0.00000001
 40
0.0
 40
0.0
 40
0.0
 40
0.0
 40
0.4999999999999992
 40
0.4999999999999992
 40
0.7499999999999996
 40
0.7499999999999996
 40
1.0
 40
1.0
 40
1.0
 40
1.0
 10
129.4902727181873
 20
120.7390693273487
 30
0.0
 10
129.5581424781971
 20
120.9781514807968
 30
0.0
 10
129.6341770294509
 20
121.1939215879736
 30
0.0
 10
129.6808216278279
 20
121.4370161806775
 30
0.0
 10
129.6852606243505
 20
121.5046814561537
 30
0.0
 10
129.6695300105577
 20
121.6038345723103
 30
0.0
 10
129.6496495806153
 20
121.6357417468635
 30
0.0
 10
129.6221576606355
 20
121.6474361776499
 30
0.0
  0
SPLINE
  5
1BE
330
1F
100
AcDbEntity
  8
0
  6
Continuous
 62
     7
370
    25
100
AcDbSpline
210
0.0
220
0.0
230
1.0
 70
     8
 71
     3
 72
    12
 73
     8
 74
     0
 42
0.00000001
 43
0.00000001
 40
0.0
 40
0.0
 40
0.0
 40
0.0
 40
0.5000000000000002
 40
0.5000000000000002
 40
0.7500000000000001
 40
0.7500000000000001
 40
1.0
 40
1.0
 40
1.0
 40
1.0
 10
129.3930715935334
 20
121.8849749979001
 30
0.0
 10
129.3930715935334
 20
121.8849749979001
 30
0.0
 10
129.3885141985342
 20
121.8618925314255
 30
0.0
 10
129.4156978629134
 20
121.7987932786858
 30
0.0
 10
129.4311475338307
 20
121.7731389150571
 30
0.0
 10
129.4940111353625
 20
121.7147863868105
 30
0.0
 10
129.5410410585308
 20
121.68194131551
 30
0.0
 10
129.6221576606355
 20
121.6474361776499
 30
0.0
  0
LINE
  5
1BF
330
1F
100
AcDbEntity
  8
0
  6
Continuous
 62
     7
370
    25
100
AcDbLine
 10
131.3930715935
 20
102.8849749979
 30
0.0
 11
131.3930715935
 21
122.8849749979
 31
0.0
  0
LINE
  5
1C0
330
1F
100
AcDbEntity
  8
0
  6
Continuous
 62
     7
370
    25
100
AcDbLine
 10
112.1430715935
 20
122.8849749979
 30
0.0
 11
112.1430715935
 21
117.5836543313
 31
0.0
  0
LINE
  5
1C1
330
1F
100
AcDbEntity
  8
0
  6
Continuous
 62
     7
370
    25
100
AcDbLine
 10
112.1430715935
 20
108.1862956645
 30
0.0
 11
112.1430715935
 21
102.8849749979
 31
0.0
  0
LINE
  5
1C2
330
1F
100
AcDbEntity
  8
0
  6
Continuous
 62
     7
370
    25
100
AcDbLine
 10
111.8930715935
 20
103.1349749979
 30
0.0
 11
111.8930715935
 21
108.234475679
 31
0.0
  0
LINE
  5
1C3
330
1F
100
AcDbEntity
  8
0
  6
Continuous
 62
     7
370
    25
100
AcDbLine
 10
111.8930715935
 20
117.5354743168
 30
0.0
 11
111.8930715935
 21
122.6349749979
 31
0.0
  0
LINE
  5
1C4
330
1F
100
AcDbEntity
  8
0
  6
Continuous
 62
     7
370
    25
100
AcDbLine
 10
131.8930715935
 20
122.3849749979
 30
0.0
 11
131.8930715935
 21
103.3849749979
 31
0.0
  0
ARC
  5
1C5
330
1F
100
AcDbEntity
  8
0
  6
Continuous
 62
     7
370
    25
100
AcDbCircle
 10
114.8463894948
 20
120.0678543606
 30
0.0
 40
0.4571381420089404
100
AcDbArc
 50
187.4124568466
 51
275.861155744
  0
ARC
  5
1C6
330
1F
100
AcDbEntity
  8
0
  6
Continuous
 62
     7
370
    25
100
AcDbCircle
 10
114.8463894948
 20
105.7020956352
 30
0.0
 40
0.4571381420089122
100
AcDbArc
 50
84.138844256
 51
172.5875431534
  0
ARC
  5
1C7
330
1F
100
AcDbEntity
  8
0
  6
Continuous
 62
     7
370
    25
100
AcDbCircle
 10
128.9397536923
 20
120.0678543606
 30
0.0
 40
0.4571381420089547
100
AcDbArc
 50
264.138844256
 51
352.5875431534
  0
ARC
  5
1C8
330
1F
100
AcDbEntity
  8
0
  6
Continuous
 62
     7
370
    25
100
AcDbCircle
 10
128.9397536923
 20
105.7020956352
 30
0.0
 40
0.4571381420089404
100
AcDbArc
 50
7.4124568466
 51
95.861155744
  0
LINE
  5
1C9
330
1F
100
AcDbEntity
  8
0
  6
Continuous
 62
     7
370
    25
100
AcDbLine
 10
139.6875471359
 20
119.4083351372
 30
0.0
 11
139.6875471359
 21
106.3616148586
 31
0.0
  0
LINE
  5
1CA
330
1F
100
AcDbEntity
  8
0
  6
Continuous
 62
     7
370
    25
100
AcDbLine
 10
141.8930715935
 20
118.1349749979
 30
0.0
 11
141.8930715935
 21
107.6349749979
 31
0.0
  0
LINE
  5
1CB
330
1F
100
AcDbEntity
  8
0
  6
Continuous
 62
     7
370
    25
100
AcDbLine
 10
114.2958704689
 20
120.7390693273
 30
0.0
 11
114.763470094
 21
120.8849749979
 31
0.0
  0
SPLINE
  5
1CC
330
1F
100
AcDbEntity
  8
0
  6
Continuous
 62
     7
370
    25
100
AcDbSpline
210
0.0
220
0.0
230
1.0
 70
     8
 71
     3
 72
     8
 73
     4
 74
     0
 42
0.00000001
 43
0.00000001
 40
0.0
 40
0.0
 40
0.0
 40
0.0
 40
1.0
 40
1.0
 40
1.0
 40
1.0
 10
114.7634700939948
 20
120.8849749979001
 30
0.0
 10
114.8524787893833
 20
120.5997192402703
 30
0.0
 10
114.8930715935334
 20
120.3073012903884
 30
0.0
 10
114.8930715935334
 20
120.0088784222876
 30
0.0
  0
LINE
  5
1CD
330
1F
100
AcDbEntity
  8
0
  6
Continuous
 62
     7
370
    25
100
AcDbLine
 10
114.3930715935
 20
120.0088784223
 30
0.0
 11
114.8930715935
 21
120.0088784223
 31
0.0
  0
SPLINE
  5
1CE
330
1F
100
AcDbEntity
  8
0
  6
Continuous
 62
     7
370
    25
100
AcDbSpline
210
0.0
220
0.0
230
1.0
 70
     8
 71
     3
 72
     8
 73
     4
 74
     0
 42
0.00000001
 43
0.00000001
 40
0.0
 40
0.0
 40
0.0
 40
0.0
 40
1.0
 40
1.0
 40
1.0
 40
1.0
 10
128.8930715935334
 20
120.0088784222876
 30
0.0
 10
128.8930715935334
 20
120.3073012903884
 30
0.0
 10
128.9336643976835
 20
120.5997192402703
 30
0.0
 10
129.022673093072
 20
120.8849749979001
 30
0.0
  0
LINE
  5
1CF
330
1F
100
AcDbEntity
  8
0
  6
Continuous
 62
     7
370
    25
100
AcDbLine
 10
129.0226730931
 20
120.8849749979
 30
0.0
 11
129.4902727182
 21
120.7390693273
 31
0.0
  0
LINE
  5
1D0
330
1F
100
AcDbEntity
  8
0
  6
Continuous
 62
     7
370
    25
100
AcDbLine
 10
128.8930715935
 20
120.0088784223
 30
0.0
 11
129.3930715935
 21
120.0088784223
 31
0.0
  0
SPLINE
  5
1D1
330
1F
100
AcDbEntity
  8
0
  6
Continuous
 62
     7
370
    25
100
AcDbSpline
210
0.0
220
0.0
230
1.0
 70
     8
 71
     3
 72
     8
 73
     4
 74
     0
 42
0.00000001
 43
0.00000001
 40
0.0
 40
0.0
 40
0.0
 40
0.0
 40
1.0
 40
1.0
 40
1.0
 40
1.0
 10
114.8930715935334
 20
105.7610715735126
 30
0.0
 10
114.8930715935334
 20
105.4626487054119
 30
0.0
 10
114.8524787893833
 20
105.1702307555299
 30
0.0
 10
114.7634700939948
 20
104.8849749979001
 30
0.0
  0
LINE
  5
1D2
330
1F
100
AcDbEntity
  8
0
  6
Continuous
 62
     7
370
    25
100
AcDbLine
 10
114.763470094
 20
104.8849749979
 30
0.0
 11
114.2958704689
 21
105.0308806685
 31
0.0
  0
LINE
  5
1D3
330
1F
100
AcDbEntity
  8
0
  6
Continuous
 62
     7
370
    25
100
AcDbLine
 10
114.3930715935
 20
105.7610715735
 30
0.0
 11
114.8930715935
 21
105.7610715735
 31
0.0
  0
LINE
  5
1D4
330
1F
100
AcDbEntity
  8
0
  6
Continuous
 62
     7
370
    25
100
AcDbLine
 10
129.4902727182
 20
105.0308806685
 30
0.0
 11
129.0226730931
 21
104.8849749979
 31
0.0
  0
SPLINE
  5
1D5
330
1F
100
AcDbEntity
  8
0
  6
Continuous
 62
     7
370
    25
100
AcDbSpline
210
0.0
220
0.0
230
1.0
 70
     8
 71
     3
 72
     8
 73
     4
 74
     0
 42
0.00000001
 43
0.00000001
 40
0.0
 40
0.0
 40
0.0
 40
0.0
 40
1.0
 40
1.0
 40
1.0
 40
1.0
 10
129.022673093072
 20
104.8849749979001
 30
0.0
 10
128.9336643976835
 20
105.1702307555299
 30
0.0
 10
128.8930715935334
 20
105.4626487054119
 30
0.0
 10
128.8930715935334
 20
105.7610715735126
 30
0.0
  0
LINE
  5
1D6
330
1F
100
AcDbEntity
  8
0
  6
Continuous
 62
     7
370
    25
100
AcDbLine
 10
129.3930715935
 20
105.7610715735
 30
0.0
 11
128.8930715935
 21
105.7610715735
 31
0.0
  0
LINE
  5
1D7
330
1F
100
AcDbEntity
  8
0
  6
Continuous
 62
     7
370
    25
100
AcDbLine
 10
114.8930715935
 20
119.6131060098
 30
0.0
 11
114.8930715935
 21
120.0088784223
 31
0.0
  0
LINE
  5
1D8
330
1F
100
AcDbEntity
  8
0
  6
Continuous
 62
     7
370
    25
100
AcDbLine
 10
128.8930715935
 20
119.6131060098
 30
0.0
 11
128.8930715935
 21
120.0088784223
 31
0.0
  0
LINE
  5
1D9
330
1F
100
AcDbEntity
  8
0
  6
Continuous
 62
     7
370
    25
100
AcDbLine
 10
114.8930715935
 20
105.7610715735
 30
0.0
 11
114.8930715935
 21
106.156843986
 31
0.0
  0
LINE
  5
1DA
330
1F
100
AcDbEntity
  8
0
  6
Continuous
 62
     7
370
    25
100
AcDbLine
 10
128.8930715935
 20
105.7610715735
 30
0.0
 11
128.8930715935
 21
106.156843986
 31
0.0
  0
ARC
  5
1DB
330
1F
100
AcDbEntity
  8
0
  6
Continuous
 62
     7
370
    25
100
AcDbCircle
 10
114.591453317
 20
121.8642838154
 30
0.0
 40
0.4793241179194988
100
AcDbArc
 50
206.8979585986
 51
269.5422002632
  0
SPLINE
  5
1DC
330
1F
100
AcDbEntity
  8
0
  6
Continuous
 62
     7
370
    25
100
AcDbSpline
210
0.0
220
0.0
230
1.0
 70
     8
 71
     3
 72
    14
 73
    10
 74
     0
 42
0.00000001
 43
0.00000001
 40
0.0
 40
0.0
 40
0.0
 40
0.0
 40
0.25
 40
0.25
 40
0.5
 40
0.5
 40
0.75
 40
0.75
 40
1.0
 40
1.0
 40
1.0
 40
1.0
 10
114.7634700939948
 20
120.8849749979001
 30
0.0
 10
114.7249946103733
 20
120.9466282621276
 30
0.0
 10
114.6839056889032
 20
121.0048122074005
 30
0.0
 10
114.6046228414627
 20
121.1184775288675
 30
0.0
 10
114.5673399403522
 20
121.1721541275672
 30
0.0
 10
114.5145341810404
 20
121.2721441600139
 30
0.0
 10
114.5025649209468
 20
121.3165486602368
 30
0.0
 10
114.522566709319
 20
121.3726085157306
 30
0.0
 10
114.5520231648713
 20
121.3849749979001
 30
0.0
 10
114.587623504064
 20
121.3849749979001
 30
0.0
  0
ARC
  5
1DD
330
1F
100
AcDbEntity
  8
0
  6
Continuous
 62
     7
370
    25
100
AcDbCircle
 10
129.19468987
 20
103.9056661804
 30
0.0
 40
0.4793241179195418
100
AcDbArc
 50
26.8979585986
 51
89.5422002632
  0
SPLINE
  5
1DE
330
1F
100
AcDbEntity
  8
0
  6
Continuous
 62
     7
370
    25
100
AcDbSpline
210
0.0
220
0.0
230
1.0
 70
     8
 71
     3
 72
    14
 73
    10
 74
     0
 42
0.00000001
 43
0.00000001
 40
0.0
 40
0.0
 40
0.0
 40
0.0
 40
0.25
 40
0.25
 40
0.5
 40
0.5
 40
0.75
 40
0.75
 40
1.0
 40
1.0
 40
1.0
 40
1.0
 10
129.022673093072
 20
104.8849749979001
 30
0.0
 10
129.0611485766936
 20
104.8233217336726
 30
0.0
 10
129.1022374981636
 20
104.7651377883997
 30
0.0
 10
129.1815203456042
 20
104.6514724669328
 30
0.0
 10
129.2188032467146
 20
104.597795868233
 30
0.0
 10
129.2716090060264
 20
104.4978058357864
 30
0.0
 10
129.28357826612
 20
104.4534013355634
 30
0.0
 10
129.2635764777478
 20
104.3973414800696
 30
0.0
 10
129.2341200221956
 20
104.3849749979001
 30
0.0
 10
129.1985196830028
 20
104.3849749979001
 30
0.0
  0
SPLINE
  5
1DF
330
1F
100
AcDbEntity
  8
0
  6
Continuous
 62
     7
370
    25
100
AcDbSpline
210
0.0
220
0.0
230
1.0
 70
     8
 71
     3
 72
    16
 73
    12
 74
     0
 42
0.00000001
 43
0.00000001
 40
0.0
 40
0.0
 40
0.0
 40
0.0
 40
0.2500000000000011
 40
0.2500000000000011
 40
0.3749999999999992
 40
0.3749999999999992
 40
0.4999999999999974
 40
0.4999999999999974
 40
0.7499999999999987
 40
0.7499999999999987
 40
1.0
 40
1.0
 40
1.0
 40
1.0
 10
129.1985196830028
 20
121.3849749979001
 30
0.0
 10
129.2340736124515
 20
121.3849749979001
 30
0.0
 10
129.2633457536801
 20
121.3728432474843
 30
0.0
 10
129.278558303901
 20
121.3308215412049
 30
0.0
 10
129.2786189720746
 20
121.3126071716984
 30
0.0
 10
129.2684083875972
 20
121.2706701591718
 30
0.0
 10
129.258625058072
 20
121.2476425956775
 30
0.0
 10
129.2194605095401
 20
121.1732339169055
 30
0.0
 10
129.1815874362668
 20
121.118576040723
 30
0.0
 10
129.1025144632752
 20
121.0052069675443
 30
0.0
 10
129.0611273306844
 20
120.9465942174401
 30
0.0
 10
129.022673093072
 20
120.8849749979001
 30
0.0
  0
ARC
  5
1E0
330
1F
100
AcDbEntity
  8
0
  6
Continuous
 62
     7
370
    25
100
AcDbCircle
 10
129.19468987
 20
121.8642838154
 30
0.0
 40
0.4793241179194989
100
AcDbArc
 50
270.4577997368
 51
333.1020414014
  0
SPLINE
  5
1E1
330
1F
100
AcDbEntity
  8
0
  6
Continuous
 62
     7
370
    25
100
AcDbSpline
210
0.0
220
0.0
230
1.0
 70
     8
 71
     3
 72
    16
 73
    12
 74
     0
 42
0.00000001
 43
0.00000001
 40
0.0
 40
0.0
 40
0.0
 40
0.0
 40
0.2500000000000049
 40
0.2500000000000049
 40
0.3750000000000051
 40
0.3750000000000051
 40
0.5000000000000052
 40
0.5000000000000052
 40
0.7500000000000026
 40
0.7500000000000026
 40
1.0
 40
1.0
 40
1.0
 40
1.0
 10
114.587623504064
 20
104.3849749979001
 30
0.0
 10
114.5520695746154
 20
104.3849749979001
 30
0.0
 10
114.5227974333867
 20
104.3971067483159
 30
0.0
 10
114.5075848831658
 20
104.4391284545953
 30
0.0
 10
114.5075242149923
 20
104.4573428241019
 30
0.0
 10
114.5177347994696
 20
104.4992798366285
 30
0.0
 10
114.5275181289948
 20
104.5223074001227
 30
0.0
 10
114.5666826775268
 20
104.5967160788948
 30
0.0
 10
114.6045557508
 20
104.6513739550773
 30
0.0
 10
114.6836287237916
 20
104.764743028256
 30
0.0
 10
114.7250158563824
 20
104.8233557783602
 30
0.0
 10
114.7634700939948
 20
104.8849749979001
 30
0.0
  0
ARC
  5
1E2
330
1F
100
AcDbEntity
  8
0
  6
Continuous
 62
     7
370
    25
100
AcDbCircle
 10
114.591453317
 20
103.9056661804
 30
0.0
 40
0.4793241179194989
100
AcDbArc
 50
90.4577997368
 51
153.1020414014
  0
LINE
  5
1E3
330
1F
100
AcDbEntity
  8
0
  6
Continuous
 62
     7
370
    25
100
AcDbLine
 10
129.0226730931
 20
120.8849749979
 30
0.0
 11
114.763470094
 21
120.8849749979
 31
0.0
  0
LINE
  5
1E4
330
1F
100
AcDbEntity
  8
0
  6
Continuous
 62
     7
370
    25
100
AcDbLine
 10
114.5876235041
 20
121.3849749979
 30
0.0
 11
129.198519683
 21
121.3849749979
 31
0.0
  0
LINE
  5
1E5
330
1F
100
AcDbEntity
  8
0
  6
Continuous
 62
     7
370
    25
100
AcDbLine
 10
114.763470094
 20
104.8849749979
 30
0.0
 11
129.0226730931
 21
104.8849749979
 31
0.0
  0
LINE
  5
1E6
330
1F
100
AcDbEntity
  8
0
  6
Continuous
 62
     7
370
    25
100
AcDbLine
 10
129.198519683
 20
104.3849749979
 30
0.0
 11
114.5876235041
 21
104.3849749979
 31
0.0
  0
ARC
  5
1E7
330
1F
100
AcDbEntity
  8
0
  6
Continuous
 62
     7
370
    25
100
AcDbCircle
 10
114.8930715935
 20
121.8849749979
 30
0.0
 40
0.5
100
AcDbArc
 50
180.0
 51
270.0
  0
ARC
  5
1E8
330
1F
100
AcDbEntity
  8
0
  6
Continuous
 62
     7
370
    25
100
AcDbCircle
 10
128.8930715935
 20
121.8849749979
 30
0.0
 40
0.5
100
AcDbArc
 50
270.0
 51
0.0
  0
ARC
  5
1E9
330
1F
100
AcDbEntity
  8
0
  6
Continuous
 62
     7
370
    25
100
AcDbCircle
 10
128.8930715935
 20
103.8849749979
 30
0.0
 40
0.5
100
AcDbArc
 50
0.0
 51
90.0
  0
ARC
  5
1EA
330
1F
100
AcDbEntity
  8
0
  6
Continuous
 62
     7
370
    25
100
AcDbCircle
 10
114.8930715935
 20
103.8849749979
 30
0.0
 40
0.5
100
AcDbArc
 50
90.0
 51
180.0
  0
SPLINE
  5
1EB
330
1F
100
AcDbEntity
  8
0
  6
Continuous
 62
     7
370
    25
100
AcDbSpline
210
0.0
220
0.0
230
1.0
 70
     8
 71
     3
 72
    15
 73
    11
 74
     0
 42
0.00000001
 43
0.00000001
 40
0.0
 40
0.0
 40
0.0
 40
0.0
 40
0.0090459071881971
 40
0.1032433785236817
 40
0.154256449773519
 40
0.3133169026715102
 40
0.5243720399414401
 40
0.667806000850918
 40
0.9918332554187028
 40
1.0
 40
1.0
 40
1.0
 40
1.0
 10
116.6539862608753
 20
114.5588880413784
 30
0.0
 10
116.653991952842
 20
114.5588703956539
 30
0.0
 10
116.6540569167928
 20
114.5586690002414
 30
0.0
 10
116.6560526032287
 20
114.5524793795752
 30
0.0
 10
116.6638695994451
 20
114.528277447731
 30
0.0
 10
116.6810394232001
 20
114.4752584557294
 30
0.0
 10
116.7076233197676
 20
114.3938875685328
 30
0.0
 10
116.7454526182563
 20
114.2793084965103
 30
0.0
 10
116.7737333982665
 20
114.1948833187912
 30
0.0
 10
116.7935645457978
 20
114.1364124608392
 30
0.0
 10
116.7940520799406
 20
114.1349749979001
 30
0.0
  0
ARC
  5
1EC
330
1F
100
AcDbEntity
  8
0
  6
Continuous
 62
     7
370
    25
100
AcDbCircle
 10
121.8930715935
 20
112.8849749979
 30
0.0
 40
5.500000000000011
100
AcDbArc
 50
17.7189318734
 51
162.2810681266
  0
SPLINE
  5
1ED
330
1F
100
AcDbEntity
  8
0
  6
Continuous
 62
     7
370
    25
100
AcDbSpline
210
0.0
220
0.0
230
1.0
 70
     8
 71
     3
 72
    15
 73
    11
 74
     0
 42
0.00000001
 43
0.00000001
 40
0.0
 40
0.0
 40
0.0
 40
0.0
 40
0.0081667445812973
 40
0.3321939991490802
 40
0.4756279600585562
 40
0.6866830973284892
 40
0.8457435502264752
 40
0.8967566214763124
 40
0.9909540928118028
 40
1.0
 40
1.0
 40
1.0
 40
1.0
 10
126.9920911071262
 20
114.1349749979001
 30
0.0
 10
126.9925786412691
 20
114.1364124608392
 30
0.0
 10
127.0124097888003
 20
114.1948833187912
 30
0.0
 10
127.0406905688106
 20
114.2793084965103
 30
0.0
 10
127.0785198672992
 20
114.3938875685328
 30
0.0
 10
127.1051037638668
 20
114.4752584557294
 30
0.0
 10
127.1222735876217
 20
114.528277447731
 30
0.0
 10
127.1300905838382
 20
114.5524793795752
 30
0.0
 10
127.1320862702741
 20
114.5586690002414
 30
0.0
 10
127.1321512342249
 20
114.5588703956539
 30
0.0
 10
127.1321569261915
 20
114.5588880413784
 30
0.0
  0
ARC
  5
1EE
330
1F
100
AcDbEntity
  8
0
  6
Continuous
 62
     7
370
    25
100
AcDbCircle
 10
121.8930715935
 20
112.8849749979
 30
0.0
 40
5.250000000000012
100
AcDbArc
 50
13.774146998
 51
166.225853002
  0
SPLINE
  5
1EF
330
1F
100
AcDbEntity
  8
0
  6
Continuous
 62
     7
370
    25
100
AcDbSpline
210
0.0
220
0.0
230
1.0
 70
     8
 71
     3
 72
    15
 73
    11
 74
     0
 42
0.00000001
 43
0.00000001
 40
0.0
 40
0.0
 40
0.0
 40
0.0
 40
0.0089557228015919
 40
0.0999003359608209
 40
0.1531632460581751
 40
0.3125636920784905
 40
0.5249666935695062
 40
0.6689893599351778
 40
0.991915253381045
 40
1.0
 40
1.0
 40
1.0
 40
1.0
 10
127.3702971685851
 20
114.3849749979001
 30
0.0
 10
127.3702814130065
 20
114.384964213537
 30
0.0
 10
127.3701056608499
 20
114.3848439148715
 30
0.0
 10
127.3646766448304
 20
114.3811254639534
 30
0.0
 10
127.3431411611231
 20
114.3664144228871
 30
0.0
 10
127.2954357328583
 20
114.3339655614285
 30
0.0
 10
127.2230447878663
 20
114.2853815210851
 30
0.0
 10
127.1211256758487
 20
114.2180110488168
 30
0.0
 10
127.0457705843936
 20
114.1691974840829
 30
0.0
 10
126.9933709386703
 20
114.1357909338884
 30
0.0
 10
126.9920911071262
 20
114.1349749979001
 30
0.0
  0
ARC
  5
1F0
330
1F
100
AcDbEntity
  8
0
  6
Continuous
 62
     7
370
    25
100
AcDbCircle
 10
127.3702971686
 20
114.6349749979
 30
0.0
 40
0.25
100
AcDbArc
 50
197.7189318734
 51
270.0
  0
SPLINE
  5
1F1
330
1F
100
AcDbEntity
  8
0
  6
Continuous
 62
     7
370
    25
100
AcDbSpline
210
0.0
220
0.0
230
1.0
 70
     8
 71
     3
 72
    15
 73
    11
 74
     0
 42
0.00000001
 43
0.00000001
 40
0.0
 40
0.0
 40
0.0
 40
0.0
 40
0.0080847466189582
 40
0.3310106400648242
 40
0.4750333064304946
 40
0.687436307921514
 40
0.8468367539418302
 40
0.9000996640391846
 40
0.991044277198408
 40
1.0
 40
1.0
 40
1.0
 40
1.0
 10
116.7940520799406
 20
114.1349749979001
 30
0.0
 10
116.7927722483965
 20
114.1357909338884
 30
0.0
 10
116.7403726026733
 20
114.169197484083
 30
0.0
 10
116.6650175112182
 20
114.2180110488167
 30
0.0
 10
116.5630983992005
 20
114.2853815210851
 30
0.0
 10
116.4907074542086
 20
114.3339655614285
 30
0.0
 10
116.4430020259438
 20
114.3664144228871
 30
0.0
 10
116.4214665422364
 20
114.3811254639534
 30
0.0
 10
116.4160375262169
 20
114.3848439148715
 30
0.0
 10
116.4158617740604
 20
114.384964213537
 30
0.0
 10
116.4158460184818
 20
114.3849749979001
 30
0.0
  0
ARC
  5
1F2
330
1F
100
AcDbEntity
  8
0
  6
Continuous
 62
     7
370
    25
100
AcDbCircle
 10
116.4158460185
 20
114.6349749979
 30
0.0
 40
0.2500000000000077
100
AcDbArc
 50
270.0
 51
342.2810681266
  0
ARC
  5
1F3
330
1F
100
AcDbEntity
  8
0
  6
Continuous
 62
     7
370
    25
100
AcDbCircle
 10
127.3702971686
 20
111.1349749979
 30
0.0
 40
0.25
100
AcDbArc
 50
90.0
 51
162.2810681266
  0
SPLINE
  5
1F4
330
1F
100
AcDbEntity
  8
0
  6
Continuous
 62
     7
370
    25
100
AcDbSpline
210
0.0
220
0.0
230
1.0
 70
     8
 71
     3
 72
    15
 73
    11
 74
     0
 42
0.00000001
 43
0.00000001
 40
0.0
 40
0.0
 40
0.0
 40
0.0
 40
0.0090459071881971
 40
0.1032433785236873
 40
0.1542564497735245
 40
0.3133169026715109
 40
0.5243720399414425
 40
0.6678060008509904
 40
0.9918332554187292
 40
1.0
 40
1.0
 40
1.0
 40
1.0
 10
127.1321569261915
 20
111.2110619544219
 30
0.0
 10
127.1321512342249
 20
111.2110796001463
 30
0.0
 10
127.1320862702741
 20
111.2112809955589
 30
0.0
 10
127.1300905838382
 20
111.2174706162251
 30
0.0
 10
127.1222735876217
 20
111.2416725480692
 30
0.0
 10
127.1051037638668
 20
111.2946915400709
 30
0.0
 10
127.0785198672993
 20
111.3760624272675
 30
0.0
 10
127.0406905688104
 20
111.4906414992899
 30
0.0
 10
127.0124097888012
 20
111.5750666770094
 30
0.0
 10
126.9925786412691
 20
111.6335375349611
 30
0.0
 10
126.9920911071262
 20
111.6349749979001
 30
0.0
  0
SPLINE
  5
1F5
330
1F
100
AcDbEntity
  8
0
  6
Continuous
 62
     7
370
    25
100
AcDbSpline
210
0.0
220
0.0
230
1.0
 70
     8
 71
     3
 72
    15
 73
    11
 74
     0
 42
0.00000001
 43
0.00000001
 40
0.0
 40
0.0
 40
0.0
 40
0.0
 40
0.0080847466189818
 40
0.3310106400647566
 40
0.4750333064304971
 40
0.6874363079215134
 40
0.8468367539418253
 40
0.9000996640391794
 40
0.9910442771984082
 40
1.0
 40
1.0
 40
1.0
 40
1.0
 10
126.9920911071262
 20
111.6349749979001
 30
0.0
 10
126.9933709386704
 20
111.6341590619119
 30
0.0
 10
127.0457705843941
 20
111.6007525117182
 30
0.0
 10
127.1211256758485
 20
111.5519389469833
 30
0.0
 10
127.2230447878664
 20
111.4845684747152
 30
0.0
 10
127.2954357328583
 20
111.4359844343717
 30
0.0
 10
127.3431411611231
 20
111.4035355729132
 30
0.0
 10
127.3646766448304
 20
111.3888245318469
 30
0.0
 10
127.3701056608499
 20
111.3851060809288
 30
0.0
 10
127.3702814130065
 20
111.3849857822633
 30
0.0
 10
127.3702971685851
 20
111.3849749979001
 30
0.0
  0
SPLINE
  5
1F6
330
1F
100
AcDbEntity
  8
0
  6
Continuous
 62
     7
370
    25
100
AcDbSpline
210
0.0
220
0.0
230
1.0
 70
     8
 71
     3
 72
    15
 73
    11
 74
     0
 42
0.00000001
 43
0.00000001
 40
0.0
 40
0.0
 40
0.0
 40
0.0
 40
0.0081667445812695
 40
0.3321939991490082
 40
0.4756279600585605
 40
0.68668309732849
 40
0.8457435502264812
 40
0.8967566214763185
 40
0.9909540928118029
 40
1.0
 40
1.0
 40
1.0
 40
1.0
 10
116.7940520799406
 20
111.6349749979001
 30
0.0
 10
116.7935645457977
 20
111.6335375349611
 30
0.0
 10
116.7737333982657
 20
111.5750666770094
 30
0.0
 10
116.7454526182564
 20
111.4906414992899
 30
0.0
 10
116.7076233197676
 20
111.3760624272675
 30
0.0
 10
116.6810394232001
 20
111.2946915400709
 30
0.0
 10
116.6638695994451
 20
111.2416725480692
 30
0.0
 10
116.6560526032287
 20
111.2174706162251
 30
0.0
 10
116.6540569167928
 20
111.2112809955589
 30
0.0
 10
116.653991952842
 20
111.2110796001463
 30
0.0
 10
116.6539862608753
 20
111.2110619544219
 30
0.0
  0
ARC
  5
1F7
330
1F
100
AcDbEntity
  8
0
  6
Continuous
 62
     7
370
    25
100
AcDbCircle
 10
121.8930715935
 20
112.8849749979
 30
0.0
 40
5.250000000000009
100
AcDbArc
 50
193.774146998
 51
346.225853002
  0
ARC
  5
1F8
330
1F
100
AcDbEntity
  8
0
  6
Continuous
 62
     7
370
    25
100
AcDbCircle
 10
121.8930715935
 20
112.8849749979
 30
0.0
 40
5.500000000000003
100
AcDbArc
 50
197.7189318734
 51
342.2810681266
  0
ARC
  5
1F9
330
1F
100
AcDbEntity
  8
0
  6
Continuous
 62
     7
370
    25
100
AcDbCircle
 10
116.4158460185
 20
111.1349749979
 30
0.0
 40
0.2500000000000077
100
AcDbArc
 50
17.7189318734
 51
90.0
  0
SPLINE
  5
1FA
330
1F
100
AcDbEntity
  8
0
  6
Continuous
 62
     7
370
    25
100
AcDbSpline
210
0.0
220
0.0
230
1.0
 70
     8
 71
     3
 72
    15
 73
    11
 74
     0
 42
0.00000001
 43
0.00000001
 40
0.0
 40
0.0
 40
0.0
 40
0.0
 40
0.0089557228015919
 40
0.0999003359608148
 40
0.153163246058169
 40
0.3125636920784849
 40
0.5249666935695
 40
0.6689893599352452
 40
0.9919152533810159
 40
1.0
 40
1.0
 40
1.0
 40
1.0
 10
116.4158460184818
 20
111.3849749979001
 30
0.0
 10
116.4158617740604
 20
111.3849857822633
 30
0.0
 10
116.4160375262169
 20
111.3851060809288
 30
0.0
 10
116.4214665422364
 20
111.3888245318469
 30
0.0
 10
116.4430020259438
 20
111.4035355729132
 30
0.0
 10
116.4907074542086
 20
111.4359844343717
 30
0.0
 10
116.5630983992005
 20
111.4845684747152
 30
0.0
 10
116.6650175112183
 20
111.5519389469834
 30
0.0
 10
116.7403726026727
 20
111.6007525117181
 30
0.0
 10
116.7927722483965
 20
111.6341590619118
 30
0.0
 10
116.7940520799406
 20
111.6349749979001
 30
0.0
  0
LINE
  5
1FB
330
1F
100
AcDbEntity
  8
0
  6
Continuous
 62
     7
370
    25
100
AcDbLine
 10
116.8930715935
 20
112.2849749979
 30
0.0
 11
126.8930715935
 21
112.2849749979
 31
0.0
  0
LINE
  5
1FC
330
1F
100
AcDbEntity
  8
0
  6
Continuous
 62
     7
370
    25
100
AcDbLine
 10
116.8930715935
 20
113.4849749979
 30
0.0
 11
116.8930715935
 21
112.2849749979
 31
0.0
  0
LINE
  5
1FD
330
1F
100
AcDbEntity
  8
0
  6
Continuous
 62
     7
370
    25
100
AcDbLine
 10
126.8930715935
 20
113.4849749979
 30
0.0
 11
116.8930715935
 21
113.4849749979
 31
0.0
  0
LINE
  5
1FE
330
1F
100
AcDbEntity
  8
0
  6
Continuous
 62
     7
370
    25
100
AcDbLine
 10
126.8930715935
 20
112.2849749979
 30
0.0
 11
126.8930715935
 21
113.4849749979
 31
0.0
  0
LINE
  5
1FF
330
1F
100
AcDbEntity
  8
0
  6
Continuous
 62
     7
370
    25
100
AcDbLine
 10
116.1430715935
 20
111.6349749979
 30
0.0
 11
116.7940520799
 21
111.6349749979
 31
0.0
  0
LINE
  5
200
330
1F
100
AcDbEntity
  8
0
  6
Continuous
 62
     7
370
    25
100
AcDbLine
 10
116.1430715935
 20
114.1349749979
 30
0.0
 11
116.1430715935
 21
111.6349749979
 31
0.0
  0
LINE
  5
201
330
1F
100
AcDbEntity
  8
0
  6
Continuous
 62
     7
370
    25
100
AcDbLine
 10
116.7940520799
 20
114.1349749979
 30
0.0
 11
116.1430715935
 21
114.1349749979
 31
0.0
  0
LINE
  5
202
330
1F
100
AcDbEntity
  8
0
  6
Continuous
 62
     7
370
    25
100
AcDbLine
 10
127.6430715935
 20
114.1349749979
 30
0.0
 11
126.9920911071
 21
114.1349749979
 31
0.0
  0
LINE
  5
203
330
1F
100
AcDbEntity
  8
0
  6
Continuous
 62
     7
370
    25
100
AcDbLine
 10
127.6430715935
 20
111.6349749979
 30
0.0
 11
127.6430715935
 21
114.1349749979
 31
0.0
  0
LINE
  5
204
330
1F
100
AcDbEntity
  8
0
  6
Continuous
 62
     7
370
    25
100
AcDbLine
 10
126.9920911071
 20
111.6349749979
 30
0.0
 11
127.6430715935
 21
111.6349749979
 31
0.0
  0
ARC
  5
205
330
1F
100
AcDbEntity
  8
0
  6
Continuous
 62
     7
370
    25
100
AcDbCircle
 10
116.1430715935
 20
114.1349749979
 30
0.0
 40
0.25
100
AcDbArc
 50
90.0
 51
180.0
  0
LINE
  5
206
330
1F
100
AcDbEntity
  8
0
  6
Continuous
 62
     7
370
    25
100
AcDbLine
 10
116.1430715935
 20
114.3849749979
 30
0.0
 11
116.1430715935
 21
114.1349749979
 31
0.0
  0
LINE
  5
207
330
1F
100
AcDbEntity
  8
0
  6
Continuous
 62
     7
370
    25
100
AcDbLine
 10
116.1430715935
 20
114.1349749979
 30
0.0
 11
115.8930715935
 21
114.1349749979
 31
0.0
  0
LINE
  5
208
330
1F
100
AcDbEntity
  8
0
  6
Continuous
 62
     7
370
    25
100
AcDbLine
 10
116.1430715935
 20
114.3849749979
 30
0.0
 11
116.4158460185
 21
114.3849749979
 31
0.0
  0
LINE
  5
209
330
1F
100
AcDbEntity
  8
0
  6
Continuous
 62
     7
370
    25
100
AcDbLine
 10
127.8930715935
 20
114.1349749979
 30
0.0
 11
127.6430715935
 21
114.1349749979
 31
0.0
  0
LINE
  5
20A
330
1F
100
AcDbEntity
  8
0
  6
Continuous
 62
     7
370
    25
100
AcDbLine
 10
127.6430715935
 20
114.1349749979
 30
0.0
 11
127.6430715935
 21
114.3849749979
 31
0.0
  0
ARC
  5
20B
330
1F
100
AcDbEntity
  8
0
  6
Continuous
 62
     7
370
    25
100
AcDbCircle
 10
127.6430715935
 20
114.1349749979
 30
0.0
 40
0.25
100
AcDbArc
 50
0.0
 51
90.0
  0
LINE
  5
20C
330
1F
100
AcDbEntity
  8
0
  6
Continuous
 62
     7
370
    25
100
AcDbLine
 10
127.3702971686
 20
114.3849749979
 30
0.0
 11
127.6430715935
 21
114.3849749979
 31
0.0
  0
LINE
  5
20D
330
1F
100
AcDbEntity
  8
0
  6
Continuous
 62
     7
370
    25
100
AcDbLine
 10
127.8930715935
 20
114.1349749979
 30
0.0
 11
127.8930715935
 21
111.6349749979
 31
0.0
  0
LINE
  5
20E
330
1F
100
AcDbEntity
  8
0
  6
Continuous
 62
     7
370
    25
100
AcDbLine
 10
127.6430715935
 20
111.6349749979
 30
0.0
 11
127.8930715935
 21
111.6349749979
 31
0.0
  0
LINE
  5
20F
330
1F
100
AcDbEntity
  8
0
  6
Continuous
 62
     7
370
    25
100
AcDbLine
 10
115.8930715935
 20
111.6349749979
 30
0.0
 11
116.1430715935
 21
111.6349749979
 31
0.0
  0
LINE
  5
210
330
1F
100
AcDbEntity
  8
0
  6
Continuous
 62
     7
370
    25
100
AcDbLine
 10
115.8930715935
 20
111.6349749979
 30
0.0
 11
115.8930715935
 21
114.1349749979
 31
0.0
  0
LINE
  5
211
330
1F
100
AcDbEntity
  8
0
  6
Continuous
 62
     7
370
    25
100
AcDbLine
 10
127.6430715935
 20
111.3849749979
 30
0.0
 11
127.6430715935
 21
111.6349749979
 31
0.0
  0
ARC
  5
212
330
1F
100
AcDbEntity
  8
0
  6
Continuous
 62
     7
370
    25
100
AcDbCircle
 10
127.6430715935
 20
111.6349749979
 30
0.0
 40
0.25
100
AcDbArc
 50
270.0
 51
0.0
  0
LINE
  5
213
330
1F
100
AcDbEntity
  8
0
  6
Continuous
 62
     7
370
    25
100
AcDbLine
 10
116.1430715935
 20
111.6349749979
 30
0.0
 11
116.1430715935
 21
111.3849749979
 31
0.0
  0
LINE
  5
214
330
1F
100
AcDbEntity
  8
0
  6
Continuous
 62
     7
370
    25
100
AcDbLine
 10
116.4158460185
 20
111.3849749979
 30
0.0
 11
116.1430715935
 21
111.3849749979
 31
0.0
  0
LINE
  5
215
330
1F
100
AcDbEntity
  8
0
  6
Continuous
 62
     7
370
    25
100
AcDbLine
 10
127.6430715935
 20
111.3849749979
 30
0.0
 11
127.3702971686
 21
111.3849749979
 31
0.0
  0
ARC
  5
216
330
1F
100
AcDbEntity
  8
0
  6
Continuous
 62
     7
370
    25
100
AcDbCircle
 10
116.1430715935
 20
111.6349749979
 30
0.0
 40
0.25
100
AcDbArc
 50
180.0
 51
270.0
  0
LINE
  5
217
330
1F
100
AcDbEntity
  8
0
  6
Continuous
 62
     7
370
    25
100
AcDbLine
 10
101.8930715935
 20
116.156674262
 30
0.0
 11
99.717634732
 21
116.3849749979
 31
0.0
  0
LINE
  5
218
330
1F
100
AcDbEntity
  8
0
  6
Continuous
 62
     7
370
    25
100
AcDbLine
 10
101.8930715935
 20
109.6132757338
 30
0.0
 11
101.8930715935
 21
116.156674262
 31
0.0
  0
LINE
  5
219
330
1F
100
AcDbEntity
  8
0
  6
Continuous
 62
     7
370
    25
100
AcDbLine
 10
99.717634732
 20
109.3849749979
 30
0.0
 11
101.8930715935
 21
109.6132757338
 31
0.0
  0
LINE
  5
21A
330
1F
100
AcDbEntity
  8
0
  6
Continuous
 62
     7
370
    25
100
AcDbLine
 10
81.8930715935
 20
109.3849749979
 30
0.0
 11
99.717634732
 21
109.3849749979
 31
0.0
  0
LINE
  5
21B
330
1F
100
AcDbEntity
  8
0
  6
Continuous
 62
     7
370
    25
100
AcDbLine
 10
81.8930715935
 20
116.3849749979
 30
0.0
 11
81.8930715935
 21
109.3849749979
 31
0.0
  0
LINE
  5
21C
330
1F
100
AcDbEntity
  8
0
  6
Continuous
 62
     7
370
    25
100
AcDbLine
 10
99.717634732
 20
116.3849749979
 30
0.0
 11
81.8930715935
 21
116.3849749979
 31
0.0
  0
LINE
  5
21D
330
1F
100
AcDbEntity
  8
0
  6
Continuous
 62
     7
370
    25
100
AcDbLine
 10
116.6692694192
 20
114.6059894787
 30
0.0
 11
116.5408603805
 21
114.4218478453
 31
0.0
  0
LINE
  5
21E
330
1F
100
AcDbEntity
  8
0
  6
Continuous
 62
     7
370
    25
100
AcDbLine
 10
116.5504277213
 20
111.3397573305
 30
0.0
 11
116.6692694192
 21
111.1639605171
 31
0.0
  0
LINE
  5
21F
330
1F
100
AcDbEntity
  8
0
  6
Continuous
 62
     7
370
    25
100
AcDbLine
 10
108.4765019399
 20
115.4657776335
 30
0.0
 11
108.4765019399
 21
110.3041723623
 31
0.0
  0
LINE
  5
220
330
1F
100
AcDbEntity
  8
0
  6
Continuous
 62
     7
370
    25
100
AcDbLine
 10
116.6692694192
 20
111.1639605171
 30
0.0
 11
108.4765019399
 21
110.3041723623
 31
0.0
  0
LINE
  5
221
330
1F
100
AcDbEntity
  8
0
  6
Continuous
 62
     7
370
    25
100
AcDbLine
 10
108.4765019399
 20
115.4657776335
 30
0.0
 11
116.6692694192
 21
114.6059894787
 31
0.0
  0
LINE
  5
222
330
1F
100
AcDbEntity
  8
0
  6
Continuous
 62
     7
370
    25
100
AcDbLine
 10
108.4765019399
 20
110.3041723623
 30
0.0
 11
101.8930715935
 21
109.6132757338
 31
0.0
  0
LINE
  5
223
330
1F
100
AcDbEntity
  8
0
  6
Continuous
 62
     7
370
    25
100
AcDbLine
 10
101.8930715935
 20
116.156674262
 30
0.0
 11
108.4765019399
 21
115.4657776335
 31
0.0
  0
ARC
  5
224
330
1F
100
AcDbEntity
  8
0
  6
Continuous
 62
     7
370
    25
100
AcDbCircle
 10
121.8930715935
 20
112.8849749979
 30
0.0
 40
7.450000000000645
100
AcDbArc
 50
233.0863788866
 51
126.9136211134
  0
ARC
  5
225
330
1F
100
AcDbEntity
  8
0
  6
Continuous
 62
     7
370
    25
100
AcDbCircle
 10
121.8930715935
 20
112.8849749979
 30
0.0
 40
7.207531252870779
100
AcDbArc
 50
195.3041237151
 51
238.9797515565
  0
ARC
  5
226
330
1F
100
AcDbEntity
  8
0
  6
Continuous
 62
     7
370
    25
100
AcDbCircle
 10
121.8930715935
 20
112.8849749979
 30
0.0
 40
7.207531252872434
100
AcDbArc
 50
121.0202484435
 51
164.6958762849
  0
ARC
  5
227
330
1F
100
AcDbEntity
  8
0
  6
Continuous
 62
     7
370
    25
100
AcDbCircle
 10
99.717634732
 20
181.3849749979
 30
0.0
 40
64.99999999999996
100
AcDbArc
 50
270.0
 51
286.5000949923
  0
ARC
  5
228
330
1F
100
AcDbEntity
  8
0
  6
Continuous
 62
     7
370
    25
100
AcDbCircle
 10
99.717634732
 20
44.3849749979
 30
0.0
 40
65.0
100
AcDbArc
 50
73.4999050077
 51
90.0
  0
LINE
  5
229
330
1F
100
AcDbEntity
  8
0
  6
Continuous
 62
     7
370
    25
100
AcDbLine
 10
114.8930715935
 20
119.6131060098
 30
0.0
 11
114.8930715935
 21
118.1812874784
 31
0.0
  0
LINE
  5
22A
330
1F
100
AcDbEntity
  8
0
  6
Continuous
 62
     7
370
    25
100
AcDbLine
 10
114.8930715935
 20
107.5886625174
 30
0.0
 11
114.8930715935
 21
106.156843986
 31
0.0
  0
LINE
  5
22B
330
1F
100
AcDbEntity
  8
0
  6
Continuous
 62
     7
370
    25
100
AcDbLine
 10
128.8930715935
 20
106.156843986
 30
0.0
 11
128.8930715935
 21
110.3349749979
 31
0.0
  0
LINE
  5
22C
330
1F
100
AcDbEntity
  8
0
  6
Continuous
 62
     7
370
    25
100
AcDbLine
 10
128.8930715935
 20
115.4349749979
 30
0.0
 11
128.8930715935
 21
119.6131060098
 31
0.0
  0
LINE
  5
22D
330
1F
100
AcDbEntity
  8
0
  6
Continuous
 62
     7
370
    25
100
AcDbLine
 10
128.8930715935
 20
119.6131060098
 30
0.0
 11
125.0922516583
 21
119.6131060098
 31
0.0
  0
LINE
  5
22E
330
1F
100
AcDbEntity
  8
0
  6
Continuous
 62
     7
370
    25
100
AcDbLine
 10
118.6938915288
 20
119.6131060098
 30
0.0
 11
114.8930715935
 21
119.6131060098
 31
0.0
  0
LINE
  5
22F
330
1F
100
AcDbEntity
  8
0
  6
Continuous
 62
     7
370
    25
100
AcDbLine
 10
114.8930715935
 20
106.156843986
 30
0.0
 11
118.6938915288
 21
106.156843986
 31
0.0
  0
LINE
  5
230
330
1F
100
AcDbEntity
  8
0
  6
Continuous
 62
     7
370
    25
100
AcDbLine
 10
125.0922516583
 20
106.156843986
 30
0.0
 11
128.8930715935
 21
106.156843986
 31
0.0
  0
LINE
  5
231
330
1F
100
AcDbEntity
  8
0
  6
Continuous
 62
     7
370
    25
100
AcDbLine
 10
114.8930715935
 20
120.0088784223
 30
0.0
 11
119.7130486579
 21
120.0088784223
 31
0.0
  0
LINE
  5
232
330
1F
100
AcDbEntity
  8
0
  6
Continuous
 62
     7
370
    25
100
AcDbLine
 10
124.0730945292
 20
120.0088784223
 30
0.0
 11
128.8930715935
 21
120.0088784223
 31
0.0
  0
LINE
  5
233
330
1F
100
AcDbEntity
  8
0
  6
Continuous
 62
     7
370
    25
100
AcDbLine
 10
128.8930715935
 20
105.7610715735
 30
0.0
 11
124.0730945292
 21
105.7610715735
 31
0.0
  0
LINE
  5
234
330
1F
100
AcDbEntity
  8
0
  6
Continuous
 62
     7
370
    25
100
AcDbLine
 10
119.7130486579
 20
105.7610715735
 30
0.0
 11
114.8930715935
 21
105.7610715735
 31
0.0
  0
INSERT
  5
240
330
1F
100
AcDbEntity
  8
FORMAT
100
AcDbBlockReference
  2
SW_CENTERMARKSYMBOL_1
 10
121.8930715935
 20
112.8849749979
 30
0.0
  0
LINE
  5
241
330
1F
100
AcDbEntity
  8
FORMAT
100
AcDbLine
 10
141.1952558586
 20
107.2320908955
 30
0.0
 11
132.3930715935
 21
106.9570226372
 31
0.0
  0
LINE
  5
242
330
1F
100
AcDbEntity
  8
FORMAT
100
AcDbLine
 10
141.1952558586
 20
118.5378591003
 30
0.0
 11
132.3930715935
 21
118.8129273586
 31
0.0
  0
LINE
  5
243
330
1F
100
AcDbEntity
  8
FORMAT
100
AcDbLine
 10
132.3930715935
 20
119.6362874979
 30
0.0
 11
132.3930715935
 21
106.1336624979
 31
0.0
  0
ENDSEC
  0
SECTION
  2
OBJECTS
  0
DICTIONARY
  5
C
330
0
100
AcDbDictionary
281
     1
  3
ACAD_GROUP
350
D
  3
ACAD_LAYOUT
350
1A
  3
ACAD_MLINESTYLE
350
17
  3
ACAD_PLOTSETTINGS
350
19
  3
ACAD_PLOTSTYLENAME
350
E
  3
ACAD_SCALELIST
350
47
  3
DWGPROPS
350
244
  0
DICTIONARY
  5
D
102
{ACAD_REACTORS
330
C
102
}
330
C
100
AcDbDictionary
281
     1
  0
DICTIONARY
  5
1A
102
{ACAD_REACTORS
330
C
102
}
330
C
100
AcDbDictionary
281
     1
  3
Layout1
350
1E
  3
Layout2
350
26
  3
Model
350
22
  0
DICTIONARY
  5
17
102
{ACAD_REACTORS
330
C
102
}
330
C
100
AcDbDictionary
281
     1
  3
Standard
350
18
  0
DICTIONARY
  5
19
102
{ACAD_REACTORS
330
C
102
}
330
C
100
AcDbDictionary
281
     1
  0
ACDBDICTIONARYWDFLT
  5
E
102
{ACAD_REACTORS
330
C
102
}
330
C
100
AcDbDictionary
281
     1
  3
Normal
350
F
100
AcDbDictionaryWithDefault
340
F
  0
DICTIONARY
  5
47
102
{ACAD_REACTORS
330
C
102
}
330
C
100
AcDbDictionary
281
     1
  3
A0
350
48
  3
A1
350
49
  3
A2
350
4A
  3
A3
350
4B
  3
A4
350
4C
  3
A5
350
4D
  3
A6
350
4E
  3
A7
350
4F
  3
A8
350
50
  3
A9
350
51
  3
B0
350
52
  3
B1
350
53
  3
B2
350
54
  3
B3
350
55
  3
B4
350
56
  3
B5
350
57
  3
B6
350
58
  0
XRECORD
  5
244
102
{ACAD_REACTORS
330
C
102
}
330
C
100
AcDbXrecord
280
     1
  1
DWGPROPS COOKIE
  2

  3

  4

  6

  7

  8
user28
  9

300
=
301
=
302
=
303
=
304
=
305
=
306
=
307
=
308
=
309
=
 40
0.0
 41
2460426.342899155
 42
2460426.34289985
  1

 90
        0
  0
LAYOUT
  5
1E
102
{ACAD_REACTORS
330
1A
102
}
330
1A
100
AcDbPlotSettings
  1

  2
none_device
  4

  6

 40
0.0
 41
0.0
 42
0.0
 43
0.0
 44
0.0
 45
0.0
 46
0.0
 47
0.0
 48
0.0
 49
0.0
140
0.0
141
0.0
142
1.0
143
1.0
 70
   688
 72
     1
 73
     0
 74
     5
  7

 75
    16
147
1.0
148
0.0
149
0.0
100
AcDbLayout
  1
Layout1
 70
     1
 71
     1
 10
0.0
 20
0.0
 11
420.0
 21
297.0
 12
0.0
 22
0.0
 32
0.0
 14
1.0000000000E+20
 24
1.0000000000E+20
 34
1.0000000000E+20
 15
-1.0000000000E+20
 25
-1.0000000000E+20
 35
-1.0000000000E+20
146
0.0
 13
0.0
 23
0.0
 33
0.0
 16
1.0
 26
0.0
 36
0.0
 17
0.0
 27
1.0
 37
0.0
 76
     0
330
1B
  0
LAYOUT
  5
26
102
{ACAD_REACTORS
330
1A
102
}
330
1A
100
AcDbPlotSettings
  1

  2
none_device
  4

  6

 40
0.0
 41
0.0
 42
0.0
 43
0.0
 44
0.0
 45
0.0
 46
0.0
 47
0.0
 48
0.0
 49
0.0
140
0.0
141
0.0
142
1.0
143
1.0
 70
   688
 72
     1
 73
     0
 74
     5
  7

 75
    16
147
1.0
148
0.0
149
0.0
100
AcDbLayout
  1
Layout2
 70
     1
 71
     2
 10
0.0
 20
0.0
 11
0.0
 21
0.0
 12
0.0
 22
0.0
 32
0.0
 14
0.0
 24
0.0
 34
0.0
 15
0.0
 25
0.0
 35
0.0
146
0.0
 13
0.0
 23
0.0
 33
0.0
 16
1.0
 26
0.0
 36
0.0
 17
0.0
 27
1.0
 37
0.0
 76
     0
330
23
  0
LAYOUT
  5
22
102
{ACAD_REACTORS
330
1A
102
}
330
1A
100
AcDbPlotSettings
  1

  2
none_device
  4
Letter_(8.50_x_11.00_Inches)
  6

 40
6.35
 41
6.35
 42
6.35000508
 43
6.35000508
 44
215.9
 45
279.4
 46
0.0
 47
0.0
 48
0.0
 49
0.0
140
0.0
141
0.0
142
1.0
143
1.0
 70
  1712
 72
     1
 73
     0
 74
     0
  7

 75
     0
147
1.0
148
0.0
149
0.0
100
AcDbLayout
  1
Model
 70
     1
 71
     0
 10
0.0
 20
0.0
 11
297.0
 21
210.0
 12
0.0
 22
0.0
 32
0.0
 14
0.0
 24
0.0
 34
0.0
 15
297.0
 25
210.0
 35
0.0
146
0.0
 13
0.0
 23
0.0
 33
0.0
 16
1.0
 26
0.0
 36
0.0
 17
0.0
 27
1.0
 37
0.0
 76
     0
330
1F
331
29
  0
MLINESTYLE
  5
18
102
{ACAD_REACTORS
330
17
102
}
330
17
100
AcDbMlineStyle
  2
Standard
 70
     0
  3

 62
   256
 51
90.0
 52
90.0
 71
     2
 49
0.5
 62
   256
  6
BYLAYER
 49
-0.5
 62
   256
  6
BYLAYER
  0
ACDBPLACEHOLDER
  5
F
102
{ACAD_REACTORS
330
E
102
}
330
E
  0
SCALE
  5
48
102
{ACAD_REACTORS
330
47
102
}
330
47
100
AcDbScale
 70
     0
300
1:1
140
1.0
141
1.0
290
     1
  0
SCALE
  5
49
102
{ACAD_REACTORS
330
47
102
}
330
47
100
AcDbScale
 70
     0
300
1:2
140
1.0
141
2.0
290
     0
  0
SCALE
  5
4A
102
{ACAD_REACTORS
330
47
102
}
330
47
100
AcDbScale
 70
     0
300
1:4
140
1.0
141
4.0
290
     0
  0
SCALE
  5
4B
102
{ACAD_REACTORS
330
47
102
}
330
47
100
AcDbScale
 70
     0
300
1:5
140
1.0
141
5.0
290
     0
  0
SCALE
  5
4C
102
{ACAD_REACTORS
330
47
102
}
330
47
100
AcDbScale
 70
     0
300
1:8
140
1.0
141
8.0
290
     0
  0
SCALE
  5
4D
102
{ACAD_REACTORS
330
47
102
}
330
47
100
AcDbScale
 70
     0
300
1:10
140
1.0
141
10.0
290
     0
  0
SCALE
  5
4E
102
{ACAD_REACTORS
330
47
102
}
330
47
100
AcDbScale
 70
     0
300
1:16
140
1.0
141
16.0
290
     0
  0
SCALE
  5
4F
102
{ACAD_REACTORS
330
47
102
}
330
47
100
AcDbScale
 70
     0
300
1:20
140
1.0
141
20.0
290
     0
  0
SCALE
  5
50
102
{ACAD_REACTORS
330
47
102
}
330
47
100
AcDbScale
 70
     0
300
1:30
140
1.0
141
30.0
290
     0
  0
SCALE
  5
51
102
{ACAD_REACTORS
330
47
102
}
330
47
100
AcDbScale
 70
     0
300
1:40
140
1.0
141
40.0
290
     0
  0
SCALE
  5
52
102
{ACAD_REACTORS
330
47
102
}
330
47
100
AcDbScale
 70
     0
300
1:50
140
1.0
141
50.0
290
     0
  0
SCALE
  5
53
102
{ACAD_REACTORS
330
47
102
}
330
47
100
AcDbScale
 70
     0
300
1:100
140
1.0
141
100.0
290
     0
  0
SCALE
  5
54
102
{ACAD_REACTORS
330
47
102
}
330
47
100
AcDbScale
 70
     0
300
2:1
140
2.0
141
1.0
290
     0
  0
SCALE
  5
55
102
{ACAD_REACTORS
330
47
102
}
330
47
100
AcDbScale
 70
     0
300
4:1
140
4.0
141
1.0
290
     0
  0
SCALE
  5
56
102
{ACAD_REACTORS
330
47
102
}
330
47
100
AcDbScale
 70
     0
300
8:1
140
8.0
141
1.0
290
     0
  0
SCALE
  5
57
102
{ACAD_REACTORS
330
47
102
}
330
47
100
AcDbScale
 70
     0
300
10:1
140
10.0
141
1.0
290
     0
  0
SCALE
  5
58
102
{ACAD_REACTORS
330
47
102
}
330
47
100
AcDbScale
 70
     0
300
100:1
140
100.0
141
1.0
290
     0
  0
ENDSEC
  0
EOF
