  0
SECTION
  2
HEADER
  9
$ACADVER
  1
AC1015
  9
$ACADMAINTVER
 70
     6
  9
$DWGCODEPAGE
  3
DOS932
  9
$INSBASE
 10
0.0
 20
0.0
 30
0.0
  9
$EXTMIN
 10
0.0
 20
0.0
 30
0.0
  9
$EXTMAX
 10
297.0
 20
210.0
 30
0.0
  9
$LIMMIN
 10
0.0
 20
0.0
  9
$LIMMAX
 10
297.0
 20
210.0
  9
$ORTHOMODE
 70
     0
  9
$REGENMODE
 70
     1
  9
$FILLMODE
 70
     1
  9
$QTEXTMODE
 70
     0
  9
$MIRRTEXT
 70
     1
  9
$LTSCALE
 40
1.0
  9
$ATTMODE
 70
     1
  9
$TEXTSIZE
 40
3.5277777778
  9
$TRACEWID
 40
1.0
  9
$TEXTSTYLE
  7
Standard
  9
$CLAYER
  8
0
  9
$CELTYPE
  6
ByLayer
  9
$CECOLOR
 62
   256
  9
$CELTSCALE
 40
1.0
  9
$DISPSILH
 70
     0
  9
$DIMSCALE
 40
1.0
  9
$DIMASZ
 40
2.728515625
  9
$DIMEXO
 40
1.0
  9
$DIMDLI
 40
3.75
  9
$DIMRND
 40
0.0
  9
$DIMDLE
 40
0.0
  9
$DIMEXE
 40
1.0
  9
$DIMTP
 40
0.0
  9
$DIMTM
 40
0.0
  9
$DIMTXT
 40
3.5277777778
  9
$DIMCEN
 40
2.5
  9
$DIMTSZ
 40
0.0
  9
$DIMTOL
 70
     0
  9
$DIMLIM
 70
     0
  9
$DIMTIH
 70
     1
  9
$DIMTOH
 70
     1
  9
$DIMSE1
 70
     0
  9
$DIMSE2
 70
     0
  9
$DIMTAD
 70
     1
  9
$DIMZIN
 70
     0
  9
$DIMBLK
  1

  9
$DIMASO
 70
     1
  9
$DIMSHO
 70
     1
  9
$DIMPOST
  1

  9
$DIMAPOST
  1

  9
$DIMALT
 70
     0
  9
$DIMALTD
 70
     3
  9
$DIMALTF
 40
0.0393700787
  9
$DIMLFAC
 40
1.0
  9
$DIMTOFL
 70
     1
  9
$DIMTVP
 40
0.0
  9
$DIMTIX
 70
     0
  9
$DIMSOXD
 70
     0
  9
$DIMSAH
 70
     0
  9
$DIMBLK1
  1

  9
$DIMBLK2
  1

  9
$DIMSTYLE
  2
ISO-25
  9
$DIMCLRD
 70
     0
  9
$DIMCLRE
 70
     0
  9
$DIMCLRT
 70
     0
  9
$DIMTFAC
 40
1.0
  9
$DIMGAP
 40
1.524
  9
$DIMJUST
 70
     0
  9
$DIMSD1
 70
     0
  9
$DIMSD2
 70
     0
  9
$DIMTOLJ
 70
     0
  9
$DIMTZIN
 70
     0
  9
$DIMALTZ
 70
     0
  9
$DIMALTTZ
 70
     0
  9
$DIMUPT
 70
     0
  9
$DIMDEC
 70
     2
  9
$DIMTDEC
 70
     2
  9
$DIMALTU
 70
     2
  9
$DIMALTTD
 70
     3
  9
$DIMTXSTY
  7
Standard
  9
$DIMAUNIT
 70
     0
  9
$DIMADEC
 70
     2
  9
$DIMALTRND
 40
0.0
  9
$DIMAZIN
 70
     0
  9
$DIMDSEP
 70
    44
  9
$DIMATFIT
 70
     3
  9
$DIMFRAC
 70
     0
  9
$DIMLDRBLK
  1

  9
$DIMLUNIT
 70
     2
  9
$DIMLWD
 70
    -2
  9
$DIMLWE
 70
    -2
  9
$DIMTMOVE
 70
     0
  9
$LUNITS
 70
     2
  9
$LUPREC
 70
     2
  9
$SKETCHINC
 40
1.0
  9
$FILLETRAD
 40
0.0
  9
$AUNITS
 70
     0
  9
$AUPREC
 70
     2
  9
$MENU
  1
.
  9
$ELEVATION
 40
0.0
  9
$PELEVATION
 40
0.0
  9
$THICKNESS
 40
0.0
  9
$LIMCHECK
 70
     0
  9
$CHAMFERA
 40
0.0
  9
$CHAMFERB
 40
0.0
  9
$CHAMFERC
 40
0.0
  9
$CHAMFERD
 40
0.0
  9
$SKPOLY
 70
     0
  9
$TDCREATE
 40
2460426.707562951
  9
$TDUCREATE
 40
2460426.332562951
  9
$TDUPDATE
 40
2460426.707563808
  9
$TDUUPDATE
 40
2460426.332563808
  9
$TDINDWG
 40
0.0000000116
  9
$TDUSRTIMER
 40
0.0000000116
  9
$USRTIMER
 70
     1
  9
$ANGBASE
 50
0.0
  9
$ANGDIR
 70
     0
  9
$PDMODE
 70
     0
  9
$PDSIZE
 40
-1.0
  9
$PLINEWID
 40
0.0
  9
$SPLFRAME
 70
     0
  9
$SPLINETYPE
 70
     6
  9
$SPLINESEGS
 70
     8
  9
$HANDSEED
  5
243
  9
$SURFTAB1
 70
     6
  9
$SURFTAB2
 70
     6
  9
$SURFTYPE
 70
     6
  9
$SURFU
 70
     6
  9
$SURFV
 70
     6
  9
$UCSBASE
  2

  9
$UCSNAME
  2

  9
$UCSORG
 10
0.0
 20
0.0
 30
0.0
  9
$UCSXDIR
 10
1.0
 20
0.0
 30
0.0
  9
$UCSYDIR
 10
0.0
 20
1.0
 30
0.0
  9
$UCSORTHOREF
  2

  9
$UCSORTHOVIEW
 70
     0
  9
$UCSORGTOP
 10
0.0
 20
0.0
 30
0.0
  9
$UCSORGBOTTOM
 10
0.0
 20
0.0
 30
0.0
  9
$UCSORGLEFT
 10
0.0
 20
0.0
 30
0.0
  9
$UCSORGRIGHT
 10
0.0
 20
0.0
 30
0.0
  9
$UCSORGFRONT
 10
0.0
 20
0.0
 30
0.0
  9
$UCSORGBACK
 10
0.0
 20
0.0
 30
0.0
  9
$PUCSBASE
  2

  9
$PUCSNAME
  2

  9
$PUCSORG
 10
0.0
 20
0.0
 30
0.0
  9
$PUCSXDIR
 10
1.0
 20
0.0
 30
0.0
  9
$PUCSYDIR
 10
0.0
 20
1.0
 30
0.0
  9
$PUCSORTHOREF
  2

  9
$PUCSORTHOVIEW
 70
     0
  9
$PUCSORGTOP
 10
0.0
 20
0.0
 30
0.0
  9
$PUCSORGBOTTOM
 10
0.0
 20
0.0
 30
0.0
  9
$PUCSORGLEFT
 10
0.0
 20
0.0
 30
0.0
  9
$PUCSORGRIGHT
 10
0.0
 20
0.0
 30
0.0
  9
$PUCSORGFRONT
 10
0.0
 20
0.0
 30
0.0
  9
$PUCSORGBACK
 10
0.0
 20
0.0
 30
0.0
  9
$USERI1
 70
     0
  9
$USERI2
 70
     0
  9
$USERI3
 70
     0
  9
$USERI4
 70
     0
  9
$USERI5
 70
     0
  9
$USERR1
 40
0.0
  9
$USERR2
 40
0.0
  9
$USERR3
 40
0.0
  9
$USERR4
 40
0.0
  9
$USERR5
 40
0.0
  9
$WORLDVIEW
 70
     1
  9
$SHADEDGE
 70
     3
  9
$SHADEDIF
 70
    70
  9
$TILEMODE
 70
     1
  9
$MAXACTVP
 70
    64
  9
$PINSBASE
 10
0.0
 20
0.0
 30
0.0
  9
$PLIMCHECK
 70
     0
  9
$PEXTMIN
 10
1.0000000000E+20
 20
1.0000000000E+20
 30
1.0000000000E+20
  9
$PEXTMAX
 10
-1.0000000000E+20
 20
-1.0000000000E+20
 30
-1.0000000000E+20
  9
$PLIMMIN
 10
0.0
 20
0.0
  9
$PLIMMAX
 10
420.0
 20
297.0
  9
$UNITMODE
 70
     0
  9
$VISRETAIN
 70
     1
  9
$PLINEGEN
 70
     0
  9
$PSLTSCALE
 70
     1
  9
$TREEDEPTH
 70
  3020
  9
$CMLSTYLE
  2
Standard
  9
$CMLJUST
 70
     0
  9
$CMLSCALE
 40
20.0
  9
$PROXYGRAPHICS
 70
     1
  9
$MEASUREMENT
 70
     1
  9
$CELWEIGHT
370
    -1
  9
$ENDCAPS
280
     0
  9
$JOINSTYLE
280
     0
  9
$LWDISPLAY
290
     1
  9
$INSUNITS
 70
     4
  9
$HYPERLINKBASE
  1

  9
$STYLESHEET
  1

  9
$XEDIT
290
     1
  9
$CEPSNTYPE
380
     0
  9
$PSTYLEMODE
290
     1
  9
$FINGERPRINTGUID
  2
{bc66828e-8f68-4fab-b288-772d6a8e21a6}
  9
$VERSIONGUID
  2
{FAEB1C32-E019-11D5-929B-00C0DF256EC4}
  9
$EXTNAMES
290
     1
  9
$PSVPSCALE
 40
0.0
  9
$OLESTARTUP
290
     0
  0
ENDSEC
  0
SECTION
  2
CLASSES
  0
CLASS
  1
ACDBDICTIONARYWDFLT
  2
AcDbDictionaryWithDefault
  3
ObjectDBX Classes
 90
        0
280
     0
281
     0
  0
CLASS
  1
VISUALSTYLE
  2
AcDbVisualStyle
  3
ObjectDBX Classes
 90
     4095
280
     0
281
     0
  0
CLASS
  1
MATERIAL
  2
AcDbMaterial
  3
ObjectDBX Classes
 90
     1153
280
     0
281
     0
  0
CLASS
  1
SCALE
  2
AcDbScale
  3
ObjectDBX Classes
 90
     1153
280
     0
281
     0
  0
CLASS
  1
TABLESTYLE
  2
AcDbTableStyle
  3
ObjectDBX Classes
 90
     4095
280
     0
281
     0
  0
CLASS
  1
MLEADERSTYLE
  2
AcDbMLeaderStyle
  3
ACDB_MLEADERSTYLE_CLASS
 90
     4095
280
     0
281
     0
  0
CLASS
  1
SUN
  2
AcDbSun
  3
SCENEOE
 90
     1153
280
     0
281
     0
  0
CLASS
  1
ACDBPLACEHOLDER
  2
AcDbPlaceHolder
  3
ObjectDBX Classes
 90
        0
280
     0
281
     0
  0
CLASS
  1
LAYOUT
  2
AcDbLayout
  3
ObjectDBX Classes
 90
        0
280
     0
281
     0
  0
ENDSEC
  0
SECTION
  2
TABLES
  0
TABLE
  2
VPORT
  5
8
330
0
100
AcDbSymbolTable
 70
     1
  0
VPORT
  5
29
330
8
100
AcDbSymbolTableRecord
100
AcDbViewportTableRecord
  2
*Active
 70
     0
 10
0.0
 20
0.0
 11
1.0
 21
1.0
 12
148.5
 22
105.0
 13
0.0
 23
0.0
 14
10.0
 24
10.0
 15
10.0
 25
10.0
 16
0.0
 26
0.0
 36
1.0
 17
0.0
 27
0.0
 37
0.0
 40
210.0
 41
1.4142857143
 42
50.0
 43
0.0
 44
0.0
 50
0.0
 51
0.0
 71
     0
 72
  2000
 73
     1
 74
     3
 75
     0
 76
     0
 77
     0
 78
     0
281
     0
 65
     1
110
0.0
120
0.0
130
0.0
111
1.0
121
0.0
131
0.0
112
0.0
122
1.0
132
0.0
 79
     0
146
0.0
  0
ENDTAB
  0
TABLE
  2
LTYPE
  5
5
330
0
100
AcDbSymbolTable
 70
     6
  0
LTYPE
  5
14
330
5
100
AcDbSymbolTableRecord
100
AcDbLinetypeTableRecord
  2
ByBlock
 70
     0
  3

 72
    65
 73
     0
 40
0.0
  0
LTYPE
  5
15
330
5
100
AcDbSymbolTableRecord
100
AcDbLinetypeTableRecord
  2
ByLayer
 70
     0
  3

 72
    65
 73
     0
 40
0.0
  0
LTYPE
  5
16
330
5
100
AcDbSymbolTableRecord
100
AcDbLinetypeTableRecord
  2
Continuous
 70
     0
  3
Solid line
 72
    65
 73
     0
 40
0.0
  0
LTYPE
  5
5E
330
5
100
AcDbSymbolTableRecord
100
AcDbLinetypeTableRecord
  2
HIDDEN
 70
     0
  3
Hidden __ __ __ __ __ __ __ __ __ __ __ __ __ __
 72
    65
 73
     2
 40
1.905
 49
1.27
 74
     0
 49
-0.635
 74
     0
  0
LTYPE
  5
5F
330
5
100
AcDbSymbolTableRecord
100
AcDbLinetypeTableRecord
  2
PHANTOM
 70
     0
  3
Phantom ______  __  __  ______  __  __  ______
 72
    65
 73
     6
 40
12.7
 49
6.35
 74
     0
 49
-1.27
 74
     0
 49
1.27
 74
     0
 49
-1.27
 74
     0
 49
1.27
 74
     0
 49
-1.27
 74
     0
  0
LTYPE
  5
60
330
5
100
AcDbSymbolTableRecord
100
AcDbLinetypeTableRecord
  2
CENTER
 70
     0
  3
Center ____ _ ____ _ ____ _ ____ _ ____ _ ____
 72
    65
 73
     4
 40
10.16
 49
6.35
 74
     0
 49
-1.27
 74
     0
 49
1.27
 74
     0
 49
-1.27
 74
     0
  0
LTYPE
  5
61
330
5
100
AcDbSymbolTableRecord
100
AcDbLinetypeTableRecord
  2
CENTERX2
 70
     0
  3
Center (2x) ________  __  ________  __  _____
 72
    65
 73
     4
 40
20.32
 49
12.7
 74
     0
 49
-2.54
 74
     0
 49
2.54
 74
     0
 49
-2.54
 74
     0
  0
LTYPE
  5
62
330
5
100
AcDbSymbolTableRecord
100
AcDbLinetypeTableRecord
  2
DOT2
 70
     0
  3
Dot (.5x) ........................................
 72
    65
 73
     2
 40
0.635
 49
0.0
 74
     0
 49
-0.635
 74
     0
  0
ENDTAB
  0
TABLE
  2
LAYER
  5
2
330
0
100
AcDbSymbolTable
 70
     2
  0
LAYER
  5
10
330
2
100
AcDbSymbolTableRecord
100
AcDbLayerTableRecord
  2
0
 70
     0
 62
     7
  6
Continuous
370
    -3
390
F
  0
LAYER
  5
63
330
2
100
AcDbSymbolTableRecord
100
AcDbLayerTableRecord
  2
FORMAT
 70
     0
 62
     7
  6
Continuous
370
    -3
390
F
  0
ENDTAB
  0
TABLE
  2
STYLE
  5
3
330
0
100
AcDbSymbolTable
 70
     2
  0
STYLE
  5
11
330
3
100
AcDbSymbolTableRecord
100
AcDbTextStyleTableRecord
  2
Standard
 70
     0
 40
0.0
 41
1.0
 50
0.0
 71
     0
 42
3.5277777778
  3
txt
  4
bigfont
  0
STYLE
  5
64
330
3
100
AcDbSymbolTableRecord
100
AcDbTextStyleTableRecord
  2
SLDTEXTSTYLE0
 70
     0
 40
0.0
 41
0.7
 50
0.0
 71
     0
 42
3.5277777778
  3
TXT
  4
bigfont
  0
ENDTAB
  0
TABLE
  2
VIEW
  5
6
330
0
100
AcDbSymbolTable
 70
     0
  0
ENDTAB
  0
TABLE
  2
UCS
  5
7
330
0
100
AcDbSymbolTable
 70
     0
  0
ENDTAB
  0
TABLE
  2
APPID
  5
9
330
0
100
AcDbSymbolTable
 70
     1
  0
APPID
  5
12
330
9
100
AcDbSymbolTableRecord
100
AcDbRegAppTableRecord
  2
ACAD
 70
     0
  0
ENDTAB
  0
TABLE
  2
DIMSTYLE
  5
A
330
0
100
AcDbSymbolTable
 70
     1
100
AcDbDimStyleTable
  0
DIMSTYLE
105
27
330
A
100
AcDbSymbolTableRecord
100
AcDbDimStyleTableRecord
  2
ISO-25
 70
     0
 41
2.5
 42
0.625
 43
3.75
 44
1.25
 73
     0
 74
     0
 77
     1
 78
     8
140
2.5
141
2.5
143
0.0393700787
147
0.625
171
     3
172
     1
178
     0
271
     2
272
     2
274
     3
278
    44
283
     0
284
     8
340
11
  0
ENDTAB
  0
TABLE
  2
BLOCK_RECORD
  5
1
330
0
100
AcDbSymbolTable
 70
     3
  0
BLOCK_RECORD
  5
1F
330
1
100
AcDbSymbolTableRecord
100
AcDbBlockTableRecord
  2
*Model_Space
340
22
  0
BLOCK_RECORD
  5
1B
330
1
100
AcDbSymbolTableRecord
100
AcDbBlockTableRecord
  2
*Paper_Space
340
1E
  0
BLOCK_RECORD
  5
23
330
1
100
AcDbSymbolTableRecord
100
AcDbBlockTableRecord
  2
*Paper_Space0
340
26
  0
BLOCK_RECORD
  5
17F
330
1
100
AcDbSymbolTableRecord
100
AcDbBlockTableRecord
  2
SW_CENTERMARKSYMBOL_0
340
0
102
{BLKREFS
331
18A
102
}
  0
BLOCK_RECORD
  5
233
330
1
100
AcDbSymbolTableRecord
100
AcDbBlockTableRecord
  2
SW_CENTERMARKSYMBOL_1
340
0
102
{BLKREFS
331
23E
102
}
  0
ENDTAB
  0
ENDSEC
  0
SECTION
  2
BLOCKS
  0
BLOCK
  5
20
330
1F
100
AcDbEntity
  8
0
100
AcDbBlockBegin
  2
*Model_Space
 70
     0
 10
0.0
 20
0.0
 30
0.0
  3
*Model_Space
  1

  0
ENDBLK
  5
21
330
1F
100
AcDbEntity
  8
0
100
AcDbBlockEnd
  0
BLOCK
  5
1C
330
1B
100
AcDbEntity
 67
     1
  8
0
100
AcDbBlockBegin
  2
*Paper_Space
 70
     0
 10
0.0
 20
0.0
 30
0.0
  3
*Paper_Space
  1

  0
ENDBLK
  5
1D
330
1B
100
AcDbEntity
 67
     1
  8
0
100
AcDbBlockEnd
  0
BLOCK
  5
24
330
23
100
AcDbEntity
  8
0
100
AcDbBlockBegin
  2
*Paper_Space0
 70
     0
 10
0.0
 20
0.0
 30
0.0
  3
*Paper_Space0
  1

  0
ENDBLK
  5
25
330
23
100
AcDbEntity
  8
0
100
AcDbBlockEnd
  0
BLOCK
  5
180
330
17F
100
AcDbEntity
  8
0
100
AcDbBlockBegin
  2
SW_CENTERMARKSYMBOL_0
 70
     0
 10
0.0
 20
0.0
 30
0.0
  3
SW_CENTERMARKSYMBOL_0
  1

  0
LINE
  5
182
330
17F
100
AcDbEntity
  8
FORMAT
 62
     0
100
AcDbLine
 10
0.0
 20
0.0
 30
0.0
 11
0.0
 21
2.5
 31
0.0
  0
LINE
  5
183
330
17F
100
AcDbEntity
  8
FORMAT
 62
     0
100
AcDbLine
 10
0.0
 20
0.0
 30
0.0
 11
-2.5
 21
0.0
 31
0.0
  0
LINE
  5
184
330
17F
100
AcDbEntity
  8
FORMAT
 62
     0
100
AcDbLine
 10
0.0
 20
0.0
 30
0.0
 11
0.0
 21
-2.5
 31
0.0
  0
LINE
  5
185
330
17F
100
AcDbEntity
  8
FORMAT
 62
     0
100
AcDbLine
 10
0.0
 20
0.0
 30
0.0
 11
2.5
 21
0.0
 31
0.0
  0
LINE
  5
186
330
17F
100
AcDbEntity
  8
FORMAT
 62
     0
100
AcDbLine
 10
0.0
 20
5.0
 30
0.0
 11
0.0
 21
30.4367487513
 31
0.0
  0
LINE
  5
187
330
17F
100
AcDbEntity
  8
FORMAT
 62
     0
100
AcDbLine
 10
-5.0
 20
0.0
 30
0.0
 11
-12.5
 21
0.0
 31
0.0
  0
LINE
  5
188
330
17F
100
AcDbEntity
  8
FORMAT
 62
     0
100
AcDbLine
 10
0.0
 20
-5.0
 30
0.0
 11
0.0
 21
-12.5
 31
0.0
  0
LINE
  5
189
330
17F
100
AcDbEntity
  8
FORMAT
 62
     0
100
AcDbLine
 10
5.0
 20
0.0
 30
0.0
 11
12.5
 21
0.0
 31
0.0
  0
ENDBLK
  5
181
330
17F
100
AcDbEntity
  8
0
100
AcDbBlockEnd
  0
BLOCK
  5
234
330
233
100
AcDbEntity
  8
0
100
AcDbBlockBegin
  2
SW_CENTERMARKSYMBOL_1
 70
     0
 10
0.0
 20
0.0
 30
0.0
  3
SW_CENTERMARKSYMBOL_1
  1

  0
LINE
  5
236
330
233
100
AcDbEntity
  8
FORMAT
 62
     0
100
AcDbLine
 10
0.0
 20
0.0
 30
0.0
 11
0.0
 21
2.5
 31
0.0
  0
LINE
  5
237
330
233
100
AcDbEntity
  8
FORMAT
 62
     0
100
AcDbLine
 10
0.0
 20
0.0
 30
0.0
 11
-2.5
 21
0.0
 31
0.0
  0
LINE
  5
238
330
233
100
AcDbEntity
  8
FORMAT
 62
     0
100
AcDbLine
 10
0.0
 20
0.0
 30
0.0
 11
0.0
 21
-2.5
 31
0.0
  0
LINE
  5
239
330
233
100
AcDbEntity
  8
FORMAT
 62
     0
100
AcDbLine
 10
0.0
 20
0.0
 30
0.0
 11
2.5
 21
0.0
 31
0.0
  0
LINE
  5
23A
330
233
100
AcDbEntity
  8
FORMAT
 62
     0
100
AcDbLine
 10
0.0
 20
5.0
 30
0.0
 11
0.0
 21
9.95
 31
0.0
  0
LINE
  5
23B
330
233
100
AcDbEntity
  8
FORMAT
 62
     0
100
AcDbLine
 10
-5.0
 20
0.0
 30
0.0
 11
-42.1691148826
 21
0.0
 31
0.0
  0
LINE
  5
23C
330
233
100
AcDbEntity
  8
FORMAT
 62
     0
100
AcDbLine
 10
0.0
 20
-5.0
 30
0.0
 11
0.0
 21
-9.95
 31
0.0
  0
LINE
  5
23D
330
233
100
AcDbEntity
  8
FORMAT
 62
     0
100
AcDbLine
 10
5.0
 20
0.0
 30
0.0
 11
21.8239835652
 21
0.0
 31
0.0
  0
ENDBLK
  5
235
330
233
100
AcDbEntity
  8
0
100
AcDbBlockEnd
  0
ENDSEC
  0
SECTION
  2
ENTITIES
  0
MTEXT
  5
65
330
1F
100
AcDbEntity
  8
FORMAT
100
AcDbMText
 10
127.9704387991
 20
94.4475803841
 30
0.0
 40
3.7041666667
 41
0.0
 71
     1
 72
     1
  1
エースボール　BM-9011R
  7
SLDTEXTSTYLE0
 73
     1
 44
1.0
  0
LINE
  5
66
330
1F
100
AcDbEntity
  8
0
  6
Continuous
 62
     7
370
    25
100
AcDbLine
 10
115.2891454965
 20
63.4594688222
 30
0.0
 11
115.7391454965
 21
71.4594688222
 31
0.0
  0
LINE
  5
67
330
1F
100
AcDbEntity
  8
0
  6
Continuous
 62
     7
370
    25
100
AcDbLine
 10
115.7391454965
 20
71.4594688222
 30
0.0
 11
113.7891454965
 21
79.4594688222
 31
0.0
  0
LINE
  5
68
330
1F
100
AcDbEntity
  8
0
  6
Continuous
 62
     7
370
    25
100
AcDbLine
 10
101.2184888708
 20
64.7155866135
 30
0.0
 11
101.2891454965
 21
63.4594688222
 31
0.0
  0
LINE
  5
69
330
1F
100
AcDbEntity
  8
0
  6
Continuous
 62
     7
370
    25
100
AcDbLine
 10
102.7891454965
 20
79.4594688222
 30
0.0
 11
102.5351686562
 21
78.4175125543
 31
0.0
  0
LINE
  5
6A
330
1F
100
AcDbEntity
  8
0
  6
Continuous
 62
     7
370
    25
100
AcDbLine
 10
97.3856185507
 20
43.1445142459
 30
0.0
 11
98.2891454965
 21
44.7094688222
 31
0.0
  0
LINE
  5
6B
330
1F
100
AcDbEntity
  8
0
  6
Continuous
 62
     7
370
    25
100
AcDbLine
 10
98.2891454965
 20
61.2094688222
 30
0.0
 11
97.3856185507
 21
62.7744233984
 31
0.0
  0
LINE
  5
6C
330
1F
100
AcDbEntity
  8
0
  6
Continuous
 62
     7
370
    25
100
AcDbLine
 10
86.1926724424
 20
62.7744233984
 30
0.0
 11
85.2891454965
 21
61.2094688222
 31
0.0
  0
LINE
  5
6D
330
1F
100
AcDbEntity
  8
0
  6
Continuous
 62
     7
370
    25
100
AcDbLine
 10
85.2891454965
 20
44.7094688222
 30
0.0
 11
86.1926724424
 21
43.1445142459
 31
0.0
  0
LINE
  5
6E
330
1F
100
AcDbEntity
  8
0
  6
Continuous
 62
     7
370
    25
100
AcDbLine
 10
117.7891454965
 20
62.9594688222
 30
0.0
 11
116.1711115078
 21
62.9594688222
 31
0.0
  0
LINE
  5
6F
330
1F
100
AcDbEntity
  8
0
  6
Continuous
 62
     7
370
    25
100
AcDbLine
 10
116.1711115078
 20
42.9594688222
 30
0.0
 11
117.7891454965
 21
42.9594688222
 31
0.0
  0
LINE
  5
70
330
1F
100
AcDbEntity
  8
0
  6
Continuous
 62
     7
370
    25
100
AcDbLine
 10
98.5391454965
 20
62.9594688222
 30
0.0
 11
98.2891454965
 21
62.7094688222
 31
0.0
  0
LINE
  5
71
330
1F
100
AcDbEntity
  8
0
  6
Continuous
 62
     7
370
    25
100
AcDbLine
 10
98.2891454965
 20
43.2094688222
 30
0.0
 11
98.5391454965
 21
42.9594688222
 31
0.0
  0
ARC
  5
72
330
1F
100
AcDbEntity
  8
0
  6
Continuous
 62
     7
370
    25
100
AcDbCircle
 10
99.2891454965
 20
43.9594688222
 30
0.0
 40
1.5
100
AcDbArc
 50
318.1896851042
 51
0.0
  0
ARC
  5
73
330
1F
100
AcDbEntity
  8
0
  6
Continuous
 62
     7
370
    25
100
AcDbCircle
 10
99.2891454965
 20
61.9594688222
 30
0.0
 40
1.5
100
AcDbArc
 50
0.0
 51
41.8103148958
  0
ARC
  5
74
330
1F
100
AcDbEntity
  8
0
  6
Continuous
 62
     7
370
    25
100
AcDbCircle
 10
117.2891454965
 20
61.9594688222
 30
0.0
 40
1.5
100
AcDbArc
 50
138.1896851042
 51
180.0
  0
ARC
  5
75
330
1F
100
AcDbEntity
  8
0
  6
Continuous
 62
     7
370
    25
100
AcDbCircle
 10
117.2891454965
 20
43.9594688222
 30
0.0
 40
1.5
100
AcDbArc
 50
180.0
 51
221.8103148958
  0
LINE
  5
76
330
1F
100
AcDbEntity
  8
0
  6
Continuous
 62
     7
370
    25
100
AcDbLine
 10
117.7891454965
 20
42.9594688222
 30
0.0
 11
118.2891454965
 21
43.4594688222
 31
0.0
  0
LINE
  5
77
330
1F
100
AcDbEntity
  8
0
  6
Continuous
 62
     7
370
    25
100
AcDbLine
 10
118.2891454965
 20
62.4594688222
 30
0.0
 11
117.7891454965
 21
62.9594688222
 31
0.0
  0
LINE
  5
78
330
1F
100
AcDbEntity
  8
0
  6
Continuous
 62
     7
370
    25
100
AcDbLine
 10
98.5391454965
 20
42.9594688222
 30
0.0
 11
100.4071794853
 21
42.9594688222
 31
0.0
  0
LINE
  5
79
330
1F
100
AcDbEntity
  8
0
  6
Continuous
 62
     7
370
    25
100
AcDbLine
 10
100.4071794853
 20
62.9594688222
 30
0.0
 11
98.5391454965
 21
62.9594688222
 31
0.0
  0
ARC
  5
7A
330
1F
100
AcDbEntity
  8
0
  6
Continuous
 62
     7
370
    25
100
AcDbCircle
 10
115.2891454965
 20
61.9594688222
 30
0.0
 40
0.5
100
AcDbArc
 50
270.0
 51
0.0
  0
ARC
  5
7B
330
1F
100
AcDbEntity
  8
0
  6
Continuous
 62
     7
370
    25
100
AcDbCircle
 10
101.2891454965
 20
61.9594688222
 30
0.0
 40
0.5
100
AcDbArc
 50
180.0
 51
270.0
  0
ARC
  5
7C
330
1F
100
AcDbEntity
  8
0
  6
Continuous
 62
     7
370
    25
100
AcDbCircle
 10
101.2891454965
 20
43.9594688222
 30
0.0
 40
0.5
100
AcDbArc
 50
90.0
 51
180.0
  0
ARC
  5
7D
330
1F
100
AcDbEntity
  8
0
  6
Continuous
 62
     7
370
    25
100
AcDbCircle
 10
115.2891454965
 20
43.9594688222
 30
0.0
 40
0.5
100
AcDbArc
 50
0.0
 51
90.0
  0
LINE
  5
7E
330
1F
100
AcDbEntity
  8
0
  6
Continuous
 62
     7
370
    25
100
AcDbLine
 10
101.9068246216
 20
61.4594688222
 30
0.0
 11
101.2891454965
 21
61.4594688222
 31
0.0
  0
LINE
  5
7F
330
1F
100
AcDbEntity
  8
0
  6
Continuous
 62
     7
370
    25
100
AcDbLine
 10
115.2891454965
 20
61.4594688222
 30
0.0
 11
114.6891454965
 21
61.4594688222
 31
0.0
  0
LINE
  5
80
330
1F
100
AcDbEntity
  8
0
  6
Continuous
 62
     7
370
    25
100
AcDbLine
 10
101.2891454965
 20
44.4594688222
 30
0.0
 11
115.2891454965
 21
44.4594688222
 31
0.0
  0
SPLINE
  5
81
330
1F
100
AcDbEntity
  8
0
  6
Continuous
 62
     7
370
    25
100
AcDbSpline
210
0.0
220
0.0
230
1.0
 70
     8
 71
     3
 72
    13
 73
     9
 74
     0
 42
0.00000001
 43
0.00000001
 40
0.0
 40
0.0
 40
0.0
 40
0.0
 40
0.1657648999013929
 40
0.3288516425910938
 40
0.5079757807440833
 40
0.6908230418584143
 40
0.8659232900064849
 40
1.0
 40
1.0
 40
1.0
 40
1.0
 10
114.689453443718
 20
61.46280219374987
 30
0.0
 10
114.6457592774187
 20
61.46468461085878
 30
0.0
 10
114.5590768834518
 20
61.46841903207022
 30
0.0
 10
114.4348930587566
 20
61.52257712193024
 30
0.0
 10
114.3245255971425
 20
61.60701255605154
 30
0.0
 10
114.2417131266582
 20
61.72280741306774
 30
0.0
 10
114.1952800577301
 20
61.84556986736064
 30
0.0
 10
114.1919933795854
 20
61.92680439516015
 30
0.0
 10
114.1905680890493
 20
61.96203230570918
 30
0.0
  0
SPLINE
  5
82
330
1F
100
AcDbEntity
  8
0
  6
Continuous
 62
     7
370
    25
100
AcDbSpline
210
0.0
220
0.0
230
1.0
 70
     8
 71
     3
 72
    13
 73
     9
 74
     0
 42
0.00000001
 43
0.00000001
 40
0.0
 40
0.0
 40
0.0
 40
0.0
 40
0.1607063118245939
 40
0.3468543103550863
 40
0.5363367921067442
 40
0.7155426209750598
 40
0.8707860443061729
 40
0.9999999999999999
 40
0.9999999999999999
 40
0.9999999999999999
 40
0.9999999999999999
 10
102.3880454199324
 20
61.95035700647853
 30
0.0
 10
102.3848211913013
 20
61.90965074484925
 30
0.0
 10
102.3778623009777
 20
61.82179394480043
 30
0.0
 10
102.3213765701992
 20
61.69560484350823
 30
0.0
 10
102.2315679401698
 20
61.58577285399072
 30
0.0
 10
102.1207355882269
 20
61.51060652666021
 30
0.0
 10
102.0095883774562
 20
61.46884200253776
 30
0.0
 10
101.9376961515297
 20
61.46294655164029
 30
0.0
 10
101.9050393122963
 20
61.46026855983121
 30
0.0
  0
LINE
  5
83
330
1F
100
AcDbEntity
  8
0
  6
Continuous
 62
     7
370
    25
100
AcDbLine
 10
114.1891454965
 20
61.9594688222
 30
0.0
 11
114.1891454965
 21
63.4594688222
 31
0.0
  0
LINE
  5
84
330
1F
100
AcDbEntity
  8
0
  6
Continuous
 62
     7
370
    25
100
AcDbLine
 10
102.3891454965
 20
63.4594688222
 30
0.0
 11
102.3891454965
 21
61.9481980822
 31
0.0
  0
LINE
  5
85
330
1F
100
AcDbEntity
  8
0
  6
Continuous
 62
     7
370
    25
100
AcDbLine
 10
118.2891454965
 20
47.9070313222
 30
0.0
 11
126.9341974371
 21
48.1771891953
 31
0.0
  0
LINE
  5
86
330
1F
100
AcDbEntity
  8
0
  6
Continuous
 62
     7
370
    25
100
AcDbLine
 10
126.9341974371
 20
57.741748449
 30
0.0
 11
118.2891454965
 21
58.0119063222
 31
0.0
  0
LINE
  5
87
330
1F
100
AcDbEntity
  8
0
  6
Continuous
 62
     7
370
    25
100
AcDbLine
 10
126.9341974371
 20
48.1771891953
 30
0.0
 11
128.2891454965
 21
48.9594688222
 31
0.0
  0
LINE
  5
88
330
1F
100
AcDbEntity
  8
0
  6
Continuous
 62
     7
370
    25
100
AcDbLine
 10
128.2891454965
 20
56.9594688222
 30
0.0
 11
126.9341974371
 21
57.741748449
 31
0.0
  0
SPLINE
  5
89
330
1F
100
AcDbEntity
  8
0
  6
Continuous
 62
     7
370
    25
100
AcDbSpline
210
0.0
220
0.0
230
1.0
 70
     8
 71
     3
 72
    15
 73
    11
 74
     0
 42
0.00000001
 43
0.00000001
 40
0.0
 40
0.0
 40
0.0
 40
0.0
 40
0.0081667445812695
 40
0.3321939991490082
 40
0.4756279600585605
 40
0.68668309732849
 40
0.8457435502264812
 40
0.8967566214763185
 40
0.9909540928118029
 40
1.0
 40
1.0
 40
1.0
 40
1.0
 10
103.190125982943
 20
80.30946882217091
 30
0.0
 10
103.1896384488001
 20
80.30946614582513
 30
0.0
 10
103.169807301268
 20
80.30935728163838
 30
0.0
 10
103.1415265212588
 20
80.29981126936889
 30
0.0
 10
103.1036972227699
 20
80.26244888611434
 30
0.0
 10
103.0771133262024
 20
80.21758337137967
 30
0.0
 10
103.0599435024475
 20
80.15970707180276
 30
0.0
 10
103.052126506231
 20
80.10903103183084
 30
0.0
 10
103.0501308197951
 20
80.08033675231084
 30
0.0
 10
103.0500658558443
 20
80.06114992075533
 30
0.0
 10
103.0500601638777
 20
80.05946882217091
 30
0.0
  0
LINE
  5
8A
330
1F
100
AcDbEntity
  8
0
  6
Continuous
 62
     7
370
    25
100
AcDbLine
 10
103.1901259829
 20
80.3094688222
 30
0.0
 11
113.3881650101
 21
80.3094688222
 31
0.0
  0
SPLINE
  5
8B
330
1F
100
AcDbEntity
  8
0
  6
Continuous
 62
     7
370
    25
100
AcDbSpline
210
0.0
220
0.0
230
1.0
 70
     8
 71
     3
 72
    15
 73
    11
 74
     0
 42
0.00000001
 43
0.00000001
 40
0.0
 40
0.0
 40
0.0
 40
0.0
 40
0.0090459071881971
 40
0.1032433785236873
 40
0.1542564497735245
 40
0.3133169026715109
 40
0.5243720399414425
 40
0.6678060008509904
 40
0.9918332554187292
 40
1.0
 40
1.0
 40
1.0
 40
1.0
 10
113.5282308291939
 20
80.05946882217091
 30
0.0
 10
113.5282251372272
 20
80.06114992075533
 30
0.0
 10
113.5281601732764
 20
80.08033675231084
 30
0.0
 10
113.5261644868405
 20
80.10903103183084
 30
0.0
 10
113.5183474906241
 20
80.15970707180277
 30
0.0
 10
113.5011776668691
 20
80.21758337137969
 30
0.0
 10
113.4745937703016
 20
80.26244888611436
 30
0.0
 10
113.4367644718128
 20
80.29981126936887
 30
0.0
 10
113.4084836918035
 20
80.3093572816384
 30
0.0
 10
113.3886525442714
 20
80.30946614582513
 30
0.0
 10
113.3881650101285
 20
80.30946882217091
 30
0.0
  0
LINE
  5
8C
330
1F
100
AcDbEntity
  8
0
  6
Continuous
 62
     7
370
    25
100
AcDbLine
 10
113.5282308292
 20
80.0594688222
 30
0.0
 11
103.0500601639
 21
80.0594688222
 31
0.0
  0
LINE
  5
8D
330
1F
100
AcDbEntity
  8
0
  6
Continuous
 62
     7
370
    25
100
AcDbLine
 10
103.0500601639
 20
80.0594688222
 30
0.0
 11
103.0500601639
 21
79.4594688222
 31
0.0
  0
LINE
  5
8E
330
1F
100
AcDbEntity
  8
0
  6
Continuous
 62
     7
370
    25
100
AcDbLine
 10
113.5282308292
 20
79.4594688222
 30
0.0
 11
113.5282308292
 21
80.0594688222
 31
0.0
  0
LINE
  5
8F
330
1F
100
AcDbEntity
  8
0
  6
Continuous
 62
     7
370
    25
100
AcDbLine
 10
103.0500601639
 20
79.4594688222
 30
0.0
 11
113.5282308292
 21
79.4594688222
 31
0.0
  0
LINE
  5
90
330
1F
100
AcDbEntity
  8
0
  6
Continuous
 62
     7
370
    25
100
AcDbLine
 10
102.8119199215
 20
80.0594688222
 30
0.0
 11
103.0500601639
 21
80.0594688222
 31
0.0
  0
SPLINE
  5
91
330
1F
100
AcDbEntity
  8
0
  6
Continuous
 62
     7
370
    25
100
AcDbSpline
210
0.0
220
0.0
230
1.0
 70
     8
 71
     3
 72
    15
 73
    11
 74
     0
 42
0.00000001
 43
0.00000001
 40
0.0
 40
0.0
 40
0.0
 40
0.0
 40
0.0089557228015919
 40
0.0999003359608148
 40
0.153163246058169
 40
0.3125636920784849
 40
0.5249666935695
 40
0.6689893599352452
 40
0.9919152533810159
 40
1.0
 40
1.0
 40
1.0
 40
1.0
 10
102.8119199214841
 20
80.05946882217091
 30
0.0
 10
102.8119356770627
 20
80.06114994774383
 30
0.0
 10
102.8121114292193
 20
80.07990276236826
 30
0.0
 10
102.8175404452388
 20
80.10866499147575
 30
0.0
 10
102.8390759289461
 20
80.15955206494407
 30
0.0
 10
102.8867813572109
 20
80.21768771507672
 30
0.0
 10
102.9591723022028
 20
80.26239558826013
 30
0.0
 10
103.0610914142206
 20
80.29967741172186
 30
0.0
 10
103.1364465056751
 20
80.30935656655952
 30
0.0
 10
103.1888461513988
 20
80.30946614576123
 30
0.0
 10
103.190125982943
 20
80.30946882217091
 30
0.0
  0
LINE
  5
92
330
1F
100
AcDbEntity
  8
0
  6
Continuous
 62
     7
370
    25
100
AcDbLine
 10
113.5282308292
 20
80.0594688222
 30
0.0
 11
113.7663710716
 21
80.0594688222
 31
0.0
  0
SPLINE
  5
93
330
1F
100
AcDbEntity
  8
0
  6
Continuous
 62
     7
370
    25
100
AcDbSpline
210
0.0
220
0.0
230
1.0
 70
     8
 71
     3
 72
    15
 73
    11
 74
     0
 42
0.00000001
 43
0.00000001
 40
0.0
 40
0.0
 40
0.0
 40
0.0
 40
0.0080847466189818
 40
0.3310106400647566
 40
0.4750333064304971
 40
0.6874363079215134
 40
0.8468367539418253
 40
0.9000996640391794
 40
0.9910442771984082
 40
1.0
 40
1.0
 40
1.0
 40
1.0
 10
113.3881650101285
 20
80.30946882217091
 30
0.0
 10
113.3894448416727
 20
80.30946614576123
 30
0.0
 10
113.4418444873965
 20
80.30935656655943
 30
0.0
 10
113.5171995788509
 20
80.29967741172189
 30
0.0
 10
113.6191186908687
 20
80.26239558826013
 30
0.0
 10
113.6915096358606
 20
80.2176877150767
 30
0.0
 10
113.7392150641254
 20
80.15955206494408
 30
0.0
 10
113.7607505478327
 20
80.10866499147575
 30
0.0
 10
113.7661795638523
 20
80.07990276236826
 30
0.0
 10
113.7663553160088
 20
80.06114994774383
 30
0.0
 10
113.7663710715874
 20
80.05946882217091
 30
0.0
  0
LINE
  5
94
330
1F
100
AcDbEntity
  8
0
  6
Continuous
 62
     7
370
    25
100
AcDbLine
 10
102.8119199215
 20
79.4594688222
 30
0.0
 11
102.8119199215
 21
80.0594688222
 31
0.0
  0
LINE
  5
95
330
1F
100
AcDbEntity
  8
0
  6
Continuous
 62
     7
370
    25
100
AcDbLine
 10
103.0500601639
 20
79.4594688222
 30
0.0
 11
102.8119199215
 21
79.4594688222
 31
0.0
  0
LINE
  5
96
330
1F
100
AcDbEntity
  8
0
  6
Continuous
 62
     7
370
    25
100
AcDbLine
 10
113.7663710716
 20
80.0594688222
 30
0.0
 11
113.7663710716
 21
79.4594688222
 31
0.0
  0
LINE
  5
97
330
1F
100
AcDbEntity
  8
0
  6
Continuous
 62
     7
370
    25
100
AcDbLine
 10
113.7663710716
 20
79.4594688222
 30
0.0
 11
113.5282308292
 21
79.4594688222
 31
0.0
  0
LINE
  5
98
330
1F
100
AcDbEntity
  8
0
  6
Continuous
 62
     7
370
    25
100
AcDbLine
 10
102.2891454965
 20
80.0594688222
 30
0.0
 11
102.5391454965
 21
80.0594688222
 31
0.0
  0
ARC
  5
99
330
1F
100
AcDbEntity
  8
0
  6
Continuous
 62
     7
370
    25
100
AcDbCircle
 10
102.5391454965
 20
80.0594688222
 30
0.0
 40
0.25
100
AcDbArc
 50
90.0
 51
180.0
  0
LINE
  5
9A
330
1F
100
AcDbEntity
  8
0
  6
Continuous
 62
     7
370
    25
100
AcDbLine
 10
102.5391454965
 20
80.3094688222
 30
0.0
 11
102.5391454965
 21
80.0594688222
 31
0.0
  0
LINE
  5
9B
330
1F
100
AcDbEntity
  8
0
  6
Continuous
 62
     7
370
    25
100
AcDbLine
 10
102.5391454965
 20
80.0594688222
 30
0.0
 11
102.5391454965
 21
79.4594688222
 31
0.0
  0
LINE
  5
9C
330
1F
100
AcDbEntity
  8
0
  6
Continuous
 62
     7
370
    25
100
AcDbLine
 10
102.8119199215
 20
80.0594688222
 30
0.0
 11
102.5391454965
 21
80.0594688222
 31
0.0
  0
LINE
  5
9D
330
1F
100
AcDbEntity
  8
0
  6
Continuous
 62
     7
370
    25
100
AcDbLine
 10
102.8119199215
 20
79.4594688222
 30
0.0
 11
102.5391454965
 21
79.4594688222
 31
0.0
  0
LINE
  5
9E
330
1F
100
AcDbEntity
  8
0
  6
Continuous
 62
     7
370
    25
100
AcDbLine
 10
102.5391454965
 20
80.3094688222
 30
0.0
 11
103.1901259829
 21
80.3094688222
 31
0.0
  0
LINE
  5
9F
330
1F
100
AcDbEntity
  8
0
  6
Continuous
 62
     7
370
    25
100
AcDbLine
 10
102.2891454965
 20
79.4594688222
 30
0.0
 11
102.2891454965
 21
80.0594688222
 31
0.0
  0
LINE
  5
A0
330
1F
100
AcDbEntity
  8
0
  6
Continuous
 62
     7
370
    25
100
AcDbLine
 10
102.5391454965
 20
79.4594688222
 30
0.0
 11
102.2891454965
 21
79.4594688222
 31
0.0
  0
LINE
  5
A1
330
1F
100
AcDbEntity
  8
0
  6
Continuous
 62
     7
370
    25
100
AcDbLine
 10
114.0391454965
 20
80.0594688222
 30
0.0
 11
114.0391454965
 21
80.3094688222
 31
0.0
  0
LINE
  5
A2
330
1F
100
AcDbEntity
  8
0
  6
Continuous
 62
     7
370
    25
100
AcDbLine
 10
114.0391454965
 20
80.0594688222
 30
0.0
 11
113.7663710716
 21
80.0594688222
 31
0.0
  0
LINE
  5
A3
330
1F
100
AcDbEntity
  8
0
  6
Continuous
 62
     7
370
    25
100
AcDbLine
 10
113.3881650101
 20
80.3094688222
 30
0.0
 11
114.0391454965
 21
80.3094688222
 31
0.0
  0
ARC
  5
A4
330
1F
100
AcDbEntity
  8
0
  6
Continuous
 62
     7
370
    25
100
AcDbCircle
 10
114.0391454965
 20
80.0594688222
 30
0.0
 40
0.25
100
AcDbArc
 50
0.0
 51
90.0
  0
LINE
  5
A5
330
1F
100
AcDbEntity
  8
0
  6
Continuous
 62
     7
370
    25
100
AcDbLine
 10
114.0391454965
 20
80.0594688222
 30
0.0
 11
114.2891454965
 21
80.0594688222
 31
0.0
  0
LINE
  5
A6
330
1F
100
AcDbEntity
  8
0
  6
Continuous
 62
     7
370
    25
100
AcDbLine
 10
114.0391454965
 20
79.4594688222
 30
0.0
 11
114.0391454965
 21
80.0594688222
 31
0.0
  0
LINE
  5
A7
330
1F
100
AcDbEntity
  8
0
  6
Continuous
 62
     7
370
    25
100
AcDbLine
 10
114.2891454965
 20
80.0594688222
 30
0.0
 11
114.2891454965
 21
79.4594688222
 31
0.0
  0
LINE
  5
A8
330
1F
100
AcDbEntity
  8
0
  6
Continuous
 62
     7
370
    25
100
AcDbLine
 10
114.2891454965
 20
79.4594688222
 30
0.0
 11
114.0391454965
 21
79.4594688222
 31
0.0
  0
LINE
  5
A9
330
1F
100
AcDbEntity
  8
0
  6
Continuous
 62
     7
370
    25
100
AcDbLine
 10
114.0391454965
 20
79.4594688222
 30
0.0
 11
113.7663710716
 21
79.4594688222
 31
0.0
  0
LINE
  5
AA
330
1F
100
AcDbEntity
  8
0
  6
Continuous
 62
     7
370
    25
100
AcDbLine
 10
113.2891454965
 20
80.3094688222
 30
0.0
 11
113.2891454965
 21
80.3194688222
 31
0.0
  0
LINE
  5
AB
330
1F
100
AcDbEntity
  8
0
  6
Continuous
 62
     7
370
    25
100
AcDbLine
 10
103.2891454965
 20
80.3094688222
 30
0.0
 11
103.2891454965
 21
80.3194688222
 31
0.0
  0
LINE
  5
AC
330
1F
100
AcDbEntity
  8
0
  6
Continuous
 62
     7
370
    25
100
AcDbLine
 10
103.2891454965
 20
80.3194688222
 30
0.0
 11
113.2891454965
 21
80.3194688222
 31
0.0
  0
LINE
  5
AD
330
1F
100
AcDbEntity
  8
0
  6
Continuous
 62
     7
370
    25
100
AcDbLine
 10
106.2891454965
 20
63.4594688222
 30
0.0
 11
115.2891454965
 21
63.4594688222
 31
0.0
  0
LINE
  5
AE
330
1F
100
AcDbEntity
  8
0
  6
Continuous
 62
     7
370
    25
100
AcDbLine
 10
106.2891454965
 20
63.497285746
 30
0.0
 11
106.2891454965
 21
63.4594688222
 31
0.0
  0
SPLINE
  5
AF
330
1F
100
AcDbEntity
  8
0
  6
Continuous
 62
     7
370
    25
100
AcDbSpline
210
0.0
220
0.0
230
1.0
 70
     8
 71
     3
 72
     9
 73
     5
 74
     0
 42
0.00000001
 43
0.00000001
 40
0.0
 40
0.0
 40
0.0
 40
0.0
 40
0.4875141023677128
 40
0.9999999999999999
 40
0.9999999999999999
 40
0.9999999999999999
 40
0.9999999999999999
 10
106.1332002461086
 20
63.45946882217096
 30
0.0
 10
106.1595068200312
 20
63.46119616814266
 30
0.0
 10
106.2134674619794
 20
63.46473933943414
 30
0.0
 10
106.2635029926742
 20
63.48625782538346
 30
0.0
 10
106.2891454965358
 20
63.49728574597088
 30
0.0
  0
SPLINE
  5
B0
330
1F
100
AcDbEntity
  8
0
  6
Continuous
 62
     7
370
    25
100
AcDbSpline
210
0.0
220
0.0
230
1.0
 70
     8
 71
     3
 72
    17
 73
    13
 74
     0
 42
0.00000001
 43
0.00000001
 40
0.0
 40
0.0
 40
0.0
 40
0.0
 40
0.3241697628029873
 40
0.542275846362072
 40
0.689509052693928
 40
0.7894036290694506
 40
0.8577090008137827
 40
0.9049823971474139
 40
0.9551712229700868
 40
0.9753097783197817
 40
0.9919572060138849
 40
1.0
 40
1.0
 40
1.0
 40
1.0
 10
103.8145986124536
 20
71.45946882216855
 30
0.0
 10
103.9573139724708
 20
70.54685531956285
 30
0.0
 10
104.1960502814128
 20
69.02022231330152
 30
0.0
 10
104.5756374758644
 20
67.09344941102054
 30
0.0
 10
104.8847716842115
 20
65.80581394008777
 30
0.0
 10
105.1408852124116
 20
64.94666197336605
 30
0.0
 10
105.3551962153066
 20
64.37319408498864
 30
0.0
 10
105.5584304363345
 20
63.95166193095866
 30
0.0
 10
105.7429757008771
 20
63.67116938816324
 30
0.0
 10
105.9290467872452
 20
63.51562071958259
 30
0.0
 10
106.0442573865012
 20
63.46501012038508
 30
0.0
 10
106.111346191974
 20
63.46083036858044
 30
0.0
 10
106.1332002461086
 20
63.45946882217096
 30
0.0
  0
LINE
  5
B1
330
1F
100
AcDbEntity
  8
0
  6
Continuous
 62
     7
370
    25
100
AcDbLine
 10
103.8145986125
 20
71.4594688222
 30
0.0
 11
115.7391454965
 21
71.4594688222
 31
0.0
  0
SPLINE
  5
B2
330
1F
100
AcDbEntity
  8
0
  6
Continuous
 62
     7
370
    25
100
AcDbSpline
210
0.0
220
0.0
230
1.0
 70
     8
 71
     3
 72
     9
 73
     5
 74
     0
 42
0.00000001
 43
0.00000001
 40
0.0
 40
0.0
 40
0.0
 40
0.0
 40
0.4978401817595094
 40
1.0
 40
1.0
 40
1.0
 40
1.0
 10
104.5748093682154
 20
72.45421240013783
 30
0.0
 10
104.4384874598447
 20
72.29770121744524
 30
0.0
 10
104.1646608115238
 20
71.98332084312622
 30
0.0
 10
103.9316215604272
 20
71.63458829509995
 30
0.0
 10
103.8145986124536
 20
71.45946882216855
 30
0.0
  0
LINE
  5
B3
330
1F
100
AcDbEntity
  8
0
  6
Continuous
 62
     7
370
    25
100
AcDbLine
 10
103.0653433222
 20
79.4594688222
 30
0.0
 11
101.3372046582
 21
72.4542124001
 31
0.0
  0
LINE
  5
B4
330
1F
100
AcDbEntity
  8
0
  6
Continuous
 62
     7
370
    25
100
AcDbLine
 10
113.5282308292
 20
79.4594688221
 30
0.0
 11
103.0653433222
 21
79.4594688222
 31
0.0
  0
SPLINE
  5
B5
330
1F
100
AcDbEntity
  8
0
  6
Continuous
 62
     7
370
    25
100
AcDbSpline
210
0.0
220
0.0
230
1.0
 70
     8
 71
     3
 72
    14
 73
    10
 74
     0
 42
0.00000001
 43
0.00000001
 40
0.0
 40
0.0
 40
0.0
 40
0.0
 40
0.1576095309202822
 40
0.3152382602707094
 40
0.4726926441579498
 40
0.6301650083177254
 40
0.7907313191165901
 40
0.9513050385928076
 40
1.0
 40
1.0
 40
1.0
 40
1.0
 10
101.7891454965358
 20
63.4594688221709
 30
0.0
 10
101.7225744817537
 20
63.67297061064831
 30
0.0
 10
101.5894243431688
 20
64.1000001942738
 30
0.0
 10
101.2608573814181
 20
64.68524727313013
 30
0.0
 10
100.8474677406861
 20
65.20740181395254
 30
0.0
 10
100.3517928217414
 20
65.6563799413724
 30
0.0
 10
99.78550311645694
 20
66.0156616731788
 30
0.0
 10
99.3092524600639
 20
66.22022785227999
 30
0.0
 10
99.02905789187113
 20
66.30102240063128
 30
0.0
 10
98.96385910709812
 20
66.31982257367807
 30
0.0
  0
LINE
  5
B6
330
1F
100
AcDbEntity
  8
0
  6
Continuous
 62
     7
370
    25
100
AcDbLine
 10
98.9638591071
 20
66.3198225737
 30
0.0
 11
93.1841022572
 21
67.8884440142
 31
0.0
  0
SPLINE
  5
B7
330
1F
100
AcDbEntity
  8
0
  6
Continuous
 62
     7
370
    25
100
AcDbSpline
210
0.0
220
0.0
230
1.0
 70
     8
 71
     3
 72
    11
 73
     7
 74
     0
 42
0.00000001
 43
0.00000001
 40
0.0
 40
0.0
 40
0.0
 40
0.0
 40
0.2488466353289361
 40
0.4976946020535204
 40
0.7488461225871278
 40
1.0
 40
1.0
 40
1.0
 40
1.0
 10
86.11370863499911
 20
69.21164451514645
 30
0.0
 10
86.70814468413538
 20
69.14212013865281
 30
0.0
 10
87.89701996279878
 20
69.00307101369164
 30
0.0
 10
89.67174463350781
 20
68.70274227556637
 30
0.0
 10
91.43832527525018
 20
68.34083265731121
 30
0.0
 10
92.60217477626986
 20
68.03924070024665
 30
0.0
 10
93.18410225724286
 20
67.88844401416092
 30
0.0
  0
LINE
  5
B8
330
1F
100
AcDbEntity
  8
0
  6
Continuous
 62
     7
370
    25
100
AcDbLine
 10
86.113708635
 20
69.2116445151
 30
0.0
 11
86.113708635
 21
72.4542124002
 31
0.0
  0
LINE
  5
B9
330
1F
100
AcDbEntity
  8
0
  6
Continuous
 62
     7
370
    25
100
AcDbLine
 10
86.113708635
 20
72.4542124002
 30
0.0
 11
104.5748093682
 21
72.4542124001
 31
0.0
  0
LINE
  5
BA
330
1F
100
AcDbEntity
  8
0
  6
Continuous
 62
     7
370
    25
100
AcDbLine
 10
106.1332002461
 20
63.4594688222
 30
0.0
 11
101.7891454965
 21
63.4594688222
 31
0.0
  0
LINE
  5
BB
330
1F
100
AcDbEntity
  8
0
  6
Continuous
 62
     7
370
    25
100
AcDbLine
 10
106.2891454965
 20
63.497285746
 30
0.0
 11
106.2823461386
 21
63.4594688222
 31
0.0
  0
LINE
  5
BC
330
1F
100
AcDbEntity
  8
0
  6
Continuous
 62
     7
370
    25
100
AcDbLine
 10
106.2891454965
 20
63.4594688222
 30
0.0
 11
106.2823461386
 21
63.4594688222
 31
0.0
  0
LINE
  5
BD
330
1F
100
AcDbEntity
  8
0
  6
Continuous
 62
     7
370
    25
100
AcDbLine
 10
106.2823461386
 20
63.4594688222
 30
0.0
 11
106.1332002461
 21
63.4594688222
 31
0.0
  0
LINE
  5
BE
330
1F
100
AcDbEntity
  8
0
  6
Continuous
 62
     7
370
    25
100
AcDbLine
 10
68.2891454965
 20
81.4594688222
 30
0.0
 11
86.113708635
 21
81.4594688222
 31
0.0
  0
LINE
  5
BF
330
1F
100
AcDbEntity
  8
0
  6
Continuous
 62
     7
370
    25
100
AcDbLine
 10
86.113708635
 20
81.4594688222
 30
0.0
 11
86.113708635
 21
72.4542124002
 31
0.0
  0
LINE
  5
C0
330
1F
100
AcDbEntity
  8
0
  6
Continuous
 62
     7
370
    25
100
AcDbLine
 10
81.3974776388
 20
69.4594688222
 30
0.0
 11
73.2891454965
 21
69.4594688222
 31
0.0
  0
ARC
  5
C1
330
1F
100
AcDbEntity
  8
0
  6
Continuous
 62
     7
370
    25
100
AcDbCircle
 10
73.2891454965
 20
74.4594688222
 30
0.0
 40
5.0
100
AcDbArc
 50
180.0
 51
270.0
  0
LINE
  5
C2
330
1F
100
AcDbEntity
  8
0
  6
Continuous
 62
     7
370
    25
100
AcDbLine
 10
68.2891454965
 20
74.4594688222
 30
0.0
 11
68.2891454965
 21
81.4594688222
 31
0.0
  0
ARC
  5
C3
330
1F
100
AcDbEntity
  8
0
  6
Continuous
 62
     7
370
    25
100
AcDbCircle
 10
81.3974776388
 20
24.459339568
 30
0.0
 40
45.00012925418373
100
AcDbArc
 50
83.9840777705
 51
90.0
  0
LINE
  5
C4
330
1F
100
AcDbEntity
  8
0
  6
Continuous
 62
     7
370
    25
100
AcDbLine
 10
88.2891454965
 20
81.4594688222
 30
0.0
 11
88.2891454965
 21
79.4784243455
 31
0.0
  0
ARC
  5
C5
330
1F
100
AcDbEntity
  8
0
  6
Continuous
 62
     7
370
    25
100
AcDbCircle
 10
94.2891454965
 20
79.4784243455
 30
0.0
 40
6.000000000000014
100
AcDbArc
 50
180.0
 51
275.5801667845
  0
ARC
  5
C6
330
1F
100
AcDbEntity
  8
0
  6
Continuous
 62
     7
370
    25
100
AcDbCircle
 10
93.9001919323
 20
83.4594688222
 30
0.0
 40
10.00000000000847
100
AcDbArc
 50
275.5801667845
 51
336.4218215217
  0
LINE
  5
C7
330
1F
100
AcDbEntity
  8
0
  6
Continuous
 62
     7
370
    25
100
AcDbLine
 10
86.113708635
 20
81.4594688222
 30
0.0
 11
88.2891454965
 21
81.4594688222
 31
0.0
  0
LINE
  5
C8
330
1F
100
AcDbEntity
  8
0
  6
Continuous
 62
     7
370
    25
100
AcDbLine
 10
101.7891454965
 20
63.4594688222
 30
0.0
 11
101.2891454965
 21
63.4594688222
 31
0.0
  0
LINE
  5
C9
330
1F
100
AcDbEntity
  8
0
  6
Continuous
 62
     7
370
    25
100
AcDbLine
 10
103.0500601639
 20
79.4594688221
 30
0.0
 11
103.0653433222
 21
79.4594688222
 31
0.0
  0
SPLINE
  5
CA
330
1F
100
AcDbEntity
  8
0
  6
Continuous
 62
     7
370
    25
100
AcDbSpline
210
0.0
220
0.0
230
1.0
 70
     8
 71
     3
 72
    16
 73
    12
 74
     0
 42
0.00000001
 43
0.00000001
 40
0.0
 40
0.0
 40
0.0
 40
0.0
 40
0.1014381832387029
 40
0.2277394491339614
 40
0.3540074836533245
 40
0.4833609800086974
 40
0.6127108224207868
 40
0.7089762154573619
 40
0.805252287132991
 40
0.9026209303294289
 40
1.0
 40
1.0
 40
1.0
 40
1.0
 10
86.19267244238802
 20
48.05199153405916
 30
0.0
 10
86.10295574719154
 20
48.37676812078728
 30
0.0
 10
85.90153227833774
 20
49.10592590527775
 30
0.0
 10
85.66131043587434
 20
50.25789345115488
 30
0.0
 10
85.48577967372961
 20
51.51525374224097
 30
0.0
 10
85.41643568180997
 20
52.79356039399666
 30
0.0
 10
85.45403566946722
 20
53.97338214477672
 30
0.0
 10
85.56862332987323
 20
55.0369395512794
 30
0.0
 10
85.72736546967703
 20
55.98702107928641
 30
0.0
 10
85.93378132895961
 20
56.9317877236191
 30
0.0
 10
86.10637232449864
 20
57.55521552229325
 30
0.0
 10
86.19267244238802
 20
57.86694611028283
 30
0.0
  0
LINE
  5
CB
330
1F
100
AcDbEntity
  8
0
  6
Continuous
 62
     7
370
    25
100
AcDbLine
 10
86.1926724424
 20
57.8669461103
 30
0.0
 11
97.3856185507
 21
57.8669461103
 31
0.0
  0
SPLINE
  5
CC
330
1F
100
AcDbEntity
  8
0
  6
Continuous
 62
     7
370
    25
100
AcDbSpline
210
0.0
220
0.0
230
1.0
 70
     8
 71
     3
 72
    16
 73
    12
 74
     0
 42
0.00000001
 43
0.00000001
 40
0.0
 40
0.0
 40
0.0
 40
0.0
 40
0.1014381832387375
 40
0.2277394491339911
 40
0.3540074836533493
 40
0.4833609800087172
 40
0.6127108224208017
 40
0.7089762154573731
 40
0.8052522871329985
 40
0.9026209303294326
 40
0.9999999999999999
 40
0.9999999999999999
 40
0.9999999999999999
 40
0.9999999999999999
 10
97.38561855068384
 20
48.05199153405868
 30
0.0
 10
97.47533524588017
 20
48.37676812078697
 30
0.0
 10
97.67675871473361
 20
49.10592590527766
 30
0.0
 10
97.91698055719725
 20
50.25789345115487
 30
0.0
 10
98.09251131934191
 20
51.51525374224097
 30
0.0
 10
98.16185531126156
 20
52.79356039399666
 30
0.0
 10
98.12425532360432
 20
53.97338214477672
 30
0.0
 10
98.0096676631983
 20
55.0369395512794
 30
0.0
 10
97.85092552339451
 20
55.98702107928641
 30
0.0
 10
97.64450966411192
 20
56.9317877236191
 30
0.0
 10
97.47191866857288
 20
57.55521552229325
 30
0.0
 10
97.3856185506835
 20
57.86694611028283
 30
0.0
  0
LINE
  5
CD
330
1F
100
AcDbEntity
  8
0
  6
Continuous
 62
     7
370
    25
100
AcDbLine
 10
86.1926724424
 20
48.0519915341
 30
0.0
 11
97.3856185507
 21
48.0519915341
 31
0.0
  0
SPLINE
  5
CE
330
1F
100
AcDbEntity
  8
0
  6
Continuous
 62
     7
370
    25
100
AcDbSpline
210
0.0
220
0.0
230
1.0
 70
     8
 71
     3
 72
    15
 73
    11
 74
     0
 42
0.00000001
 43
0.00000001
 40
0.0
 40
0.0
 40
0.0
 40
0.0
 40
0.1323052378296956
 40
0.2645730682660303
 40
0.3997997819746812
 40
0.5350020935366635
 40
0.6501929590834554
 40
0.7654017933211806
 40
0.8826895567076665
 40
1.0
 40
1.0
 40
1.0
 40
1.0
 10
86.19267244238802
 20
43.14451424594726
 30
0.0
 10
86.07710247054801
 20
43.35653678960376
 30
0.0
 10
85.84599520260686
 20
43.78052193060758
 30
0.0
 10
85.5973325710305
 20
44.43342151626272
 30
0.0
 10
85.44781862387697
 20
45.09862836848559
 30
0.0
 10
85.41820833682861
 20
45.73973901478294
 30
0.0
 10
85.49502973947924
 20
46.34621377964629
 30
0.0
 10
85.65243921060026
 20
46.91857673939869
 30
0.0
 10
85.88334157113125
 20
47.48835187965292
 30
0.0
 10
86.08955550668864
 20
47.86409954072239
 30
0.0
 10
86.19267244238802
 20
48.05199153405916
 30
0.0
  0
SPLINE
  5
CF
330
1F
100
AcDbEntity
  8
0
  6
Continuous
 62
     7
370
    25
100
AcDbSpline
210
0.0
220
0.0
230
1.0
 70
     8
 71
     3
 72
    15
 73
    11
 74
     0
 42
0.00000001
 43
0.00000001
 40
0.0
 40
0.0
 40
0.0
 40
0.0
 40
0.1323052378296996
 40
0.2645730682660384
 40
0.3997997819746935
 40
0.5350020935366798
 40
0.6501929590834692
 40
0.7654017933211916
 40
0.8826895567076725
 40
0.9999999999999999
 40
0.9999999999999999
 40
0.9999999999999999
 40
0.9999999999999999
 10
97.3856185506835
 20
43.14451424594726
 30
0.0
 10
97.5011885225235
 20
43.35653678960376
 30
0.0
 10
97.73229579046468
 20
43.78052193060757
 30
0.0
 10
97.98095842204103
 20
44.43342151626272
 30
0.0
 10
98.13047236919456
 20
45.09862836848559
 30
0.0
 10
98.16008265624293
 20
45.73973901478294
 30
0.0
 10
98.0832612535923
 20
46.34621377964624
 30
0.0
 10
97.92585178247126
 20
46.91857673939867
 30
0.0
 10
97.69494942194046
 20
47.48835187965263
 30
0.0
 10
97.48873548638318
 20
47.86409954072197
 30
0.0
 10
97.38561855068384
 20
48.05199153405868
 30
0.0
  0
LINE
  5
D0
330
1F
100
AcDbEntity
  8
0
  6
Continuous
 62
     7
370
    25
100
AcDbLine
 10
86.1926724424
 20
43.1445142459
 30
0.0
 11
97.3856185507
 21
43.1445142459
 31
0.0
  0
SPLINE
  5
D1
330
1F
100
AcDbEntity
  8
0
  6
Continuous
 62
     7
370
    25
100
AcDbSpline
210
0.0
220
0.0
230
1.0
 70
     8
 71
     3
 72
    15
 73
    11
 74
     0
 42
0.00000001
 43
0.00000001
 40
0.0
 40
0.0
 40
0.0
 40
0.0
 40
0.1323052378296972
 40
0.2645730682660337
 40
0.3997997819746862
 40
0.5350020935366703
 40
0.6501929590834606
 40
0.7654017933211842
 40
0.8826895567076684
 40
1.0
 40
1.0
 40
1.0
 40
1.0
 10
97.3856185506835
 20
57.86694611028283
 30
0.0
 10
97.5011885225235
 20
58.07896865393932
 30
0.0
 10
97.73229579046468
 20
58.50295379494313
 30
0.0
 10
97.98095842204103
 20
59.15585338059826
 30
0.0
 10
98.13047236919454
 20
59.82106023282112
 30
0.0
 10
98.1600826562429
 20
60.46217087911844
 30
0.0
 10
98.08326125359227
 20
61.06864564398176
 30
0.0
 10
97.92585178247124
 20
61.64100860373413
 30
0.0
 10
97.69494942194027
 20
62.21078374398834
 30
0.0
 10
97.4887354863829
 20
62.58653140505779
 30
0.0
 10
97.3856185506835
 20
62.77442339839455
 30
0.0
  0
SPLINE
  5
D2
330
1F
100
AcDbEntity
  8
0
  6
Continuous
 62
     7
370
    25
100
AcDbSpline
210
0.0
220
0.0
230
1.0
 70
     8
 71
     3
 72
    15
 73
    11
 74
     0
 42
0.00000001
 43
0.00000001
 40
0.0
 40
0.0
 40
0.0
 40
0.0
 40
0.1323052378296972
 40
0.2645730682660337
 40
0.3997997819746861
 40
0.5350020935366702
 40
0.6501929590834605
 40
0.7654017933211842
 40
0.8826895567076684
 40
1.0
 40
1.0
 40
1.0
 40
1.0
 10
86.19267244238802
 20
57.86694611028283
 30
0.0
 10
86.07710247054801
 20
58.07896865393932
 30
0.0
 10
85.84599520260686
 20
58.50295379494313
 30
0.0
 10
85.5973325710305
 20
59.15585338059826
 30
0.0
 10
85.447818623877
 20
59.82106023282112
 30
0.0
 10
85.41820833682863
 20
60.46217087911844
 30
0.0
 10
85.49502973947926
 20
61.06864564398176
 30
0.0
 10
85.65243921060028
 20
61.64100860373413
 30
0.0
 10
85.88334157113127
 20
62.21078374398834
 30
0.0
 10
86.08955550668864
 20
62.58653140505779
 30
0.0
 10
86.19267244238802
 20
62.77442339839455
 30
0.0
  0
LINE
  5
D3
330
1F
100
AcDbEntity
  8
0
  6
Continuous
 62
     7
370
    25
100
AcDbLine
 10
85.2891454965
 20
52.9594688222
 30
0.0
 11
85.2891454965
 21
61.2094688222
 31
0.0
  0
LINE
  5
D4
330
1F
100
AcDbEntity
  8
0
  6
Continuous
 62
     7
370
    25
100
AcDbLine
 10
85.2891454965
 20
44.7094688222
 30
0.0
 11
85.2891454965
 21
52.9594688222
 31
0.0
  0
LINE
  5
D5
330
1F
100
AcDbEntity
  8
0
  6
Continuous
 62
     7
370
    25
100
AcDbLine
 10
86.1926724424
 20
62.7744233984
 30
0.0
 11
97.3856185507
 21
62.7744233984
 31
0.0
  0
LINE
  5
D6
330
1F
100
AcDbEntity
  8
0
  6
Continuous
 62
     7
370
    25
100
AcDbLine
 10
116.1711115078
 20
42.9594688222
 30
0.0
 11
116.1711115078
 21
62.9594688222
 31
0.0
  0
LINE
  5
D7
330
1F
100
AcDbEntity
  8
0
  6
Continuous
 62
     7
370
    25
100
AcDbLine
 10
117.7891454965
 20
42.9594688222
 30
0.0
 11
117.7891454965
 21
62.9594688222
 31
0.0
  0
LINE
  5
D8
330
1F
100
AcDbEntity
  8
0
  6
Continuous
 62
     7
370
    25
100
AcDbLine
 10
98.2891454965
 20
52.9594688222
 30
0.0
 11
98.2891454965
 21
62.7094688222
 31
0.0
  0
LINE
  5
D9
330
1F
100
AcDbEntity
  8
0
  6
Continuous
 62
     7
370
    25
100
AcDbLine
 10
98.2891454965
 20
43.2094688222
 30
0.0
 11
98.2891454965
 21
52.9594688222
 31
0.0
  0
LINE
  5
DA
330
1F
100
AcDbEntity
  8
0
  6
Continuous
 62
     7
370
    25
100
AcDbLine
 10
98.5391454965
 20
52.9594688222
 30
0.0
 11
98.5391454965
 21
42.9594688222
 31
0.0
  0
LINE
  5
DB
330
1F
100
AcDbEntity
  8
0
  6
Continuous
 62
     7
370
    25
100
AcDbLine
 10
98.5391454965
 20
62.9594688222
 30
0.0
 11
98.5391454965
 21
52.9594688222
 31
0.0
  0
LINE
  5
DC
330
1F
100
AcDbEntity
  8
0
  6
Continuous
 62
     7
370
    25
100
AcDbLine
 10
100.4071794853
 20
52.9594688222
 30
0.0
 11
100.4071794853
 21
42.9594688222
 31
0.0
  0
LINE
  5
DD
330
1F
100
AcDbEntity
  8
0
  6
Continuous
 62
     7
370
    25
100
AcDbLine
 10
100.4071794853
 20
62.9594688222
 30
0.0
 11
100.4071794853
 21
52.9594688222
 31
0.0
  0
LINE
  5
DE
330
1F
100
AcDbEntity
  8
0
  6
Continuous
 62
     7
370
    25
100
AcDbLine
 10
100.7891454965
 20
61.9594688222
 30
0.0
 11
100.7891454965
 21
58.4594688222
 31
0.0
  0
SPLINE
  5
DF
330
1F
100
AcDbEntity
  8
0
  6
Continuous
 62
     7
370
    25
100
AcDbSpline
210
0.0
220
0.0
230
1.0
 70
     8
 71
     3
 72
     8
 73
     4
 74
     0
 42
0.00000001
 43
0.00000001
 40
0.0
 40
0.0
 40
0.0
 40
0.0
 40
1.0
 40
1.0
 40
1.0
 40
1.0
 10
100.6919443718818
 20
58.3591586736668
 30
0.0
 10
100.7597807894579
 20
58.39052161467758
 30
0.0
 10
100.7891454965358
 20
58.42398977532714
 30
0.0
 10
100.7891454965358
 20
58.4594688221709
 30
0.0
  0
SPLINE
  5
E0
330
1F
100
AcDbEntity
  8
0
  6
Continuous
 62
     7
370
    25
100
AcDbSpline
210
0.0
220
0.0
230
1.0
 70
     8
 71
     3
 72
    12
 73
     8
 74
     0
 42
0.00000001
 43
0.00000001
 40
0.0
 40
0.0
 40
0.0
 40
0.0
 40
0.4999999999999992
 40
0.4999999999999992
 40
0.7499999999999996
 40
0.7499999999999996
 40
1.0
 40
1.0
 40
1.0
 40
1.0
 10
100.6919443718818
 20
58.3591586736668
 30
0.0
 10
100.624074611872
 20
58.32778031738471
 30
0.0
 10
100.5480400606183
 20
58.19407179688616
 30
0.0
 10
100.5013954622413
 20
57.91604568722037
 30
0.0
 10
100.4969564657187
 20
57.80919950321642
 30
0.0
 10
100.5126870795115
 20
57.58231802916067
 30
0.0
 10
100.5325675094539
 20
57.46214905685605
 30
0.0
 10
100.5600594294337
 20
57.34069941204581
 30
0.0
  0
SPLINE
  5
E1
330
1F
100
AcDbEntity
  8
0
  6
Continuous
 62
     7
370
    25
100
AcDbSpline
210
0.0
220
0.0
230
1.0
 70
     8
 71
     3
 72
    12
 73
     8
 74
     0
 42
0.00000001
 43
0.00000001
 40
0.0
 40
0.0
 40
0.0
 40
0.0
 40
0.4999999999999998
 40
0.4999999999999998
 40
0.7499999999999999
 40
0.7499999999999999
 40
1.0
 40
1.0
 40
1.0
 40
1.0
 10
100.7891454965358
 20
52.95946882217089
 30
0.0
 10
100.7891454965358
 20
53.69342584432811
 30
0.0
 10
100.793702891535
 20
54.42640428869093
 30
0.0
 10
100.7665192271557
 20
55.52322840163733
 30
0.0
 10
100.7510695562385
 20
55.88837599020777
 30
0.0
 10
100.6882059547067
 20
56.61716400407182
 30
0.0
 10
100.6411760315384
 20
56.98235475947014
 30
0.0
 10
100.5600594294337
 20
57.34069941204581
 30
0.0
  0
SPLINE
  5
E2
330
1F
100
AcDbEntity
  8
0
  6
Continuous
 62
     7
370
    25
100
AcDbSpline
210
0.0
220
0.0
230
1.0
 70
     8
 71
     3
 72
    12
 73
     8
 74
     0
 42
0.00000001
 43
0.00000001
 40
0.0
 40
0.0
 40
0.0
 40
0.0
 40
0.2500000000000001
 40
0.2500000000000001
 40
0.5000000000000002
 40
0.5000000000000002
 40
1.0
 40
1.0
 40
1.0
 40
1.0
 10
100.5600594294337
 20
48.57823823229599
 30
0.0
 10
100.6411760315384
 20
48.93658288487168
 30
0.0
 10
100.6882059547067
 20
49.30177364027
 30
0.0
 10
100.7510695562385
 20
50.03056165413405
 30
0.0
 10
100.7665192271557
 20
50.39570924270448
 30
0.0
 10
100.793702891535
 20
51.49253335565089
 30
0.0
 10
100.7891454965358
 20
52.22551180001369
 30
0.0
 10
100.7891454965358
 20
52.95946882217091
 30
0.0
  0
SPLINE
  5
E3
330
1F
100
AcDbEntity
  8
0
  6
Continuous
 62
     7
370
    25
100
AcDbSpline
210
0.0
220
0.0
230
1.0
 70
     8
 71
     3
 72
    14
 73
    10
 74
     0
 42
0.00000001
 43
0.00000001
 40
0.0
 40
0.0
 40
0.0
 40
0.0
 40
0.25
 40
0.25
 40
0.5
 40
0.5
 40
0.75
 40
0.75
 40
1.0
 40
1.0
 40
1.0
 40
1.0
 10
100.5600594294337
 20
48.57823823229599
 30
0.0
 10
100.5325384416886
 20
48.45666017631029
 30
0.0
 10
100.5126185198522
 20
48.33613543928516
 30
0.0
 10
100.4969514780342
 20
48.10915918017705
 30
0.0
 10
100.5014433098465
 20
48.00218920261088
 30
0.0
 10
100.5326996551301
 20
47.81672365083115
 30
0.0
 10
100.5590722385118
 20
47.73783838971232
 30
0.0
 10
100.6219087896562
 20
47.61720059853922
 30
0.0
 10
100.6579483685162
 20
47.57549640809661
 30
0.0
 10
100.6919443718818
 20
47.55977897067501
 30
0.0
  0
SPLINE
  5
E4
330
1F
100
AcDbEntity
  8
0
  6
Continuous
 62
     7
370
    25
100
AcDbSpline
210
0.0
220
0.0
230
1.0
 70
     8
 71
     3
 72
     8
 73
     4
 74
     0
 42
0.00000001
 43
0.00000001
 40
0.0
 40
0.0
 40
0.0
 40
0.0
 40
1.0
 40
1.0
 40
1.0
 40
1.0
 10
100.7891454965358
 20
47.4594688221709
 30
0.0
 10
100.7891454965358
 20
47.49494786901467
 30
0.0
 10
100.7597807894579
 20
47.52841602966424
 30
0.0
 10
100.6919443718818
 20
47.55977897067501
 30
0.0
  0
LINE
  5
E5
330
1F
100
AcDbEntity
  8
0
  6
Continuous
 62
     7
370
    25
100
AcDbLine
 10
100.7891454965
 20
47.4594688222
 30
0.0
 11
100.7891454965
 21
43.9594688222
 31
0.0
  0
SPLINE
  5
E6
330
1F
100
AcDbEntity
  8
0
  6
Continuous
 62
     7
370
    25
100
AcDbSpline
210
0.0
220
0.0
230
1.0
 70
     8
 71
     3
 72
     8
 73
     4
 74
     0
 42
0.00000001
 43
0.00000001
 40
0.0
 40
0.0
 40
0.0
 40
0.0
 40
1.0
 40
1.0
 40
1.0
 40
1.0
 10
115.8863466211897
 20
47.55977897067501
 30
0.0
 10
115.8185102036136
 20
47.52841602966424
 30
0.0
 10
115.7891454965358
 20
47.49494786901467
 30
0.0
 10
115.7891454965358
 20
47.4594688221709
 30
0.0
  0
SPLINE
  5
E7
330
1F
100
AcDbEntity
  8
0
  6
Continuous
 62
     7
370
    25
100
AcDbSpline
210
0.0
220
0.0
230
1.0
 70
     8
 71
     3
 72
    12
 73
     8
 74
     0
 42
0.00000001
 43
0.00000001
 40
0.0
 40
0.0
 40
0.0
 40
0.0
 40
0.5000000000000001
 40
0.5000000000000001
 40
0.75
 40
0.75
 40
1.0
 40
1.0
 40
1.0
 40
1.0
 10
115.8863466211897
 20
47.55977897067501
 30
0.0
 10
115.9542163811995
 20
47.59115732695711
 30
0.0
 10
116.0302509324532
 20
47.72486584745566
 30
0.0
 10
116.0768955308302
 20
48.00289195712144
 30
0.0
 10
116.0813345273529
 20
48.1097381411254
 30
0.0
 10
116.06560391356
 20
48.33661961518114
 30
0.0
 10
116.0457234836177
 20
48.45678858748576
 30
0.0
 10
116.0182315636378
 20
48.57823823229599
 30
0.0
  0
SPLINE
  5
E8
330
1F
100
AcDbEntity
  8
0
  6
Continuous
 62
     7
370
    25
100
AcDbSpline
210
0.0
220
0.0
230
1.0
 70
     8
 71
     3
 72
    12
 73
     8
 74
     0
 42
0.00000001
 43
0.00000001
 40
0.0
 40
0.0
 40
0.0
 40
0.0
 40
0.5
 40
0.5
 40
0.75
 40
0.75
 40
1.0
 40
1.0
 40
1.0
 40
1.0
 10
115.7891454965358
 20
52.95946882217091
 30
0.0
 10
115.7891454965358
 20
52.2255118000137
 30
0.0
 10
115.7845881015365
 20
51.49253335565089
 30
0.0
 10
115.8117717659158
 20
50.39570924270448
 30
0.0
 10
115.827221436833
 20
50.03056165413405
 30
0.0
 10
115.8900850383648
 20
49.30177364027
 30
0.0
 10
115.9371149615332
 20
48.93658288487168
 30
0.0
 10
116.0182315636378
 20
48.57823823229599
 30
0.0
  0
SPLINE
  5
E9
330
1F
100
AcDbEntity
  8
0
  6
Continuous
 62
     7
370
    25
100
AcDbSpline
210
0.0
220
0.0
230
1.0
 70
     8
 71
     3
 72
    12
 73
     8
 74
     0
 42
0.00000001
 43
0.00000001
 40
0.0
 40
0.0
 40
0.0
 40
0.0
 40
0.25
 40
0.25
 40
0.5
 40
0.5
 40
1.0
 40
1.0
 40
1.0
 40
1.0
 10
116.0182315636378
 20
57.34069941204581
 30
0.0
 10
115.9371149615332
 20
56.98235475947014
 30
0.0
 10
115.8900850383648
 20
56.61716400407182
 30
0.0
 10
115.827221436833
 20
55.88837599020777
 30
0.0
 10
115.8117717659158
 20
55.52322840163733
 30
0.0
 10
115.7845881015365
 20
54.42640428869093
 30
0.0
 10
115.7891454965358
 20
53.69342584432813
 30
0.0
 10
115.7891454965358
 20
52.9594688221709
 30
0.0
  0
SPLINE
  5
EA
330
1F
100
AcDbEntity
  8
0
  6
Continuous
 62
     7
370
    25
100
AcDbSpline
210
0.0
220
0.0
230
1.0
 70
     8
 71
     3
 72
    14
 73
    10
 74
     0
 42
0.00000001
 43
0.00000001
 40
0.0
 40
0.0
 40
0.0
 40
0.0
 40
0.25
 40
0.25
 40
0.5
 40
0.5
 40
0.75
 40
0.75
 40
1.0
 40
1.0
 40
1.0
 40
1.0
 10
116.0182315636378
 20
57.34069941204581
 30
0.0
 10
116.0457525513829
 20
57.46227746803153
 30
0.0
 10
116.0656724732193
 20
57.58280220505665
 30
0.0
 10
116.0813395150374
 20
57.80977846416476
 30
0.0
 10
116.076847683225
 20
57.91674844173093
 30
0.0
 10
116.0455913379415
 20
58.10221399351066
 30
0.0
 10
116.0192187545597
 20
58.1810992546295
 30
0.0
 10
115.9563822034154
 20
58.30173704580259
 30
0.0
 10
115.9203426245553
 20
58.3434412362452
 30
0.0
 10
115.8863466211897
 20
58.3591586736668
 30
0.0
  0
SPLINE
  5
EB
330
1F
100
AcDbEntity
  8
0
  6
Continuous
 62
     7
370
    25
100
AcDbSpline
210
0.0
220
0.0
230
1.0
 70
     8
 71
     3
 72
     8
 73
     4
 74
     0
 42
0.00000001
 43
0.00000001
 40
0.0
 40
0.0
 40
0.0
 40
0.0
 40
1.0
 40
1.0
 40
1.0
 40
1.0
 10
115.7891454965358
 20
58.4594688221709
 30
0.0
 10
115.7891454965358
 20
58.42398977532714
 30
0.0
 10
115.8185102036136
 20
58.39052161467758
 30
0.0
 10
115.8863466211897
 20
58.3591586736668
 30
0.0
  0
LINE
  5
EC
330
1F
100
AcDbEntity
  8
0
  6
Continuous
 62
     7
370
    25
100
AcDbLine
 10
115.7891454965
 20
58.4594688222
 30
0.0
 11
115.7891454965
 21
61.9594688222
 31
0.0
  0
LINE
  5
ED
330
1F
100
AcDbEntity
  8
0
  6
Continuous
 62
     7
370
    25
100
AcDbLine
 10
115.7891454965
 20
43.9594688222
 30
0.0
 11
115.7891454965
 21
47.4594688222
 31
0.0
  0
LINE
  5
EE
330
1F
100
AcDbEntity
  8
0
  6
Continuous
 62
     7
370
    25
100
AcDbLine
 10
118.2891454965
 20
62.4594688222
 30
0.0
 11
118.2891454965
 21
43.4594688222
 31
0.0
  0
LINE
  5
EF
330
1F
100
AcDbEntity
  8
0
  6
Continuous
 62
     7
370
    25
100
AcDbLine
 10
116.0182315636
 20
48.5782382323
 30
0.0
 11
115.594593586
 21
48.4594688222
 31
0.0
  0
SPLINE
  5
F0
330
1F
100
AcDbEntity
  8
0
  6
Continuous
 62
     7
370
    25
100
AcDbSpline
210
0.0
220
0.0
230
1.0
 70
     8
 71
     3
 72
    14
 73
    10
 74
     0
 42
0.00000001
 43
0.00000001
 40
0.0
 40
0.0
 40
0.0
 40
0.0
 40
0.2500000000000002
 40
0.2500000000000002
 40
0.5000000000000003
 40
0.5000000000000003
 40
0.7500000000000002
 40
0.7500000000000002
 40
1.0
 40
1.0
 40
1.0
 40
1.0
 10
115.5945935860052
 20
48.4594688221709
 30
0.0
 10
115.492033068181
 20
48.82529138801677
 30
0.0
 10
115.4287200820302
 20
49.20089930345821
 30
0.0
 10
115.3435024188449
 20
49.94990454272689
 30
0.0
 10
115.3215843241664
 20
50.32538520037591
 30
0.0
 10
115.2958110683867
 20
51.07720033909104
 30
0.0
 10
115.292047582922
 20
51.45353915360639
 30
0.0
 10
115.2887362348161
 20
52.20641605245498
 30
0.0
 10
115.2891454965358
 20
52.58295211008394
 30
0.0
 10
115.2891454965358
 20
52.95946882217091
 30
0.0
  0
LINE
  5
F1
330
1F
100
AcDbEntity
  8
0
  6
Continuous
 62
     7
370
    25
100
AcDbLine
 10
115.7891454965
 20
52.9594688222
 30
0.0
 11
115.2891454965
 21
52.9594688222
 31
0.0
  0
SPLINE
  5
F2
330
1F
100
AcDbEntity
  8
0
  6
Continuous
 62
     7
370
    25
100
AcDbSpline
210
0.0
220
0.0
230
1.0
 70
     8
 71
     3
 72
    14
 73
    10
 74
     0
 42
0.00000001
 43
0.00000001
 40
0.0
 40
0.0
 40
0.0
 40
0.0
 40
0.2499999999999999
 40
0.2499999999999999
 40
0.4999999999999999
 40
0.4999999999999999
 40
0.7499999999999999
 40
0.7499999999999999
 40
1.0
 40
1.0
 40
1.0
 40
1.0
 10
115.2891454965358
 20
52.9594688221709
 30
0.0
 10
115.2891454965358
 20
53.33598553425788
 30
0.0
 10
115.2887362348161
 20
53.71252159188683
 30
0.0
 10
115.292047582922
 20
54.46539849073542
 30
0.0
 10
115.2958110683867
 20
54.84173730525077
 30
0.0
 10
115.3215843241664
 20
55.59355244396591
 30
0.0
 10
115.3435024188449
 20
55.96903310161491
 30
0.0
 10
115.4287200820302
 20
56.7180383408836
 30
0.0
 10
115.4920330681811
 20
57.09364625632505
 30
0.0
 10
115.5945935860052
 20
57.4594688221709
 30
0.0
  0
LINE
  5
F3
330
1F
100
AcDbEntity
  8
0
  6
Continuous
 62
     7
370
    25
100
AcDbLine
 10
116.0182315636
 20
57.340699412
 30
0.0
 11
115.594593586
 21
57.4594688222
 31
0.0
  0
SPLINE
  5
F4
330
1F
100
AcDbEntity
  8
0
  6
Continuous
 62
     7
370
    25
100
AcDbSpline
210
0.0
220
0.0
230
1.0
 70
     8
 71
     3
 72
    14
 73
    10
 74
     0
 42
0.00000001
 43
0.00000001
 40
0.0
 40
0.0
 40
0.0
 40
0.0
 40
0.2500000000000001
 40
0.2500000000000001
 40
0.5000000000000001
 40
0.5000000000000001
 40
0.7500000000000001
 40
0.7500000000000001
 40
1.0
 40
1.0
 40
1.0
 40
1.0
 10
101.2891454965358
 20
52.95946882217091
 30
0.0
 10
101.2891454965358
 20
52.58295211008394
 30
0.0
 10
101.2895547582554
 20
52.20641605245496
 30
0.0
 10
101.2862434101495
 20
51.45353915360639
 30
0.0
 10
101.2824799246849
 20
51.07720033909104
 30
0.0
 10
101.2567066689052
 20
50.3253852003759
 30
0.0
 10
101.2347885742266
 20
49.94990454272689
 30
0.0
 10
101.1495709110414
 20
49.20089930345821
 30
0.0
 10
101.0862579248905
 20
48.82529138801677
 30
0.0
 10
100.9836974070664
 20
48.4594688221709
 30
0.0
  0
LINE
  5
F5
330
1F
100
AcDbEntity
  8
0
  6
Continuous
 62
     7
370
    25
100
AcDbLine
 10
100.9836974071
 20
48.4594688222
 30
0.0
 11
100.5600594294
 21
48.5782382323
 31
0.0
  0
LINE
  5
F6
330
1F
100
AcDbEntity
  8
0
  6
Continuous
 62
     7
370
    25
100
AcDbLine
 10
101.2891454965
 20
52.9594688222
 30
0.0
 11
100.7891454965
 21
52.9594688222
 31
0.0
  0
SPLINE
  5
F7
330
1F
100
AcDbEntity
  8
0
  6
Continuous
 62
     7
370
    25
100
AcDbSpline
210
0.0
220
0.0
230
1.0
 70
     8
 71
     3
 72
    14
 73
    10
 74
     0
 42
0.00000001
 43
0.00000001
 40
0.0
 40
0.0
 40
0.0
 40
0.0
 40
0.2500000000000001
 40
0.2500000000000001
 40
0.5000000000000001
 40
0.5000000000000001
 40
0.75
 40
0.75
 40
1.0
 40
1.0
 40
1.0
 40
1.0
 10
100.9836974070664
 20
57.4594688221709
 30
0.0
 10
101.0862579248905
 20
57.09364625632505
 30
0.0
 10
101.1495709110414
 20
56.7180383408836
 30
0.0
 10
101.2347885742266
 20
55.96903310161491
 30
0.0
 10
101.2567066689052
 20
55.5935524439659
 30
0.0
 10
101.2824799246849
 20
54.84173730525076
 30
0.0
 10
101.2862434101495
 20
54.46539849073541
 30
0.0
 10
101.2895547582554
 20
53.71252159188683
 30
0.0
 10
101.2891454965358
 20
53.33598553425787
 30
0.0
 10
101.2891454965358
 20
52.9594688221709
 30
0.0
  0
LINE
  5
F8
330
1F
100
AcDbEntity
  8
0
  6
Continuous
 62
     7
370
    25
100
AcDbLine
 10
100.9836974071
 20
57.4594688222
 30
0.0
 11
100.5600594294
 21
57.340699412
 31
0.0
  0
SPLINE
  5
F9
330
1F
100
AcDbEntity
  8
0
  6
Continuous
 62
     7
370
    25
100
AcDbSpline
210
0.0
220
0.0
230
1.0
 70
     8
 71
     3
 72
    14
 73
    10
 74
     0
 42
0.00000001
 43
0.00000001
 40
0.0
 40
0.0
 40
0.0
 40
0.0
 40
0.25
 40
0.25
 40
0.5
 40
0.5
 40
0.75
 40
0.75
 40
1.0
 40
1.0
 40
1.0
 40
1.0
 10
101.1595439969972
 20
47.9594688221709
 30
0.0
 10
101.1210685133756
 20
47.9594688221709
 30
0.0
 10
101.0799795919056
 20
47.97025539315413
 30
0.0
 10
101.000696744465
 20
48.01318718021928
 30
0.0
 10
100.9634138433546
 20
48.04460468852416
 30
0.0
 10
100.9106080840428
 20
48.13591953410037
 30
0.0
 10
100.8986388239492
 20
48.19715001686463
 30
0.0
 10
100.9186406123213
 20
48.32801337752035
 30
0.0
 10
100.9480970678736
 20
48.39597749185794
 30
0.0
 10
100.9836974070664
 20
48.4594688221709
 30
0.0
  0
ARC
  5
FA
330
1F
100
AcDbEntity
  8
0
  6
Continuous
 62
     7
370
    25
100
AcDbCircle
 10
101.1680925805
 20
47.4760990115
 30
0.0
 40
0.4834453973191714
100
AcDbArc
 50
91.0131925738
 51
170.032425387
  0
SPLINE
  5
FB
330
1F
100
AcDbEntity
  8
0
  6
Continuous
 62
     7
370
    25
100
AcDbSpline
210
0.0
220
0.0
230
1.0
 70
     8
 71
     3
 72
    14
 73
    10
 74
     0
 42
0.00000001
 43
0.00000001
 40
0.0
 40
0.0
 40
0.0
 40
0.0
 40
0.25
 40
0.25
 40
0.5
 40
0.5
 40
0.75
 40
0.75
 40
1.0
 40
1.0
 40
1.0
 40
1.0
 10
115.4187469960743
 20
57.9594688221709
 30
0.0
 10
115.4572224796959
 20
57.9594688221709
 30
0.0
 10
115.4983114011659
 20
57.94868225118768
 30
0.0
 10
115.5775942486065
 20
57.90575046412253
 30
0.0
 10
115.614877149717
 20
57.87433295581766
 30
0.0
 10
115.6676829090287
 20
57.78301811024144
 30
0.0
 10
115.6796521691224
 20
57.72178762747718
 30
0.0
 10
115.6596503807502
 20
57.59092426682145
 30
0.0
 10
115.6301939251979
 20
57.52296015248387
 30
0.0
 10
115.5945935860052
 20
57.4594688221709
 30
0.0
  0
ARC
  5
FC
330
1F
100
AcDbEntity
  8
0
  6
Continuous
 62
     7
370
    25
100
AcDbCircle
 10
115.4101984125
 20
58.4428386329
 30
0.0
 40
0.4834453973192001
100
AcDbArc
 50
271.0131925738
 51
350.032425387
  0
SPLINE
  5
FD
330
1F
100
AcDbEntity
  8
0
  6
Continuous
 62
     7
370
    25
100
AcDbSpline
210
0.0
220
0.0
230
1.0
 70
     8
 71
     3
 72
    16
 73
    12
 74
     0
 42
0.00000001
 43
0.00000001
 40
0.0
 40
0.0
 40
0.0
 40
0.0
 40
0.2500000000000049
 40
0.2500000000000049
 40
0.3750000000000051
 40
0.3750000000000051
 40
0.5000000000000052
 40
0.5000000000000052
 40
0.7500000000000026
 40
0.7500000000000026
 40
1.0
 40
1.0
 40
1.0
 40
1.0
 10
100.9836974070664
 20
57.4594688221709
 30
0.0
 10
100.9481434776177
 20
57.5228773831491
 30
0.0
 10
100.918871336389
 20
57.59014468346992
 30
0.0
 10
100.9036587861682
 20
57.68858399461226
 30
0.0
 10
100.9035981179946
 20
57.72105940096755
 30
0.0
 10
100.913808702472
 20
57.77968460809375
 30
0.0
 10
100.9235920319972
 20
57.80530741964674
 30
0.0
 10
100.9627565805291
 20
57.87351626334218
 30
0.0
 10
101.0006296538024
 20
57.90567901850796
 30
0.0
 10
101.079702626794
 20
57.94856723762384
 30
0.0
 10
101.1210897593848
 20
57.9594688221709
 30
0.0
 10
101.1595439969972
 20
57.9594688221709
 30
0.0
  0
ARC
  5
FE
330
1F
100
AcDbEntity
  8
0
  6
Continuous
 62
     7
370
    25
100
AcDbCircle
 10
101.1680925805
 20
58.4428386329
 30
0.0
 40
0.4834453973192011
100
AcDbArc
 50
189.967574613
 51
268.9868074262
  0
ARC
  5
FF
330
1F
100
AcDbEntity
  8
0
  6
Continuous
 62
     7
370
    25
100
AcDbCircle
 10
115.4101984125
 20
47.4760990115
 30
0.0
 40
0.4834453973191858
100
AcDbArc
 50
9.967574613
 51
88.9868074262
  0
SPLINE
  5
100
330
1F
100
AcDbEntity
  8
0
  6
Continuous
 62
     7
370
    25
100
AcDbSpline
210
0.0
220
0.0
230
1.0
 70
     8
 71
     3
 72
    16
 73
    12
 74
     0
 42
0.00000001
 43
0.00000001
 40
0.0
 40
0.0
 40
0.0
 40
0.0
 40
0.2499999999999999
 40
0.2499999999999999
 40
0.3750000000000003
 40
0.3750000000000003
 40
0.5000000000000007
 40
0.5000000000000007
 40
0.7500000000000003
 40
0.7500000000000003
 40
1.0
 40
1.0
 40
1.0
 40
1.0
 10
115.5945935860052
 20
48.4594688221709
 30
0.0
 10
115.6301475154538
 20
48.39606026119271
 30
0.0
 10
115.6594196566825
 20
48.32879296087189
 30
0.0
 10
115.6746322069034
 20
48.23035364972955
 30
0.0
 10
115.6746928750769
 20
48.19787824337426
 30
0.0
 10
115.6644822905996
 20
48.13925303624806
 30
0.0
 10
115.6546989610744
 20
48.11363022469508
 30
0.0
 10
115.6155344125424
 20
48.04542138099963
 30
0.0
 10
115.5776613392692
 20
48.01325862583386
 30
0.0
 10
115.4985883662776
 20
47.97037040671796
 30
0.0
 10
115.4572012336867
 20
47.9594688221709
 30
0.0
 10
115.4187469960743
 20
47.9594688221709
 30
0.0
  0
LINE
  5
101
330
1F
100
AcDbEntity
  8
0
  6
Continuous
 62
     7
370
    25
100
AcDbLine
 10
115.594593586
 20
57.4594688222
 30
0.0
 11
100.9836974071
 21
57.4594688222
 31
0.0
  0
LINE
  5
102
330
1F
100
AcDbEntity
  8
0
  6
Continuous
 62
     7
370
    25
100
AcDbLine
 10
101.159543997
 20
57.9594688222
 30
0.0
 11
115.4187469961
 21
57.9594688222
 31
0.0
  0
LINE
  5
103
330
1F
100
AcDbEntity
  8
0
  6
Continuous
 62
     7
370
    25
100
AcDbLine
 10
115.4187469961
 20
47.9594688222
 30
0.0
 11
101.159543997
 21
47.9594688222
 31
0.0
  0
LINE
  5
104
330
1F
100
AcDbEntity
  8
0
  6
Continuous
 62
     7
370
    25
100
AcDbLine
 10
100.9836974071
 20
48.4594688222
 30
0.0
 11
115.594593586
 21
48.4594688222
 31
0.0
  0
ARC
  5
105
330
1F
100
AcDbEntity
  8
0
  6
Continuous
 62
     7
370
    25
100
AcDbCircle
 10
112.1525115824
 20
52.1544226817
 30
0.0
 40
0.7112000000000839
100
AcDbArc
 50
200.9248324276
 51
315.0
  0
ARC
  5
106
330
1F
100
AcDbEntity
  8
0
  6
Continuous
 62
     7
370
    25
100
AcDbCircle
 10
112.1525115824
 20
52.1544226817
 30
0.0
 40
0.7112000000000438
100
AcDbArc
 50
45.0
 51
159.0751675723
  0
LINE
  5
107
330
1F
100
AcDbEntity
  8
0
  6
Continuous
 62
     7
370
    25
100
AcDbLine
 10
113.0286942337
 20
51.2782400304
 30
0.0
 11
112.6554059252
 21
51.6515283389
 31
0.0
  0
ELLIPSE
  5
108
330
1F
100
AcDbEntity
  8
0
  6
Continuous
 62
     7
370
    25
100
AcDbEllipse
 10
105.2381413589
 20
49.3129419382
 30
0.0
 11
2.293035763987618
 21
-1.065814103640150E-12
 31
0.0
210
0.0
220
0.0
230
1.0
 40
0.9533039403
 41
0.8210019969645965
 42
2.320590656625114
  0
ELLIPSE
  5
109
330
1F
100
AcDbEntity
  8
0
  6
Continuous
 62
     7
370
    25
100
AcDbEllipse
 10
106.8470513554
 20
50.9600208346
 30
0.0
 11
0.06784129479235901
 21
0.0
 31
0.0
210
0.0
220
0.0
230
1.0
 40
0.9533039403
 41
3.962594650555376
 42
5.819537698174927
  0
ELLIPSE
  5
10A
330
1F
100
AcDbEntity
  8
0
  6
Continuous
 62
     7
370
    25
100
AcDbEllipse
 10
107.2323505827
 20
52.5703377369
 30
0.0
 11
0.5427303583402932
 21
3.623767952376511E-13
 31
0.0
210
0.0
220
0.0
230
1.0
 40
0.9533039404
 41
3.470145824142395
 42
5.25246918052788
  0
LINE
  5
10B
330
1F
100
AcDbEntity
  8
0
  6
Continuous
 62
     7
370
    25
100
AcDbLine
 10
104.765355658
 20
55.2213469283
 30
0.0
 11
103.7578667851
 21
52.404047132
 31
0.0
  0
ELLIPSE
  5
10C
330
1F
100
AcDbEntity
  8
0
  6
Continuous
 62
     7
370
    25
100
AcDbEllipse
 10
103.2441669715
 20
52.570994424
 30
0.0
 11
-0.5427303583406484
 21
3.552713678800501E-13
 31
0.0
210
0.0
220
0.0
230
1.0
 40
0.9533039403
 41
1.047197551196598
 42
2.813039483039304
  0
LINE
  5
10D
330
1F
100
AcDbEntity
  8
0
  6
Continuous
 62
     7
370
    25
100
AcDbLine
 10
102.9728017923
 20
52.1229241478
 30
0.0
 11
102.9315373359
 21
52.1456357038
 31
0.0
  0
LINE
  5
10E
330
1F
100
AcDbEntity
  8
0
  6
Continuous
 62
     7
370
    25
100
AcDbLine
 10
102.9315373359
 20
52.1456357038
 30
0.0
 11
103.5685522635
 21
50.9310980226
 31
0.0
  0
LINE
  5
10F
330
1F
100
AcDbEntity
  8
0
  6
Continuous
 62
     7
370
    25
100
AcDbLine
 10
112.6554059252
 20
52.6573170244
 30
0.0
 11
113.0286942337
 21
53.0306053329
 31
0.0
  0
LINE
  5
110
330
1F
100
AcDbEntity
  8
0
  6
Continuous
 62
     7
370
    25
100
AcDbLine
 10
109.9816902481
 20
52.6573170244
 30
0.0
 11
110.3549785566
 21
53.0306053329
 31
0.0
  0
LINE
  5
111
330
1F
100
AcDbEntity
  8
0
  6
Continuous
 62
     7
370
    25
100
AcDbLine
 10
113.0286942337
 20
52.4084226817
 30
0.0
 11
111.4882153834
 21
52.4084226817
 31
0.0
  0
LINE
  5
112
330
1F
100
AcDbEntity
  8
0
  6
Continuous
 62
     7
370
    25
100
AcDbLine
 10
106.9077304542
 20
50.9310980226
 30
0.0
 11
107.5447453818
 21
52.1456357038
 31
0.0
  0
LINE
  5
113
330
1F
100
AcDbEntity
  8
0
  6
Continuous
 62
     7
370
    25
100
AcDbLine
 10
111.4882153834
 20
51.9004226817
 30
0.0
 11
113.0286942337
 21
51.9004226817
 31
0.0
  0
ELLIPSE
  5
114
330
1F
100
AcDbEntity
  8
0
  6
Continuous
 62
     7
370
    25
100
AcDbEllipse
 10
103.6292313623
 20
50.9600208346
 30
0.0
 11
0.0678412947923448
 21
0.0
 31
0.0
210
0.0
220
0.0
230
1.0
 40
0.9533039403
 41
3.605240262580502
 42
5.462183310226976
  0
ELLIPSE
  5
115
330
1F
100
AcDbEntity
  8
0
  6
Continuous
 62
     7
370
    25
100
AcDbEllipse
 10
105.2381413589
 20
55.0114745734
 30
0.0
 11
0.5215299537176463
 21
0.0
 31
0.0
210
0.0
220
0.0
230
1.0
 40
0.9533039403
 41
0.4357918987553194
 42
2.705800754834464
  0
ARC
  5
116
330
1F
100
AcDbEntity
  8
0
  6
Continuous
 62
     7
370
    25
100
AcDbCircle
 10
109.4787959053
 20
52.1544226817
 30
0.0
 40
1.239109388553842
100
AcDbArc
 50
45.0
 51
315.0
  0
LINE
  5
117
330
1F
100
AcDbEntity
  8
0
  6
Continuous
 62
     7
370
    25
100
AcDbLine
 10
110.3549785566
 20
51.2782400304
 30
0.0
 11
109.9816902481
 21
51.6515283389
 31
0.0
  0
LINE
  5
118
330
1F
100
AcDbEntity
  8
0
  6
Continuous
 62
     7
370
    25
100
AcDbLine
 10
113.0286942337
 20
51.9004226817
 30
0.0
 11
113.0286942337
 21
52.4084226817
 31
0.0
  0
ARC
  5
119
330
1F
100
AcDbEntity
  8
0
  6
Continuous
 62
     7
370
    25
100
AcDbCircle
 10
109.4787959053
 20
52.1544226817
 30
0.0
 40
0.7111999999997572
100
AcDbArc
 50
45.0
 51
315.0
  0
LINE
  5
11A
330
1F
100
AcDbEntity
  8
0
  6
Continuous
 62
     7
370
    25
100
AcDbLine
 10
107.5447453818
 20
52.1456357038
 30
0.0
 11
107.5114251264
 21
52.1265917599
 31
0.0
  0
LINE
  5
11B
330
1F
100
AcDbEntity
  8
0
  6
Continuous
 62
     7
370
    25
100
AcDbLine
 10
106.7186507691
 20
52.4033904449
 30
0.0
 11
105.7109270597
 21
55.2213469283
 31
0.0
  0
ARC
  5
11C
330
1F
100
AcDbEntity
  8
0
  6
Continuous
 62
     7
370
    25
100
AcDbCircle
 10
112.1525115824
 20
52.1544226817
 30
0.0
 40
1.239109388553836
100
AcDbArc
 50
45.0
 51
315.0
  0
ELLIPSE
  5
11D
330
1F
100
AcDbEntity
  8
0
  6
Continuous
 62
     7
370
    25
100
AcDbEllipse
 10
104.9952020155
 20
52.469002572
 30
0.0
 11
0.06784129479235901
 21
0.0
 31
0.0
210
0.0
220
0.0
230
1.0
 40
0.9533039403
 41
2.798568711307217
 42
4.712388980384703
  0
LINE
  5
11E
330
1F
100
AcDbEntity
  8
0
  6
Continuous
 62
     7
370
    25
100
AcDbLine
 10
105.1742523699
 20
53.1392206752
 30
0.0
 11
104.9313130249
 21
52.4907545816
 31
0.0
  0
LINE
  5
11F
330
1F
100
AcDbEntity
  8
0
  6
Continuous
 62
     7
370
    25
100
AcDbLine
 10
105.5449696933
 20
52.4907545814
 30
0.0
 11
105.3020303512
 21
53.139220675
 31
0.0
  0
ELLIPSE
  5
120
330
1F
100
AcDbEntity
  8
0
  6
Continuous
 62
     7
370
    25
100
AcDbEllipse
 10
105.4810807026
 20
52.469002572
 30
0.0
 11
-0.06784129479235901
 21
0.0
 31
0.0
210
0.0
220
0.0
230
1.0
 40
0.9533039403
 41
1.570796326794897
 42
3.484616592149693
  0
LINE
  5
121
330
1F
100
AcDbEntity
  8
0
  6
Continuous
 62
     7
370
    25
100
AcDbLine
 10
104.9952020155
 20
52.4043291984
 30
0.0
 11
105.4810807026
 21
52.4043291984
 31
0.0
  0
ELLIPSE
  5
122
330
1F
100
AcDbEntity
  8
0
  6
Continuous
 62
     7
370
    25
100
AcDbEllipse
 10
105.2381413605
 20
53.1174686656
 30
0.0
 11
0.06784129479272849
 21
0.0
 31
0.0
210
0.0
220
0.0
230
1.0
 40
0.9533039403
 41
0.3430239385580526
 42
2.798568711308806
  0
ARC
  5
123
330
1F
100
AcDbEntity
  8
0
  6
Continuous
 62
     7
370
    25
100
AcDbCircle
 10
115.2891454965
 20
47.4594688222
 30
0.0
 40
0.5
100
AcDbArc
 50
0.0
 51
90.0
  0
ARC
  5
124
330
1F
100
AcDbEntity
  8
0
  6
Continuous
 62
     7
370
    25
100
AcDbCircle
 10
101.2891454965
 20
47.4594688222
 30
0.0
 40
0.5
100
AcDbArc
 50
90.0
 51
180.0
  0
ARC
  5
125
330
1F
100
AcDbEntity
  8
0
  6
Continuous
 62
     7
370
    25
100
AcDbCircle
 10
115.2891454965
 20
58.4594688222
 30
0.0
 40
0.5
100
AcDbArc
 50
270.0
 51
0.0
  0
ARC
  5
126
330
1F
100
AcDbEntity
  8
0
  6
Continuous
 62
     7
370
    25
100
AcDbCircle
 10
101.2891454965
 20
58.4594688222
 30
0.0
 40
0.5
100
AcDbArc
 50
180.0
 51
270.0
  0
LWPOLYLINE
  5
127
330
1F
100
AcDbEntity
  8
0
  6
Continuous
 62
     7
370
    25
100
AcDbPolyline
 90
        9
 70
   128
 43
0.0
 10
115.2891454965
 20
58.1539132666
 10
115.3866906575
 20
58.1597844309
 10
115.4804872127
 20
58.1771722983
 10
115.566930613
 20
58.2054086629
 10
115.6426988871
 20
58.2434084168
 10
115.7048803027
 20
58.289711251
 10
115.7510852628
 20
58.3425377734
 10
115.7795381367
 20
58.3998578904
 10
115.7891454965
 20
58.4594688222
  0
LINE
  5
128
330
1F
100
AcDbEntity
  8
0
  6
Continuous
 62
     7
370
    25
100
AcDbLine
 10
115.2891454965
 20
57.9594688222
 30
0.0
 11
115.2891454965
 21
58.1539132666
 31
0.0
  0
LWPOLYLINE
  5
129
330
1F
100
AcDbEntity
  8
0
  6
Continuous
 62
     7
370
    25
100
AcDbPolyline
 90
        9
 70
   128
 43
0.0
 10
100.7891454965
 20
58.4594688222
 10
100.7987528563
 20
58.3998578904
 10
100.8272057303
 20
58.3425377734
 10
100.8734106904
 20
58.289711251
 10
100.9355921059
 20
58.2434084168
 10
101.01136038
 20
58.2054086629
 10
101.0978037804
 20
58.1771722983
 10
101.1916003355
 20
58.1597844309
 10
101.2891454965
 20
58.1539132666
  0
LINE
  5
12A
330
1F
100
AcDbEntity
  8
0
  6
Continuous
 62
     7
370
    25
100
AcDbLine
 10
101.2891454965
 20
57.9594688222
 30
0.0
 11
101.2891454965
 21
58.1539132666
 31
0.0
  0
LINE
  5
12B
330
1F
100
AcDbEntity
  8
0
  6
Continuous
 62
     7
370
    25
100
AcDbLine
 10
115.2891454965
 20
47.7650243777
 30
0.0
 11
101.2891454965
 21
47.7650243777
 31
0.0
  0
LINE
  5
12C
330
1F
100
AcDbEntity
  8
0
  6
Continuous
 62
     7
370
    25
100
AcDbLine
 10
101.2891454965
 20
47.7650243777
 30
0.0
 11
101.2891454965
 21
47.9594688222
 31
0.0
  0
LINE
  5
12D
330
1F
100
AcDbEntity
  8
0
  6
Continuous
 62
     7
370
    25
100
AcDbLine
 10
115.2891454965
 20
47.7650243777
 30
0.0
 11
115.2891454965
 21
47.9594688222
 31
0.0
  0
LWPOLYLINE
  5
12E
330
1F
100
AcDbEntity
  8
0
  6
Continuous
 62
     7
370
    25
100
AcDbPolyline
 90
        9
 70
   128
 43
0.0
 10
101.2891454965
 20
47.7650243777
 10
101.1916003355
 20
47.7591532134
 10
101.0978037804
 20
47.741765346
 10
101.01136038
 20
47.7135289815
 10
100.9355921059
 20
47.6755292275
 10
100.8734106904
 20
47.6292263934
 10
100.8272057303
 20
47.5763998709
 10
100.7987528563
 20
47.5190797539
 10
100.7891454965
 20
47.4594688222
  0
LWPOLYLINE
  5
12F
330
1F
100
AcDbEntity
  8
0
  6
Continuous
 62
     7
370
    25
100
AcDbPolyline
 90
        9
 70
   128
 43
0.0
 10
115.7891454965
 20
47.4594688222
 10
115.7795381367
 20
47.5190797539
 10
115.7510852628
 20
47.5763998709
 10
115.7048803027
 20
47.6292263934
 10
115.6426988871
 20
47.6755292275
 10
115.566930613
 20
47.7135289815
 10
115.4804872127
 20
47.741765346
 10
115.3866906575
 20
47.7591532134
 10
115.2891454965
 20
47.7650243777
  0
LINE
  5
130
330
1F
100
AcDbEntity
  8
0
  6
Continuous
 62
     7
370
    25
100
AcDbLine
 10
101.2891454965
 20
58.1539132666
 30
0.0
 11
115.2891454965
 21
58.1539132666
 31
0.0
  0
SPLINE
  5
131
330
1F
100
AcDbEntity
  8
0
  6
Continuous
 62
     7
370
    25
100
AcDbSpline
210
0.0
220
0.0
230
1.0
 70
    11
 71
     3
 72
    26
 73
    22
 74
     0
 42
0.00000001
 43
0.00000001
 40
0.0
 40
0.0
 40
0.0
 40
0.0
 40
0.125
 40
0.125
 40
0.1875
 40
0.1875
 40
0.25
 40
0.25
 40
0.3125
 40
0.3125
 40
0.375
 40
0.375
 40
0.5
 40
0.5
 40
0.625
 40
0.625
 40
0.75
 40
0.75
 40
0.875
 40
0.875
 40
1.0
 40
1.0
 40
1.0
 40
1.0
 10
108.8024644653841
 20
60.9594688221709
 30
0.0
 10
108.8024644653841
 20
61.09858785339973
 30
0.0
 10
108.7496684942352
 20
61.23431555637521
 30
0.0
 10
108.6082129043579
 20
61.38733429287099
 30
0.0
 10
108.551658967986
 20
61.42883719389152
 30
0.0
 10
108.4261148165426
 20
61.4860370876852
 30
0.0
 10
108.3569632034346
 20
61.50132107642953
 30
0.0
 10
108.2198048286911
 20
61.5011002026659
 30
0.0
 10
108.150690245885
 20
61.48554014137823
 30
0.0
 10
108.0259304772539
 20
61.42833430688422
 30
0.0
 10
107.9692993889194
 20
61.38658287961727
 30
0.0
 10
107.8291857623965
 20
61.23474201133382
 30
0.0
 10
107.7758652284499
 20
61.09868968406596
 30
0.0
 10
107.7757878698738
 20
60.8205569903626
 30
0.0
 10
107.8294762518955
 20
60.68375498034261
 30
0.0
 10
108.0161710662031
 20
60.48168617667756
 30
0.0
 10
108.1520522755667
 20
60.41751641699201
 30
0.0
 10
108.4276834096052
 20
60.41793746979301
 30
0.0
 10
108.5626584480189
 20
60.48220615221632
 30
0.0
 10
108.7485059250849
 20
60.68348370344046
 30
0.0
 10
108.8024644653841
 20
60.82034979094209
 30
0.0
 10
108.8024644653841
 20
60.9594688221709
 30
0.0
  0
SPLINE
  5
132
330
1F
100
AcDbEntity
  8
0
  6
Continuous
 62
     7
370
    25
100
AcDbSpline
210
0.0
220
0.0
230
1.0
 70
    11
 71
     3
 72
    38
 73
    34
 74
     0
 42
0.00000001
 43
0.00000001
 40
0.0
 40
0.0
 40
0.0
 40
0.0
 40
0.0625
 40
0.0625
 40
0.125
 40
0.125
 40
0.1874999999999999
 40
0.1874999999999999
 40
0.2499999999999999
 40
0.2499999999999999
 40
0.3125
 40
0.3125
 40
0.375
 40
0.375
 40
0.4375000000000001
 40
0.4375000000000001
 40
0.5000000000000001
 40
0.5000000000000001
 40
0.5625000000000001
 40
0.5625000000000001
 40
0.6250000000000001
 40
0.6250000000000001
 40
0.6875000000000001
 40
0.6875000000000001
 40
0.75
 40
0.75
 40
0.8125
 40
0.8125
 40
0.875
 40
0.875
 40
0.9375
 40
0.9375
 40
1.0
 40
1.0
 40
1.0
 40
1.0
 10
107.2891454965358
 20
60.9594688221709
 30
0.0
 10
107.2891454965358
 20
60.8270829072606
 30
0.0
 10
107.3152940476786
 20
60.69719558078189
 30
0.0
 10
107.4157597171364
 20
60.45511658619603
 30
0.0
 10
107.490044583533
 20
60.34433523214
 30
0.0
 10
107.6741937632677
 20
60.16022795203424
 30
0.0
 10
107.7855693858619
 20
60.08575928073824
 30
0.0
 10
108.0261178903958
 20
59.98593210460955
 30
0.0
 10
108.1578757863832
 20
59.95954418453623
 30
0.0
 10
108.4192644785471
 20
59.95939379084941
 30
0.0
 10
108.5504365491388
 20
59.98533361125946
 30
0.0
 10
108.7928742351385
 20
60.08570124368474
 30
0.0
 10
108.9029284032881
 20
60.15909014682996
 30
0.0
 10
109.089181720699
 20
60.34523961365951
 30
0.0
 10
109.1626080485921
 20
60.45527813105951
 30
0.0
 10
109.262972796221
 20
60.69716084814819
 30
0.0
 10
109.2890940605172
 20
60.82843536665949
 30
0.0
 10
109.2891967780024
 20
61.08971601603202
 30
0.0
 10
109.2629531499088
 20
61.22153141954495
 30
0.0
 10
109.1632847931106
 20
61.46231933762641
 30
0.0
 10
109.0890040011421
 20
61.57365153902441
 30
0.0
 10
108.9048172607085
 20
61.75818173421942
 30
0.0
 10
108.7943936866459
 20
61.83236806349319
 30
0.0
 10
108.5520089714059
 20
61.93318932246335
 30
0.0
 10
108.4220847918395
 20
61.95936355176838
 30
0.0
 10
108.1577946823226
 20
61.95957346175529
 30
0.0
 10
108.0275609236606
 20
61.93348573939211
 30
0.0
 10
107.7856682524899
 20
61.83333729541351
 30
0.0
 10
107.6746523270833
 20
61.75905100024836
 30
0.0
 10
107.4904845911033
 20
61.57515890081157
 30
0.0
 10
107.4158859196012
 20
61.46382875025755
 30
0.0
 10
107.315835106056
 20
61.22334021044892
 30
0.0
 10
107.2891454965358
 20
61.09185473708121
 30
0.0
 10
107.2891454965358
 20
60.9594688221709
 30
0.0
  0
LINE
  5
133
330
1F
100
AcDbEntity
  8
0
  6
Continuous
 62
     7
370
    25
100
AcDbLine
 10
126.9341974371
 20
52.9594688222
 30
0.0
 11
126.9341974371
 21
48.1771891953
 31
0.0
  0
LINE
  5
134
330
1F
100
AcDbEntity
  8
0
  6
Continuous
 62
     7
370
    25
100
AcDbLine
 10
126.9341974371
 20
57.741748449
 30
0.0
 11
126.9341974371
 21
52.9594688222
 31
0.0
  0
LINE
  5
135
330
1F
100
AcDbEntity
  8
0
  6
Continuous
 62
     7
370
    25
100
AcDbLine
 10
128.2891454965
 20
56.9594688222
 30
0.0
 11
128.2891454965
 21
48.9594688222
 31
0.0
  0
LINE
  5
136
330
1F
100
AcDbEntity
  8
0
  6
Continuous
 62
     7
370
    25
100
AcDbLine
 10
115.2891454965
 20
58.1539132666
 30
0.0
 11
115.2891454965
 21
61.4594688222
 31
0.0
  0
LINE
  5
137
330
1F
100
AcDbEntity
  8
0
  6
Continuous
 62
     7
370
    25
100
AcDbLine
 10
101.2891454965
 20
61.4594688222
 30
0.0
 11
101.2891454965
 21
58.1539132666
 31
0.0
  0
LINE
  5
138
330
1F
100
AcDbEntity
  8
0
  6
Continuous
 62
     7
370
    25
100
AcDbLine
 10
101.2891454965
 20
47.7650243777
 30
0.0
 11
101.2891454965
 21
44.4594688222
 31
0.0
  0
LINE
  5
139
330
1F
100
AcDbEntity
  8
0
  6
Continuous
 62
     7
370
    25
100
AcDbLine
 10
115.2891454965
 20
44.4594688222
 30
0.0
 11
115.2891454965
 21
47.7650243777
 31
0.0
  0
SPLINE
  5
13A
330
1F
100
AcDbEntity
  8
0
  6
Continuous
 62
     7
370
    25
100
AcDbSpline
210
0.0
220
0.0
230
1.0
 70
     8
 71
     3
 72
    32
 73
    28
 74
     0
 42
0.00000001
 43
0.00000001
 40
0.0
 40
0.0
 40
0.0
 40
0.0
 40
0.0401450235848357
 40
0.0814946510747366
 40
0.1230108374273918
 40
0.1655335881087852
 40
0.213102689944118
 40
0.2616869956899938
 40
0.3186512837064658
 40
0.3479268696243464
 40
0.3771976325562726
 40
0.4187548087056146
 40
0.4612652019558922
 40
0.5031787598671369
 40
0.5464778200637773
 40
0.5837150053189375
 40
0.6216789039917089
 40
0.649608003238977
 40
0.6775412817538382
 40
0.7348752066615024
 40
0.7907587055724206
 40
0.8195305177303107
 40
0.848297267517085
 40
0.8930422512982819
 40
0.939068727387773
 40
0.9835429316127413
 40
1.0
 40
1.0
 40
1.0
 40
1.0
 10
114.6891454965358
 20
61.4594688221709
 30
0.0
 10
114.6778266861674
 20
61.45185014018865
 30
0.0
 10
114.6548494297311
 20
61.43638416771312
 30
0.0
 10
114.4701729972346
 20
61.31316489147621
 30
0.0
 10
114.1795932247883
 20
61.1231409584178
 30
0.0
 10
113.7686529359246
 20
60.86260621769883
 30
0.0
 10
113.23602100155
 20
60.54080192339757
 30
0.0
 10
112.5475762776634
 20
60.15494228844026
 30
0.0
 10
111.8556203249546
 20
59.81077377210395
 30
0.0
 10
111.2097017159825
 20
59.53673188428242
 30
0.0
 10
110.6195156901184
 20
59.31964545613472
 30
0.0
 10
109.9116229424321
 20
59.11409630864677
 30
0.0
 10
109.0815259391939
 20
58.96465862261395
 30
0.0
 10
108.2147310811483
 20
58.91707573795156
 30
0.0
 10
107.3856532685577
 20
58.98054397893937
 30
0.0
 10
106.6099110093114
 20
59.13076948318847
 30
0.0
 10
105.9665941425685
 20
59.31817859626121
 30
0.0
 10
105.4117427250604
 20
59.52011331778754
 30
0.0
 10
104.7750132996871
 20
59.78654478092087
 30
0.0
 10
104.0449125070137
 20
60.14597133824878
 30
0.0
 10
103.4060338304744
 20
60.50493778995126
 30
0.0
 10
102.9624248943856
 20
60.7700806777984
 30
0.0
 10
102.6074943686583
 20
60.98982898971212
 30
0.0
 10
102.2641723863415
 20
61.21037944685826
 30
0.0
 10
102.0075146758518
 20
61.37999563835348
 30
0.0
 10
101.8844365029646
 20
61.46262557478262
 30
0.0
 10
101.9020636615535
 20
61.45080037060813
 30
0.0
 10
101.906824621598
 20
61.44760647385447
 30
0.0
  0
SPLINE
  5
13B
330
1F
100
AcDbEntity
  8
0
  6
Continuous
 62
     7
370
    25
100
AcDbSpline
210
0.0
220
0.0
230
1.0
 70
     8
 71
     3
 72
    32
 73
    28
 74
     0
 42
0.00000001
 43
0.00000001
 40
0.0
 40
0.0
 40
0.0
 40
0.0
 40
0.0148226906036678
 40
0.0619098642308405
 40
0.1074419255042467
 40
0.1543358594329046
 40
0.182598153298089
 40
0.2108647534549355
 40
0.2690259379277178
 40
0.3246070981579414
 40
0.3531531900241039
 40
0.3816927019323051
 40
0.4179901534316578
 40
0.4550296659437936
 40
0.4953226362402814
 40
0.5372317715994345
 40
0.5776049808321276
 40
0.6191596213353762
 40
0.6475096399520571
 40
0.6758659597953307
 40
0.7341701314178916
 40
0.7822939425002001
 40
0.8313627427680195
 40
0.8736469360376942
 40
0.9168681617688612
 40
0.9578489936169664
 40
1.0
 40
1.0
 40
1.0
 40
1.0
 10
102.4036511987446
 20
61.94828979432591
 30
0.0
 10
102.3997072030688
 20
61.95132903396851
 30
0.0
 10
102.3832343343201
 20
61.96402301232032
 30
0.0
 10
102.4940082206849
 20
61.87857036069516
 30
0.0
 10
102.731440927572
 20
61.69833075587801
 30
0.0
 10
103.0442589527585
 20
61.4673348305543
 30
0.0
 10
103.3693812959498
 20
61.23603664628913
 30
0.0
 10
103.775470135648
 20
60.95678076121253
 30
0.0
 10
104.3576957208923
 20
60.58008496285299
 30
0.0
 10
105.0334868978972
 20
60.19697517578964
 30
0.0
 10
105.6200597474882
 20
59.913159934064
 30
0.0
 10
106.1353210980591
 20
59.69702444051106
 30
0.0
 10
106.7328205479989
 20
59.4961570440103
 30
0.0
 10
107.4389095170301
 20
59.3376704990895
 30
0.0
 10
108.2102831581803
 20
59.26757384116852
 30
0.0
 10
109.0071322944529
 20
59.31587467089816
 30
0.0
 10
109.7830722578152
 20
59.47557676995804
 30
0.0
 10
110.4319678931867
 20
59.69167861952756
 30
0.0
 10
110.9730156142562
 20
59.91994555199351
 30
0.0
 10
111.5707179684345
 20
60.21016161943938
 30
0.0
 10
112.2080643914689
 20
60.57406258054544
 30
0.0
 10
112.8474612025636
 20
60.98532983798373
 30
0.0
 10
113.3355046644062
 20
61.32391731972005
 30
0.0
 10
113.7173257881681
 20
61.60180101566678
 30
0.0
 10
113.9836450428998
 20
61.80181007465731
 30
0.0
 10
114.1564216794375
 20
61.93416522308409
 30
0.0
 10
114.1781356744996
 20
61.95095550839753
 30
0.0
 10
114.1891454965358
 20
61.9594688221709
 30
0.0
  0
LINE
  5
13C
330
1F
100
AcDbEntity
  8
FORMAT
100
AcDbLine
 10
127.908889553
 20
48.7399279508
 30
0.0
 11
118.7891454965
 21
48.454935949
 31
0.0
  0
LINE
  5
13D
330
1F
100
AcDbEntity
  8
FORMAT
100
AcDbLine
 10
127.908889553
 20
57.1790096935
 30
0.0
 11
118.7891454965
 21
57.4640016953
 31
0.0
  0
LINE
  5
13E
330
1F
100
AcDbEntity
  8
FORMAT
100
AcDbLine
 10
118.7891454965
 20
57.9962813222
 30
0.0
 11
118.7891454965
 21
47.9226563222
 31
0.0
  0
LINE
  5
13F
330
1F
100
AcDbEntity
  8
FORMAT
  6
CENTERX2
370
    18
100
AcDbLine
 10
84.0337389023
 20
52.9594688222
 30
0.0
 11
128.9341974371
 21
52.9594688222
 31
0.0
  0
LINE
  5
140
330
1F
100
AcDbEntity
  8
FORMAT
  6
CENTERX2
370
    18
100
AcDbLine
 10
108.2891454965
 20
43.1187551628
 30
0.0
 11
108.2891454965
 21
81.4113732097
 31
0.0
  0
ARC
  5
141
330
1F
100
AcDbEntity
  8
0
  6
Continuous
 62
     7
370
    25
100
AcDbCircle
 10
170.3220554273
 20
80.0594688222
 30
0.0
 40
0.25
100
AcDbArc
 50
0.0
 51
90.0
  0
ARC
  5
142
330
1F
100
AcDbEntity
  8
0
  6
Continuous
 62
     7
370
    25
100
AcDbCircle
 10
159.8220554273
 20
80.0594688222
 30
0.0
 40
0.25
100
AcDbArc
 50
90.0
 51
180.0
  0
LINE
  5
143
330
1F
100
AcDbEntity
  8
0
  6
Continuous
 62
     7
370
    25
100
AcDbLine
 10
170.5720554273
 20
79.4594688222
 30
0.0
 11
170.5720554273
 21
80.0594688222
 31
0.0
  0
LINE
  5
144
330
1F
100
AcDbEntity
  8
0
  6
Continuous
 62
     7
370
    25
100
AcDbLine
 10
159.5720554273
 20
80.0594688222
 30
0.0
 11
159.5720554273
 21
79.4594688222
 31
0.0
  0
LINE
  5
145
330
1F
100
AcDbEntity
  8
0
  6
Continuous
 62
     7
370
    25
100
AcDbLine
 10
172.5220554273
 20
71.4594688222
 30
0.0
 11
170.5720554272
 21
79.4594688222
 31
0.0
  0
LINE
  5
146
330
1F
100
AcDbEntity
  8
0
  6
Continuous
 62
     7
370
    25
100
AcDbLine
 10
159.5720554273
 20
79.4594688222
 30
0.0
 11
157.6220554272
 21
71.4594688222
 31
0.0
  0
LINE
  5
147
330
1F
100
AcDbEntity
  8
0
  6
Continuous
 62
     7
370
    25
100
AcDbLine
 10
157.6220554273
 20
71.4594688222
 30
0.0
 11
158.0720554273
 21
63.4594688222
 31
0.0
  0
LINE
  5
148
330
1F
100
AcDbEntity
  8
0
  6
Continuous
 62
     7
370
    25
100
AcDbLine
 10
172.0720554273
 20
63.4594688222
 30
0.0
 11
172.5220554273
 21
71.4594688222
 31
0.0
  0
LINE
  5
149
330
1F
100
AcDbEntity
  8
0
  6
Continuous
 62
     7
370
    25
100
AcDbLine
 10
170.9720554273
 20
61.0335012719
 30
0.0
 11
170.9720554273
 21
63.4594688222
 31
0.0
  0
LINE
  5
14A
330
1F
100
AcDbEntity
  8
0
  6
Continuous
 62
     7
370
    25
100
AcDbLine
 10
159.1720554273
 20
63.4594688222
 30
0.0
 11
159.1720554273
 21
61.9575624925
 31
0.0
  0
ARC
  5
14B
330
1F
100
AcDbEntity
  8
0
  6
Continuous
 62
     7
370
    25
100
AcDbCircle
 10
159.3720554273
 20
61.5012112525
 30
0.0
 40
0.5000000000000135
100
AcDbArc
 50
113.6449780875
 51
180.007858636
  0
LINE
  5
14C
330
1F
100
AcDbEntity
  8
0
  6
Continuous
 62
     7
370
    25
100
AcDbLine
 10
166.3220554273
 20
80.0594688222
 30
0.0
 11
166.3220554273
 21
80.3094688222
 31
0.0
  0
ARC
  5
14D
330
1F
100
AcDbEntity
  8
0
  6
Continuous
 62
     7
370
    25
100
AcDbCircle
 10
166.3220554273
 20
80.0594688222
 30
0.0
 40
0.25
100
AcDbArc
 50
0.0
 51
90.0
  0
LINE
  5
14E
330
1F
100
AcDbEntity
  8
0
  6
Continuous
 62
     7
370
    25
100
AcDbLine
 10
166.3220554273
 20
80.0594688222
 30
0.0
 11
166.5720554273
 21
80.0594688222
 31
0.0
  0
LINE
  5
14F
330
1F
100
AcDbEntity
  8
0
  6
Continuous
 62
     7
370
    25
100
AcDbLine
 10
166.3220554273
 20
79.4594688222
 30
0.0
 11
166.3220554273
 21
80.0594688222
 31
0.0
  0
LINE
  5
150
330
1F
100
AcDbEntity
  8
0
  6
Continuous
 62
     7
370
    25
100
AcDbLine
 10
166.5720554273
 20
80.0594688222
 30
0.0
 11
166.5720554273
 21
79.4594688222
 31
0.0
  0
LINE
  5
151
330
1F
100
AcDbEntity
  8
0
  6
Continuous
 62
     7
370
    25
100
AcDbLine
 10
166.5720554273
 20
79.4594688222
 30
0.0
 11
166.3220554273
 21
79.4594688222
 31
0.0
  0
LINE
  5
152
330
1F
100
AcDbEntity
  8
0
  6
Continuous
 62
     7
370
    25
100
AcDbLine
 10
163.8220554273
 20
80.0594688222
 30
0.0
 11
163.8220554273
 21
79.4594688222
 31
0.0
  0
LINE
  5
153
330
1F
100
AcDbEntity
  8
0
  6
Continuous
 62
     7
370
    25
100
AcDbLine
 10
166.3220554273
 20
80.0594688222
 30
0.0
 11
163.8220554273
 21
80.0594688222
 31
0.0
  0
LINE
  5
154
330
1F
100
AcDbEntity
  8
0
  6
Continuous
 62
     7
370
    25
100
AcDbLine
 10
166.3220554273
 20
79.4594688222
 30
0.0
 11
163.8220554273
 21
79.4594688222
 31
0.0
  0
LINE
  5
155
330
1F
100
AcDbEntity
  8
0
  6
Continuous
 62
     7
370
    25
100
AcDbLine
 10
163.8220554273
 20
80.3094688222
 30
0.0
 11
163.8220554273
 21
80.0594688222
 31
0.0
  0
LINE
  5
156
330
1F
100
AcDbEntity
  8
0
  6
Continuous
 62
     7
370
    25
100
AcDbLine
 10
163.8220554273
 20
80.3094688222
 30
0.0
 11
166.3220554273
 21
80.3094688222
 31
0.0
  0
ARC
  5
157
330
1F
100
AcDbEntity
  8
0
  6
Continuous
 62
     7
370
    25
100
AcDbCircle
 10
163.8220554273
 20
80.0594688222
 30
0.0
 40
0.25
100
AcDbArc
 50
90.0
 51
180.0
  0
LINE
  5
158
330
1F
100
AcDbEntity
  8
0
  6
Continuous
 62
     7
370
    25
100
AcDbLine
 10
163.5720554273
 20
80.0594688222
 30
0.0
 11
163.8220554273
 21
80.0594688222
 31
0.0
  0
LINE
  5
159
330
1F
100
AcDbEntity
  8
0
  6
Continuous
 62
     7
370
    25
100
AcDbLine
 10
163.5720554273
 20
79.4594688222
 30
0.0
 11
163.5720554273
 21
80.0594688222
 31
0.0
  0
LINE
  5
15A
330
1F
100
AcDbEntity
  8
0
  6
Continuous
 62
     7
370
    25
100
AcDbLine
 10
163.8220554273
 20
79.4594688222
 30
0.0
 11
163.5720554273
 21
79.4594688222
 31
0.0
  0
SPLINE
  5
15B
330
1F
100
AcDbEntity
  8
0
  6
Continuous
 62
     7
370
    25
100
AcDbSpline
210
0.0
220
0.0
230
1.0
 70
     8
 71
     3
 72
    15
 73
    11
 74
     0
 42
0.00000001
 43
0.00000001
 40
0.0
 40
0.0
 40
0.0
 40
0.0
 40
0.0081667445812973
 40
0.3321939991490802
 40
0.4756279600585562
 40
0.6866830973284892
 40
0.8457435502264752
 40
0.8967566214763124
 40
0.9909540928118028
 40
1.0
 40
1.0
 40
1.0
 40
1.0
 10
166.3220554272516
 20
80.30946882217091
 30
0.0
 10
166.3234928901906
 20
80.30946614582513
 30
0.0
 10
166.3819637481426
 20
80.3093572816383
 30
0.0
 10
166.4663889258618
 20
80.2998112693689
 30
0.0
 10
166.5809679978843
 20
80.26244888611433
 30
0.0
 10
166.6623388850808
 20
80.21758337137967
 30
0.0
 10
166.7153578770825
 20
80.15970707180277
 30
0.0
 10
166.7395598089266
 20
80.10903103183084
 30
0.0
 10
166.7457494295928
 20
80.08033675231084
 30
0.0
 10
166.7459508250054
 20
80.06114992075533
 30
0.0
 10
166.7459684707298
 20
80.05946882217091
 30
0.0
  0
LINE
  5
15C
330
1F
100
AcDbEntity
  8
0
  6
Continuous
 62
     7
370
    25
100
AcDbLine
 10
166.5720554273
 20
80.0594688222
 30
0.0
 11
166.7459684707
 21
80.0594688222
 31
0.0
  0
LINE
  5
15D
330
1F
100
AcDbEntity
  8
0
  6
Continuous
 62
     7
370
    25
100
AcDbLine
 10
163.3981423838
 20
80.0594688222
 30
0.0
 11
163.5720554273
 21
80.0594688222
 31
0.0
  0
SPLINE
  5
15E
330
1F
100
AcDbEntity
  8
0
  6
Continuous
 62
     7
370
    25
100
AcDbSpline
210
0.0
220
0.0
230
1.0
 70
     8
 71
     3
 72
    15
 73
    11
 74
     0
 42
0.00000001
 43
0.00000001
 40
0.0
 40
0.0
 40
0.0
 40
0.0
 40
0.0090459071881971
 40
0.1032433785236873
 40
0.1542564497735245
 40
0.3133169026715109
 40
0.5243720399414425
 40
0.6678060008509904
 40
0.9918332554187292
 40
1.0
 40
1.0
 40
1.0
 40
1.0
 10
163.3981423837733
 20
80.05946882217091
 30
0.0
 10
163.3981600294978
 20
80.06114992075533
 30
0.0
 10
163.3983614249103
 20
80.08033675231084
 30
0.0
 10
163.4045510455765
 20
80.10903103183084
 30
0.0
 10
163.4287529774207
 20
80.15970707180277
 30
0.0
 10
163.4817719694223
 20
80.21758337137969
 30
0.0
 10
163.5631428566189
 20
80.26244888611436
 30
0.0
 10
163.6777219286414
 20
80.29981126936887
 30
0.0
 10
163.7621471063608
 20
80.3093572816384
 30
0.0
 10
163.8206179643126
 20
80.30946614582513
 30
0.0
 10
163.8220554272516
 20
80.30946882217091
 30
0.0
  0
LINE
  5
15F
330
1F
100
AcDbEntity
  8
0
  6
Continuous
 62
     7
370
    25
100
AcDbLine
 10
166.7459684707
 20
80.0594688222
 30
0.0
 11
166.7459684707
 21
79.4594688222
 31
0.0
  0
LINE
  5
160
330
1F
100
AcDbEntity
  8
0
  6
Continuous
 62
     7
370
    25
100
AcDbLine
 10
166.7459684707
 20
79.4594688222
 30
0.0
 11
166.5720554273
 21
79.4594688222
 31
0.0
  0
LINE
  5
161
330
1F
100
AcDbEntity
  8
0
  6
Continuous
 62
     7
370
    25
100
AcDbLine
 10
163.3981423838
 20
79.4594688222
 30
0.0
 11
163.3981423838
 21
80.0594688222
 31
0.0
  0
LINE
  5
162
330
1F
100
AcDbEntity
  8
0
  6
Continuous
 62
     7
370
    25
100
AcDbLine
 10
163.5720554273
 20
79.4594688222
 30
0.0
 11
163.3981423838
 21
79.4594688222
 31
0.0
  0
LINE
  5
163
330
1F
100
AcDbEntity
  8
0
  6
Continuous
 62
     7
370
    25
100
AcDbLine
 10
166.3220554273
 20
80.3094688222
 30
0.0
 11
170.3220554273
 21
80.3094688222
 31
0.0
  0
LINE
  5
164
330
1F
100
AcDbEntity
  8
0
  6
Continuous
 62
     7
370
    25
100
AcDbLine
 10
159.8220554273
 20
80.3094688222
 30
0.0
 11
163.8220554273
 21
80.3094688222
 31
0.0
  0
LINE
  5
165
330
1F
100
AcDbEntity
  8
0
  6
Continuous
 62
     7
370
    25
100
AcDbLine
 10
166.7459684707
 20
79.4594688222
 30
0.0
 11
170.5720554273
 21
79.4594688222
 31
0.0
  0
LINE
  5
166
330
1F
100
AcDbEntity
  8
0
  6
Continuous
 62
     7
370
    25
100
AcDbLine
 10
159.5720554273
 20
79.4594688222
 30
0.0
 11
163.3981423838
 21
79.4594688222
 31
0.0
  0
LINE
  5
167
330
1F
100
AcDbEntity
  8
0
  6
Continuous
 62
     7
370
    25
100
AcDbLine
 10
164.4720554273
 20
80.3194688222
 30
0.0
 11
165.6720554273
 21
80.3194688222
 31
0.0
  0
LINE
  5
168
330
1F
100
AcDbEntity
  8
0
  6
Continuous
 62
     7
370
    25
100
AcDbLine
 10
164.4720554273
 20
80.3094688222
 30
0.0
 11
164.4720554273
 21
80.3194688222
 31
0.0
  0
LINE
  5
169
330
1F
100
AcDbEntity
  8
0
  6
Continuous
 62
     7
370
    25
100
AcDbLine
 10
165.6720554273
 20
80.3094688222
 30
0.0
 11
165.6720554273
 21
80.3194688222
 31
0.0
  0
LINE
  5
16A
330
1F
100
AcDbEntity
  8
0
  6
Continuous
 62
     7
370
    25
100
AcDbLine
 10
157.6220554272
 20
71.4594688222
 30
0.0
 11
172.5220554273
 21
71.4594688222
 31
0.0
  0
LINE
  5
16B
330
1F
100
AcDbEntity
  8
0
  6
Continuous
 62
     7
370
    25
100
AcDbLine
 10
158.0720554273
 20
63.4594688222
 30
0.0
 11
172.0720554273
 21
63.4594688222
 31
0.0
  0
LINE
  5
16C
330
1F
100
AcDbEntity
  8
0
  6
Continuous
 62
     7
370
    25
100
AcDbLine
 10
168.3437546913
 20
81.4594688222
 30
0.0
 11
168.3437546913
 21
80.3094688222
 31
0.0
  0
LINE
  5
16D
330
1F
100
AcDbEntity
  8
0
  6
Continuous
 62
     7
370
    25
100
AcDbLine
 10
168.3437546913
 20
81.4594688222
 30
0.0
 11
168.5720554273
 21
81.4594688222
 31
0.0
  0
LINE
  5
16E
330
1F
100
AcDbEntity
  8
0
  6
Continuous
 62
     7
370
    25
100
AcDbLine
 10
168.5720554273
 20
80.3094688222
 30
0.0
 11
168.5720554273
 21
81.4594688222
 31
0.0
  0
LINE
  5
16F
330
1F
100
AcDbEntity
  8
0
  6
Continuous
 62
     7
370
    25
100
AcDbLine
 10
161.5720554273
 20
81.4594688222
 30
0.0
 11
161.5720554273
 21
80.3094688222
 31
0.0
  0
LINE
  5
170
330
1F
100
AcDbEntity
  8
0
  6
Continuous
 62
     7
370
    25
100
AcDbLine
 10
161.5720554273
 20
81.4594688222
 30
0.0
 11
161.8003561632
 21
81.4594688222
 31
0.0
  0
LINE
  5
171
330
1F
100
AcDbEntity
  8
0
  6
Continuous
 62
     7
370
    25
100
AcDbLine
 10
161.8003561632
 20
81.4594688222
 30
0.0
 11
161.8003561632
 21
80.3094688222
 31
0.0
  0
LINE
  5
172
330
1F
100
AcDbEntity
  8
0
  6
Continuous
 62
     7
370
    25
100
AcDbLine
 10
161.8003561632
 20
81.4594688222
 30
0.0
 11
168.3437546913
 21
81.4594688222
 31
0.0
  0
CIRCLE
  5
173
330
1F
100
AcDbEntity
  8
0
  6
Continuous
 62
     7
370
    25
100
AcDbCircle
 10
165.0720554273
 20
52.9594688222
 30
0.0
 40
4.782279626857616
  0
CIRCLE
  5
174
330
1F
100
AcDbEntity
  8
0
  6
Continuous
 62
     7
370
    25
100
AcDbCircle
 10
165.0720554273
 20
52.9594688222
 30
0.0
 40
4.0
  0
CIRCLE
  5
175
330
1F
100
AcDbEntity
  8
0
  6
Continuous
 62
     7
370
    25
100
AcDbCircle
 10
165.0720554273
 20
52.9594688222
 30
0.0
 40
3.200000000000017
  0
CIRCLE
  5
176
330
1F
100
AcDbEntity
  8
0
  6
Continuous
 62
     7
370
    25
100
AcDbCircle
 10
165.0720554273
 20
52.9594688222
 30
0.0
 40
3.0
  0
CIRCLE
  5
177
330
1F
100
AcDbEntity
  8
0
  6
Continuous
 62
     7
370
    25
100
AcDbCircle
 10
165.0720554273
 20
52.9594688222
 30
0.0
 40
5.052437500000025
  0
CIRCLE
  5
178
330
1F
100
AcDbEntity
  8
0
  6
Continuous
 62
     7
370
    25
100
AcDbCircle
 10
165.0720554273
 20
52.9594688222
 30
0.0
 40
9.999999999999972
  0
CIRCLE
  5
179
330
1F
100
AcDbEntity
  8
0
  6
Continuous
 62
     7
370
    25
100
AcDbCircle
 10
165.0720554273
 20
52.9594688222
 30
0.0
 40
9.499999999999972
  0
SPLINE
  5
17A
330
1F
100
AcDbEntity
  8
0
  6
Continuous
 62
     7
370
    25
100
AcDbSpline
210
0.0
220
0.0
230
1.0
 70
     8
 71
     3
 72
    13
 73
     9
 74
     0
 42
0.00000001
 43
0.00000001
 40
0.0
 40
0.0
 40
0.0
 40
0.0
 40
0.0709002556126979
 40
0.2985326187209611
 40
0.5283503324641392
 40
0.7606230766495086
 40
0.9918193887712565
 40
0.9999999999999999
 40
0.9999999999999999
 40
0.9999999999999999
 40
0.9999999999999999
 10
159.254323697639
 20
61.0704624187584
 30
0.0
 10
159.254239145629
 20
61.10499140649555
 30
0.0
 10
159.253883130933
 20
61.25037916344902
 30
0.0
 10
159.2347824139856
 20
61.49005335567022
 30
0.0
 10
159.2054552587516
 20
61.74952571697929
 30
0.0
 10
159.1807413050428
 20
61.90866433649572
 30
0.0
 10
159.1692032696556
 20
61.97671918876621
 30
0.0
 10
159.1722660777523
 20
61.95819553113323
 30
0.0
 10
159.1723707480019
 20
61.9575624924948
 30
0.0
  0
SPLINE
  5
17B
330
1F
100
AcDbEntity
  8
0
  6
Continuous
 62
     7
370
    25
100
AcDbSpline
210
0.0
220
0.0
230
1.0
 70
    24
 71
     3
 72
    14
 73
    10
 74
     0
 42
0.00000001
 43
0.00000001
 40
0.0
 40
0.0
 40
0.0
 40
0.0
 40
0.0686782875714484
 40
0.293216909137959
 40
0.2935197863693179
 40
0.5073359099559678
 40
0.7069537562193142
 40
0.9001971037285486
 40
1.0
 40
1.0
 40
1.0
 40
1.0
 10
158.8720554272516
 20
60.95946882217175
 30
0.0
 10
158.8720554272516
 20
60.97832092339936
 30
0.0
 10
158.8720554272516
 20
61.05880858621368
 30
0.0
 10
158.8720554272515
 20
61.13849759255672
 30
0.0
 10
158.8720554272516
 20
61.24770931533302
 30
0.0
 10
158.8720554272516
 20
61.34440539584329
 30
0.0
 10
158.8720554272516
 20
61.44598793813343
 30
0.0
 10
158.8720554272516
 20
61.49954000758775
 30
0.0
 10
158.8720554272516
 20
61.4953332063229
 30
0.0
 10
158.8720554272516
 20
61.49390049404904
 30
0.0
  0
SPLINE
  5
17C
330
1F
100
AcDbEntity
  8
0
  6
Continuous
 62
     7
370
    25
100
AcDbSpline
210
0.0
220
0.0
230
1.0
 70
    24
 71
     3
 72
     9
 73
     5
 74
     0
 42
0.00000001
 43
0.00000001
 40
0.0
 40
0.0
 40
0.0
 40
0.0
 40
0.3143288738672229
 40
1.0
 40
1.0
 40
1.0
 40
1.0
 10
158.8720554272516
 20
60.77404641916153
 30
0.0
 10
158.8720554272516
 20
60.79222969097859
 30
0.0
 10
158.8720554272516
 20
60.8500776118309
 30
0.0
 10
158.8720554272516
 20
60.9149723642206
 30
0.0
 10
158.8720554272516
 20
60.95946882217176
 30
0.0
  0
LINE
  5
17D
330
1F
100
AcDbEntity
  8
0
  6
Continuous
 62
     7
370
    25
100
AcDbLine
 10
170.5720554273
 20
80.0594688222
 30
0.0
 11
166.7459684707
 21
80.0594688222
 31
0.0
  0
LINE
  5
17E
330
1F
100
AcDbEntity
  8
0
  6
Continuous
 62
     7
370
    25
100
AcDbLine
 10
163.3981423838
 20
80.0594688222
 30
0.0
 11
159.5720554273
 21
80.0594688222
 31
0.0
  0
INSERT
  5
18A
330
1F
100
AcDbEntity
  8
FORMAT
100
AcDbBlockReference
  2
SW_CENTERMARKSYMBOL_0
 10
165.0720554273
 20
52.9594688222
 30
0.0
  0
LINE
  5
18B
330
1F
100
AcDbEntity
  8
0
  6
Continuous
 62
     7
370
    25
100
AcDbLine
 10
85.4334830638
 20
118.4468822171
 30
0.0
 11
85.2891454965
 21
118.1968822171
 31
0.0
  0
LINE
  5
18C
330
1F
100
AcDbEntity
  8
0
  6
Continuous
 62
     7
370
    25
100
AcDbLine
 10
85.2891454965
 20
101.6968822171
 30
0.0
 11
85.4334830638
 21
101.4468822171
 31
0.0
  0
LINE
  5
18D
330
1F
100
AcDbEntity
  8
0
  6
Continuous
 62
     7
370
    25
100
AcDbLine
 10
98.1448079292
 20
101.4468822171
 30
0.0
 11
98.2891454965
 21
101.6968822171
 31
0.0
  0
LINE
  5
18E
330
1F
100
AcDbEntity
  8
0
  6
Continuous
 62
     7
370
    25
100
AcDbLine
 10
98.2891454965
 20
118.1968822171
 30
0.0
 11
98.1448079292
 21
118.4468822171
 31
0.0
  0
LINE
  5
18F
330
1F
100
AcDbEntity
  8
0
  6
Continuous
 62
     7
370
    25
100
AcDbLine
 10
98.5391454965
 20
119.9468822171
 30
0.0
 11
98.2891454965
 21
119.6968822171
 31
0.0
  0
LINE
  5
190
330
1F
100
AcDbEntity
  8
0
  6
Continuous
 62
     7
370
    25
100
AcDbLine
 10
98.2891454965
 20
100.1968822171
 30
0.0
 11
98.5391454965
 21
99.9468822171
 31
0.0
  0
LINE
  5
191
330
1F
100
AcDbEntity
  8
0
  6
Continuous
 62
     7
370
    25
100
AcDbLine
 10
117.7891454965
 20
99.9468822171
 30
0.0
 11
118.2891454965
 21
100.4468822171
 31
0.0
  0
LINE
  5
192
330
1F
100
AcDbEntity
  8
0
  6
Continuous
 62
     7
370
    25
100
AcDbLine
 10
118.2891454965
 20
119.4468822171
 30
0.0
 11
117.7891454965
 21
119.9468822171
 31
0.0
  0
LINE
  5
193
330
1F
100
AcDbEntity
  8
0
  6
Continuous
 62
     7
370
    25
100
AcDbLine
 10
117.7891454965
 20
119.9468822171
 30
0.0
 11
116.1711115078
 21
119.9468822171
 31
0.0
  0
LINE
  5
194
330
1F
100
AcDbEntity
  8
0
  6
Continuous
 62
     7
370
    25
100
AcDbLine
 10
116.1711115078
 20
99.9468822171
 30
0.0
 11
117.7891454965
 21
99.9468822171
 31
0.0
  0
ARC
  5
195
330
1F
100
AcDbEntity
  8
0
  6
Continuous
 62
     7
370
    25
100
AcDbCircle
 10
99.2891454965
 20
100.9468822171
 30
0.0
 40
1.5
100
AcDbArc
 50
318.1896851042
 51
0.0
  0
ARC
  5
196
330
1F
100
AcDbEntity
  8
0
  6
Continuous
 62
     7
370
    25
100
AcDbCircle
 10
99.2891454965
 20
118.9468822171
 30
0.0
 40
1.5
100
AcDbArc
 50
0.0
 51
41.8103148958
  0
ARC
  5
197
330
1F
100
AcDbEntity
  8
0
  6
Continuous
 62
     7
370
    25
100
AcDbCircle
 10
117.2891454965
 20
118.9468822171
 30
0.0
 40
1.5
100
AcDbArc
 50
138.1896851042
 51
180.0
  0
ARC
  5
198
330
1F
100
AcDbEntity
  8
0
  6
Continuous
 62
     7
370
    25
100
AcDbCircle
 10
117.2891454965
 20
100.9468822171
 30
0.0
 40
1.5
100
AcDbArc
 50
180.0
 51
221.8103148958
  0
LINE
  5
199
330
1F
100
AcDbEntity
  8
0
  6
Continuous
 62
     7
370
    25
100
AcDbLine
 10
98.5391454965
 20
99.9468822171
 30
0.0
 11
100.4071794853
 21
99.9468822171
 31
0.0
  0
LINE
  5
19A
330
1F
100
AcDbEntity
  8
0
  6
Continuous
 62
     7
370
    25
100
AcDbLine
 10
100.4071794853
 20
119.9468822171
 30
0.0
 11
98.5391454965
 21
119.9468822171
 31
0.0
  0
LINE
  5
19B
330
1F
100
AcDbEntity
  8
0
  6
Continuous
 62
     7
370
    25
100
AcDbLine
 10
118.2891454965
 20
104.8944447171
 30
0.0
 11
126.9341974371
 21
105.1646025902
 31
0.0
  0
LINE
  5
19C
330
1F
100
AcDbEntity
  8
0
  6
Continuous
 62
     7
370
    25
100
AcDbLine
 10
126.9341974371
 20
114.7291618439
 30
0.0
 11
118.2891454965
 21
114.9993197171
 31
0.0
  0
LINE
  5
19D
330
1F
100
AcDbEntity
  8
0
  6
Continuous
 62
     7
370
    25
100
AcDbLine
 10
126.9341974371
 20
105.1646025902
 30
0.0
 11
128.2891454965
 21
105.9468822171
 31
0.0
  0
LINE
  5
19E
330
1F
100
AcDbEntity
  8
0
  6
Continuous
 62
     7
370
    25
100
AcDbLine
 10
128.2891454965
 20
113.9468822171
 30
0.0
 11
126.9341974371
 21
114.7291618439
 31
0.0
  0
SPLINE
  5
19F
330
1F
100
AcDbEntity
  8
0
  6
Continuous
 62
     7
370
    25
100
AcDbSpline
210
0.0
220
0.0
230
1.0
 70
     8
 71
     3
 72
    15
 73
    11
 74
     0
 42
0.00000001
 43
0.00000001
 40
0.0
 40
0.0
 40
0.0
 40
0.0
 40
0.0090459071881971
 40
0.1032433785236817
 40
0.154256449773519
 40
0.3133169026715102
 40
0.5243720399414401
 40
0.667806000850918
 40
0.9918332554187028
 40
1.0
 40
1.0
 40
1.0
 40
1.0
 10
103.0500601638776
 20
111.6207952605683
 30
0.0
 10
103.0500658558443
 20
111.6207776148439
 30
0.0
 10
103.0501308197951
 20
111.6205762194313
 30
0.0
 10
103.052126506231
 20
111.6143865987652
 30
0.0
 10
103.0599435024474
 20
111.590184666921
 30
0.0
 10
103.0771133262024
 20
111.5371656749193
 30
0.0
 10
103.10369722277
 20
111.4557947877228
 30
0.0
 10
103.1415265212586
 20
111.3412157157003
 30
0.0
 10
103.1698073012688
 20
111.2567905379811
 30
0.0
 10
103.1896384488001
 20
111.1983196800291
 30
0.0
 10
103.190125982943
 20
111.1968822170901
 30
0.0
  0
ARC
  5
1A0
330
1F
100
AcDbEntity
  8
0
  6
Continuous
 62
     7
370
    25
100
AcDbCircle
 10
108.2891454965
 20
109.9468822171
 30
0.0
 40
5.500000000000011
100
AcDbArc
 50
17.7189318734
 51
162.2810681266
  0
SPLINE
  5
1A1
330
1F
100
AcDbEntity
  8
0
  6
Continuous
 62
     7
370
    25
100
AcDbSpline
210
0.0
220
0.0
230
1.0
 70
     8
 71
     3
 72
    15
 73
    11
 74
     0
 42
0.00000001
 43
0.00000001
 40
0.0
 40
0.0
 40
0.0
 40
0.0
 40
0.0081667445812973
 40
0.3321939991490802
 40
0.4756279600585562
 40
0.6866830973284892
 40
0.8457435502264752
 40
0.8967566214763124
 40
0.9909540928118028
 40
1.0
 40
1.0
 40
1.0
 40
1.0
 10
113.3881650101285
 20
111.1968822170901
 30
0.0
 10
113.3886525442714
 20
111.1983196800291
 30
0.0
 10
113.4084836918027
 20
111.2567905379811
 30
0.0
 10
113.4367644718129
 20
111.3412157157003
 30
0.0
 10
113.4745937703016
 20
111.4557947877228
 30
0.0
 10
113.5011776668691
 20
111.5371656749193
 30
0.0
 10
113.5183474906241
 20
111.590184666921
 30
0.0
 10
113.5261644868405
 20
111.6143865987652
 30
0.0
 10
113.5281601732764
 20
111.6205762194313
 30
0.0
 10
113.5282251372272
 20
111.6207776148439
 30
0.0
 10
113.5282308291939
 20
111.6207952605683
 30
0.0
  0
ARC
  5
1A2
330
1F
100
AcDbEntity
  8
0
  6
Continuous
 62
     7
370
    25
100
AcDbCircle
 10
108.2891454965
 20
109.9468822171
 30
0.0
 40
5.250000000000009
100
AcDbArc
 50
13.774146998
 51
166.225853002
  0
SPLINE
  5
1A3
330
1F
100
AcDbEntity
  8
0
  6
Continuous
 62
     7
370
    25
100
AcDbSpline
210
0.0
220
0.0
230
1.0
 70
     8
 71
     3
 72
    15
 73
    11
 74
     0
 42
0.00000001
 43
0.00000001
 40
0.0
 40
0.0
 40
0.0
 40
0.0
 40
0.0080847466189582
 40
0.3310106400648242
 40
0.4750333064304946
 40
0.687436307921514
 40
0.8468367539418302
 40
0.9000996640391846
 40
0.991044277198408
 40
1.0
 40
1.0
 40
1.0
 40
1.0
 10
103.190125982943
 20
111.1968822170901
 30
0.0
 10
103.1888461513988
 20
111.1976981530784
 30
0.0
 10
103.1364465056756
 20
111.2311047032729
 30
0.0
 10
103.0610914142205
 20
111.2799182680067
 30
0.0
 10
102.9591723022028
 20
111.347288740275
 30
0.0
 10
102.8867813572109
 20
111.3958727806185
 30
0.0
 10
102.8390759289461
 20
111.428321642077
 30
0.0
 10
102.8175404452388
 20
111.4430326831433
 30
0.0
 10
102.8121114292193
 20
111.4467511340614
 30
0.0
 10
102.8119356770627
 20
111.4468714327269
 30
0.0
 10
102.8119199214841
 20
111.4468822170901
 30
0.0
  0
ARC
  5
1A4
330
1F
100
AcDbEntity
  8
0
  6
Continuous
 62
     7
370
    25
100
AcDbCircle
 10
102.8119199215
 20
111.6968822171
 30
0.0
 40
0.25
100
AcDbArc
 50
270.0
 51
342.2810681266
  0
SPLINE
  5
1A5
330
1F
100
AcDbEntity
  8
0
  6
Continuous
 62
     7
370
    25
100
AcDbSpline
210
0.0
220
0.0
230
1.0
 70
     8
 71
     3
 72
    15
 73
    11
 74
     0
 42
0.00000001
 43
0.00000001
 40
0.0
 40
0.0
 40
0.0
 40
0.0
 40
0.0089557228015919
 40
0.0999003359608209
 40
0.1531632460581751
 40
0.3125636920784905
 40
0.5249666935695062
 40
0.6689893599351778
 40
0.991915253381045
 40
1.0
 40
1.0
 40
1.0
 40
1.0
 10
113.7663710715874
 20
111.4468822170901
 30
0.0
 10
113.7663553160088
 20
111.4468714327269
 30
0.0
 10
113.7661795638522
 20
111.4467511340614
 30
0.0
 10
113.7607505478327
 20
111.4430326831433
 30
0.0
 10
113.7392150641254
 20
111.428321642077
 30
0.0
 10
113.6915096358606
 20
111.3958727806185
 30
0.0
 10
113.6191186908687
 20
111.347288740275
 30
0.0
 10
113.517199578851
 20
111.2799182680067
 30
0.0
 10
113.441844487396
 20
111.2311047032728
 30
0.0
 10
113.3894448416727
 20
111.1976981530784
 30
0.0
 10
113.3881650101285
 20
111.1968822170901
 30
0.0
  0
ARC
  5
1A6
330
1F
100
AcDbEntity
  8
0
  6
Continuous
 62
     7
370
    25
100
AcDbCircle
 10
113.7663710716
 20
111.6968822171
 30
0.0
 40
0.25
100
AcDbArc
 50
197.7189318734
 51
270.0
  0
SPLINE
  5
1A7
330
1F
100
AcDbEntity
  8
0
  6
Continuous
 62
     7
370
    25
100
AcDbSpline
210
0.0
220
0.0
230
1.0
 70
     8
 71
     3
 72
    15
 73
    11
 74
     0
 42
0.00000001
 43
0.00000001
 40
0.0
 40
0.0
 40
0.0
 40
0.0
 40
0.0081667445812695
 40
0.3321939991490082
 40
0.4756279600585605
 40
0.68668309732849
 40
0.8457435502264812
 40
0.8967566214763185
 40
0.9909540928118029
 40
1.0
 40
1.0
 40
1.0
 40
1.0
 10
103.190125982943
 20
108.6968822170901
 30
0.0
 10
103.1896384488001
 20
108.6954447541511
 30
0.0
 10
103.169807301268
 20
108.6369738961994
 30
0.0
 10
103.1415265212587
 20
108.5525487184799
 30
0.0
 10
103.1036972227699
 20
108.4379696464574
 30
0.0
 10
103.0771133262024
 20
108.3565987592608
 30
0.0
 10
103.0599435024475
 20
108.3035797672592
 30
0.0
 10
103.052126506231
 20
108.279377835415
 30
0.0
 10
103.0501308197951
 20
108.2731882147488
 30
0.0
 10
103.0500658558443
 20
108.2729868193363
 30
0.0
 10
103.0500601638776
 20
108.2729691736118
 30
0.0
  0
ARC
  5
1A8
330
1F
100
AcDbEntity
  8
0
  6
Continuous
 62
     7
370
    25
100
AcDbCircle
 10
108.2891454965
 20
109.9468822171
 30
0.0
 40
5.250000000000009
100
AcDbArc
 50
193.774146998
 51
346.225853002
  0
SPLINE
  5
1A9
330
1F
100
AcDbEntity
  8
0
  6
Continuous
 62
     7
370
    25
100
AcDbSpline
210
0.0
220
0.0
230
1.0
 70
     8
 71
     3
 72
    15
 73
    11
 74
     0
 42
0.00000001
 43
0.00000001
 40
0.0
 40
0.0
 40
0.0
 40
0.0
 40
0.0090459071881971
 40
0.1032433785236873
 40
0.1542564497735245
 40
0.3133169026715109
 40
0.5243720399414425
 40
0.6678060008509904
 40
0.9918332554187292
 40
1.0
 40
1.0
 40
1.0
 40
1.0
 10
113.5282308291939
 20
108.2729691736118
 30
0.0
 10
113.5282251372272
 20
108.2729868193363
 30
0.0
 10
113.5281601732764
 20
108.2731882147488
 30
0.0
 10
113.5261644868405
 20
108.279377835415
 30
0.0
 10
113.5183474906241
 20
108.3035797672592
 30
0.0
 10
113.5011776668691
 20
108.3565987592608
 30
0.0
 10
113.4745937703016
 20
108.4379696464574
 30
0.0
 10
113.4367644718128
 20
108.5525487184799
 30
0.0
 10
113.4084836918035
 20
108.6369738961994
 30
0.0
 10
113.3886525442714
 20
108.6954447541511
 30
0.0
 10
113.3881650101285
 20
108.6968822170901
 30
0.0
  0
ARC
  5
1AA
330
1F
100
AcDbEntity
  8
0
  6
Continuous
 62
     7
370
    25
100
AcDbCircle
 10
108.2891454965
 20
109.9468822171
 30
0.0
 40
5.500000000000011
100
AcDbArc
 50
197.7189318734
 51
342.2810681266
  0
ARC
  5
1AB
330
1F
100
AcDbEntity
  8
0
  6
Continuous
 62
     7
370
    25
100
AcDbCircle
 10
113.7663710716
 20
108.1968822171
 30
0.0
 40
0.2499999999999858
100
AcDbArc
 50
90.0
 51
162.2810681266
  0
SPLINE
  5
1AC
330
1F
100
AcDbEntity
  8
0
  6
Continuous
 62
     7
370
    25
100
AcDbSpline
210
0.0
220
0.0
230
1.0
 70
     8
 71
     3
 72
    15
 73
    11
 74
     0
 42
0.00000001
 43
0.00000001
 40
0.0
 40
0.0
 40
0.0
 40
0.0
 40
0.0080847466189818
 40
0.3310106400647566
 40
0.4750333064304971
 40
0.6874363079215134
 40
0.8468367539418253
 40
0.9000996640391794
 40
0.9910442771984082
 40
1.0
 40
1.0
 40
1.0
 40
1.0
 10
113.3881650101285
 20
108.6968822170901
 30
0.0
 10
113.3894448416727
 20
108.6960662811018
 30
0.0
 10
113.4418444873965
 20
108.6626597309082
 30
0.0
 10
113.5171995788509
 20
108.6138461661733
 30
0.0
 10
113.6191186908687
 20
108.5464756939052
 30
0.0
 10
113.6915096358606
 20
108.4978916535617
 30
0.0
 10
113.7392150641254
 20
108.4654427921031
 30
0.0
 10
113.7607505478327
 20
108.4507317510369
 30
0.0
 10
113.7661795638523
 20
108.4470133001187
 30
0.0
 10
113.7663553160088
 20
108.4468930014532
 30
0.0
 10
113.7663710715874
 20
108.4468822170901
 30
0.0
  0
ARC
  5
1AD
330
1F
100
AcDbEntity
  8
0
  6
Continuous
 62
     7
370
    25
100
AcDbCircle
 10
102.8119199215
 20
108.1968822171
 30
0.0
 40
0.25
100
AcDbArc
 50
17.7189318734
 51
90.0
  0
SPLINE
  5
1AE
330
1F
100
AcDbEntity
  8
0
  6
Continuous
 62
     7
370
    25
100
AcDbSpline
210
0.0
220
0.0
230
1.0
 70
     8
 71
     3
 72
    15
 73
    11
 74
     0
 42
0.00000001
 43
0.00000001
 40
0.0
 40
0.0
 40
0.0
 40
0.0
 40
0.0089557228015919
 40
0.0999003359608148
 40
0.153163246058169
 40
0.3125636920784849
 40
0.5249666935695
 40
0.6689893599352452
 40
0.9919152533810159
 40
1.0
 40
1.0
 40
1.0
 40
1.0
 10
102.8119199214841
 20
108.4468822170901
 30
0.0
 10
102.8119356770627
 20
108.4468930014532
 30
0.0
 10
102.8121114292193
 20
108.4470133001187
 30
0.0
 10
102.8175404452388
 20
108.4507317510369
 30
0.0
 10
102.8390759289461
 20
108.4654427921031
 30
0.0
 10
102.8867813572109
 20
108.4978916535617
 30
0.0
 10
102.9591723022028
 20
108.5464756939052
 30
0.0
 10
103.0610914142206
 20
108.6138461661733
 30
0.0
 10
103.1364465056751
 20
108.6626597309081
 30
0.0
 10
103.1888461513988
 20
108.6960662811018
 30
0.0
 10
103.190125982943
 20
108.6968822170901
 30
0.0
  0
LINE
  5
1AF
330
1F
100
AcDbEntity
  8
0
  6
Continuous
 62
     7
370
    25
100
AcDbLine
 10
103.2891454965
 20
109.3468822171
 30
0.0
 11
113.2891454965
 21
109.3468822171
 31
0.0
  0
LINE
  5
1B0
330
1F
100
AcDbEntity
  8
0
  6
Continuous
 62
     7
370
    25
100
AcDbLine
 10
103.2891454965
 20
110.5468822171
 30
0.0
 11
103.2891454965
 21
109.3468822171
 31
0.0
  0
LINE
  5
1B1
330
1F
100
AcDbEntity
  8
0
  6
Continuous
 62
     7
370
    25
100
AcDbLine
 10
113.2891454965
 20
109.3468822171
 30
0.0
 11
113.2891454965
 21
110.5468822171
 31
0.0
  0
LINE
  5
1B2
330
1F
100
AcDbEntity
  8
0
  6
Continuous
 62
     7
370
    25
100
AcDbLine
 10
113.2891454965
 20
110.5468822171
 30
0.0
 11
103.2891454965
 21
110.5468822171
 31
0.0
  0
LINE
  5
1B3
330
1F
100
AcDbEntity
  8
0
  6
Continuous
 62
     7
370
    25
100
AcDbLine
 10
102.5391454965
 20
108.6968822171
 30
0.0
 11
103.1901259829
 21
108.6968822171
 31
0.0
  0
LINE
  5
1B4
330
1F
100
AcDbEntity
  8
0
  6
Continuous
 62
     7
370
    25
100
AcDbLine
 10
102.5391454965
 20
111.1968822171
 30
0.0
 11
102.5391454965
 21
108.6968822171
 31
0.0
  0
LINE
  5
1B5
330
1F
100
AcDbEntity
  8
0
  6
Continuous
 62
     7
370
    25
100
AcDbLine
 10
103.1901259829
 20
111.1968822171
 30
0.0
 11
102.5391454965
 21
111.1968822171
 31
0.0
  0
LINE
  5
1B6
330
1F
100
AcDbEntity
  8
0
  6
Continuous
 62
     7
370
    25
100
AcDbLine
 10
114.0391454965
 20
111.1968822171
 30
0.0
 11
113.3881650101
 21
111.1968822171
 31
0.0
  0
LINE
  5
1B7
330
1F
100
AcDbEntity
  8
0
  6
Continuous
 62
     7
370
    25
100
AcDbLine
 10
114.0391454965
 20
108.6968822171
 30
0.0
 11
114.0391454965
 21
111.1968822171
 31
0.0
  0
LINE
  5
1B8
330
1F
100
AcDbEntity
  8
0
  6
Continuous
 62
     7
370
    25
100
AcDbLine
 10
113.3881650101
 20
108.6968822171
 30
0.0
 11
114.0391454965
 21
108.6968822171
 31
0.0
  0
ARC
  5
1B9
330
1F
100
AcDbEntity
  8
0
  6
Continuous
 62
     7
370
    25
100
AcDbCircle
 10
102.5391454965
 20
111.1968822171
 30
0.0
 40
0.25
100
AcDbArc
 50
90.0
 51
180.0
  0
LINE
  5
1BA
330
1F
100
AcDbEntity
  8
0
  6
Continuous
 62
     7
370
    25
100
AcDbLine
 10
102.5391454965
 20
111.4468822171
 30
0.0
 11
102.5391454965
 21
111.1968822171
 31
0.0
  0
LINE
  5
1BB
330
1F
100
AcDbEntity
  8
0
  6
Continuous
 62
     7
370
    25
100
AcDbLine
 10
102.5391454965
 20
111.1968822171
 30
0.0
 11
102.2891454965
 21
111.1968822171
 31
0.0
  0
LINE
  5
1BC
330
1F
100
AcDbEntity
  8
0
  6
Continuous
 62
     7
370
    25
100
AcDbLine
 10
102.5391454965
 20
111.4468822171
 30
0.0
 11
102.8119199215
 21
111.4468822171
 31
0.0
  0
LINE
  5
1BD
330
1F
100
AcDbEntity
  8
0
  6
Continuous
 62
     7
370
    25
100
AcDbLine
 10
113.7663710716
 20
111.4468822171
 30
0.0
 11
114.0391454965
 21
111.4468822171
 31
0.0
  0
LINE
  5
1BE
330
1F
100
AcDbEntity
  8
0
  6
Continuous
 62
     7
370
    25
100
AcDbLine
 10
114.0391454965
 20
111.1968822171
 30
0.0
 11
114.0391454965
 21
111.4468822171
 31
0.0
  0
LINE
  5
1BF
330
1F
100
AcDbEntity
  8
0
  6
Continuous
 62
     7
370
    25
100
AcDbLine
 10
114.2891454965
 20
111.1968822171
 30
0.0
 11
114.0391454965
 21
111.1968822171
 31
0.0
  0
ARC
  5
1C0
330
1F
100
AcDbEntity
  8
0
  6
Continuous
 62
     7
370
    25
100
AcDbCircle
 10
114.0391454965
 20
111.1968822171
 30
0.0
 40
0.25
100
AcDbArc
 50
0.0
 51
90.0
  0
LINE
  5
1C1
330
1F
100
AcDbEntity
  8
0
  6
Continuous
 62
     7
370
    25
100
AcDbLine
 10
102.2891454965
 20
108.6968822171
 30
0.0
 11
102.5391454965
 21
108.6968822171
 31
0.0
  0
LINE
  5
1C2
330
1F
100
AcDbEntity
  8
0
  6
Continuous
 62
     7
370
    25
100
AcDbLine
 10
102.2891454965
 20
108.6968822171
 30
0.0
 11
102.2891454965
 21
111.1968822171
 31
0.0
  0
LINE
  5
1C3
330
1F
100
AcDbEntity
  8
0
  6
Continuous
 62
     7
370
    25
100
AcDbLine
 10
114.2891454965
 20
111.1968822171
 30
0.0
 11
114.2891454965
 21
108.6968822171
 31
0.0
  0
LINE
  5
1C4
330
1F
100
AcDbEntity
  8
0
  6
Continuous
 62
     7
370
    25
100
AcDbLine
 10
114.0391454965
 20
108.6968822171
 30
0.0
 11
114.2891454965
 21
108.6968822171
 31
0.0
  0
LINE
  5
1C5
330
1F
100
AcDbEntity
  8
0
  6
Continuous
 62
     7
370
    25
100
AcDbLine
 10
114.0391454965
 20
108.4468822171
 30
0.0
 11
114.0391454965
 21
108.6968822171
 31
0.0
  0
LINE
  5
1C6
330
1F
100
AcDbEntity
  8
0
  6
Continuous
 62
     7
370
    25
100
AcDbLine
 10
114.0391454965
 20
108.4468822171
 30
0.0
 11
113.7663710716
 21
108.4468822171
 31
0.0
  0
ARC
  5
1C7
330
1F
100
AcDbEntity
  8
0
  6
Continuous
 62
     7
370
    25
100
AcDbCircle
 10
114.0391454965
 20
108.6968822171
 30
0.0
 40
0.25
100
AcDbArc
 50
270.0
 51
0.0
  0
LINE
  5
1C8
330
1F
100
AcDbEntity
  8
0
  6
Continuous
 62
     7
370
    25
100
AcDbLine
 10
102.5391454965
 20
108.6968822171
 30
0.0
 11
102.5391454965
 21
108.4468822171
 31
0.0
  0
LINE
  5
1C9
330
1F
100
AcDbEntity
  8
0
  6
Continuous
 62
     7
370
    25
100
AcDbLine
 10
102.8119199215
 20
108.4468822171
 30
0.0
 11
102.5391454965
 21
108.4468822171
 31
0.0
  0
ARC
  5
1CA
330
1F
100
AcDbEntity
  8
0
  6
Continuous
 62
     7
370
    25
100
AcDbCircle
 10
102.5391454965
 20
108.6968822171
 30
0.0
 40
0.25
100
AcDbArc
 50
180.0
 51
270.0
  0
LINE
  5
1CB
330
1F
100
AcDbEntity
  8
0
  6
Continuous
 62
     7
370
    25
100
AcDbLine
 10
88.2891454965
 20
106.675182953
 30
0.0
 11
88.2891454965
 21
113.2185814811
 31
0.0
  0
LINE
  5
1CC
330
1F
100
AcDbEntity
  8
0
  6
Continuous
 62
     7
370
    25
100
AcDbLine
 10
86.113708635
 20
106.4468822171
 30
0.0
 11
88.2891454965
 21
106.675182953
 31
0.0
  0
LINE
  5
1CD
330
1F
100
AcDbEntity
  8
0
  6
Continuous
 62
     7
370
    25
100
AcDbLine
 10
68.2891454965
 20
106.4468822171
 30
0.0
 11
86.113708635
 21
106.4468822171
 31
0.0
  0
LINE
  5
1CE
330
1F
100
AcDbEntity
  8
0
  6
Continuous
 62
     7
370
    25
100
AcDbLine
 10
68.2891454965
 20
113.4468822171
 30
0.0
 11
68.2891454965
 21
106.4468822171
 31
0.0
  0
LINE
  5
1CF
330
1F
100
AcDbEntity
  8
0
  6
Continuous
 62
     7
370
    25
100
AcDbLine
 10
86.113708635
 20
113.4468822171
 30
0.0
 11
68.2891454965
 21
113.4468822171
 31
0.0
  0
LINE
  5
1D0
330
1F
100
AcDbEntity
  8
0
  6
Continuous
 62
     7
370
    25
100
AcDbLine
 10
88.2891454965
 20
113.2185814811
 30
0.0
 11
86.113708635
 21
113.4468822171
 31
0.0
  0
LINE
  5
1D1
330
1F
100
AcDbEntity
  8
0
  6
Continuous
 62
     7
370
    25
100
AcDbLine
 10
103.0653433222
 20
111.6678966979
 30
0.0
 11
102.9369342835
 21
111.4837550645
 31
0.0
  0
LINE
  5
1D2
330
1F
100
AcDbEntity
  8
0
  6
Continuous
 62
     7
370
    25
100
AcDbLine
 10
102.9465016243
 20
108.4016645497
 30
0.0
 11
103.0653433222
 21
108.2258677363
 31
0.0
  0
LINE
  5
1D3
330
1F
100
AcDbEntity
  8
0
  6
Continuous
 62
     7
370
    25
100
AcDbLine
 10
94.8725758429
 20
112.5276848527
 30
0.0
 11
94.8725758429
 21
107.3660795815
 31
0.0
  0
LINE
  5
1D4
330
1F
100
AcDbEntity
  8
0
  6
Continuous
 62
     7
370
    25
100
AcDbLine
 10
103.0653433222
 20
108.2258677363
 30
0.0
 11
94.8725758429
 21
107.3660795815
 31
0.0
  0
LINE
  5
1D5
330
1F
100
AcDbEntity
  8
0
  6
Continuous
 62
     7
370
    25
100
AcDbLine
 10
94.8725758429
 20
112.5276848527
 30
0.0
 11
103.0653433222
 21
111.6678966979
 31
0.0
  0
LINE
  5
1D6
330
1F
100
AcDbEntity
  8
0
  6
Continuous
 62
     7
370
    25
100
AcDbLine
 10
94.8725758429
 20
107.3660795815
 30
0.0
 11
88.2891454965
 21
106.675182953
 31
0.0
  0
LINE
  5
1D7
330
1F
100
AcDbEntity
  8
0
  6
Continuous
 62
     7
370
    25
100
AcDbLine
 10
88.2891454965
 20
113.2185814811
 30
0.0
 11
94.8725758429
 21
112.5276848527
 31
0.0
  0
ARC
  5
1D8
330
1F
100
AcDbEntity
  8
0
  6
Continuous
 62
     7
370
    25
100
AcDbCircle
 10
108.2891454965
 20
109.9468822171
 30
0.0
 40
7.450000000000662
100
AcDbArc
 50
233.0863788866
 51
126.9136211134
  0
ARC
  5
1D9
330
1F
100
AcDbEntity
  8
0
  6
Continuous
 62
     7
370
    25
100
AcDbCircle
 10
108.2891454965
 20
109.9468822171
 30
0.0
 40
7.207531252870786
100
AcDbArc
 50
195.3041237151
 51
238.9797515565
  0
ARC
  5
1DA
330
1F
100
AcDbEntity
  8
0
  6
Continuous
 62
     7
370
    25
100
AcDbCircle
 10
108.2891454965
 20
109.9468822171
 30
0.0
 40
7.207531252872443
100
AcDbArc
 50
121.0202484435
 51
164.6958762849
  0
ARC
  5
1DB
330
1F
100
AcDbEntity
  8
0
  6
Continuous
 62
     7
370
    25
100
AcDbCircle
 10
86.113708635
 20
178.4468822171
 30
0.0
 40
64.99999999999999
100
AcDbArc
 50
270.0
 51
286.5000949923
  0
ARC
  5
1DC
330
1F
100
AcDbEntity
  8
0
  6
Continuous
 62
     7
370
    25
100
AcDbCircle
 10
86.113708635
 20
41.4468822171
 30
0.0
 40
65.0
100
AcDbArc
 50
73.4999050077
 51
90.0
  0
SPLINE
  5
1DD
330
1F
100
AcDbEntity
  8
0
  6
Continuous
 62
     7
370
    25
100
AcDbSpline
210
0.0
220
0.0
230
1.0
 70
    24
 71
     3
 72
    12
 73
     8
 74
     0
 42
0.00000001
 43
0.00000001
 40
0.0
 40
0.0
 40
0.0
 40
0.0
 40
0.2254827590462243
 40
0.4179983544472066
 40
0.6105353054412085
 40
0.8052572270691195
 40
1.0
 40
1.0
 40
1.0
 40
1.0
 10
85.44021677089134
 20
101.4468822170901
 30
0.0
 10
85.44553334623092
 20
101.4468822170901
 30
0.0
 10
85.45538917624047
 20
101.4468822170901
 30
0.0
 10
85.56976096009127
 20
101.4468822170901
 30
0.0
 10
85.72705824154868
 20
101.4468822170901
 30
0.0
 10
85.93385850641947
 20
101.4468822170901
 30
0.0
 10
86.1063980512368
 20
101.4468822170901
 30
0.0
 10
86.19267244238802
 20
101.4468822170901
 30
0.0
  0
SPLINE
  5
1DE
330
1F
100
AcDbEntity
  8
0
  6
Continuous
 62
     7
370
    25
100
AcDbSpline
210
0.0
220
0.0
230
1.0
 70
    24
 71
     3
 72
    11
 73
     7
 74
     0
 42
0.00000001
 43
0.00000001
 40
0.0
 40
0.0
 40
0.0
 40
0.0
 40
0.3852856374968943
 40
0.5799002889123117
 40
0.774492621794281
 40
1.0
 40
1.0
 40
1.0
 40
1.0
 10
86.19267244238802
 20
118.4468822170901
 30
0.0
 10
86.02753809026753
 20
118.4468822170901
 30
0.0
 10
85.77899142985697
 20
118.4468822170901
 30
0.0
 10
85.57153907229035
 20
118.4468822170901
 30
0.0
 10
85.45556332667843
 20
118.4468822170901
 30
0.0
 10
85.44476236474198
 20
118.4468822170901
 30
0.0
 10
85.43896446356732
 20
118.4468822170901
 30
0.0
  0
SPLINE
  5
1DF
330
1F
100
AcDbEntity
  8
0
  6
Continuous
 62
     7
370
    25
100
AcDbSpline
210
0.0
220
0.0
230
1.0
 70
     8
 71
     3
 72
    12
 73
     8
 74
     0
 42
0.00000001
 43
0.00000001
 40
0.0
 40
0.0
 40
0.0
 40
0.0
 40
0.2078104264825432
 40
0.4040543264705421
 40
0.6003288386600353
 40
0.800145100119446
 40
1.0
 40
1.0
 40
1.0
 40
1.0
 10
85.46477896304181
 20
113.44688221709
 30
0.0
 10
85.4480566612229
 20
113.7976529123707
 30
0.0
 10
85.41554280466221
 20
114.4796707467315
 30
0.0
 10
85.496451867471
 20
115.4924570315731
 30
0.0
 10
85.65205230426734
 20
116.4837315564485
 30
0.0
 10
85.88343903936693
 20
117.4706343968081
 30
0.0
 10
86.08958799819442
 20
118.1214453044997
 30
0.0
 10
86.19267244238802
 20
118.4468822170901
 30
0.0
  0
SPLINE
  5
1E0
330
1F
100
AcDbEntity
  8
0
  6
Continuous
 62
     7
370
    25
100
AcDbSpline
210
0.0
220
0.0
230
1.0
 70
     8
 71
     3
 72
    12
 73
     8
 74
     0
 42
0.00000001
 43
0.00000001
 40
0.0
 40
0.0
 40
0.0
 40
0.0
 40
0.2253923253478587
 40
0.4507209242740498
 40
0.6810902123832239
 40
0.9114179295261137
 40
0.9999999999999999
 40
0.9999999999999999
 40
0.9999999999999999
 40
0.9999999999999999
 10
86.192672442388
 20
101.4468822170901
 30
0.0
 10
86.07718535305403
 20
101.8141116168364
 30
0.0
 10
85.84624382669108
 20
102.5484665875248
 30
0.0
 10
85.59632913634985
 20
103.6793885856024
 30
0.0
 10
85.45167537108773
 20
104.8313015695353
 30
0.0
 10
85.41241749482123
 20
105.7605387080096
 30
0.0
 10
85.45735638063582
 20
106.297682354851
 30
0.0
 10
85.46983884340372
 20
106.44688221709
 30
0.0
  0
LINE
  5
1E1
330
1F
100
AcDbEntity
  8
0
  6
Continuous
 62
     7
370
    25
100
AcDbLine
 10
85.2891454965
 20
101.6968822171
 30
0.0
 11
85.2891454965
 21
106.4468822171
 31
0.0
  0
LINE
  5
1E2
330
1F
100
AcDbEntity
  8
0
  6
Continuous
 62
     7
370
    25
100
AcDbLine
 10
85.2891454965
 20
113.4468822171
 30
0.0
 11
85.2891454965
 21
118.1968822171
 31
0.0
  0
SPLINE
  5
1E3
330
1F
100
AcDbEntity
  8
0
  6
Continuous
 62
     7
370
    25
100
AcDbSpline
210
0.0
220
0.0
230
1.0
 70
     8
 71
     3
 72
    11
 73
     7
 74
     0
 42
0.00000001
 43
0.00000001
 40
0.0
 40
0.0
 40
0.0
 40
0.0
 40
0.2910741074149786
 40
0.5820659178339215
 40
0.879567329244951
 40
1.0
 40
1.0
 40
1.0
 40
1.0
 10
97.3856185506835
 20
101.4468822170901
 30
0.0
 10
97.50156620588355
 20
101.8141074258196
 30
0.0
 10
97.73342873376028
 20
102.5484540156595
 30
0.0
 10
97.97638591814409
 20
103.6794393250379
 30
0.0
 10
98.11374832841618
 20
104.6009981686097
 30
0.0
 10
98.12074200844702
 20
105.1475419513013
 30
0.0
 10
98.12275732043152
 20
105.305035035122
 30
0.0
  0
SPLINE
  5
1E4
330
1F
100
AcDbEntity
  8
0
  6
Continuous
 62
     7
370
    25
100
AcDbSpline
210
0.0
220
0.0
230
1.0
 70
     8
 71
     3
 72
    11
 73
     7
 74
     0
 42
0.00000001
 43
0.00000001
 40
0.0
 40
0.0
 40
0.0
 40
0.0
 40
0.2316679599470018
 40
0.4847178654322306
 40
0.7423340251295178
 40
1.0
 40
1.0
 40
1.0
 40
1.0
 10
98.13465250963286
 20
114.5827771822195
 30
0.0
 10
98.11814659972411
 20
114.8859391497029
 30
0.0
 10
98.08361135618065
 20
115.5202436162869
 30
0.0
 10
97.92451207326438
 20
116.4837080241613
 30
0.0
 10
97.6952869173019
 20
117.4706403249884
 30
0.0
 10
97.4888479920871
 20
118.1214472806872
 30
0.0
 10
97.3856185506835
 20
118.4468822170901
 30
0.0
  0
SPLINE
  5
1E5
330
1F
100
AcDbEntity
  8
0
  6
Continuous
 62
     7
370
    25
100
AcDbSpline
210
0.0
220
0.0
230
1.0
 70
    24
 71
     3
 72
    11
 73
     7
 74
     0
 42
0.00000001
 43
0.00000001
 40
0.0
 40
0.0
 40
0.0
 40
0.0
 40
0.3852856374968944
 40
0.5799002889123117
 40
0.774492621794281
 40
1.0
 40
1.0
 40
1.0
 40
1.0
 10
97.3856185506835
 20
118.4468822170901
 30
0.0
 10
97.55075290280396
 20
118.4468822170901
 30
0.0
 10
97.79929956321453
 20
118.4468822170901
 30
0.0
 10
98.00675192078116
 20
118.4468822170901
 30
0.0
 10
98.12272766639306
 20
118.4468822170901
 30
0.0
 10
98.13352862832953
 20
118.4468822170901
 30
0.0
 10
98.13932652950419
 20
118.4468822170901
 30
0.0
  0
SPLINE
  5
1E6
330
1F
100
AcDbEntity
  8
0
  6
Continuous
 62
     7
370
    25
100
AcDbSpline
210
0.0
220
0.0
230
1.0
 70
    24
 71
     3
 72
    12
 73
     8
 74
     0
 42
0.00000001
 43
0.00000001
 40
0.0
 40
0.0
 40
0.0
 40
0.0
 40
0.2254827590462243
 40
0.4179983544472066
 40
0.6105353054412085
 40
0.8052572270691195
 40
1.0
 40
1.0
 40
1.0
 40
1.0
 10
98.13807422218017
 20
101.4468822170901
 30
0.0
 10
98.13275764684059
 20
101.4468822170901
 30
0.0
 10
98.12290181683105
 20
101.4468822170901
 30
0.0
 10
98.00853003298023
 20
101.4468822170901
 30
0.0
 10
97.85123275152283
 20
101.4468822170901
 30
0.0
 10
97.64443248665204
 20
101.4468822170901
 30
0.0
 10
97.47189294183472
 20
101.4468822170901
 30
0.0
 10
97.3856185506835
 20
101.4468822170901
 30
0.0
  0
LINE
  5
1E7
330
1F
100
AcDbEntity
  8
0
  6
Continuous
 62
     7
370
    25
100
AcDbLine
 10
86.1926724424
 20
118.4468822171
 30
0.0
 11
97.3856185507
 21
118.4468822171
 31
0.0
  0
LINE
  5
1E8
330
1F
100
AcDbEntity
  8
0
  6
Continuous
 62
     7
370
    25
100
AcDbLine
 10
86.1926724424
 20
101.4468822171
 30
0.0
 11
97.3856185507
 21
101.4468822171
 31
0.0
  0
LINE
  5
1E9
330
1F
100
AcDbEntity
  8
0
  6
Continuous
 62
     7
370
    25
100
AcDbLine
 10
98.2891454965
 20
100.1968822171
 30
0.0
 11
98.2891454965
 21
105.2963828982
 31
0.0
  0
LINE
  5
1EA
330
1F
100
AcDbEntity
  8
0
  6
Continuous
 62
     7
370
    25
100
AcDbLine
 10
98.2891454965
 20
114.597381536
 30
0.0
 11
98.2891454965
 21
119.6968822171
 31
0.0
  0
LINE
  5
1EB
330
1F
100
AcDbEntity
  8
0
  6
Continuous
 62
     7
370
    25
100
AcDbLine
 10
98.5391454965
 20
119.9468822171
 30
0.0
 11
98.5391454965
 21
114.6455615505
 31
0.0
  0
LINE
  5
1EC
330
1F
100
AcDbEntity
  8
0
  6
Continuous
 62
     7
370
    25
100
AcDbLine
 10
98.5391454965
 20
105.2482028837
 30
0.0
 11
98.5391454965
 21
99.9468822171
 31
0.0
  0
LINE
  5
1ED
330
1F
100
AcDbEntity
  8
0
  6
Continuous
 62
     7
370
    25
100
AcDbLine
 10
117.7891454965
 20
99.9468822171
 30
0.0
 11
117.7891454965
 21
119.9468822171
 31
0.0
  0
LINE
  5
1EE
330
1F
100
AcDbEntity
  8
0
  6
Continuous
 62
     7
370
    25
100
AcDbLine
 10
118.2891454965
 20
119.4468822171
 30
0.0
 11
118.2891454965
 21
100.4468822171
 31
0.0
  0
LINE
  5
1EF
330
1F
100
AcDbEntity
  8
0
  6
Continuous
 62
     7
370
    25
100
AcDbLine
 10
116.1711115078
 20
99.9468822171
 30
0.0
 11
116.1711115078
 21
119.9468822171
 31
0.0
  0
LINE
  5
1F0
330
1F
100
AcDbEntity
  8
0
  6
Continuous
 62
     7
370
    25
100
AcDbLine
 10
100.4071794853
 20
119.9468822171
 30
0.0
 11
100.4071794853
 21
115.0379184103
 31
0.0
  0
LINE
  5
1F1
330
1F
100
AcDbEntity
  8
0
  6
Continuous
 62
     7
370
    25
100
AcDbLine
 10
100.4071794853
 20
104.8558460239
 30
0.0
 11
100.4071794853
 21
99.9468822171
 31
0.0
  0
SPLINE
  5
1F2
330
1F
100
AcDbEntity
  8
0
  6
Continuous
 62
     7
370
    25
100
AcDbSpline
210
0.0
220
0.0
230
1.0
 70
     8
 71
     3
 72
    12
 73
     8
 74
     0
 42
0.00000001
 43
0.00000001
 40
0.0
 40
0.0
 40
0.0
 40
0.0
 40
0.2500000000000001
 40
0.2500000000000001
 40
0.5000000000000001
 40
0.5000000000000001
 40
1.0
 40
1.0
 40
1.0
 40
1.0
 10
100.5600594294337
 20
118.7093433968399
 30
0.0
 10
100.6411760315384
 20
118.7438485347
 30
0.0
 10
100.6882059547067
 20
118.7766936060004
 30
0.0
 10
100.7510695562385
 20
118.8350461342471
 30
0.0
 10
100.7665192271557
 20
118.8607004978757
 30
0.0
 10
100.793702891535
 20
118.9237997506155
 30
0.0
 10
100.7891454965358
 20
118.9468822170901
 30
0.0
 10
100.7891454965358
 20
118.9468822170901
 30
0.0
  0
SPLINE
  5
1F3
330
1F
100
AcDbEntity
  8
0
  6
Continuous
 62
     7
370
    25
100
AcDbSpline
210
0.0
220
0.0
230
1.0
 70
     8
 71
     3
 72
    14
 73
    10
 74
     0
 42
0.00000001
 43
0.00000001
 40
0.0
 40
0.0
 40
0.0
 40
0.0
 40
0.25
 40
0.25
 40
0.5
 40
0.5
 40
0.75
 40
0.75
 40
1.0
 40
1.0
 40
1.0
 40
1.0
 10
100.5600594294337
 20
118.7093433968399
 30
0.0
 10
100.5325384416886
 20
118.6976366012943
 30
0.0
 10
100.5126185198522
 20
118.6655946482128
 30
0.0
 10
100.4969514780342
 20
118.5662708975478
 30
0.0
 10
100.5014433098465
 20
118.498447454767
 30
0.0
 10
100.5326996551301
 20
118.3360058373542
 30
0.0
 10
100.5590722385118
 20
118.2415604406184
 30
0.0
 10
100.6219087896561
 20
118.0333313330219
 30
0.0
 10
100.6579483685162
 20
117.9207329401388
 30
0.0
 10
100.6919443718818
 20
117.8009765465387
 30
0.0
  0
SPLINE
  5
1F4
330
1F
100
AcDbEntity
  8
0
  6
Continuous
 62
     7
370
    25
100
AcDbSpline
210
0.0
220
0.0
230
1.0
 70
     8
 71
     3
 72
     8
 73
     4
 74
     0
 42
0.00000001
 43
0.00000001
 40
0.0
 40
0.0
 40
0.0
 40
0.0
 40
1.0
 40
1.0
 40
1.0
 40
1.0
 10
100.7891454965358
 20
117.0707856414776
 30
0.0
 10
100.7891454965358
 20
117.3182150982726
 30
0.0
 10
100.7597807894579
 20
117.5620118471799
 30
0.0
 10
100.6919443718818
 20
117.8009765465387
 30
0.0
  0
LINE
  5
1F5
330
1F
100
AcDbEntity
  8
0
  6
Continuous
 62
     7
370
    25
100
AcDbLine
 10
100.7891454965
 20
117.0707856415
 30
0.0
 11
100.7891454965
 21
115.1252306836
 31
0.0
  0
LINE
  5
1F6
330
1F
100
AcDbEntity
  8
0
  6
Continuous
 62
     7
370
    25
100
AcDbLine
 10
100.7891454965
 20
104.7685337505
 30
0.0
 11
100.7891454965
 21
102.8229787927
 31
0.0
  0
SPLINE
  5
1F7
330
1F
100
AcDbEntity
  8
0
  6
Continuous
 62
     7
370
    25
100
AcDbSpline
210
0.0
220
0.0
230
1.0
 70
     8
 71
     3
 72
     8
 73
     4
 74
     0
 42
0.00000001
 43
0.00000001
 40
0.0
 40
0.0
 40
0.0
 40
0.0
 40
1.0
 40
1.0
 40
1.0
 40
1.0
 10
100.6919443718818
 20
102.0927878876415
 30
0.0
 10
100.7597807894579
 20
102.3317525870002
 30
0.0
 10
100.7891454965358
 20
102.5755493359076
 30
0.0
 10
100.7891454965358
 20
102.8229787927026
 30
0.0
  0
SPLINE
  5
1F8
330
1F
100
AcDbEntity
  8
0
  6
Continuous
 62
     7
370
    25
100
AcDbSpline
210
0.0
220
0.0
230
1.0
 70
     8
 71
     3
 72
    12
 73
     8
 74
     0
 42
0.00000001
 43
0.00000001
 40
0.0
 40
0.0
 40
0.0
 40
0.0
 40
0.4999999999999992
 40
0.4999999999999992
 40
0.7499999999999996
 40
0.7499999999999996
 40
1.0
 40
1.0
 40
1.0
 40
1.0
 10
100.6919443718818
 20
102.0927878876415
 30
0.0
 10
100.624074611872
 20
101.8537057341934
 30
0.0
 10
100.5480400606183
 20
101.6379356270166
 30
0.0
 10
100.5013954622413
 20
101.3948410343127
 30
0.0
 10
100.4969564657186
 20
101.3271757588366
 30
0.0
 10
100.5126870795115
 20
101.2280226426799
 30
0.0
 10
100.5325675094539
 20
101.1961154681267
 30
0.0
 10
100.5600594294337
 20
101.1844210373403
 30
0.0
  0
SPLINE
  5
1F9
330
1F
100
AcDbEntity
  8
0
  6
Continuous
 62
     7
370
    25
100
AcDbSpline
210
0.0
220
0.0
230
1.0
 70
     8
 71
     3
 72
    12
 73
     8
 74
     0
 42
0.00000001
 43
0.00000001
 40
0.0
 40
0.0
 40
0.0
 40
0.0
 40
0.4999999999999998
 40
0.4999999999999998
 40
0.7499999999999999
 40
0.7499999999999999
 40
1.0
 40
1.0
 40
1.0
 40
1.0
 10
100.7891454965358
 20
100.9468822170901
 30
0.0
 10
100.7891454965358
 20
100.9468822170901
 30
0.0
 10
100.793702891535
 20
100.9699646835647
 30
0.0
 10
100.7665192271557
 20
101.0330639363045
 30
0.0
 10
100.7510695562385
 20
101.0587182999331
 30
0.0
 10
100.6882059547067
 20
101.1170708281797
 30
0.0
 10
100.6411760315384
 20
101.1499158994802
 30
0.0
 10
100.5600594294337
 20
101.1844210373403
 30
0.0
  0
SPLINE
  5
1FA
330
1F
100
AcDbEntity
  8
0
  6
Continuous
 62
     7
370
    25
100
AcDbSpline
210
0.0
220
0.0
230
1.0
 70
     8
 71
     3
 72
    12
 73
     8
 74
     0
 42
0.00000001
 43
0.00000001
 40
0.0
 40
0.0
 40
0.0
 40
0.0
 40
0.25
 40
0.25
 40
0.5
 40
0.5
 40
1.0
 40
1.0
 40
1.0
 40
1.0
 10
116.0182315636378
 20
101.1844210373403
 30
0.0
 10
115.9371149615332
 20
101.1499158994802
 30
0.0
 10
115.8900850383648
 20
101.1170708281797
 30
0.0
 10
115.827221436833
 20
101.0587182999331
 30
0.0
 10
115.8117717659158
 20
101.0330639363044
 30
0.0
 10
115.7845881015365
 20
100.9699646835647
 30
0.0
 10
115.7891454965358
 20
100.9468822170901
 30
0.0
 10
115.7891454965358
 20
100.9468822170901
 30
0.0
  0
SPLINE
  5
1FB
330
1F
100
AcDbEntity
  8
0
  6
Continuous
 62
     7
370
    25
100
AcDbSpline
210
0.0
220
0.0
230
1.0
 70
     8
 71
     3
 72
    14
 73
    10
 74
     0
 42
0.00000001
 43
0.00000001
 40
0.0
 40
0.0
 40
0.0
 40
0.0
 40
0.25
 40
0.25
 40
0.5
 40
0.5
 40
0.75
 40
0.75
 40
1.0
 40
1.0
 40
1.0
 40
1.0
 10
116.0182315636378
 20
101.1844210373403
 30
0.0
 10
116.0457525513829
 20
101.1961278328858
 30
0.0
 10
116.0656724732193
 20
101.2281697859674
 30
0.0
 10
116.0813395150373
 20
101.3274935366324
 30
0.0
 10
116.076847683225
 20
101.3953169794132
 30
0.0
 10
116.0455913379414
 20
101.557758596826
 30
0.0
 10
116.0192187545597
 20
101.6522039935617
 30
0.0
 10
115.9563822034154
 20
101.8604331011583
 30
0.0
 10
115.9203426245553
 20
101.9730314940414
 30
0.0
 10
115.8863466211897
 20
102.0927878876415
 30
0.0
  0
SPLINE
  5
1FC
330
1F
100
AcDbEntity
  8
0
  6
Continuous
 62
     7
370
    25
100
AcDbSpline
210
0.0
220
0.0
230
1.0
 70
     8
 71
     3
 72
     8
 73
     4
 74
     0
 42
0.00000001
 43
0.00000001
 40
0.0
 40
0.0
 40
0.0
 40
0.0
 40
1.0
 40
1.0
 40
1.0
 40
1.0
 10
115.7891454965358
 20
102.8229787927026
 30
0.0
 10
115.7891454965358
 20
102.5755493359076
 30
0.0
 10
115.8185102036136
 20
102.3317525870002
 30
0.0
 10
115.8863466211897
 20
102.0927878876415
 30
0.0
  0
LINE
  5
1FD
330
1F
100
AcDbEntity
  8
0
  6
Continuous
 62
     7
370
    25
100
AcDbLine
 10
115.7891454965
 20
102.8229787927
 30
0.0
 11
115.7891454965
 21
117.0707856415
 31
0.0
  0
SPLINE
  5
1FE
330
1F
100
AcDbEntity
  8
0
  6
Continuous
 62
     7
370
    25
100
AcDbSpline
210
0.0
220
0.0
230
1.0
 70
     8
 71
     3
 72
     8
 73
     4
 74
     0
 42
0.00000001
 43
0.00000001
 40
0.0
 40
0.0
 40
0.0
 40
0.0
 40
1.0
 40
1.0
 40
1.0
 40
1.0
 10
115.8863466211897
 20
117.8009765465387
 30
0.0
 10
115.8185102036136
 20
117.5620118471799
 30
0.0
 10
115.7891454965358
 20
117.3182150982726
 30
0.0
 10
115.7891454965358
 20
117.0707856414776
 30
0.0
  0
SPLINE
  5
1FF
330
1F
100
AcDbEntity
  8
0
  6
Continuous
 62
     7
370
    25
100
AcDbSpline
210
0.0
220
0.0
230
1.0
 70
     8
 71
     3
 72
    12
 73
     8
 74
     0
 42
0.00000001
 43
0.00000001
 40
0.0
 40
0.0
 40
0.0
 40
0.0
 40
0.4999999999999992
 40
0.4999999999999992
 40
0.7499999999999996
 40
0.7499999999999996
 40
1.0
 40
1.0
 40
1.0
 40
1.0
 10
115.8863466211897
 20
117.8009765465387
 30
0.0
 10
115.9542163811995
 20
118.0400586999868
 30
0.0
 10
116.0302509324532
 20
118.2558288071636
 30
0.0
 10
116.0768955308302
 20
118.4989233998675
 30
0.0
 10
116.0813345273529
 20
118.5665886753436
 30
0.0
 10
116.06560391356
 20
118.6657417915002
 30
0.0
 10
116.0457234836176
 20
118.6976489660535
 30
0.0
 10
116.0182315636378
 20
118.7093433968399
 30
0.0
  0
SPLINE
  5
200
330
1F
100
AcDbEntity
  8
0
  6
Continuous
 62
     7
370
    25
100
AcDbSpline
210
0.0
220
0.0
230
1.0
 70
     8
 71
     3
 72
    12
 73
     8
 74
     0
 42
0.00000001
 43
0.00000001
 40
0.0
 40
0.0
 40
0.0
 40
0.0
 40
0.5000000000000002
 40
0.5000000000000002
 40
0.7500000000000001
 40
0.7500000000000001
 40
1.0
 40
1.0
 40
1.0
 40
1.0
 10
115.7891454965358
 20
118.9468822170901
 30
0.0
 10
115.7891454965358
 20
118.9468822170901
 30
0.0
 10
115.7845881015365
 20
118.9237997506155
 30
0.0
 10
115.8117717659158
 20
118.8607004978757
 30
0.0
 10
115.827221436833
 20
118.8350461342471
 30
0.0
 10
115.8900850383648
 20
118.7766936060004
 30
0.0
 10
115.9371149615332
 20
118.7438485347
 30
0.0
 10
116.0182315636378
 20
118.7093433968399
 30
0.0
  0
ARC
  5
201
330
1F
100
AcDbEntity
  8
0
  6
Continuous
 62
     7
370
    25
100
AcDbCircle
 10
115.3358275953
 20
117.1297615798
 30
0.0
 40
0.4571381420089069
100
AcDbArc
 50
264.138844256
 51
352.5875431534
  0
ARC
  5
202
330
1F
100
AcDbEntity
  8
0
  6
Continuous
 62
     7
370
    25
100
AcDbCircle
 10
115.3358275953
 20
102.7640028544
 30
0.0
 40
0.4571381420088755
100
AcDbArc
 50
7.4124568466
 51
95.861155744
  0
ARC
  5
203
330
1F
100
AcDbEntity
  8
0
  6
Continuous
 62
     7
370
    25
100
AcDbCircle
 10
101.2424633978
 20
117.1297615798
 30
0.0
 40
0.4571381420089136
100
AcDbArc
 50
187.4124568466
 51
275.861155744
  0
ARC
  5
204
330
1F
100
AcDbEntity
  8
0
  6
Continuous
 62
     7
370
    25
100
AcDbCircle
 10
101.2424633978
 20
102.7640028544
 30
0.0
 40
0.4571381420088882
100
AcDbArc
 50
84.138844256
 51
172.5875431534
  0
LINE
  5
205
330
1F
100
AcDbEntity
  8
0
  6
Continuous
 62
     7
370
    25
100
AcDbLine
 10
100.6919443719
 20
117.8009765465
 30
0.0
 11
101.159543997
 21
117.9468822171
 31
0.0
  0
SPLINE
  5
206
330
1F
100
AcDbEntity
  8
0
  6
Continuous
 62
     7
370
    25
100
AcDbSpline
210
0.0
220
0.0
230
1.0
 70
     8
 71
     3
 72
     8
 73
     4
 74
     0
 42
0.00000001
 43
0.00000001
 40
0.0
 40
0.0
 40
0.0
 40
0.0
 40
1.0
 40
1.0
 40
1.0
 40
1.0
 10
101.1595439969972
 20
117.9468822170901
 30
0.0
 10
101.2485526923856
 20
117.6616264594603
 30
0.0
 10
101.2891454965358
 20
117.3692085095783
 30
0.0
 10
101.2891454965358
 20
117.0707856414776
 30
0.0
  0
LINE
  5
207
330
1F
100
AcDbEntity
  8
0
  6
Continuous
 62
     7
370
    25
100
AcDbLine
 10
100.7891454965
 20
117.0707856415
 30
0.0
 11
101.2891454965
 21
117.0707856415
 31
0.0
  0
SPLINE
  5
208
330
1F
100
AcDbEntity
  8
0
  6
Continuous
 62
     7
370
    25
100
AcDbSpline
210
0.0
220
0.0
230
1.0
 70
     8
 71
     3
 72
     8
 73
     4
 74
     0
 42
0.00000001
 43
0.00000001
 40
0.0
 40
0.0
 40
0.0
 40
0.0
 40
1.0
 40
1.0
 40
1.0
 40
1.0
 10
115.2891454965358
 20
117.0707856414776
 30
0.0
 10
115.2891454965358
 20
117.3692085095783
 30
0.0
 10
115.3297383006859
 20
117.6616264594603
 30
0.0
 10
115.4187469960743
 20
117.9468822170901
 30
0.0
  0
LINE
  5
209
330
1F
100
AcDbEntity
  8
0
  6
Continuous
 62
     7
370
    25
100
AcDbLine
 10
115.4187469961
 20
117.9468822171
 30
0.0
 11
115.8863466212
 21
117.8009765465
 31
0.0
  0
LINE
  5
20A
330
1F
100
AcDbEntity
  8
0
  6
Continuous
 62
     7
370
    25
100
AcDbLine
 10
115.2891454965
 20
117.0707856415
 30
0.0
 11
115.7891454965
 21
117.0707856415
 31
0.0
  0
SPLINE
  5
20B
330
1F
100
AcDbEntity
  8
0
  6
Continuous
 62
     7
370
    25
100
AcDbSpline
210
0.0
220
0.0
230
1.0
 70
     8
 71
     3
 72
     8
 73
     4
 74
     0
 42
0.00000001
 43
0.00000001
 40
0.0
 40
0.0
 40
0.0
 40
0.0
 40
1.0
 40
1.0
 40
1.0
 40
1.0
 10
101.2891454965358
 20
102.8229787927026
 30
0.0
 10
101.2891454965358
 20
102.5245559246018
 30
0.0
 10
101.2485526923856
 20
102.2321379747199
 30
0.0
 10
101.1595439969972
 20
101.9468822170901
 30
0.0
  0
LINE
  5
20C
330
1F
100
AcDbEntity
  8
0
  6
Continuous
 62
     7
370
    25
100
AcDbLine
 10
101.159543997
 20
101.9468822171
 30
0.0
 11
100.6919443719
 21
102.0927878876
 31
0.0
  0
LINE
  5
20D
330
1F
100
AcDbEntity
  8
0
  6
Continuous
 62
     7
370
    25
100
AcDbLine
 10
100.7891454965
 20
102.8229787927
 30
0.0
 11
101.2891454965
 21
102.8229787927
 31
0.0
  0
LINE
  5
20E
330
1F
100
AcDbEntity
  8
0
  6
Continuous
 62
     7
370
    25
100
AcDbLine
 10
115.8863466212
 20
102.0927878876
 30
0.0
 11
115.4187469961
 21
101.9468822171
 31
0.0
  0
SPLINE
  5
20F
330
1F
100
AcDbEntity
  8
0
  6
Continuous
 62
     7
370
    25
100
AcDbSpline
210
0.0
220
0.0
230
1.0
 70
     8
 71
     3
 72
     8
 73
     4
 74
     0
 42
0.00000001
 43
0.00000001
 40
0.0
 40
0.0
 40
0.0
 40
0.0
 40
1.0
 40
1.0
 40
1.0
 40
1.0
 10
115.4187469960743
 20
101.9468822170901
 30
0.0
 10
115.3297383006859
 20
102.2321379747199
 30
0.0
 10
115.2891454965358
 20
102.5245559246018
 30
0.0
 10
115.2891454965358
 20
102.8229787927026
 30
0.0
  0
LINE
  5
210
330
1F
100
AcDbEntity
  8
0
  6
Continuous
 62
     7
370
    25
100
AcDbLine
 10
115.7891454965
 20
102.8229787927
 30
0.0
 11
115.2891454965
 21
102.8229787927
 31
0.0
  0
LINE
  5
211
330
1F
100
AcDbEntity
  8
0
  6
Continuous
 62
     7
370
    25
100
AcDbLine
 10
101.2891454965
 20
116.675013229
 30
0.0
 11
101.2891454965
 21
117.0707856415
 31
0.0
  0
LINE
  5
212
330
1F
100
AcDbEntity
  8
0
  6
Continuous
 62
     7
370
    25
100
AcDbLine
 10
115.2891454965
 20
116.675013229
 30
0.0
 11
115.2891454965
 21
117.0707856415
 31
0.0
  0
LINE
  5
213
330
1F
100
AcDbEntity
  8
0
  6
Continuous
 62
     7
370
    25
100
AcDbLine
 10
101.2891454965
 20
102.8229787927
 30
0.0
 11
101.2891454965
 21
103.2187512052
 31
0.0
  0
LINE
  5
214
330
1F
100
AcDbEntity
  8
0
  6
Continuous
 62
     7
370
    25
100
AcDbLine
 10
115.2891454965
 20
102.8229787927
 30
0.0
 11
115.2891454965
 21
103.2187512052
 31
0.0
  0
ARC
  5
215
330
1F
100
AcDbEntity
  8
0
  6
Continuous
 62
     7
370
    25
100
AcDbCircle
 10
100.98752722
 20
118.9261910346
 30
0.0
 40
0.4793241179194608
100
AcDbArc
 50
206.8979585986
 51
269.5422002632
  0
SPLINE
  5
216
330
1F
100
AcDbEntity
  8
0
  6
Continuous
 62
     7
370
    25
100
AcDbSpline
210
0.0
220
0.0
230
1.0
 70
     8
 71
     3
 72
    14
 73
    10
 74
     0
 42
0.00000001
 43
0.00000001
 40
0.0
 40
0.0
 40
0.0
 40
0.0
 40
0.25
 40
0.25
 40
0.5
 40
0.5
 40
0.75
 40
0.75
 40
1.0
 40
1.0
 40
1.0
 40
1.0
 10
101.1595439969972
 20
117.9468822170901
 30
0.0
 10
101.1210685133756
 20
118.0085354813176
 30
0.0
 10
101.0799795919056
 20
118.0667194265905
 30
0.0
 10
101.000696744465
 20
118.1803847480574
 30
0.0
 10
100.9634138433546
 20
118.2340613467572
 30
0.0
 10
100.9106080840428
 20
118.3340513792038
 30
0.0
 10
100.8986388239491
 20
118.3784558794268
 30
0.0
 10
100.9186406123213
 20
118.4345157349206
 30
0.0
 10
100.9480970678736
 20
118.4468822170901
 30
0.0
 10
100.9836974070664
 20
118.4468822170901
 30
0.0
  0
ARC
  5
217
330
1F
100
AcDbEntity
  8
0
  6
Continuous
 62
     7
370
    25
100
AcDbCircle
 10
115.590763773
 20
100.9675733996
 30
0.0
 40
0.4793241179194543
100
AcDbArc
 50
26.8979585986
 51
89.5422002632
  0
SPLINE
  5
218
330
1F
100
AcDbEntity
  8
0
  6
Continuous
 62
     7
370
    25
100
AcDbSpline
210
0.0
220
0.0
230
1.0
 70
     8
 71
     3
 72
    14
 73
    10
 74
     0
 42
0.00000001
 43
0.00000001
 40
0.0
 40
0.0
 40
0.0
 40
0.0
 40
0.25
 40
0.25
 40
0.5
 40
0.5
 40
0.75
 40
0.75
 40
1.0
 40
1.0
 40
1.0
 40
1.0
 10
115.4187469960743
 20
101.9468822170901
 30
0.0
 10
115.4572224796959
 20
101.8852289528626
 30
0.0
 10
115.4983114011659
 20
101.8270450075897
 30
0.0
 10
115.5775942486065
 20
101.7133796861227
 30
0.0
 10
115.6148771497169
 20
101.659703087423
 30
0.0
 10
115.6676829090287
 20
101.5597130549763
 30
0.0
 10
115.6796521691223
 20
101.5153085547534
 30
0.0
 10
115.6596503807502
 20
101.4592486992596
 30
0.0
 10
115.6301939251979
 20
101.4468822170901
 30
0.0
 10
115.5945935860051
 20
101.4468822170901
 30
0.0
  0
SPLINE
  5
219
330
1F
100
AcDbEntity
  8
0
  6
Continuous
 62
     7
370
    25
100
AcDbSpline
210
0.0
220
0.0
230
1.0
 70
     8
 71
     3
 72
    16
 73
    12
 74
     0
 42
0.00000001
 43
0.00000001
 40
0.0
 40
0.0
 40
0.0
 40
0.0
 40
0.2500000000000011
 40
0.2500000000000011
 40
0.3749999999999992
 40
0.3749999999999992
 40
0.4999999999999974
 40
0.4999999999999974
 40
0.7499999999999987
 40
0.7499999999999987
 40
1.0
 40
1.0
 40
1.0
 40
1.0
 10
115.5945935860051
 20
118.4468822170901
 30
0.0
 10
115.6301475154538
 20
118.4468822170901
 30
0.0
 10
115.6594196566825
 20
118.4347504666743
 30
0.0
 10
115.6746322069034
 20
118.3927287603949
 30
0.0
 10
115.6746928750769
 20
118.3745143908883
 30
0.0
 10
115.6644822905996
 20
118.3325773783617
 30
0.0
 10
115.6546989610743
 20
118.3095498148675
 30
0.0
 10
115.6155344125424
 20
118.2351411360955
 30
0.0
 10
115.5776613392691
 20
118.180483259913
 30
0.0
 10
115.4985883662775
 20
118.0671141867342
 30
0.0
 10
115.4572012336867
 20
118.00850143663
 30
0.0
 10
115.4187469960743
 20
117.9468822170901
 30
0.0
  0
ARC
  5
21A
330
1F
100
AcDbEntity
  8
0
  6
Continuous
 62
     7
370
    25
100
AcDbCircle
 10
115.590763773
 20
118.9261910346
 30
0.0
 40
0.4793241179194353
100
AcDbArc
 50
270.4577997368
 51
333.1020414014
  0
SPLINE
  5
21B
330
1F
100
AcDbEntity
  8
0
  6
Continuous
 62
     7
370
    25
100
AcDbSpline
210
0.0
220
0.0
230
1.0
 70
     8
 71
     3
 72
    16
 73
    12
 74
     0
 42
0.00000001
 43
0.00000001
 40
0.0
 40
0.0
 40
0.0
 40
0.0
 40
0.2500000000000049
 40
0.2500000000000049
 40
0.3750000000000051
 40
0.3750000000000051
 40
0.5000000000000052
 40
0.5000000000000052
 40
0.7500000000000026
 40
0.7500000000000026
 40
1.0
 40
1.0
 40
1.0
 40
1.0
 10
100.9836974070664
 20
101.4468822170901
 30
0.0
 10
100.9481434776177
 20
101.4468822170901
 30
0.0
 10
100.918871336389
 20
101.4590139675059
 30
0.0
 10
100.9036587861682
 20
101.5010356737853
 30
0.0
 10
100.9035981179946
 20
101.5192500432919
 30
0.0
 10
100.9138087024719
 20
101.5611870558184
 30
0.0
 10
100.9235920319972
 20
101.5842146193127
 30
0.0
 10
100.9627565805291
 20
101.6586232980847
 30
0.0
 10
101.0006296538024
 20
101.7132811742672
 30
0.0
 10
101.079702626794
 20
101.8266502474459
 30
0.0
 10
101.1210897593848
 20
101.8852629975501
 30
0.0
 10
101.1595439969972
 20
101.9468822170901
 30
0.0
  0
ARC
  5
21C
330
1F
100
AcDbEntity
  8
0
  6
Continuous
 62
     7
370
    25
100
AcDbCircle
 10
100.98752722
 20
100.9675733996
 30
0.0
 40
0.479324117919499
100
AcDbArc
 50
90.4577997368
 51
153.1020414014
  0
LINE
  5
21D
330
1F
100
AcDbEntity
  8
0
  6
Continuous
 62
     7
370
    25
100
AcDbLine
 10
126.9341974371
 20
114.7291618439
 30
0.0
 11
126.9341974371
 21
105.1646025902
 31
0.0
  0
LINE
  5
21E
330
1F
100
AcDbEntity
  8
0
  6
Continuous
 62
     7
370
    25
100
AcDbLine
 10
115.4187469961
 20
117.9468822171
 30
0.0
 11
101.159543997
 21
117.9468822171
 31
0.0
  0
LINE
  5
21F
330
1F
100
AcDbEntity
  8
0
  6
Continuous
 62
     7
370
    25
100
AcDbLine
 10
100.9836974071
 20
118.4468822171
 30
0.0
 11
115.594593586
 21
118.4468822171
 31
0.0
  0
LINE
  5
220
330
1F
100
AcDbEntity
  8
0
  6
Continuous
 62
     7
370
    25
100
AcDbLine
 10
101.159543997
 20
101.9468822171
 30
0.0
 11
115.4187469961
 21
101.9468822171
 31
0.0
  0
LINE
  5
221
330
1F
100
AcDbEntity
  8
0
  6
Continuous
 62
     7
370
    25
100
AcDbLine
 10
115.594593586
 20
101.4468822171
 30
0.0
 11
100.9836974071
 21
101.4468822171
 31
0.0
  0
LINE
  5
222
330
1F
100
AcDbEntity
  8
0
  6
Continuous
 62
     7
370
    25
100
AcDbLine
 10
128.2891454965
 20
113.9468822171
 30
0.0
 11
128.2891454965
 21
105.9468822171
 31
0.0
  0
ARC
  5
223
330
1F
100
AcDbEntity
  8
0
  6
Continuous
 62
     7
370
    25
100
AcDbCircle
 10
101.2891454965
 20
118.9468822171
 30
0.0
 40
0.5
100
AcDbArc
 50
180.0
 51
270.0
  0
ARC
  5
224
330
1F
100
AcDbEntity
  8
0
  6
Continuous
 62
     7
370
    25
100
AcDbCircle
 10
115.2891454965
 20
118.9468822171
 30
0.0
 40
0.5
100
AcDbArc
 50
270.0
 51
0.0
  0
ARC
  5
225
330
1F
100
AcDbEntity
  8
0
  6
Continuous
 62
     7
370
    25
100
AcDbCircle
 10
101.2891454965
 20
100.9468822171
 30
0.0
 40
0.5
100
AcDbArc
 50
90.0
 51
180.0
  0
ARC
  5
226
330
1F
100
AcDbEntity
  8
0
  6
Continuous
 62
     7
370
    25
100
AcDbCircle
 10
115.2891454965
 20
100.9468822171
 30
0.0
 40
0.5
100
AcDbArc
 50
0.0
 51
90.0
  0
LINE
  5
227
330
1F
100
AcDbEntity
  8
0
  6
Continuous
 62
     7
370
    25
100
AcDbLine
 10
115.2891454965
 20
103.2187512052
 30
0.0
 11
115.2891454965
 21
107.3968822171
 31
0.0
  0
LINE
  5
228
330
1F
100
AcDbEntity
  8
0
  6
Continuous
 62
     7
370
    25
100
AcDbLine
 10
115.2891454965
 20
112.4968822171
 30
0.0
 11
115.2891454965
 21
116.675013229
 31
0.0
  0
LINE
  5
229
330
1F
100
AcDbEntity
  8
0
  6
Continuous
 62
     7
370
    25
100
AcDbLine
 10
101.2891454965
 20
116.675013229
 30
0.0
 11
101.2891454965
 21
115.2431946976
 31
0.0
  0
LINE
  5
22A
330
1F
100
AcDbEntity
  8
0
  6
Continuous
 62
     7
370
    25
100
AcDbLine
 10
101.2891454965
 20
104.6505697366
 30
0.0
 11
101.2891454965
 21
103.2187512052
 31
0.0
  0
LINE
  5
22B
330
1F
100
AcDbEntity
  8
0
  6
Continuous
 62
     7
370
    25
100
AcDbLine
 10
115.2891454965
 20
116.675013229
 30
0.0
 11
111.4883255613
 21
116.675013229
 31
0.0
  0
LINE
  5
22C
330
1F
100
AcDbEntity
  8
0
  6
Continuous
 62
     7
370
    25
100
AcDbLine
 10
105.0899654318
 20
116.675013229
 30
0.0
 11
101.2891454965
 21
116.675013229
 31
0.0
  0
LINE
  5
22D
330
1F
100
AcDbEntity
  8
0
  6
Continuous
 62
     7
370
    25
100
AcDbLine
 10
101.2891454965
 20
103.2187512052
 30
0.0
 11
105.0899654318
 21
103.2187512052
 31
0.0
  0
LINE
  5
22E
330
1F
100
AcDbEntity
  8
0
  6
Continuous
 62
     7
370
    25
100
AcDbLine
 10
111.4883255613
 20
103.2187512052
 30
0.0
 11
115.2891454965
 21
103.2187512052
 31
0.0
  0
LINE
  5
22F
330
1F
100
AcDbEntity
  8
0
  6
Continuous
 62
     7
370
    25
100
AcDbLine
 10
101.2891454965
 20
117.0707856415
 30
0.0
 11
106.1091225609
 21
117.0707856415
 31
0.0
  0
LINE
  5
230
330
1F
100
AcDbEntity
  8
0
  6
Continuous
 62
     7
370
    25
100
AcDbLine
 10
110.4691684322
 20
117.0707856415
 30
0.0
 11
115.2891454965
 21
117.0707856415
 31
0.0
  0
LINE
  5
231
330
1F
100
AcDbEntity
  8
0
  6
Continuous
 62
     7
370
    25
100
AcDbLine
 10
115.2891454965
 20
102.8229787927
 30
0.0
 11
110.4691684322
 21
102.8229787927
 31
0.0
  0
LINE
  5
232
330
1F
100
AcDbEntity
  8
0
  6
Continuous
 62
     7
370
    25
100
AcDbLine
 10
106.1091225609
 20
102.8229787927
 30
0.0
 11
101.2891454965
 21
102.8229787927
 31
0.0
  0
INSERT
  5
23E
330
1F
100
AcDbEntity
  8
FORMAT
100
AcDbBlockReference
  2
SW_CENTERMARKSYMBOL_1
 10
108.2891454965
 20
109.9468822171
 30
0.0
  0
LINE
  5
23F
330
1F
100
AcDbEntity
  8
FORMAT
100
AcDbLine
 10
127.908889553
 20
105.7273413457
 30
0.0
 11
118.7891454965
 21
105.4423493439
 31
0.0
  0
LINE
  5
240
330
1F
100
AcDbEntity
  8
FORMAT
100
AcDbLine
 10
127.908889553
 20
114.1664230885
 30
0.0
 11
118.7891454965
 21
114.4514150902
 31
0.0
  0
LINE
  5
241
330
1F
100
AcDbEntity
  8
FORMAT
100
AcDbLine
 10
118.7891454965
 20
114.9836947171
 30
0.0
 11
118.7891454965
 21
104.9100697171
 31
0.0
  0
ENDSEC
  0
SECTION
  2
OBJECTS
  0
DICTIONARY
  5
C
330
0
100
AcDbDictionary
281
     1
  3
ACAD_GROUP
350
D
  3
ACAD_LAYOUT
350
1A
  3
ACAD_MLINESTYLE
350
17
  3
ACAD_PLOTSETTINGS
350
19
  3
ACAD_PLOTSTYLENAME
350
E
  3
ACAD_SCALELIST
350
47
  3
DWGPROPS
350
242
  0
DICTIONARY
  5
D
102
{ACAD_REACTORS
330
C
102
}
330
C
100
AcDbDictionary
281
     1
  0
DICTIONARY
  5
1A
102
{ACAD_REACTORS
330
C
102
}
330
C
100
AcDbDictionary
281
     1
  3
Layout1
350
1E
  3
Layout2
350
26
  3
Model
350
22
  0
DICTIONARY
  5
17
102
{ACAD_REACTORS
330
C
102
}
330
C
100
AcDbDictionary
281
     1
  3
Standard
350
18
  0
DICTIONARY
  5
19
102
{ACAD_REACTORS
330
C
102
}
330
C
100
AcDbDictionary
281
     1
  0
ACDBDICTIONARYWDFLT
  5
E
102
{ACAD_REACTORS
330
C
102
}
330
C
100
AcDbDictionary
281
     1
  3
Normal
350
F
100
AcDbDictionaryWithDefault
340
F
  0
DICTIONARY
  5
47
102
{ACAD_REACTORS
330
C
102
}
330
C
100
AcDbDictionary
281
     1
  3
A0
350
48
  3
A1
350
49
  3
A2
350
4A
  3
A3
350
4B
  3
A4
350
4C
  3
A5
350
4D
  3
A6
350
4E
  3
A7
350
4F
  3
A8
350
50
  3
A9
350
51
  3
B0
350
52
  3
B1
350
53
  3
B2
350
54
  3
B3
350
55
  3
B4
350
56
  3
B5
350
57
  3
B6
350
58
  0
XRECORD
  5
242
102
{ACAD_REACTORS
330
C
102
}
330
C
100
AcDbXrecord
280
     1
  1
DWGPROPS COOKIE
  2

  3

  4

  6

  7

  8
user28
  9

300
=
301
=
302
=
303
=
304
=
305
=
306
=
307
=
308
=
309
=
 40
0.0
 41
2460426.332562951
 42
2460426.332563808
  1

 90
        0
  0
LAYOUT
  5
1E
102
{ACAD_REACTORS
330
1A
102
}
330
1A
100
AcDbPlotSettings
  1

  2
none_device
  4

  6

 40
0.0
 41
0.0
 42
0.0
 43
0.0
 44
0.0
 45
0.0
 46
0.0
 47
0.0
 48
0.0
 49
0.0
140
0.0
141
0.0
142
1.0
143
1.0
 70
   688
 72
     1
 73
     0
 74
     5
  7

 75
    16
147
1.0
148
0.0
149
0.0
100
AcDbLayout
  1
Layout1
 70
     1
 71
     1
 10
0.0
 20
0.0
 11
420.0
 21
297.0
 12
0.0
 22
0.0
 32
0.0
 14
1.0000000000E+20
 24
1.0000000000E+20
 34
1.0000000000E+20
 15
-1.0000000000E+20
 25
-1.0000000000E+20
 35
-1.0000000000E+20
146
0.0
 13
0.0
 23
0.0
 33
0.0
 16
1.0
 26
0.0
 36
0.0
 17
0.0
 27
1.0
 37
0.0
 76
     0
330
1B
  0
LAYOUT
  5
26
102
{ACAD_REACTORS
330
1A
102
}
330
1A
100
AcDbPlotSettings
  1

  2
none_device
  4

  6

 40
0.0
 41
0.0
 42
0.0
 43
0.0
 44
0.0
 45
0.0
 46
0.0
 47
0.0
 48
0.0
 49
0.0
140
0.0
141
0.0
142
1.0
143
1.0
 70
   688
 72
     1
 73
     0
 74
     5
  7

 75
    16
147
1.0
148
0.0
149
0.0
100
AcDbLayout
  1
Layout2
 70
     1
 71
     2
 10
0.0
 20
0.0
 11
0.0
 21
0.0
 12
0.0
 22
0.0
 32
0.0
 14
0.0
 24
0.0
 34
0.0
 15
0.0
 25
0.0
 35
0.0
146
0.0
 13
0.0
 23
0.0
 33
0.0
 16
1.0
 26
0.0
 36
0.0
 17
0.0
 27
1.0
 37
0.0
 76
     0
330
23
  0
LAYOUT
  5
22
102
{ACAD_REACTORS
330
1A
102
}
330
1A
100
AcDbPlotSettings
  1

  2
none_device
  4
Letter_(8.50_x_11.00_Inches)
  6

 40
6.35
 41
6.35
 42
6.35000508
 43
6.35000508
 44
215.9
 45
279.4
 46
0.0
 47
0.0
 48
0.0
 49
0.0
140
0.0
141
0.0
142
1.0
143
1.0
 70
  1712
 72
     1
 73
     0
 74
     0
  7

 75
     0
147
1.0
148
0.0
149
0.0
100
AcDbLayout
  1
Model
 70
     1
 71
     0
 10
0.0
 20
0.0
 11
297.0
 21
210.0
 12
0.0
 22
0.0
 32
0.0
 14
0.0
 24
0.0
 34
0.0
 15
297.0
 25
210.0
 35
0.0
146
0.0
 13
0.0
 23
0.0
 33
0.0
 16
1.0
 26
0.0
 36
0.0
 17
0.0
 27
1.0
 37
0.0
 76
     0
330
1F
331
29
  0
MLINESTYLE
  5
18
102
{ACAD_REACTORS
330
17
102
}
330
17
100
AcDbMlineStyle
  2
Standard
 70
     0
  3

 62
   256
 51
90.0
 52
90.0
 71
     2
 49
0.5
 62
   256
  6
BYLAYER
 49
-0.5
 62
   256
  6
BYLAYER
  0
ACDBPLACEHOLDER
  5
F
102
{ACAD_REACTORS
330
E
102
}
330
E
  0
SCALE
  5
48
102
{ACAD_REACTORS
330
47
102
}
330
47
100
AcDbScale
 70
     0
300
1:1
140
1.0
141
1.0
290
     1
  0
SCALE
  5
49
102
{ACAD_REACTORS
330
47
102
}
330
47
100
AcDbScale
 70
     0
300
1:2
140
1.0
141
2.0
290
     0
  0
SCALE
  5
4A
102
{ACAD_REACTORS
330
47
102
}
330
47
100
AcDbScale
 70
     0
300
1:4
140
1.0
141
4.0
290
     0
  0
SCALE
  5
4B
102
{ACAD_REACTORS
330
47
102
}
330
47
100
AcDbScale
 70
     0
300
1:5
140
1.0
141
5.0
290
     0
  0
SCALE
  5
4C
102
{ACAD_REACTORS
330
47
102
}
330
47
100
AcDbScale
 70
     0
300
1:8
140
1.0
141
8.0
290
     0
  0
SCALE
  5
4D
102
{ACAD_REACTORS
330
47
102
}
330
47
100
AcDbScale
 70
     0
300
1:10
140
1.0
141
10.0
290
     0
  0
SCALE
  5
4E
102
{ACAD_REACTORS
330
47
102
}
330
47
100
AcDbScale
 70
     0
300
1:16
140
1.0
141
16.0
290
     0
  0
SCALE
  5
4F
102
{ACAD_REACTORS
330
47
102
}
330
47
100
AcDbScale
 70
     0
300
1:20
140
1.0
141
20.0
290
     0
  0
SCALE
  5
50
102
{ACAD_REACTORS
330
47
102
}
330
47
100
AcDbScale
 70
     0
300
1:30
140
1.0
141
30.0
290
     0
  0
SCALE
  5
51
102
{ACAD_REACTORS
330
47
102
}
330
47
100
AcDbScale
 70
     0
300
1:40
140
1.0
141
40.0
290
     0
  0
SCALE
  5
52
102
{ACAD_REACTORS
330
47
102
}
330
47
100
AcDbScale
 70
     0
300
1:50
140
1.0
141
50.0
290
     0
  0
SCALE
  5
53
102
{ACAD_REACTORS
330
47
102
}
330
47
100
AcDbScale
 70
     0
300
1:100
140
1.0
141
100.0
290
     0
  0
SCALE
  5
54
102
{ACAD_REACTORS
330
47
102
}
330
47
100
AcDbScale
 70
     0
300
2:1
140
2.0
141
1.0
290
     0
  0
SCALE
  5
55
102
{ACAD_REACTORS
330
47
102
}
330
47
100
AcDbScale
 70
     0
300
4:1
140
4.0
141
1.0
290
     0
  0
SCALE
  5
56
102
{ACAD_REACTORS
330
47
102
}
330
47
100
AcDbScale
 70
     0
300
8:1
140
8.0
141
1.0
290
     0
  0
SCALE
  5
57
102
{ACAD_REACTORS
330
47
102
}
330
47
100
AcDbScale
 70
     0
300
10:1
140
10.0
141
1.0
290
     0
  0
SCALE
  5
58
102
{ACAD_REACTORS
330
47
102
}
330
47
100
AcDbScale
 70
     0
300
100:1
140
100.0
141
1.0
290
     0
  0
ENDSEC
  0
EOF
