  0
SECTION
  2
HEADER
  9
$ACADVER
  1
AC1027
  9
$ACADMAINTVER
 70
    81
  9
$DWGCODEPAGE
  3
ANSI_932
  9
$AUTHOR
  1
水田
  9
$REVISIONNUMBER
  1
A
  9
$CUSTOMPROPERTYTAG
  1
マネージャ
  9
$CUSTOMPROPERTY
  1

  9
$CUSTOMPROPERTYTAG
  1
会社
  9
$CUSTOMPROPERTY
  1

  9
$CUSTOMPROPERTYTAG
  1
カテゴリ
  9
$CUSTOMPROPERTY
  1

  9
$CUSTOMPROPERTYTAG
  1
部品番号
  9
$CUSTOMPROPERTY
  1
DXF用
  9
$CUSTOMPROPERTYTAG
  1
説明
  9
$CUSTOMPROPERTY
  1

  9
$CUSTOMPROPERTYTAG
  1
プロジェクト
  9
$CUSTOMPROPERTY
  1

  9
$CUSTOMPROPERTYTAG
  1
設計者
  9
$CUSTOMPROPERTY
  1
水田
  9
$CUSTOMPROPERTYTAG
  1
エンジニア
  9
$CUSTOMPROPERTY
  1

  9
$CUSTOMPROPERTYTAG
  1
責任者
  9
$CUSTOMPROPERTY
  1
mizuta
  9
$CUSTOMPROPERTYTAG
  1
コスト センター
  9
$CUSTOMPROPERTY
  1

  9
$CUSTOMPROPERTYTAG
  1
原価
  9
$CUSTOMPROPERTY
  1

  9
$CUSTOMPROPERTYTAG
  1
ベンダー
  9
$CUSTOMPROPERTY
  1

  9
$CUSTOMPROPERTYTAG
  1
ユーザ ステータス
  9
$CUSTOMPROPERTY
  1

  9
$CUSTOMPROPERTYTAG
  1
設計ステータス
  9
$CUSTOMPROPERTY
  1
作業中
  9
$CUSTOMPROPERTYTAG
  1
確認者
  9
$CUSTOMPROPERTY
  1
mizuta
  9
$CUSTOMPROPERTYTAG
  1
エンジニアリング承認者
  9
$CUSTOMPROPERTY
  1

  9
$CUSTOMPROPERTYTAG
  1
製造承認者
  9
$CUSTOMPROPERTY
  1

  9
$CUSTOMPROPERTYTAG
  1
作成日
  9
$CUSTOMPROPERTY
  1
03/17/2014
  9
$CUSTOMPROPERTYTAG
  1
ストック番号
  9
$CUSTOMPROPERTY
  1

  9
$REQUIREDVERSIONS
160
                 0
  9
$INSBASE
 10
0.0
 20
0.0
 30
0.0
  9
$EXTMIN
 10
0.0
 20
0.0
 30
0.0
  9
$EXTMAX
 10
297.0
 20
210.0
 30
0.0
  9
$LIMMIN
 10
0.0
 20
0.0
  9
$LIMMAX
 10
297.0
 20
210.0
  9
$ORTHOMODE
 70
     0
  9
$REGENMODE
 70
     1
  9
$FILLMODE
 70
     1
  9
$QTEXTMODE
 70
     0
  9
$MIRRTEXT
 70
     0
  9
$LTSCALE
 40
1.0
  9
$ATTMODE
 70
     1
  9
$TEXTSIZE
 40
0.2
  9
$TRACEWID
 40
0.05
  9
$TEXTSTYLE
  7
Standard
  9
$CLAYER
  8
0
  9
$CELTYPE
  6
ByLayer
  9
$CECOLOR
 62
   256
  9
$CELTSCALE
 40
1.0
  9
$DISPSILH
 70
     0
  9
$DIMSCALE
 40
1.0
  9
$DIMASZ
 40
1.799999999999999
  9
$DIMEXO
 40
0.0625
  9
$DIMDLI
 40
0.38
  9
$DIMRND
 40
0.0
  9
$DIMDLE
 40
0.0
  9
$DIMEXE
 40
0.18
  9
$DIMTP
 40
0.0
  9
$DIMTM
 40
0.0
  9
$DIMTXT
 40
0.25
  9
$DIMCEN
 40
0.09
  9
$DIMTSZ
 40
0.0
  9
$DIMTOL
 70
     0
  9
$DIMLIM
 70
     0
  9
$DIMTIH
 70
     1
  9
$DIMTOH
 70
     1
  9
$DIMSE1
 70
     0
  9
$DIMSE2
 70
     0
  9
$DIMTAD
 70
     0
  9
$DIMZIN
 70
     0
  9
$DIMBLK
  1

  9
$DIMASO
 70
     1
  9
$DIMSHO
 70
     1
  9
$DIMPOST
  1

  9
$DIMAPOST
  1

  9
$DIMALT
 70
     0
  9
$DIMALTD
 70
     2
  9
$DIMALTF
 40
25.4
  9
$DIMLFAC
 40
1.0
  9
$DIMTOFL
 70
     0
  9
$DIMTVP
 40
0.0
  9
$DIMTIX
 70
     0
  9
$DIMSOXD
 70
     0
  9
$DIMSAH
 70
     0
  9
$DIMBLK1
  1

  9
$DIMBLK2
  1

  9
$DIMSTYLE
  2
Standard
  9
$DIMCLRD
 70
     0
  9
$DIMCLRE
 70
     0
  9
$DIMCLRT
 70
     0
  9
$DIMTFAC
 40
1.0
  9
$DIMGAP
 40
0.09
  9
$DIMJUST
 70
     0
  9
$DIMSD1
 70
     0
  9
$DIMSD2
 70
     0
  9
$DIMTOLJ
 70
     1
  9
$DIMTZIN
 70
     0
  9
$DIMALTZ
 70
     0
  9
$DIMALTTZ
 70
     0
  9
$DIMUPT
 70
     0
  9
$DIMDEC
 70
     4
  9
$DIMTDEC
 70
     4
  9
$DIMALTU
 70
     2
  9
$DIMALTTD
 70
     2
  9
$DIMTXSTY
  7
Standard
  9
$DIMAUNIT
 70
     0
  9
$DIMADEC
 70
     0
  9
$DIMALTRND
 40
0.0
  9
$DIMAZIN
 70
     0
  9
$DIMDSEP
 70
    46
  9
$DIMATFIT
 70
     3
  9
$DIMFRAC
 70
     0
  9
$DIMLDRBLK
  1

  9
$DIMLUNIT
 70
     2
  9
$DIMLWD
 70
    -2
  9
$DIMLWE
 70
    -2
  9
$DIMTMOVE
 70
     0
  9
$DIMFXL
 40
1.0
  9
$DIMFXLON
 70
     0
  9
$DIMJOGANG
 40
0.7853981633974483
  9
$DIMTFILL
 70
     0
  9
$DIMTFILLCLR
 70
     0
  9
$DIMARCSYM
 70
     0
  9
$DIMLTYPE
  6

  9
$DIMLTEX1
  6

  9
$DIMLTEX2
  6

  9
$DIMTXTDIRECTION
 70
     0
  9
$LUNITS
 70
     2
  9
$LUPREC
 70
     4
  9
$SKETCHINC
 40
0.1
  9
$FILLETRAD
 40
0.0
  9
$AUNITS
 70
     0
  9
$AUPREC
 70
     0
  9
$MENU
  1
.
  9
$ELEVATION
 40
0.0
  9
$PELEVATION
 40
0.0
  9
$THICKNESS
 40
0.0
  9
$LIMCHECK
 70
     0
  9
$CHAMFERA
 40
0.0
  9
$CHAMFERB
 40
0.0
  9
$CHAMFERC
 40
0.0
  9
$CHAMFERD
 40
0.0
  9
$SKPOLY
 70
     0
  9
$TDCREATE
 40
2459191.670883137
  9
$TDUCREATE
 40
2459191.295883137
  9
$TDUPDATE
 40
2459191.670883137
  9
$TDUUPDATE
 40
2459191.295883137
  9
$TDINDWG
 40
0.0000295370
  9
$TDUSRTIMER
 40
0.0000295370
  9
$USRTIMER
 70
     1
  9
$ANGBASE
 50
0.0
  9
$ANGDIR
 70
     0
  9
$PDMODE
 70
     0
  9
$PDSIZE
 40
0.0
  9
$PLINEWID
 40
0.0
  9
$SPLFRAME
 70
     0
  9
$SPLINETYPE
 70
     6
  9
$SPLINESEGS
 70
     8
  9
$HANDSEED
  5
328
  9
$SURFTAB1
 70
     6
  9
$SURFTAB2
 70
     6
  9
$SURFTYPE
 70
     6
  9
$SURFU
 70
     6
  9
$SURFV
 70
     6
  9
$UCSBASE
  2

  9
$UCSNAME
  2

  9
$UCSORG
 10
0.0
 20
0.0
 30
0.0
  9
$UCSXDIR
 10
1.0
 20
0.0
 30
0.0
  9
$UCSYDIR
 10
0.0
 20
1.0
 30
0.0
  9
$UCSORTHOREF
  2

  9
$UCSORTHOVIEW
 70
     0
  9
$UCSORGTOP
 10
0.0
 20
0.0
 30
0.0
  9
$UCSORGBOTTOM
 10
0.0
 20
0.0
 30
0.0
  9
$UCSORGLEFT
 10
0.0
 20
0.0
 30
0.0
  9
$UCSORGRIGHT
 10
0.0
 20
0.0
 30
0.0
  9
$UCSORGFRONT
 10
0.0
 20
0.0
 30
0.0
  9
$UCSORGBACK
 10
0.0
 20
0.0
 30
0.0
  9
$PUCSBASE
  2

  9
$PUCSNAME
  2

  9
$PUCSORG
 10
0.0
 20
0.0
 30
0.0
  9
$PUCSXDIR
 10
1.0
 20
0.0
 30
0.0
  9
$PUCSYDIR
 10
0.0
 20
1.0
 30
0.0
  9
$PUCSORTHOREF
  2

  9
$PUCSORTHOVIEW
 70
     0
  9
$PUCSORGTOP
 10
0.0
 20
0.0
 30
0.0
  9
$PUCSORGBOTTOM
 10
0.0
 20
0.0
 30
0.0
  9
$PUCSORGLEFT
 10
0.0
 20
0.0
 30
0.0
  9
$PUCSORGRIGHT
 10
0.0
 20
0.0
 30
0.0
  9
$PUCSORGFRONT
 10
0.0
 20
0.0
 30
0.0
  9
$PUCSORGBACK
 10
0.0
 20
0.0
 30
0.0
  9
$USERI1
 70
     0
  9
$USERI2
 70
     0
  9
$USERI3
 70
     0
  9
$USERI4
 70
     0
  9
$USERI5
 70
     0
  9
$USERR1
 40
0.0
  9
$USERR2
 40
0.0
  9
$USERR3
 40
0.0
  9
$USERR4
 40
0.0
  9
$USERR5
 40
0.0
  9
$WORLDVIEW
 70
     1
  9
$SHADEDGE
 70
     3
  9
$SHADEDIF
 70
    70
  9
$TILEMODE
 70
     1
  9
$MAXACTVP
 70
    64
  9
$PINSBASE
 10
0.0
 20
0.0
 30
0.0
  9
$PLIMCHECK
 70
     0
  9
$PEXTMIN
 10
0.0
 20
0.0
 30
0.0
  9
$PEXTMAX
 10
297.0
 20
210.0
 30
0.0
  9
$PLIMMIN
 10
0.0
 20
0.0
  9
$PLIMMAX
 10
297.0
 20
210.0
  9
$UNITMODE
 70
     0
  9
$VISRETAIN
 70
     1
  9
$PLINEGEN
 70
     0
  9
$PSLTSCALE
 70
     1
  9
$TREEDEPTH
 70
  3020
  9
$CMLSTYLE
  2
Standard
  9
$CMLJUST
 70
     0
  9
$CMLSCALE
 40
1.0
  9
$PROXYGRAPHICS
 70
     1
  9
$MEASUREMENT
 70
     1
  9
$CELWEIGHT
370
    -1
  9
$ENDCAPS
280
     0
  9
$JOINSTYLE
280
     0
  9
$LWDISPLAY
290
     0
  9
$INSUNITS
 70
     4
  9
$HYPERLINKBASE
  1

  9
$STYLESHEET
  1

  9
$XEDIT
290
     1
  9
$CEPSNTYPE
380
     0
  9
$PSTYLEMODE
290
     1
  9
$FINGERPRINTGUID
  2
{22217B06-D659-4815-BCA7-D266F074CD32}
  9
$VERSIONGUID
  2
{2FC42360-69CB-42B5-AE79-F5DF85F2CF20}
  9
$EXTNAMES
290
     1
  9
$PSVPSCALE
 40
0.0
  9
$OLESTARTUP
290
     0
  9
$SORTENTS
280
   127
  9
$INDEXCTL
280
     0
  9
$HIDETEXT
280
     1
  9
$XCLIPFRAME
280
     2
  9
$HALOGAP
280
     0
  9
$OBSCOLOR
 70
   257
  9
$OBSLTYPE
280
     0
  9
$INTERSECTIONDISPLAY
280
     0
  9
$INTERSECTIONCOLOR
 70
   257
  9
$DIMASSOC
280
     1
  9
$PROJECTNAME
  1

  9
$CAMERADISPLAY
290
     0
  9
$LENSLENGTH
 40
50.0
  9
$CAMERAHEIGHT
 40
0.0
  9
$STEPSPERSEC
 40
2.0
  9
$STEPSIZE
 40
6.0
  9
$3DDWFPREC
 40
2.0
  9
$PSOLWIDTH
 40
0.25
  9
$PSOLHEIGHT
 40
4.0
  9
$LOFTANG1
 40
1.570796326794896
  9
$LOFTANG2
 40
1.570796326794896
  9
$LOFTMAG1
 40
0.0
  9
$LOFTMAG2
 40
0.0
  9
$LOFTPARAM
 70
     7
  9
$LOFTNORMALS
280
     1
  9
$LATITUDE
 40
37.795
  9
$LONGITUDE
 40
-122.394
  9
$NORTHDIRECTION
 40
0.0
  9
$TIMEZONE
 70
 -8000
  9
$LIGHTGLYPHDISPLAY
280
     1
  9
$TILEMODELIGHTSYNCH
280
     1
  9
$CMATERIAL
347
11
  9
$SOLIDHIST
280
     0
  9
$SHOWHIST
280
     1
  9
$DWFFRAME
280
     2
  9
$DGNFRAME
280
     0
  9
$REALWORLDSCALE
290
     1
  9
$INTERFERECOLOR
 62
     1
  9
$INTERFEREOBJVS
345
33
  9
$INTERFEREVPVS
346
30
  9
$CSHADOW
280
     0
  9
$SHADOWPLANELOCATION
 40
0.0
  0
ENDSEC
  0
SECTION
  2
CLASSES
  0
CLASS
  1
ACDBDICTIONARYWDFLT
  2
AcDbDictionaryWithDefault
  3
ObjectDBX Classes
 90
        0
 91
        1
280
     0
281
     0
  0
CLASS
  1
MATERIAL
  2
AcDbMaterial
  3
ObjectDBX Classes
 90
     1153
 91
        3
280
     0
281
     0
  0
CLASS
  1
VISUALSTYLE
  2
AcDbVisualStyle
  3
ObjectDBX Classes
 90
     4095
 91
       24
280
     0
281
     0
  0
CLASS
  1
SCALE
  2
AcDbScale
  3
ObjectDBX Classes
 90
     1153
 91
       17
280
     0
281
     0
  0
CLASS
  1
TABLESTYLE
  2
AcDbTableStyle
  3
ObjectDBX Classes
 90
     4095
 91
        1
280
     0
281
     0
  0
CLASS
  1
MLEADERSTYLE
  2
AcDbMLeaderStyle
  3
ACDB_MLEADERSTYLE_CLASS
 90
     4095
 91
        1
280
     0
281
     0
  0
CLASS
  1
ACDBSECTIONVIEWSTYLE
  2
AcDbSectionViewStyle
  3
ObjectDBX Classes
 90
     1025
 91
        1
280
     0
281
     0
  0
CLASS
  1
ACDBDETAILVIEWSTYLE
  2
AcDbDetailViewStyle
  3
ObjectDBX Classes
 90
     1025
 91
        1
280
     0
281
     0
  0
CLASS
  1
DICTIONARYVAR
  2
AcDbDictionaryVar
  3
ObjectDBX Classes
 90
        0
 91
        5
280
     0
281
     0
  0
CLASS
  1
CELLSTYLEMAP
  2
AcDbCellStyleMap
  3
ObjectDBX Classes
 90
     1152
 91
        1
280
     0
281
     0
  0
ENDSEC
  0
SECTION
  2
TABLES
  0
TABLE
  2
VPORT
  5
8
330
0
100
AcDbSymbolTable
 70
     1
  0
VPORT
  5
57
330
8
100
AcDbSymbolTableRecord
100
AcDbViewportTableRecord
  2
*Active
 70
     0
 10
0.0
 20
0.0
 11
1.0
 21
1.0
 12
148.5
 22
105.0
 13
0.0
 23
0.0
 14
1.0
 24
1.0
 15
0.0
 25
0.0
 16
0.0
 26
0.0
 36
1.0
 17
0.0
 27
0.0
 37
0.0
 40
210.0
 41
1.414285714285714
 42
50.0
 43
0.0
 44
0.0
 50
0.0
 51
0.0
 71
     0
 72
   100
 73
     1
 74
     1
 75
     0
 76
     0
 77
     0
 78
     0
281
     0
 65
     1
110
0.0
120
0.0
130
0.0
111
1.0
121
0.0
131
0.0
112
0.0
122
1.0
132
0.0
 79
     0
146
0.0
 60
     3
 61
     5
292
     1
282
     1
141
0.0
142
0.0
 63
   250
421
  3355443
  0
ENDTAB
  0
TABLE
  2
LTYPE
  5
5
330
0
100
AcDbSymbolTable
 70
    58
  0
LTYPE
  5
5B
330
5
100
AcDbSymbolTableRecord
100
AcDbLinetypeTableRecord
  2
ByBlock
 70
     0
  3

 72
    65
 73
     0
 40
0.0
  0
LTYPE
  5
5C
330
5
100
AcDbSymbolTableRecord
100
AcDbLinetypeTableRecord
  2
ByLayer
 70
     0
  3

 72
    65
 73
     0
 40
0.0
  0
LTYPE
  5
5D
330
5
100
AcDbSymbolTableRecord
100
AcDbLinetypeTableRecord
  2
Continuous
 70
     0
  3
Solid line
 72
    65
 73
     0
 40
0.0
  0
LTYPE
  5
78
330
5
100
AcDbSymbolTableRecord
100
AcDbLinetypeTableRecord
  2
CHAIN
 70
     0
  3
Chain ____ _ ____ _ ____ _ ____ _ ____ _ ____
 72
    65
 73
     4
 40
0.3543
 49
0.2362
 74
     0
 49
-0.0295
 74
     0
 49
0.0591
 74
     0
 49
-0.0295
 74
     0
  0
LTYPE
  5
79
330
5
100
AcDbSymbolTableRecord
100
AcDbLinetypeTableRecord
  2
DASH_DOT
 70
     0
  3
Dash dot __ . __ . __ . __ . __ . __ . __ . __
 72
    65
 73
     4
 40
0.37
 49
0.24
 74
     0
 49
-0.06
 74
     0
 49
0.01
 74
     0
 49
-0.06
 74
     0
  0
LTYPE
  5
7A
330
5
100
AcDbSymbolTableRecord
100
AcDbLinetypeTableRecord
  2
DASH_DOUBLE_DOT
 70
     0
  3
Dash Double-Dot __ . . __ . . __ . . __ . .
 72
    65
 73
     6
 40
0.4398
 49
0.24
 74
     0
 49
-0.06
 74
     0
 49
0.0098
 74
     0
 49
-0.06
 74
     0
 49
0.01
 74
     0
 49
-0.06
 74
     0
  0
LTYPE
  5
7B
330
5
100
AcDbSymbolTableRecord
100
AcDbLinetypeTableRecord
  2
DASH_TRIPLE_DOT
 70
     0
  3
Dash Triple-Dot _ . . . _ . . . _ . . . _
 72
    65
 73
     8
 40
0.51
 49
0.24
 74
     0
 49
-0.06
 74
     0
 49
0.01
 74
     0
 49
-0.06
 74
     0
 49
0.01
 74
     0
 49
-0.06
 74
     0
 49
0.01
 74
     0
 49
-0.06
 74
     0
  0
LTYPE
  5
7C
330
5
100
AcDbSymbolTableRecord
100
AcDbLinetypeTableRecord
  2
DASHED
 70
     0
  3
Dashed __ __ __ __ __ __ __ __ __ __ __ __ __ _
 72
    65
 73
     2
 40
0.2067
 49
0.1654
 74
     0
 49
-0.0413
 74
     0
  0
LTYPE
  5
7D
330
5
100
AcDbSymbolTableRecord
100
AcDbLinetypeTableRecord
  2
DASHED_SPACE
 70
     0
  3
Dashed Space __ __ __ __ __ __ __ __ __ __ __ _
 72
    65
 73
     2
 40
0.0826
 49
0.0413
 74
     0
 49
-0.0413
 74
     0
  0
LTYPE
  5
7E
330
5
100
AcDbSymbolTableRecord
100
AcDbLinetypeTableRecord
  2
DOTTED
 70
     0
  3
Dotted . . . . . . . . . . . . . . . . . . . . 
 72
    65
 73
     2
 40
0.0482
 49
0.0069
 74
     0
 49
-0.0413
 74
     0
  0
LTYPE
  5
7F
330
5
100
AcDbSymbolTableRecord
100
AcDbLinetypeTableRecord
  2
DOUBLE_DASH_CHAIN
 70
     0
  3
Double Dash Chain ___ _ _ ___ _ _ ___ _ _ ___ _
 72
    65
 73
     6
 40
1.240299999999999
 49
0.6614
 74
     0
 49
-0.0827
 74
     0
 49
0.1654
 74
     0
 49
-0.0827
 74
     0
 49
0.1654
 74
     0
 49
-0.0827
 74
     0
  0
LTYPE
  5
80
330
5
100
AcDbSymbolTableRecord
100
AcDbLinetypeTableRecord
  2
DOUBLE_DASH_DOT
 70
     0
  3
Double Dash Dot __ __ . __ __ . __ __ . __ _
 72
    65
 73
     6
 40
0.67
 49
0.24
 74
     0
 49
-0.06
 74
     0
 49
0.24
 74
     0
 49
-0.06
 74
     0
 49
0.01
 74
     0
 49
-0.06
 74
     0
  0
LTYPE
  5
81
330
5
100
AcDbSymbolTableRecord
100
AcDbLinetypeTableRecord
  2
DOUBLE_DASH_DOUBLE_DOT
 70
     0
  3
Double-dash double-dot _ _ . . _ _ . . _
 72
    65
 73
     8
 40
0.7400000000000001
 49
0.24
 74
     0
 49
-0.06
 74
     0
 49
0.24
 74
     0
 49
-0.06
 74
     0
 49
0.01
 74
     0
 49
-0.06
 74
     0
 49
0.01
 74
     0
 49
-0.06
 74
     0
  0
LTYPE
  5
82
330
5
100
AcDbSymbolTableRecord
100
AcDbLinetypeTableRecord
  2
DOUBLE_DASH_TRIPLE_DOT
 70
     0
  3
Double Dash Triple Dot __ __ . . . __ __ . . .
 72
    65
 73
    10
 40
0.8100000000000001
 49
0.24
 74
     0
 49
-0.06
 74
     0
 49
0.24
 74
     0
 49
-0.06
 74
     0
 49
0.01
 74
     0
 49
-0.06
 74
     0
 49
0.01
 74
     0
 49
-0.06
 74
     0
 49
0.01
 74
     0
 49
-0.06
 74
     0
  0
LTYPE
  5
83
330
5
100
AcDbSymbolTableRecord
100
AcDbLinetypeTableRecord
  2
LONG_DASH_DOTTED
 70
     0
  3
Long Dash Dotted ____ . ____ . ____ . ____ . _
 72
    65
 73
     4
 40
0.61
 49
0.48
 74
     0
 49
-0.06
 74
     0
 49
0.01
 74
     0
 49
-0.06
 74
     0
  0
LTYPE
  5
84
330
5
100
AcDbSymbolTableRecord
100
AcDbLinetypeTableRecord
  2
LONG_DASH_DOUBLE_DOT
 70
     0
  3
Long Dash Double Dot ____ . . ____ . . ____ . .
 72
    65
 73
     6
 40
0.3345
 49
0.2362
 74
     0
 49
-0.0295
 74
     0
 49
0.0049
 74
     0
 49
-0.0295
 74
     0
 49
0.0049
 74
     0
 49
-0.0295
 74
     0
  0
LTYPE
  5
85
330
5
100
AcDbSymbolTableRecord
100
AcDbLinetypeTableRecord
  2
LONG_DASH_TRIPLE_DOT
 70
     0
  3
Long Dash Triple Dot ____ ... ____ ... ____
 72
    65
 73
     8
 40
0.75
 49
0.48
 74
     0
 49
-0.06
 74
     0
 49
0.01
 74
     0
 49
-0.06
 74
     0
 49
0.01
 74
     0
 49
-0.06
 74
     0
 49
0.01
 74
     0
 49
-0.06
 74
     0
  0
LTYPE
  5
86
330
5
100
AcDbSymbolTableRecord
100
AcDbLinetypeTableRecord
  2
BORDER
 70
     0
  3
Border __ __ . __ __ . __ __ . __ __ . __ __ .
 72
    65
 73
     6
 40
44.45
 49
12.7
 74
     0
 49
-6.349999999999999
 74
     0
 49
12.7
 74
     0
 49
-6.349999999999999
 74
     0
 49
0.0
 74
     0
 49
-6.349999999999999
 74
     0
  0
LTYPE
  5
87
330
5
100
AcDbSymbolTableRecord
100
AcDbLinetypeTableRecord
  2
BORDER2
 70
     0
  3
Border (.5x) __.__.__.__.__.__.__.__.__.__.__.
 72
    65
 73
     6
 40
22.225
 49
6.349999999999999
 74
     0
 49
-3.174999999999999
 74
     0
 49
6.349999999999999
 74
     0
 49
-3.174999999999999
 74
     0
 49
0.0
 74
     0
 49
-3.174999999999999
 74
     0
  0
LTYPE
  5
88
330
5
100
AcDbSymbolTableRecord
100
AcDbLinetypeTableRecord
  2
BORDERX2
 70
     0
  3
Border (2x) ____  ____  .  ____  ____  .  ___
 72
    65
 73
     6
 40
88.9
 49
25.4
 74
     0
 49
-12.7
 74
     0
 49
25.4
 74
     0
 49
-12.7
 74
     0
 49
0.0
 74
     0
 49
-12.7
 74
     0
  0
LTYPE
  5
89
330
5
100
AcDbSymbolTableRecord
100
AcDbLinetypeTableRecord
  2
CENTER
 70
     0
  3
Center ____ _ ____ _ ____ _ ____ _ ____ _ ____
 72
    65
 73
     4
 40
50.8
 49
31.75
 74
     0
 49
-6.349999999999999
 74
     0
 49
6.349999999999999
 74
     0
 49
-6.349999999999999
 74
     0
  0
LTYPE
  5
8A
330
5
100
AcDbSymbolTableRecord
100
AcDbLinetypeTableRecord
  2
CENTER2
 70
     0
  3
Center (.5x) ___ _ ___ _ ___ _ ___ _ ___ _ ___
 72
    65
 73
     4
 40
28.575
 49
19.05
 74
     0
 49
-3.174999999999999
 74
     0
 49
3.174999999999999
 74
     0
 49
-3.174999999999999
 74
     0
  0
LTYPE
  5
8B
330
5
100
AcDbSymbolTableRecord
100
AcDbLinetypeTableRecord
  2
CENTERX2
 70
     0
  3
Center (2x) ________  __  ________  __  _____
 72
    65
 73
     4
 40
101.6
 49
63.5
 74
     0
 49
-12.7
 74
     0
 49
12.7
 74
     0
 49
-12.7
 74
     0
  0
LTYPE
  5
8C
330
5
100
AcDbSymbolTableRecord
100
AcDbLinetypeTableRecord
  2
DASHDOT
 70
     0
  3
Dash dot __ . __ . __ . __ . __ . __ . __ . __
 72
    65
 73
     4
 40
25.4
 49
12.7
 74
     0
 49
-6.349999999999999
 74
     0
 49
0.0
 74
     0
 49
-6.349999999999999
 74
     0
  0
LTYPE
  5
8D
330
5
100
AcDbSymbolTableRecord
100
AcDbLinetypeTableRecord
  2
DASHDOT2
 70
     0
  3
Dash dot (.5x) _._._._._._._._._._._._._._._.
 72
    65
 73
     4
 40
12.7
 49
6.349999999999999
 74
     0
 49
-3.174999999999999
 74
     0
 49
0.0
 74
     0
 49
-3.174999999999999
 74
     0
  0
LTYPE
  5
8E
330
5
100
AcDbSymbolTableRecord
100
AcDbLinetypeTableRecord
  2
DASHDOTX2
 70
     0
  3
Dash dot (2x) ____  .  ____  .  ____  .  ___
 72
    65
 73
     4
 40
50.8
 49
25.4
 74
     0
 49
-12.7
 74
     0
 49
0.0
 74
     0
 49
-12.7
 74
     0
  0
LTYPE
  5
8F
330
5
100
AcDbSymbolTableRecord
100
AcDbLinetypeTableRecord
  2
DASHED2
 70
     0
  3
Dashed (.5x) _ _ _ _ _ _ _ _ _ _ _ _ _ _ _ _ _
 72
    65
 73
     2
 40
9.524999999999998
 49
6.349999999999999
 74
     0
 49
-3.174999999999999
 74
     0
  0
LTYPE
  5
90
330
5
100
AcDbSymbolTableRecord
100
AcDbLinetypeTableRecord
  2
DASHEDX2
 70
     0
  3
Dashed (2x) ____  ____  ____  ____  ____  ___
 72
    65
 73
     2
 40
38.1
 49
25.4
 74
     0
 49
-12.7
 74
     0
  0
LTYPE
  5
91
330
5
100
AcDbSymbolTableRecord
100
AcDbLinetypeTableRecord
  2
DIVIDE
 70
     0
  3
Divide ____ . . ____ . . ____ . . ____ . . ____
 72
    65
 73
     6
 40
31.75
 49
12.7
 74
     0
 49
-6.349999999999999
 74
     0
 49
0.0
 74
     0
 49
-6.349999999999999
 74
     0
 49
0.0
 74
     0
 49
-6.349999999999999
 74
     0
  0
LTYPE
  5
92
330
5
100
AcDbSymbolTableRecord
100
AcDbLinetypeTableRecord
  2
DIVIDE2
 70
     0
  3
Divide (.5x) __..__..__..__..__..__..__..__.._
 72
    65
 73
     6
 40
15.875
 49
6.349999999999999
 74
     0
 49
-3.174999999999999
 74
     0
 49
0.0
 74
     0
 49
-3.174999999999999
 74
     0
 49
0.0
 74
     0
 49
-3.174999999999999
 74
     0
  0
LTYPE
  5
93
330
5
100
AcDbSymbolTableRecord
100
AcDbLinetypeTableRecord
  2
DIVIDEX2
 70
     0
  3
Divide (2x) ________  .  .  ________  .  .  _
 72
    65
 73
     6
 40
63.49999999999999
 49
25.4
 74
     0
 49
-12.7
 74
     0
 49
0.0
 74
     0
 49
-12.7
 74
     0
 49
0.0
 74
     0
 49
-12.7
 74
     0
  0
LTYPE
  5
94
330
5
100
AcDbSymbolTableRecord
100
AcDbLinetypeTableRecord
  2
DOT2
 70
     0
  3
Dot (.5x) .....................................
 72
    65
 73
     2
 40
3.174999999999999
 49
0.0
 74
     0
 49
-3.174999999999999
 74
     0
  0
LTYPE
  5
95
330
5
100
AcDbSymbolTableRecord
100
AcDbLinetypeTableRecord
  2
DOTX2
 70
     0
  3
Dot (2x) .  .  .  .  .  .  .  .  .  .  .  .  . 
 72
    65
 73
     2
 40
12.7
 49
0.0
 74
     0
 49
-12.7
 74
     0
  0
LTYPE
  5
96
330
5
100
AcDbSymbolTableRecord
100
AcDbLinetypeTableRecord
  2
HIDDEN
 70
     0
  3
Hidden __ __ __ __ __ __ __ __ __ __ __ __ __ _
 72
    65
 73
     2
 40
9.524999999999998
 49
6.349999999999999
 74
     0
 49
-3.174999999999999
 74
     0
  0
LTYPE
  5
97
330
5
100
AcDbSymbolTableRecord
100
AcDbLinetypeTableRecord
  2
HIDDEN2
 70
     0
  3
Hidden (.5x) _ _ _ _ _ _ _ _ _ _ _ _ _ _ _ _ _
 72
    65
 73
     2
 40
4.762499999999999
 49
3.174999999999999
 74
     0
 49
-1.587499999999999
 74
     0
  0
LTYPE
  5
98
330
5
100
AcDbSymbolTableRecord
100
AcDbLinetypeTableRecord
  2
HIDDENX2
 70
     0
  3
Hidden (2x) ____ ____ ____ ____ ____ ____ ____
 72
    65
 73
     2
 40
19.05
 49
12.7
 74
     0
 49
-6.349999999999999
 74
     0
  0
LTYPE
  5
99
330
5
100
AcDbSymbolTableRecord
100
AcDbLinetypeTableRecord
  2
PHANTOM
 70
     0
  3
Phantom ______  __  __  ______  __  __  ______
 72
    65
 73
     6
 40
63.5
 49
31.75
 74
     0
 49
-6.349999999999999
 74
     0
 49
6.349999999999999
 74
     0
 49
-6.349999999999999
 74
     0
 49
6.349999999999999
 74
     0
 49
-6.349999999999999
 74
     0
  0
LTYPE
  5
9A
330
5
100
AcDbSymbolTableRecord
100
AcDbLinetypeTableRecord
  2
PHANTOM2
 70
     0
  3
Phantom (.5x) ___ _ _ ___ _ _ ___ _ _ ___ _ _
 72
    65
 73
     6
 40
31.75
 49
15.875
 74
     0
 49
-3.174999999999999
 74
     0
 49
3.174999999999999
 74
     0
 49
-3.174999999999999
 74
     0
 49
3.174999999999999
 74
     0
 49
-3.174999999999999
 74
     0
  0
LTYPE
  5
9B
330
5
100
AcDbSymbolTableRecord
100
AcDbLinetypeTableRecord
  2
PHANTOMX2
 70
     0
  3
Phantom (2x) ____________    ____    ____   _
 72
    65
 73
     6
 40
127.0
 49
63.5
 74
     0
 49
-12.7
 74
     0
 49
12.7
 74
     0
 49
-12.7
 74
     0
 49
12.7
 74
     0
 49
-12.7
 74
     0
  0
LTYPE
  5
9C
330
5
100
AcDbSymbolTableRecord
100
AcDbLinetypeTableRecord
  2
ACAD_ISO02W100
 70
     0
  3
ISO dash __ __ __ __ __ __ __ __ __ __ __ __ __
 72
    65
 73
     2
 40
15.0
 49
12.0
 74
     0
 49
-3.0
 74
     0
  0
LTYPE
  5
9D
330
5
100
AcDbSymbolTableRecord
100
AcDbLinetypeTableRecord
  2
ACAD_ISO03W100
 70
     0
  3
ISO dash space __    __    __    __    __    __
 72
    65
 73
     2
 40
30.0
 49
12.0
 74
     0
 49
-18.0
 74
     0
  0
LTYPE
  5
9E
330
5
100
AcDbSymbolTableRecord
100
AcDbLinetypeTableRecord
  2
ACAD_ISO04W100
 70
     0
  3
ISO long-dash dot ____ . ____ . ____ . ____ . _
 72
    65
 73
     4
 40
30.0
 49
24.0
 74
     0
 49
-3.0
 74
     0
 49
0.0
 74
     0
 49
-3.0
 74
     0
  0
LTYPE
  5
9F
330
5
100
AcDbSymbolTableRecord
100
AcDbLinetypeTableRecord
  2
ACAD_ISO05W100
 70
     0
  3
ISO long-dash double-dot ____ .. ____ .. ____ .
 72
    65
 73
     6
 40
33.0
 49
24.0
 74
     0
 49
-3.0
 74
     0
 49
0.0
 74
     0
 49
-3.0
 74
     0
 49
0.0
 74
     0
 49
-3.0
 74
     0
  0
LTYPE
  5
A0
330
5
100
AcDbSymbolTableRecord
100
AcDbLinetypeTableRecord
  2
ACAD_ISO06W100
 70
     0
  3
ISO long-dash triple-dot ____ ... ____ ... ____
 72
    65
 73
     8
 40
36.0
 49
24.0
 74
     0
 49
-3.0
 74
     0
 49
0.0
 74
     0
 49
-3.0
 74
     0
 49
0.0
 74
     0
 49
-3.0
 74
     0
 49
0.0
 74
     0
 49
-3.0
 74
     0
  0
LTYPE
  5
A1
330
5
100
AcDbSymbolTableRecord
100
AcDbLinetypeTableRecord
  2
ACAD_ISO07W100
 70
     0
  3
ISO dot . . . . . . . . . . . . . . . . . . . .
 72
    65
 73
     2
 40
3.0
 49
0.0
 74
     0
 49
-3.0
 74
     0
  0
LTYPE
  5
A2
330
5
100
AcDbSymbolTableRecord
100
AcDbLinetypeTableRecord
  2
ACAD_ISO08W100
 70
     0
  3
ISO long-dash short-dash ____ __ ____ __ ____ _
 72
    65
 73
     4
 40
36.0
 49
24.0
 74
     0
 49
-3.0
 74
     0
 49
6.0
 74
     0
 49
-3.0
 74
     0
  0
LTYPE
  5
A3
330
5
100
AcDbSymbolTableRecord
100
AcDbLinetypeTableRecord
  2
ACAD_ISO09W100
 70
     0
  3
ISO long-dash double-short-dash ____ __ __ ____
 72
    65
 73
     6
 40
45.0
 49
24.0
 74
     0
 49
-3.0
 74
     0
 49
6.0
 74
     0
 49
-3.0
 74
     0
 49
6.0
 74
     0
 49
-3.0
 74
     0
  0
LTYPE
  5
A4
330
5
100
AcDbSymbolTableRecord
100
AcDbLinetypeTableRecord
  2
ACAD_ISO10W100
 70
     0
  3
ISO dash dot __ . __ . __ . __ . __ . __ . __ .
 72
    65
 73
     4
 40
18.0
 49
12.0
 74
     0
 49
-3.0
 74
     0
 49
0.0
 74
     0
 49
-3.0
 74
     0
  0
LTYPE
  5
A5
330
5
100
AcDbSymbolTableRecord
100
AcDbLinetypeTableRecord
  2
ACAD_ISO11W100
 70
     0
  3
ISO double-dash dot __ __ . __ __ . __ __ . __ 
 72
    65
 73
     6
 40
33.0
 49
12.0
 74
     0
 49
-3.0
 74
     0
 49
12.0
 74
     0
 49
-3.0
 74
     0
 49
0.0
 74
     0
 49
-3.0
 74
     0
  0
LTYPE
  5
A6
330
5
100
AcDbSymbolTableRecord
100
AcDbLinetypeTableRecord
  2
ACAD_ISO12W100
 70
     0
  3
ISO dash double-dot __ . . __ . . __ . . __ . .
 72
    65
 73
     6
 40
21.0
 49
12.0
 74
     0
 49
-3.0
 74
     0
 49
0.0
 74
     0
 49
-3.0
 74
     0
 49
0.0
 74
     0
 49
-3.0
 74
     0
  0
LTYPE
  5
A7
330
5
100
AcDbSymbolTableRecord
100
AcDbLinetypeTableRecord
  2
ACAD_ISO13W100
 70
     0
  3
ISO double-dash double-dot __ __ . . __ __ . . 
 72
    65
 73
     8
 40
36.0
 49
12.0
 74
     0
 49
-3.0
 74
     0
 49
12.0
 74
     0
 49
-3.0
 74
     0
 49
0.0
 74
     0
 49
-3.0
 74
     0
 49
0.0
 74
     0
 49
-3.0
 74
     0
  0
LTYPE
  5
A8
330
5
100
AcDbSymbolTableRecord
100
AcDbLinetypeTableRecord
  2
ACAD_ISO14W100
 70
     0
  3
ISO dash triple-dot __ . . . __ . . . __ . . . 
 72
    65
 73
     8
 40
24.0
 49
12.0
 74
     0
 49
-3.0
 74
     0
 49
0.0
 74
     0
 49
-3.0
 74
     0
 49
0.0
 74
     0
 49
-3.0
 74
     0
 49
0.0
 74
     0
 49
-3.0
 74
     0
  0
LTYPE
  5
A9
330
5
100
AcDbSymbolTableRecord
100
AcDbLinetypeTableRecord
  2
ACAD_ISO15W100
 70
     0
  3
ISO double-dash triple-dot __ __ . . . __ __ . 
 72
    65
 73
    10
 40
39.0
 49
12.0
 74
     0
 49
-3.0
 74
     0
 49
12.0
 74
     0
 49
-3.0
 74
     0
 49
0.0
 74
     0
 49
-3.0
 74
     0
 49
0.0
 74
     0
 49
-3.0
 74
     0
 49
0.0
 74
     0
 49
-3.0
 74
     0
  0
LTYPE
  5
AC
330
5
100
AcDbSymbolTableRecord
100
AcDbLinetypeTableRecord
  2
FENCELINE1
 70
     0
  3
Fenceline circle ----0-----0----0-----0----0---
 72
    65
 73
     4
 40
36.83
 49
6.349999999999999
 74
     0
 49
-2.54
 74
     4
 75
   133
340
AB
 46
2.54
 50
0.0
 44
-2.54
 45
0.0
 49
-2.54
 74
     0
 49
25.4
 74
     0
  0
LTYPE
  5
AD
330
5
100
AcDbSymbolTableRecord
100
AcDbLinetypeTableRecord
  2
FENCELINE2
 70
     0
  3
Fenceline square ----[]-----[]----[]-----[]----
 72
    65
 73
     4
 40
36.83
 49
6.349999999999999
 74
     0
 49
-2.54
 74
     4
 75
   132
340
AB
 46
2.54
 50
0.0
 44
-2.54
 45
0.0
 49
-2.54
 74
     0
 49
25.4
 74
     0
  0
LTYPE
  5
AE
330
5
100
AcDbSymbolTableRecord
100
AcDbLinetypeTableRecord
  2
TRACKS
 70
     0
  3
Tracks -|-|-|-|-|-|-|-|-|-|-|-|-|-|-|-|-|-|-|-|
 72
    65
 73
     2
 40
7.62
 49
3.81
 74
     4
 75
   130
340
AB
 46
6.349999999999999
 50
0.0
 44
0.0
 45
0.0
 49
3.81
 74
     0
  0
LTYPE
  5
AF
330
5
100
AcDbSymbolTableRecord
100
AcDbLinetypeTableRecord
  2
BATTING
 70
     0
  3
Batting SSSSSSSSSSSSSSSSSSSSSSSSSSSSSSSSSSSSSSS
 72
    65
 73
     4
 40
10.16254
 49
0.00254
 74
     0
 49
-2.54
 74
     4
 75
   134
340
AB
 46
2.54
 50
0.0
 44
-2.54
 45
0.0
 49
-5.08
 74
     4
 75
   134
340
AB
 46
2.54
 50
180.0
 44
2.54
 45
0.0
 49
-2.54
 74
     0
  0
LTYPE
  5
B0
330
5
100
AcDbSymbolTableRecord
100
AcDbLinetypeTableRecord
  2
HOT_WATER_SUPPLY
 70
     0
  3
Hot water supply ---- HW ---- HW ---- HW ----
 72
    65
 73
     3
 40
22.86
 49
12.7
 74
     0
 49
-5.08
 74
     2
 75
     0
340
55
 46
2.54
 50
0.0
 44
-2.54
 45
-1.27
  9
HW
 49
-5.08
 74
     0
  0
LTYPE
  5
B1
330
5
100
AcDbSymbolTableRecord
100
AcDbLinetypeTableRecord
  2
GAS_LINE
 70
     0
  3
Gas line ----GAS----GAS----GAS----GAS----GAS---
 72
    65
 73
     3
 40
24.13
 49
12.7
 74
     0
 49
-5.08
 74
     2
 75
     0
340
55
 46
2.54
 50
0.0
 44
-2.54
 45
-1.27
  9
GAS
 49
-6.349999999999999
 74
     0
  0
LTYPE
  5
B2
330
5
100
AcDbSymbolTableRecord
100
AcDbLinetypeTableRecord
  2
ZIGZAG
 70
     0
  3
Zig zag /\/\/\/\/\/\/\/\/\/\/\/\/\/\/\/\/\/\/\/
 72
    65
 73
     4
 40
20.32254
 49
0.00254
 74
     0
 49
-5.08
 74
     4
 75
   131
340
AB
 46
5.08
 50
0.0
 44
-5.08
 45
0.0
 49
-10.16
 74
     4
 75
   131
340
AB
 46
5.08
 50
180.0
 44
5.08
 45
0.0
 49
-5.08
 74
     0
  0
ENDTAB
  0
TABLE
  2
LAYER
  5
2
330
0
100
AcDbSymbolTable
 70
    30
  0
LAYER
  5
54
330
2
100
AcDbSymbolTableRecord
100
AcDbLayerTableRecord
  2
0
 70
     0
 62
     7
  6
Continuous
370
    25
390
F
347
21
348
0
  0
LAYER
  5
B3
330
2
100
AcDbSymbolTableRecord
100
AcDbLayerTableRecord
  2
1
 70
     0
 62
     9
420
 12566463
  6
Continuous
370
    25
390
F
347
21
348
0
  0
LAYER
  5
B5
330
2
100
AcDbSymbolTableRecord
100
AcDbLayerTableRecord
  2
6
 70
     0
 62
     2
420
 16776960
  6
Continuous
370
    25
390
F
347
21
348
0
  0
LAYER
  5
B6
330
2
100
AcDbSymbolTableRecord
100
AcDbLayerTableRecord
  2
AM_6
 70
     0
 62
     2
420
 16776960
  6
Continuous
370
    35
390
F
347
21
348
0
  0
LAYER
  5
C6
330
2
100
AcDbSymbolTableRecord
100
AcDbLayerTableRecord
  2
Sketch Geometry (ISO)
 70
     0
 62
     7
  6
Continuous
370
    25
390
F
347
21
348
0
  0
LAYER
  5
C7
330
2
100
AcDbSymbolTableRecord
100
AcDbLayerTableRecord
  2
Symbol (ISO)
 70
     0
 62
     7
  6
Continuous
370
    25
390
F
347
21
348
0
  0
LAYER
  5
CA
330
2
100
AcDbSymbolTableRecord
100
AcDbLayerTableRecord
  2
Visible (ISO)
 70
     0
 62
     7
  6
Continuous
370
    35
390
F
347
21
348
0
  0
ENDTAB
  0
TABLE
  2
STYLE
  5
3
330
0
100
AcDbSymbolTable
 70
    16
  0
STYLE
  5
55
330
3
100
AcDbSymbolTableRecord
100
AcDbTextStyleTableRecord
  2
Standard
 70
     0
 40
0.0
 41
1.0
 50
0.0
 71
     0
 42
0.2
  3
tahoma.ttf
  4

1001
ACAD
1000
Tahoma
1071
      256
  0
STYLE
  5
5A
330
3
100
AcDbSymbolTableRecord
100
AcDbTextStyleTableRecord
  2
Annotative
 70
     0
 40
0.0
 41
1.0
 50
0.0
 71
     0
 42
0.2
  3
txt
  4

1001
AcadAnnotative
1000
AnnotativeData
1002
{
1070
     1
1070
     1
1002
}
  0
STYLE
  5
AB
330
3
100
AcDbSymbolTableRecord
100
AcDbTextStyleTableRecord
  2

 70
     1
 40
0.0
 41
1.0
 50
0.0
 71
     0
 42
0.2
  3
ltypeshp.shx
  4

  0
STYLE
  5
D0
330
3
100
AcDbSymbolTableRecord
100
AcDbTextStyleTableRecord
  2
Label Text (JIS)
 70
     0
 40
0.0
 41
1.0
 50
0.0
 71
     0
 42
0.2
  3

  4

1001
ACAD
1000
MS PGothic
1071
      256
  0
STYLE
  5
D1
330
3
100
AcDbSymbolTableRecord
100
AcDbTextStyleTableRecord
  2
Note Text (JIS)
 70
     0
 40
0.0
 41
1.0
 50
0.0
 71
     0
 42
0.2
  3

  4

1001
ACAD
1000
MS PGothic
1071
      256
  0
STYLE
  5
D2
330
3
100
AcDbSymbolTableRecord
100
AcDbTextStyleTableRecord
  2
ｽﾀｲﾙ1_35
 70
     0
 40
0.0
 41
1.0
 50
0.0
 71
     0
 42
0.2
  3

  4

1001
ACAD
1000
HGPSoeiKakugothicUB
1071
      256
  0
STYLE
  5
10F
330
3
100
AcDbSymbolTableRecord
100
AcDbTextStyleTableRecord
  2
文字スタイル154
 70
     0
 40
0.0
 41
1.0
 50
0.0
 71
     0
 42
0.2
  3
ISOCP.shx
  4

  0
STYLE
  5
12F
330
3
100
AcDbSymbolTableRecord
100
AcDbTextStyleTableRecord
  2
文字スタイル74
 70
     0
 40
0.0
 41
0.5
 50
0.0
 71
     0
 42
0.2
  3
ISOCP.shx
  4

  0
STYLE
  5
134
330
3
100
AcDbSymbolTableRecord
100
AcDbTextStyleTableRecord
  2
文字スタイル77
 70
     0
 40
0.0
 41
0.8000000119209289
 50
0.0
 71
     0
 42
0.2
  3
ISOCP.shx
  4

  0
STYLE
  5
136
330
3
100
AcDbSymbolTableRecord
100
AcDbTextStyleTableRecord
  2
文字スタイル153
 70
     0
 40
0.0
 41
1.0
 50
0.0
 71
     0
 42
0.2
  3
ISOCP.shx
  4

  0
STYLE
  5
142
330
3
100
AcDbSymbolTableRecord
100
AcDbTextStyleTableRecord
  2
文字スタイル69
 70
     0
 40
0.0
 41
1.0
 50
0.0
 71
     0
 42
0.2
  3
tahoma.ttf
  4

1001
ACAD
1000
Tahoma
1071
      256
  0
STYLE
  5
14D
330
3
100
AcDbSymbolTableRecord
100
AcDbTextStyleTableRecord
  2
文字スタイル144
 70
     0
 40
0.0
 41
0.7031300067901612
 50
0.0
 71
     0
 42
0.2
  3
tahoma.ttf
  4

1001
ACAD
1000
Tahoma
1071
      256
  0
STYLE
  5
170
330
3
100
AcDbSymbolTableRecord
100
AcDbTextStyleTableRecord
  2
文字スタイル124
 70
     0
 40
0.0
 41
1.0
 50
0.0
 71
     0
 42
0.2
  3

  4

1001
ACAD
1000
MS PGothic
1071
      256
  0
STYLE
  5
176
330
3
100
AcDbSymbolTableRecord
100
AcDbTextStyleTableRecord
  2
文字スタイル125
 70
     0
 40
0.0
 41
1.0
 50
0.0
 71
     0
 42
0.2
  3
ISOCP.shx
  4

  0
STYLE
  5
186
330
3
100
AcDbSymbolTableRecord
100
AcDbTextStyleTableRecord
  2
文字スタイル126
 70
     0
 40
0.0
 41
1.0
 50
0.0
 71
     0
 42
0.2
  3

  4

1001
ACAD
1000
MS PGothic
1071
      256
  0
STYLE
  5
1A7
330
3
100
AcDbSymbolTableRecord
100
AcDbTextStyleTableRecord
  2
文字スタイル133
 70
     0
 40
0.0
 41
1.0
 50
0.0
 71
     0
 42
0.2
  3
ISOCP.shx
  4

  0
ENDTAB
  0
TABLE
  2
VIEW
  5
6
330
0
100
AcDbSymbolTable
 70
     0
  0
ENDTAB
  0
TABLE
  2
UCS
  5
7
330
0
100
AcDbSymbolTable
 70
     0
  0
ENDTAB
  0
TABLE
  2
APPID
  5
9
330
0
100
AcDbSymbolTable
 70
     2
  0
APPID
  5
56
330
9
100
AcDbSymbolTableRecord
100
AcDbRegAppTableRecord
  2
ACAD
 70
     0
  0
APPID
  5
5E
330
9
100
AcDbSymbolTableRecord
100
AcDbRegAppTableRecord
  2
AcadAnnotative
 70
     0
  0
ENDTAB
  0
TABLE
  2
DIMSTYLE
  5
A
330
0
100
AcDbSymbolTable
 70
    11
100
AcDbDimStyleTable
 71
     0
  0
DIMSTYLE
105
58
330
A
100
AcDbSymbolTableRecord
100
AcDbDimStyleTableRecord
  2
Standard
 70
     0
340
55
  0
DIMSTYLE
105
59
330
A
100
AcDbSymbolTableRecord
100
AcDbDimStyleTableRecord
  2
Annotative
 70
     0
340
55
1001
AcadAnnotative
1000
AnnotativeData
1002
{
1070
     1
1070
     1
1002
}
  0
DIMSTYLE
105
D3
330
A
100
AcDbSymbolTableRecord
100
AcDbDimStyleTableRecord
  2
Default - Method 1b (JIS)
 70
     0
 41
2.5
 42
0.0
 43
5.999999999999999
 44
3.174999999999999
 45
0.00000001
 46
10.0
 73
     0
 77
     1
 78
     8
 79
     2
140
2.5
143
0.03937
146
1.799999952316284
147
0.8
171
     3
172
     1
176
   256
177
   256
178
   256
271
     2
272
     2
274
     3
284
     8
286
     8
340
D1
371
    -1
372
    -1
  0
DIMSTYLE
105
D4
330
A
100
AcDbSymbolTableRecord
100
AcDbDimStyleTableRecord
  2
Default - Method 1b (JIS)$7
 70
     0
 41
2.5
 42
0.0
 43
5.999999999999999
 44
3.174999999999999
 45
0.00000001
 46
10.0
 73
     0
 77
     1
 78
     8
 79
     2
140
2.5
143
0.03937
146
1.799999952316284
147
0.8
171
     3
172
     1
176
   256
177
   256
178
   256
271
     2
272
     2
274
     3
284
     8
286
     8
340
D1
371
    -1
372
    -1
  0
DIMSTYLE
105
D5
330
A
100
AcDbSymbolTableRecord
100
AcDbDimStyleTableRecord
  2
Default - Method 2 (JIS)
 70
     0
 41
2.5
 42
0.0
 43
5.999999999999999
 44
3.174999999999999
 45
0.00000001
 46
10.0
 77
     1
 78
     8
 79
     2
140
2.5
143
0.03937
146
1.799999952316284
147
0.8
171
     3
172
     1
176
   256
177
   256
178
   256
271
     2
272
     2
274
     3
284
     8
286
     8
340
D1
371
    -1
372
    -1
  0
DIMSTYLE
105
D6
330
A
100
AcDbSymbolTableRecord
100
AcDbDimStyleTableRecord
  2
Default - Method 2 (JIS)$7
 70
     0
 41
2.5
 42
0.0
 43
5.999999999999999
 44
3.174999999999999
 45
0.00000001
 46
10.0
 77
     1
 78
     8
 79
     2
140
2.5
143
0.03937
146
1.799999952316284
147
0.8
171
     3
172
     1
176
   256
177
   256
178
   256
271
     2
272
     2
274
     3
284
     8
286
     8
340
D1
371
    -1
372
    -1
  0
DIMSTYLE
105
D7
330
A
100
AcDbSymbolTableRecord
100
AcDbDimStyleTableRecord
  2
Default (JIS)
 70
     0
 41
2.5
 42
0.0
 43
5.999999999999999
 44
1.0
 45
0.00000001
 46
10.0
 73
     0
 74
     0
 77
     1
 78
     8
 79
     2
140
2.5
143
0.03937
147
0.8
171
     3
172
     1
176
   256
177
   256
178
   256
271
     2
272
     2
274
     3
340
D1
371
    -1
372
    -1
  0
DIMSTYLE
105
D8
330
A
100
AcDbSymbolTableRecord
100
AcDbDimStyleTableRecord
  2
Default (JIS)$7
 70
     0
 41
2.5
 42
0.0
 43
5.999999999999999
 44
1.0
 45
0.00000001
 46
10.0
 73
     0
 74
     0
 77
     1
 78
     8
 79
     2
140
2.5
143
0.03937
147
0.8
171
     3
172
     1
176
   256
177
   256
178
   256
271
     2
272
     2
274
     3
340
D1
371
    -1
372
    -1
  0
DIMSTYLE
105
D9
330
A
100
AcDbSymbolTableRecord
100
AcDbDimStyleTableRecord
  2
Alternate (ISO)
 70
     0
 41
2.5
340
55
  0
DIMSTYLE
105
E5
330
A
100
AcDbSymbolTableRecord
100
AcDbDimStyleTableRecord
  2
Datum (ISO)
 70
     0
 41
2.5
340
55
  0
DIMSTYLE
105
F4
330
A
100
AcDbSymbolTableRecord
100
AcDbDimStyleTableRecord
  2
Large (ISO)
 70
     0
 41
5.0
340
55
  0
ENDTAB
  0
TABLE
  2
BLOCK_RECORD
  5
1
330
0
100
AcDbSymbolTable
 70
    14
  0
BLOCK_RECORD
  5
70
330
1
100
AcDbSymbolTableRecord
100
AcDbBlockTableRecord
  2
*Model_Space
340
73
 70
     0
280
     1
281
     0
  0
BLOCK_RECORD
  5
6C
330
1
100
AcDbSymbolTableRecord
100
AcDbBlockTableRecord
  2
*Paper_Space
340
6F
 70
     0
280
     1
281
     0
  0
BLOCK_RECORD
  5
74
330
1
100
AcDbSymbolTableRecord
100
AcDbBlockTableRecord
  2
*Paper_Space0
340
77
 70
     0
280
     1
281
     0
  0
BLOCK_RECORD
  5
DA
330
1
100
AcDbSymbolTableRecord
100
AcDbBlockTableRecord
  2
DatumFilled45
340
0
 70
     0
280
     1
281
     0
  0
BLOCK_RECORD
  5
E6
330
1
100
AcDbSymbolTableRecord
100
AcDbBlockTableRecord
  2
Filled-1
340
0
 70
     0
280
     1
281
     0
  0
BLOCK_RECORD
  5
F5
330
1
100
AcDbSymbolTableRecord
100
AcDbBlockTableRecord
  2
許容差
340
0
 70
     0
280
     1
281
     0
  0
BLOCK_RECORD
  5
162
330
1
100
AcDbSymbolTableRecord
100
AcDbBlockTableRecord
  2
バルブ仕様表
340
0
 70
     0
280
     1
281
     0
  0
BLOCK_RECORD
  5
17E
330
1
100
AcDbSymbolTableRecord
100
AcDbBlockTableRecord
  2
バルブ開閉R1
340
0
 70
     0
280
     1
281
     0
  0
BLOCK_RECORD
  5
189
330
1
100
AcDbSymbolTableRecord
100
AcDbBlockTableRecord
  2
バルブ開閉R2
340
0
 70
     0
280
     1
281
     0
  0
BLOCK_RECORD
  5
193
330
1
100
AcDbSymbolTableRecord
100
AcDbBlockTableRecord
  2
ｴｰｽﾎﾞｰﾙｿｹｯﾄ・本体注釈①
340
0
 70
     0
280
     1
281
     0
  0
BLOCK_RECORD
  5
197
330
1
100
AcDbSymbolTableRecord
100
AcDbBlockTableRecord
  2
バルブ仕様書①
340
0
 70
     0
280
     1
281
     0
  0
BLOCK_RECORD
  5
1A9
330
1
100
AcDbSymbolTableRecord
100
AcDbBlockTableRecord
  2
ストッパー加工注釈
340
0
 70
     0
280
     1
281
     0
  0
BLOCK_RECORD
  5
1AD
330
1
100
AcDbSymbolTableRecord
100
AcDbBlockTableRecord
  2
三方弁説明A
340
0
 70
     0
280
     1
281
     0
  0
BLOCK_RECORD
  5
1B1
330
1
100
AcDbSymbolTableRecord
100
AcDbBlockTableRecord
  2
三方弁説明B
340
0
 70
     0
280
     1
281
     0
  0
BLOCK_RECORD
  5
1B5
330
1
100
AcDbSymbolTableRecord
100
AcDbBlockTableRecord
  2
三方弁説明C
340
0
 70
     0
280
     1
281
     0
  0
BLOCK_RECORD
  5
1B9
330
1
100
AcDbSymbolTableRecord
100
AcDbBlockTableRecord
  2
三方弁流れ方向
340
0
 70
     0
280
     1
281
     0
  0
ENDTAB
  0
ENDSEC
  0
SECTION
  2
BLOCKS
  0
BLOCK
  5
71
330
70
100
AcDbEntity
  8
0
100
AcDbBlockBegin
  2
*Model_Space
 70
     0
 10
0.0
 20
0.0
 30
0.0
  3
*Model_Space
  1

  0
ENDBLK
  5
72
330
70
100
AcDbEntity
  8
0
100
AcDbBlockEnd
  0
BLOCK
  5
6D
330
6C
100
AcDbEntity
 67
     1
  8
0
100
AcDbBlockBegin
  2
*Paper_Space
 70
     0
 10
0.0
 20
0.0
 30
0.0
  3
*Paper_Space
  1

  0
ENDBLK
  5
6E
330
6C
100
AcDbEntity
 67
     1
  8
0
100
AcDbBlockEnd
  0
BLOCK
  5
75
330
74
100
AcDbEntity
 67
     1
  8
0
100
AcDbBlockBegin
  2
*Paper_Space0
 70
     0
 10
0.0
 20
0.0
 30
0.0
  3
*Paper_Space0
  1

  0
ENDBLK
  5
76
330
74
100
AcDbEntity
 67
     1
  8
0
100
AcDbBlockEnd
  0
BLOCK
  5
DB
330
DA
100
AcDbEntity
  8
0
100
AcDbBlockBegin
  2
DatumFilled45
 70
     0
 10
0.0
 20
0.0
 30
0.0
  3
DatumFilled45
  1

  0
POLYLINE
  5
DD
330
DA
100
AcDbEntity
  8
0
 62
     0
100
AcDb2dPolyline
 66
     1
 10
0.0
 20
0.0
 30
0.0
 70
   128
  0
VERTEX
  5
DE
330
DD
100
AcDbEntity
  8
0
 62
     0
100
AcDbVertex
100
AcDb2dVertex
 10
0.0
 20
1.0
 30
0.0
  0
VERTEX
  5
DF
330
DD
100
AcDbEntity
  8
0
 62
     0
100
AcDbVertex
100
AcDb2dVertex
 10
0.0
 20
-1.0
 30
0.0
  0
VERTEX
  5
E1
330
DD
100
AcDbEntity
  8
0
 62
     0
100
AcDbVertex
100
AcDb2dVertex
 10
-1.0
 20
0.0
 30
0.0
  0
VERTEX
  5
E2
330
DD
100
AcDbEntity
  8
0
 62
     0
100
AcDbVertex
100
AcDb2dVertex
 10
0.0
 20
1.0
 30
0.0
  0
SEQEND
  5
E0
330
DD
100
AcDbEntity
  8
0
 62
     0
  0
SOLID
  5
E4
330
DA
100
AcDbEntity
  8
0
 62
     0
100
AcDbTrace
 10
0.0
 20
1.0
 30
0.0
 11
0.0
 21
-1.0
 31
0.0
 12
-1.0
 22
0.0
 32
0.0
 13
0.0
 23
1.0
 33
0.0
  0
ENDBLK
  5
DC
330
DA
100
AcDbEntity
  8
0
100
AcDbBlockEnd
  0
BLOCK
  5
E7
330
E6
100
AcDbEntity
  8
0
100
AcDbBlockBegin
  2
Filled-1
 70
     0
 10
0.0
 20
0.0
 30
0.0
  3
Filled-1
  1

  0
LINE
  5
E9
330
E6
100
AcDbEntity
  8
0
 62
     0
100
AcDbLine
 10
-1.0
 20
0.0
 30
0.0
 11
0.0
 21
0.0
 31
0.0
  0
POLYLINE
  5
EA
330
E6
100
AcDbEntity
  8
0
 62
     0
100
AcDb2dPolyline
 66
     1
 10
0.0
 20
0.0
 30
0.0
 70
   128
  0
VERTEX
  5
EB
330
EA
100
AcDbEntity
  8
0
 62
     0
100
AcDbVertex
100
AcDb2dVertex
 10
-1.0
 20
-0.1
 30
0.0
  0
VERTEX
  5
EC
330
EA
100
AcDbEntity
  8
0
 62
     0
100
AcDbVertex
100
AcDb2dVertex
 10
0.0
 20
0.0
 30
0.0
  0
VERTEX
  5
EE
330
EA
100
AcDbEntity
  8
0
 62
     0
100
AcDbVertex
100
AcDb2dVertex
 10
-1.0
 20
0.1
 30
0.0
  0
VERTEX
  5
EF
330
EA
100
AcDbEntity
  8
0
 62
     0
100
AcDbVertex
100
AcDb2dVertex
 10
-1.0
 20
-0.1
 30
0.0
  0
SEQEND
  5
ED
330
EA
100
AcDbEntity
  8
0
 62
     0
  0
SOLID
  5
F0
330
E6
100
AcDbEntity
  8
0
 62
     0
100
AcDbTrace
 10
-1.0
 20
-0.1
 30
0.0
 11
0.0
 21
0.0
 31
0.0
 12
-1.0
 22
0.1
 32
0.0
 13
-1.0
 23
-0.1
 33
0.0
  0
LINE
  5
F1
330
E6
100
AcDbEntity
  8
0
 62
     0
100
AcDbLine
 10
-1.0
 20
-0.1
 30
0.0
 11
0.0
 21
0.0
 31
0.0
  0
LINE
  5
F2
330
E6
100
AcDbEntity
  8
0
 62
     0
100
AcDbLine
 10
0.0
 20
0.0
 30
0.0
 11
-1.0
 21
0.1
 31
0.0
  0
LINE
  5
F3
330
E6
100
AcDbEntity
  8
0
 62
     0
100
AcDbLine
 10
-1.0
 20
0.1
 30
0.0
 11
-1.0
 21
-0.1
 31
0.0
  0
ENDBLK
  5
E8
330
E6
100
AcDbEntity
  8
0
100
AcDbBlockEnd
  0
BLOCK
  5
F6
330
F5
100
AcDbEntity
  8
0
100
AcDbBlockBegin
  2
許容差
 70
     0
 10
0.0
 20
0.0
 30
0.0
  3
許容差
  1

  0
LINE
  5
F8
330
F5
100
AcDbEntity
  8
1
  6
Continuous
 62
     7
370
    25
100
AcDbLine
 10
-51.66713443007161
 20
-23.86585254105029
 30
0.0
 11
0.0
 21
-23.86585254105029
 31
0.0
  0
LINE
  5
F9
330
F5
100
AcDbEntity
  8
1
  6
Continuous
 62
     7
370
    25
100
AcDbLine
 10
0.0
 20
-23.86585254105029
 30
0.0
 11
0.0
 21
0.0
 31
0.0
  0
LINE
  5
FA
330
F5
100
AcDbEntity
  8
1
  6
Continuous
 62
     7
370
    25
100
AcDbLine
 10
0.0
 20
0.0
 30
0.0
 11
-51.66713443007161
 21
0.0
 31
0.0
  0
LINE
  5
FB
330
F5
100
AcDbEntity
  8
1
  6
Continuous
 62
     7
370
    25
100
AcDbLine
 10
-51.66713443007161
 20
0.0
 30
0.0
 11
-51.66713443007161
 21
-23.86585254105029
 31
0.0
  0
LINE
  5
FC
330
F5
100
AcDbEntity
  8
6
  6
Continuous
 62
     7
370
    25
100
AcDbLine
 10
0.0
 20
-20.36585254104949
 30
0.0
 11
-51.66713443007298
 21
-20.36585254104985
 31
0.0
  0
LINE
  5
FD
330
F5
100
AcDbEntity
  8
6
  6
Continuous
 62
     7
370
    25
100
AcDbLine
 10
0.0
 20
-16.86585254104663
 30
0.0
 11
-51.66713443007161
 21
-16.86585254104663
 31
0.0
  0
LINE
  5
FE
330
F5
100
AcDbEntity
  8
6
  6
Continuous
 62
     7
370
    25
100
AcDbLine
 10
0.0
 20
-13.36585254105678
 30
0.0
 11
-51.66713443007298
 21
-13.36585254105802
 31
0.0
  0
LINE
  5
FF
330
F5
100
AcDbEntity
  8
6
  6
Continuous
 62
     7
370
    25
100
AcDbLine
 10
0.0
 20
-9.865852541056767
 30
0.0
 11
-51.66713443007161
 21
-9.865852541056767
 31
0.0
  0
LINE
  5
100
330
F5
100
AcDbEntity
  8
6
  6
Continuous
 62
     7
370
    25
100
AcDbLine
 10
-4.616227731726674
 20
-23.86585254105029
 30
0.0
 11
-4.616227731726212
 21
-5.464305006752354
 31
0.0
  0
LINE
  5
101
330
F5
100
AcDbEntity
  8
6
  6
Continuous
 62
     7
370
    25
100
AcDbLine
 10
-13.84868319517728
 20
-23.86585254105075
 30
0.0
 11
-13.84868319517682
 21
-5.464305006752816
 31
0.0
  0
LINE
  5
102
330
F5
100
AcDbEntity
  8
6
  6
Continuous
 62
     7
370
    25
100
AcDbLine
 10
-9.232455463451998
 20
-23.86585254105075
 30
0.0
 11
-9.232455463451536
 21
-5.464305006752816
 31
0.0
  0
LINE
  5
103
330
F5
100
AcDbEntity
  8
6
  6
Continuous
 62
     7
370
    25
100
AcDbLine
 10
-18.46491092690303
 20
-23.86585254104951
 30
0.0
 11
-18.46491092690257
 21
-5.464305006751573
 31
0.0
  0
LINE
  5
104
330
F5
100
AcDbEntity
  8
6
  6
Continuous
 62
     7
370
    25
100
AcDbLine
 10
-23.0811386586279
 20
-23.86585254105075
 30
0.0
 11
-23.08113865862744
 21
-5.464305006752816
 31
0.0
  0
LINE
  5
105
330
F5
100
AcDbEntity
  8
6
  6
Continuous
 62
     7
370
    25
100
AcDbLine
 10
-27.69736639035319
 20
-23.86585254105075
 30
0.0
 11
-27.69736639035273
 21
-5.464305006752816
 31
0.0
  0
LINE
  5
106
330
F5
100
AcDbEntity
  8
6
  6
Continuous
 62
     7
370
    25
100
AcDbLine
 10
-32.31359412207805
 20
-23.86585254104951
 30
0.0
 11
-32.31359412207766
 21
-5.464305006752354
 31
0.0
  0
LINE
  5
107
330
F5
100
AcDbEntity
  8
1
  6
Continuous
 62
     7
370
    25
100
AcDbLine
 10
-36.92982185380334
 20
-23.86585254104951
 30
0.0
 11
-36.92982185380288
 21
-3.118521831198464
 31
0.0
  0
LINE
  5
108
330
F5
100
AcDbEntity
  8
1
  6
Continuous
 62
     7
370
    25
100
AcDbLine
 10
0.0
 20
-5.464305006752354
 30
0.0
 11
-51.66713443007161
 21
-5.464305006752354
 31
0.0
  0
LINE
  5
109
330
F5
100
AcDbEntity
  8
6
  6
Continuous
 62
     7
370
    25
100
AcDbLine
 10
-45.55750842881166
 20
-23.86585254104951
 30
0.0
 11
-45.55750842881121
 21
-5.464305006752354
 31
0.0
  0
LINE
  5
10A
330
F5
100
AcDbEntity
  8
1
  6
Continuous
 62
     7
370
    25
100
AcDbLine
 10
-51.66713443007161
 20
-3.118521831198464
 30
0.0
 11
0.0
 21
-3.118521831198464
 31
0.0
  0
MTEXT
  5
10B
330
F5
100
AcDbEntity
  8
6
 62
     7
100
AcDbMText
 10
-36.81060597032285
 20
-12.59117800523402
 30
0.0
 40
1.25
 41
0.0
 46
0.0
 71
     7
 72
     1
  1
\fAIGDT|b0|i0;\W0.80;\H1.2500;`\fISOCP|b0|i0;\W0.80;\H1.2500;0.05
 73
     2
 44
1.0
  0
MTEXT
  5
10D
330
F5
100
AcDbEntity
  8
6
 62
     7
100
AcDbMText
 10
-36.44022161292199
 20
-16.07925905417527
 30
0.0
 40
1.25
 41
0.0
 46
0.0
 71
     7
 72
     1
  1
\fAIGDT|b0|i0;\H1.2500;`\fISOCP|b0|i0;\H1.2500;0.1
 73
     2
 44
1.0
  0
MTEXT
  5
10E
330
F5
100
AcDbEntity
  8
6
 62
     7
100
AcDbMText
 10
-36.44022161292199
 20
-19.57925905417529
 30
0.0
 40
1.25
 41
0.0
 46
0.0
 71
     7
 72
     1
  1
\fAIGDT|b0|i0;\H1.2500;`\fISOCP|b0|i0;\H1.2500;0.2
 73
     2
 44
1.0
  0
TEXT
  5
110
330
F5
100
AcDbEntity
  8
6
 62
     7
100
AcDbText
 10
-36.60250576079687
 20
-24.08384699406547
 30
0.0
 40
5.0
  1
-
  7
文字スタイル154
100
AcDbText
  0
MTEXT
  5
113
330
F5
100
AcDbEntity
  8
6
 62
     7
100
AcDbMText
 10
-31.82399388119666
 20
-23.07925905417527
 30
0.0
 40
1.25
 41
0.0
 46
0.0
 71
     7
 72
     1
  1
\fAIGDT|b0|i0;\H1.2500;`\fISOCP|b0|i0;\H1.2500;0.5
 73
     2
 44
1.0
  0
MTEXT
  5
114
330
F5
100
AcDbEntity
  8
6
 62
     7
100
AcDbMText
 10
-31.82399388119666
 20
-19.57925905417529
 30
0.0
 40
1.25
 41
0.0
 46
0.0
 71
     7
 72
     1
  1
\fAIGDT|b0|i0;\H1.2500;`\fISOCP|b0|i0;\H1.2500;0.3
 73
     2
 44
1.0
  0
MTEXT
  5
115
330
F5
100
AcDbEntity
  8
6
 62
     7
100
AcDbMText
 10
-31.82399388119666
 20
-16.07925905417527
 30
0.0
 40
1.25
 41
0.0
 46
0.0
 71
     7
 72
     1
  1
\fAIGDT|b0|i0;\H1.2500;`\fISOCP|b0|i0;\H1.2500;0.1
 73
     2
 44
1.0
  0
MTEXT
  5
116
330
F5
100
AcDbEntity
  8
6
 62
     7
100
AcDbMText
 10
-31.82399388119666
 20
-12.57925905417526
 30
0.0
 40
1.25
 41
0.0
 46
0.0
 71
     7
 72
     1
  1
\fAIGDT|b0|i0;\W0.80;\H1.2500;`\fISOCP|b0|i0;\W0.80;\H1.2500;0.05
 73
     2
 44
1.0
  0
MTEXT
  5
117
330
F5
100
AcDbEntity
  8
6
 62
     7
100
AcDbMText
 10
-27.20776614947137
 20
-12.57925905417526
 30
0.0
 40
1.25
 41
0.0
 46
0.0
 71
     7
 72
     1
  1
\fAIGDT|b0|i0;\H1.2500;`\fISOCP|b0|i0;\H1.2500;0.1
 73
     2
 44
1.0
  0
MTEXT
  5
118
330
F5
100
AcDbEntity
  8
6
 62
     7
100
AcDbMText
 10
-27.20776614947137
 20
-16.07925905417527
 30
0.0
 40
1.25
 41
0.0
 46
0.0
 71
     7
 72
     1
  1
\fAIGDT|b0|i0;\H1.2500;`\fISOCP|b0|i0;\H1.2500;0.2
 73
     2
 44
1.0
  0
MTEXT
  5
119
330
F5
100
AcDbEntity
  8
6
 62
     7
100
AcDbMText
 10
-27.20776614947137
 20
-19.57925905417529
 30
0.0
 40
1.25
 41
0.0
 46
0.0
 71
     7
 72
     1
  1
\fAIGDT|b0|i0;\H1.2500;`\fISOCP|b0|i0;\H1.2500;0.5
 73
     2
 44
1.0
  0
MTEXT
  5
11A
330
F5
100
AcDbEntity
  8
6
 62
     7
100
AcDbMText
 10
-26.40217881270058
 20
-23.09117800523403
 30
0.0
 40
1.25
 41
0.0
 46
0.0
 71
     7
 72
     1
  1
\fAIGDT|b0|i0;\H1.2500;`\fISOCP|b0|i0;\H1.2500;1
 73
     2
 44
1.0
  0
MTEXT
  5
11B
330
F5
100
AcDbEntity
  8
6
 62
     7
100
AcDbMText
 10
-22.59153841774605
 20
-12.57925905417526
 30
0.0
 40
1.25
 41
0.0
 46
0.0
 71
     7
 72
     1
  1
\fAIGDT|b0|i0;\W0.80;\H1.2500;`\fISOCP|b0|i0;\W0.80;\H1.2500;0.15
 73
     2
 44
1.0
  0
MTEXT
  5
11C
330
F5
100
AcDbEntity
  8
6
 62
     7
100
AcDbMText
 10
-22.59153841774605
 20
-16.07925905417527
 30
0.0
 40
1.25
 41
0.0
 46
0.0
 71
     7
 72
     1
  1
\fAIGDT|b0|i0;\H1.2500;`\fISOCP|b0|i0;\H1.2500;0.3
 73
     2
 44
1.0
  0
MTEXT
  5
11D
330
F5
100
AcDbEntity
  8
6
 62
     7
100
AcDbMText
 10
-22.59153841774605
 20
-19.57925905417529
 30
0.0
 40
1.25
 41
0.0
 46
0.0
 71
     7
 72
     1
  1
\fAIGDT|b0|i0;\H1.2500;`\fISOCP|b0|i0;\H1.2500;0.8
 73
     2
 44
1.0
  0
MTEXT
  5
11E
330
F5
100
AcDbEntity
  8
6
 62
     7
100
AcDbMText
 10
-22.59153841774605
 20
-23.07925905417527
 30
0.0
 40
1.25
 41
0.0
 46
0.0
 71
     7
 72
     1
  1
\fAIGDT|b0|i0;\H1.2500;`\fISOCP|b0|i0;\H1.2500;1.5
 73
     2
 44
1.0
  0
MTEXT
  5
11F
330
F5
100
AcDbEntity
  8
6
 62
     7
100
AcDbMText
 10
-17.97531068602076
 20
-12.57925905417526
 30
0.0
 40
1.25
 41
0.0
 46
0.0
 71
     7
 72
     1
  1
\fAIGDT|b0|i0;\H1.2500;`\fISOCP|b0|i0;\H1.2500;0.2
 73
     2
 44
1.0
  0
MTEXT
  5
120
330
F5
100
AcDbEntity
  8
6
 62
     7
100
AcDbMText
 10
-17.97531068602076
 20
-16.07925905417527
 30
0.0
 40
1.25
 41
0.0
 46
0.0
 71
     7
 72
     1
  1
\fAIGDT|b0|i0;\H1.2500;`\fISOCP|b0|i0;\H1.2500;0.5
 73
     2
 44
1.0
  0
MTEXT
  5
121
330
F5
100
AcDbEntity
  8
6
 62
     7
100
AcDbMText
 10
-17.97531068602076
 20
-19.57925905417529
 30
0.0
 40
1.25
 41
0.0
 46
0.0
 71
     7
 72
     1
  1
\fAIGDT|b0|i0;\H1.2500;`\fISOCP|b0|i0;\H1.2500;1.2
 73
     2
 44
1.0
  0
MTEXT
  5
122
330
F5
100
AcDbEntity
  8
6
 62
     7
100
AcDbMText
 10
-17.97531068602076
 20
-23.07925905417527
 30
0.0
 40
1.25
 41
0.0
 46
0.0
 71
     7
 72
     1
  1
\fAIGDT|b0|i0;\H1.2500;`\fISOCP|b0|i0;\H1.2500;2.5
 73
     2
 44
1.0
  0
MTEXT
  5
123
330
F5
100
AcDbEntity
  8
6
 62
     7
100
AcDbMText
 10
-13.35908295429547
 20
-12.57925905417526
 30
0.0
 40
1.25
 41
0.0
 46
0.0
 71
     7
 72
     1
  1
\fAIGDT|b0|i0;\H1.2500;`\fISOCP|b0|i0;\H1.2500;0.3
 73
     2
 44
1.0
  0
MTEXT
  5
124
330
F5
100
AcDbEntity
  8
6
 62
     7
100
AcDbMText
 10
-13.35908295429547
 20
-16.07925905417527
 30
0.0
 40
1.25
 41
0.0
 46
0.0
 71
     7
 72
     1
  1
\fAIGDT|b0|i0;\H1.2500;`\fISOCP|b0|i0;\H1.2500;0.8
 73
     2
 44
1.0
  0
MTEXT
  5
125
330
F5
100
AcDbEntity
  8
6
 62
     7
100
AcDbMText
 10
-12.56499245203539
 20
-19.57925905417529
 30
0.0
 40
1.25
 41
0.0
 46
0.0
 71
     7
 72
     1
  1
\fAIGDT|b0|i0;\H1.2500;`\fISOCP|b0|i0;\H1.2500;2
 73
     2
 44
1.0
  0
MTEXT
  5
126
330
F5
100
AcDbEntity
  8
6
 62
     7
100
AcDbMText
 10
-12.56499245203539
 20
-23.09117800523403
 30
0.0
 40
1.25
 41
0.0
 46
0.0
 71
     7
 72
     1
  1
\fAIGDT|b0|i0;\H1.2500;`\fISOCP|b0|i0;\H1.2500;4
 73
     2
 44
1.0
  0
MTEXT
  5
127
330
F5
100
AcDbEntity
  8
6
 62
     7
100
AcDbMText
 10
-8.742855222570149
 20
-12.57925905417526
 30
0.0
 40
1.25
 41
0.0
 46
0.0
 71
     7
 72
     1
  1
\fAIGDT|b0|i0;\H1.2500;`\fISOCP|b0|i0;\H1.2500;0.5
 73
     2
 44
1.0
  0
MTEXT
  5
128
330
F5
100
AcDbEntity
  8
6
 62
     7
100
AcDbMText
 10
-8.742855222570149
 20
-16.07925905417527
 30
0.0
 40
1.25
 41
0.0
 46
0.0
 71
     7
 72
     1
  1
\fAIGDT|b0|i0;\H1.2500;`\fISOCP|b0|i0;\H1.2500;1.2
 73
     2
 44
1.0
  0
MTEXT
  5
129
330
F5
100
AcDbEntity
  8
6
 62
     7
100
AcDbMText
 10
-7.948764720310066
 20
-19.57925905417529
 30
0.0
 40
1.25
 41
0.0
 46
0.0
 71
     7
 72
     1
  1
\fAIGDT|b0|i0;\H1.2500;`\fISOCP|b0|i0;\H1.2500;3
 73
     2
 44
1.0
  0
MTEXT
  5
12A
330
F5
100
AcDbEntity
  8
6
 62
     7
100
AcDbMText
 10
-7.948764720310066
 20
-23.07925905417527
 30
0.0
 40
1.25
 41
0.0
 46
0.0
 71
     7
 72
     1
  1
\fAIGDT|b0|i0;\H1.2500;`\fISOCP|b0|i0;\H1.2500;6
 73
     2
 44
1.0
  0
TEXT
  5
12B
330
F5
100
AcDbEntity
  8
6
 62
     7
100
AcDbText
 10
-4.369788384236166
 20
-13.62049392307749
 30
0.0
 40
5.0
  1
-
 41
1.415104540911587
  7
文字スタイル154
 72
     5
 11
-0.4782508967292998
 21
-13.62049392307749
 31
0.0
100
AcDbText
  0
MTEXT
  5
12C
330
F5
100
AcDbEntity
  8
6
 62
     7
100
AcDbMText
 10
-2.579463550682987
 20
-16.07925905417527
 30
0.0
 40
1.25
 41
0.0
 46
0.0
 71
     8
 72
     1
  1
\fAIGDT|b0|i0;\H1.2500;`\fISOCP|b0|i0;\H1.2500;2
 73
     2
 44
1.0
  0
MTEXT
  5
12D
330
F5
100
AcDbEntity
  8
6
 62
     7
100
AcDbMText
 10
-3.532372386453879
 20
-19.59117800523405
 30
0.0
 40
1.25
 41
0.0
 46
0.0
 71
     7
 72
     1
  1
\fAIGDT|b0|i0;\H1.2500;`\fISOCP|b0|i0;\H1.2500;4
 73
     2
 44
1.0
  0
MTEXT
  5
12E
330
F5
100
AcDbEntity
  8
6
 62
     7
100
AcDbMText
 10
-3.532372192238213
 20
-23.07925905417527
 30
0.0
 40
1.25
 41
0.0
 46
0.0
 71
     7
 72
     1
  1
\fAIGDT|b0|i0;\H1.2500;`\fISOCP|b0|i0;\H1.2500;8
 73
     2
 44
1.0
  0
TEXT
  5
130
330
F5
100
AcDbEntity
  8
6
 62
     7
100
AcDbText
 10
-2.130444153016632
 20
-8.822556449203879
 30
0.0
 40
1.25
  1
4000
 41
0.5
  7
文字スタイル74
100
AcDbText
  0
TEXT
  5
131
330
F5
100
AcDbEntity
  8
6
 62
     7
100
AcDbText
 10
-6.78318767850552
 20
-8.822556449203879
 30
0.0
 40
1.25
  1
2000
 41
0.5
  7
文字スタイル74
100
AcDbText
  0
TEXT
  5
132
330
F5
100
AcDbEntity
  8
6
 62
     7
100
AcDbText
 10
-11.43593120399444
 20
-8.822556449203879
 30
0.0
 40
1.25
  1
1000
 41
0.5
  7
文字スタイル74
100
AcDbText
  0
TEXT
  5
133
330
F5
100
AcDbEntity
  8
6
 62
     7
100
AcDbText
 10
-15.72517906670867
 20
-8.822556449203879
 30
0.0
 40
1.25
  1
400
 41
0.5
  7
文字スタイル74
100
AcDbText
  0
TEXT
  5
135
330
F5
100
AcDbEntity
  8
6
 62
     7
100
AcDbText
 10
-20.5233209310019
 20
-8.822556449203879
 30
0.0
 40
1.25
  1
120
 41
0.7999999523162842
  7
文字スタイル77
100
AcDbText
  0
TEXT
  5
137
330
F5
100
AcDbEntity
  8
6
 62
     7
100
AcDbText
 10
-24.95796694828435
 20
-8.822556449203879
 30
0.0
 40
1.25
  1
30
 41
1.244508053920987
  7
文字スタイル153
 72
     5
 11
-23.01219820453092
 21
-8.822556449203879
 31
0.0
100
AcDbText
  0
TEXT
  5
138
330
F5
100
AcDbEntity
  8
6
 62
     7
100
AcDbText
 10
-28.88371933245988
 20
-8.822556449203879
 30
0.0
 40
1.25
  1
6
 41
1.29803088880728
  7
文字スタイル153
 72
     5
 11
-27.91083496058317
 21
-8.822556449203879
 31
0.0
100
AcDbText
  0
TEXT
  5
139
330
F5
100
AcDbEntity
  8
6
 62
     7
100
AcDbText
 10
-33.50670450149654
 20
-8.822556449203879
 30
0.0
 40
1.25
  1
3
 41
1.315994915119492
  7
文字スタイル153
 72
     5
 11
-32.53382012961982
 21
-8.822556449203879
 31
0.0
100
AcDbText
  0
TEXT
  5
13A
330
F5
100
AcDbEntity
  8
6
 62
     7
100
AcDbText
 10
-28.95641850186202
 20
-7.084943372489576
 30
0.0
 40
1.25
  1
3
 41
1.315994915119492
  7
文字スタイル153
 72
     5
 11
-27.9835341299853
 21
-7.084943372489576
 31
0.0
100
AcDbText
  0
TEXT
  5
13B
330
F5
100
AcDbEntity
  8
6
 62
     7
100
AcDbText
 10
-24.44907313094138
 20
-7.084943372489576
 30
0.0
 40
1.25
  1
6
 41
1.29803088880728
  7
文字スタイル153
 72
     5
 11
-23.47618875906466
 21
-7.084943372489576
 31
0.0
100
AcDbText
  0
TEXT
  5
13C
330
F5
100
AcDbEntity
  8
6
 62
     7
100
AcDbText
 10
-20.15982526822718
 20
-7.084943372489576
 30
0.0
 40
1.25
  1
30
 41
0.7999999523162842
  7
文字スタイル77
100
AcDbText
  0
TEXT
  5
13D
330
F5
100
AcDbEntity
  8
6
 62
     7
100
AcDbText
 10
-15.72517906670867
 20
-7.084943372489576
 30
0.0
 40
1.25
  1
120
 41
0.5
  7
文字スタイル74
100
AcDbText
  0
TEXT
  5
13E
330
F5
100
AcDbEntity
  8
6
 62
     7
100
AcDbText
 10
-11.29053304942619
 20
-7.084943372489576
 30
0.0
 40
1.25
  1
400
 41
0.5
  7
文字スタイル74
100
AcDbText
  0
TEXT
  5
13F
330
F5
100
AcDbEntity
  8
6
 62
     7
100
AcDbText
 10
-6.78318767850552
 20
-7.084943372489576
 30
0.0
 40
1.25
  1
1000
 41
0.5
  7
文字スタイル74
100
AcDbText
  0
TEXT
  5
140
330
F5
100
AcDbEntity
  8
6
 62
     7
100
AcDbText
 10
-2.203143322418803
 20
-7.084943372489576
 30
0.0
 40
1.25
  1
2000
 41
0.5
  7
文字スタイル74
100
AcDbText
  0
TEXT
  5
141
330
F5
100
AcDbEntity
  8
6
 62
     7
100
AcDbText
 10
-33.82725935132136
 20
-7.084943372488687
 30
0.0
 40
1.25
  1
0.5
 41
0.5
  7
文字スタイル74
100
AcDbText
  0
TEXT
  5
143
330
F5
100
AcDbEntity
  8
6
 62
     7
100
AcDbText
 10
-50.33159609932706
 20
-8.822556449203879
 30
0.0
 40
1.25
  1
指示
  7
文字スタイル69
 72
     1
 11
-48.61232142944142
 21
-8.822556449203879
 31
0.0
100
AcDbText
  0
TEXT
  5
144
330
F5
100
AcDbEntity
  8
6
 62
     7
100
AcDbText
 10
-42.76649229347249
 20
-12.17900373018512
 30
0.0
 40
1.25
  1
精級
  7
文字スタイル69
 72
     1
 11
-41.04721762358686
 21
-12.32255644920389
 31
0.0
100
AcDbText
 73
     1
  0
TEXT
  5
145
330
F5
100
AcDbEntity
  8
6
 62
     7
100
AcDbText
 10
-42.76649229347249
 20
-15.6790037301851
 30
0.0
 40
1.25
  1
中級
  7
文字スタイル69
 72
     1
 11
-41.04721762358686
 21
-15.82255644920387
 31
0.0
100
AcDbText
 73
     1
  0
TEXT
  5
146
330
F5
100
AcDbEntity
  8
6
 62
     7
100
AcDbText
 10
-42.76649229347249
 20
-19.17900373018511
 30
0.0
 40
1.25
  1
粗級
  7
文字スタイル69
 72
     1
 11
-41.04721762358686
 21
-19.32255644920388
 31
0.0
100
AcDbText
 73
     1
  0
TEXT
  5
147
330
F5
100
AcDbEntity
  8
6
 62
     7
100
AcDbText
 10
-48.87287911015231
 20
-22.4475564492039
 30
0.0
 40
1.25
  1
v
  7
文字スタイル153
 72
     1
 11
-48.43537911015231
 21
-22.8225564492039
 31
0.0
100
AcDbText
 73
     1
  0
TEXT
  5
148
330
F5
100
AcDbEntity
  8
6
 62
     7
100
AcDbText
 10
-43.62612962841531
 20
-22.96998733660555
 30
0.0
 40
1.25
  1
極粗級
  7
文字スタイル69
 72
     1
 11
-41.04721762358686
 21
-23.11354005562432
 31
0.0
100
AcDbText
 73
     1
  0
TEXT
  5
149
330
F5
100
AcDbEntity
  8
6
 62
     7
100
AcDbText
 10
-48.78772680596004
 20
-18.94755644920389
 30
0.0
 40
1.25
  1
c
  7
文字スタイル153
 72
     1
 11
-48.43537911015231
 21
-19.32255644920388
 31
0.0
100
AcDbText
 73
     1
  0
TEXT
  5
14A
330
F5
100
AcDbEntity
  8
6
 62
     7
100
AcDbText
 10
-49.02053141434459
 20
-15.44755644920387
 30
0.0
 40
1.25
  1
m
  7
文字スタイル153
 72
     1
 11
-48.43537911015231
 21
-15.82255644920387
 31
0.0
100
AcDbText
 73
     1
  0
TEXT
  5
14B
330
F5
100
AcDbEntity
  8
6
 62
     7
100
AcDbText
 10
-48.81037911015231
 20
-11.94755644920389
 30
0.0
 40
1.25
  1
f
  7
文字スタイル153
 72
     1
 11
-48.43537911015231
 21
-12.32255644920389
 31
0.0
100
AcDbText
 73
     1
  0
TEXT
  5
14C
330
F5
100
AcDbEntity
  8
6
 62
     7
100
AcDbText
 10
-42.96293981119269
 20
-8.822556449203879
 30
0.0
 40
1.25
  1
説明
  7
文字スタイル69
 72
     1
 11
-41.24366514130706
 21
-8.822556449203879
 31
0.0
100
AcDbText
  0
TEXT
  5
14E
330
F5
100
AcDbEntity
  8
6
 62
     7
100
AcDbText
 10
-36.81546896341402
 20
-7.084943372489576
 30
0.0
 40
1.25
  1
以上
 41
0.7031300067901612
  7
文字スタイル144
100
AcDbText
  0
TEXT
  5
14F
330
F5
100
AcDbEntity
  8
6
 62
     7
100
AcDbText
 10
-36.81546896341402
 20
-8.822556449203879
 30
0.0
 40
1.25
  1
以下
 41
0.7031300067901612
  7
文字スタイル144
100
AcDbText
  0
TEXT
  5
150
330
F5
100
AcDbEntity
  8
6
 62
     7
100
AcDbText
 10
-32.19924123168873
 20
-7.084943372489576
 30
0.0
 40
1.25
  1
以上
 41
0.7031300067901612
  7
文字スタイル144
100
AcDbText
  0
TEXT
  5
151
330
F5
100
AcDbEntity
  8
6
 62
     7
100
AcDbText
 10
-32.19924123168873
 20
-8.822556449203879
 30
0.0
 40
1.25
  1
以下
 41
0.7031300067901612
  7
文字スタイル144
100
AcDbText
  0
TEXT
  5
152
330
F5
100
AcDbEntity
  8
6
 62
     7
100
AcDbText
 10
-27.58301349996383
 20
-7.084943372489576
 30
0.0
 40
1.25
  1
以上
 41
0.7031300067901612
  7
文字スタイル144
100
AcDbText
  0
TEXT
  5
153
330
F5
100
AcDbEntity
  8
6
 62
     7
100
AcDbText
 10
-27.58301349996383
 20
-8.822556449203879
 30
0.0
 40
1.25
  1
以下
 41
0.7031300067901612
  7
文字スタイル144
100
AcDbText
  0
TEXT
  5
154
330
F5
100
AcDbEntity
  8
6
 62
     7
100
AcDbText
 10
-22.96678576823851
 20
-7.084943372489576
 30
0.0
 40
1.25
  1
以上
 41
0.7031300067901612
  7
文字スタイル144
100
AcDbText
  0
TEXT
  5
155
330
F5
100
AcDbEntity
  8
6
 62
     7
100
AcDbText
 10
-22.96678576823851
 20
-8.822556449203879
 30
0.0
 40
1.25
  1
以下
 41
0.7031300067901612
  7
文字スタイル144
100
AcDbText
  0
TEXT
  5
156
330
F5
100
AcDbEntity
  8
6
 62
     7
100
AcDbText
 10
-18.35055803651368
 20
-7.084943372489576
 30
0.0
 40
1.25
  1
以上
 41
0.7031300067901612
  7
文字スタイル144
100
AcDbText
  0
TEXT
  5
157
330
F5
100
AcDbEntity
  8
6
 62
     7
100
AcDbText
 10
-18.35055803651368
 20
-8.822556449203879
 30
0.0
 40
1.25
  1
以下
 41
0.7031300067901612
  7
文字スタイル144
100
AcDbText
  0
TEXT
  5
158
330
F5
100
AcDbEntity
  8
6
 62
     7
100
AcDbText
 10
-13.73433030478793
 20
-7.084943372489576
 30
0.0
 40
1.25
  1
以上
 41
0.7031300067901612
  7
文字スタイル144
100
AcDbText
  0
TEXT
  5
159
330
F5
100
AcDbEntity
  8
6
 62
     7
100
AcDbText
 10
-13.73433030478793
 20
-8.822556449203879
 30
0.0
 40
1.25
  1
以下
 41
0.7031300067901612
  7
文字スタイル144
100
AcDbText
  0
TEXT
  5
15A
330
F5
100
AcDbEntity
  8
6
 62
     7
100
AcDbText
 10
-9.118102573062607
 20
-7.084943372489576
 30
0.0
 40
1.25
  1
以上
 41
0.7031300067901612
  7
文字スタイル144
100
AcDbText
  0
TEXT
  5
15B
330
F5
100
AcDbEntity
  8
6
 62
     7
100
AcDbText
 10
-9.118102573062607
 20
-8.822556449203879
 30
0.0
 40
1.25
  1
以下
 41
0.7031300067901612
  7
文字スタイル144
100
AcDbText
  0
TEXT
  5
15C
330
F5
100
AcDbEntity
  8
6
 62
     7
100
AcDbText
 10
-4.501874841337318
 20
-7.084943372489576
 30
0.0
 40
1.25
  1
以上
 41
0.7031300067901612
  7
文字スタイル144
100
AcDbText
  0
TEXT
  5
15D
330
F5
100
AcDbEntity
  8
6
 62
     7
100
AcDbText
 10
-4.501874841337318
 20
-8.822556449203879
 30
0.0
 40
1.25
  1
以下
 41
0.7031300067901612
  7
文字スタイル144
100
AcDbText
  0
MTEXT
  5
15E
330
F5
100
AcDbEntity
  8
Symbol (ISO)
100
AcDbMText
 10
-45.46950148221842
 20
-0.7004528189525417
 30
0.0
 40
1.522842645645141
 41
0.0
 46
0.0
 71
     1
 72
     1
  1
\fTahoma|b0|i0;\H1.5228;面取り部分を除く長さ寸法に対する許容差
  7
Note Text (JIS)
 73
     1
 44
1.5
  0
MTEXT
  5
160
330
F5
100
AcDbEntity
  8
Symbol (ISO)
100
AcDbMText
 10
-47.96780922760598
 20
-3.425179725575979
 30
0.0
 40
1.522842645645141
 41
0.0
 46
0.0
 71
     1
 72
     1
  1
\fTahoma|b0|i0;\H1.5228;公差等級
  7
Note Text (JIS)
 73
     1
 44
1.5
  0
MTEXT
  5
161
330
F5
100
AcDbEntity
  8
Symbol (ISO)
100
AcDbMText
 10
-30.52603614519629
 20
-3.484726718636785
 30
0.0
 40
1.522842645645141
 41
0.0
 46
0.0
 71
     1
 72
     1
  1
\fTahoma|b0|i0;\H1.5228;基準寸法の区分
  7
Note Text (JIS)
 73
     1
 44
1.5
  0
ENDBLK
  5
F7
330
F5
100
AcDbEntity
  8
0
100
AcDbBlockEnd
  0
BLOCK
  5
163
330
162
100
AcDbEntity
  8
0
100
AcDbBlockBegin
  2
バルブ仕様表
 70
     0
 10
0.0
 20
0.0
 30
0.0
  3
バルブ仕様表
  1

  0
LINE
  5
165
330
162
100
AcDbEntity
  8
AM_6
 62
     7
100
AcDbLine
 10
-109.9999999999999
 20
27.99999999999997
 30
0.0
 11
0.0
 21
27.99999999999997
 31
0.0
  0
LINE
  5
166
330
162
100
AcDbEntity
  8
AM_6
 62
     7
100
AcDbLine
 10
-109.9999999999999
 20
13.99999999999998
 30
0.0
 11
0.0
 21
13.99999999999998
 31
0.0
  0
LINE
  5
167
330
162
100
AcDbEntity
  8
AM_6
 62
     7
100
AcDbLine
 10
-109.9999999999999
 20
20.99999999999994
 30
0.0
 11
0.0
 21
20.99999999999994
 31
0.0
  0
LINE
  5
168
330
162
100
AcDbEntity
  8
AM_6
 62
     7
100
AcDbLine
 10
-109.9999999999999
 20
0.0
 30
0.0
 11
0.0
 21
0.0
 31
0.0
  0
LINE
  5
169
330
162
100
AcDbEntity
  8
AM_6
 62
     7
100
AcDbLine
 10
-109.9999999999999
 20
6.999999999999957
 30
0.0
 11
0.0
 21
6.999999999999957
 31
0.0
  0
LINE
  5
16A
330
162
100
AcDbEntity
  8
AM_6
100
AcDbLine
 10
-109.9999999999999
 20
13.99999999999998
 30
0.0
 11
0.0
 21
13.99999999999998
 31
0.0
  0
LINE
  5
16B
330
162
100
AcDbEntity
  8
AM_6
 62
     7
100
AcDbLine
 10
-79.99999999999997
 20
0.0
 30
0.0
 11
-79.99999999999997
 21
13.99999999999998
 31
0.0
  0
LINE
  5
16C
330
162
100
AcDbEntity
  8
AM_6
 62
     7
100
AcDbLine
 10
-79.99999999999983
 20
27.99999999999997
 30
0.0
 11
-79.99999999999997
 21
13.99999999999998
 31
0.0
  0
LINE
  5
16D
330
162
100
AcDbEntity
  8
AM_6
 62
     7
100
AcDbLine
 10
-109.9999999999999
 20
0.0
 30
0.0
 11
-109.9999999999999
 21
13.99999999999998
 31
0.0
  0
LINE
  5
16E
330
162
100
AcDbEntity
  8
AM_6
 62
     7
100
AcDbLine
 10
-109.9999999999999
 20
27.99999999999997
 30
0.0
 11
-109.9999999999999
 21
13.99999999999998
 31
0.0
  0
LINE
  5
16F
330
162
100
AcDbEntity
  8
AM_6
 62
     7
100
AcDbLine
 10
0.0
 20
27.99999999999997
 30
0.0
 11
0.0
 21
0.0
 31
0.0
  0
TEXT
  5
171
330
162
100
AcDbEntity
  8
AM_6
 62
     7
100
AcDbText
 10
-102.9390916948839
 20
1.453793852345341
 30
0.0
 40
3.000000119209289
  1
気密試験
  7
文字スタイル124
100
AcDbText
  0
TEXT
  5
173
330
162
100
AcDbEntity
  8
AM_6
 62
     7
100
AcDbText
 10
-102.9390916948839
 20
8.45379385234537
 30
0.0
 40
3.000000119209289
  1
耐圧試験
  7
文字スタイル124
100
AcDbText
  0
TEXT
  5
174
330
162
100
AcDbEntity
  8
AM_6
 62
     7
100
AcDbText
 10
-102.9390916948839
 20
15.45379385234532
 30
0.0
 40
3.000000119209289
  1
使用温度
  7
文字スタイル124
100
AcDbText
  0
TEXT
  5
175
330
162
100
AcDbEntity
  8
AM_6
 62
     7
100
AcDbText
 10
-102.9390916948839
 20
22.45379385234536
 30
0.0
 40
3.000000119209289
  1
使用圧力
  7
文字スタイル124
100
AcDbText
  0
TEXT
  5
177
330
162
100
AcDbEntity
  8
AM_6
 62
     7
100
AcDbText
 10
-18.76317222497654
 20
24.43990877602957
 30
0.0
 40
1.000000014901161
  1
2
  7
文字スタイル125
100
AcDbText
  0
TEXT
  5
178
330
162
100
AcDbEntity
  8
AM_6
 62
     7
100
AcDbText
 10
-65.4524935694148
 20
8.45379385234537
 30
0.0
 40
3.000000119209289
  1
1.96Mpa (20Kg/cm )
  7
文字スタイル124
100
AcDbText
  0
TEXT
  5
179
330
162
100
AcDbEntity
  8
AM_6
 62
     7
100
AcDbText
 10
-65.4524935694148
 20
1.453793852345341
 30
0.0
 40
3.000000119209289
  1
0.59Mpa (6Kg/cm )
  7
文字スタイル124
100
AcDbText
  0
TEXT
  5
17A
330
162
100
AcDbEntity
  8
AM_6
 62
     7
100
AcDbText
 10
-65.4524935694148
 20
22.45379385234536
 30
0.0
 40
3.000000119209289
  1
MAX　0.98Mpa (10Kg/cm )
  7
文字スタイル124
100
AcDbText
  0
TEXT
  5
17B
330
162
100
AcDbEntity
  8
AM_6
 62
     7
100
AcDbText
 10
-65.4524935694148
 20
15.45379385234532
 30
0.0
 40
3.000000119209289
  1
-10℃～+80℃（凍結無き事）
  7
文字スタイル124
100
AcDbText
  0
TEXT
  5
17C
330
162
100
AcDbEntity
  8
AM_6
 62
     7
100
AcDbText
 10
-30.27841636708135
 20
10.1899658992977
 30
0.0
 40
1.000000014901161
  1
2
  7
文字スタイル125
100
AcDbText
  0
TEXT
  5
17D
330
162
100
AcDbEntity
  8
AM_6
 62
     7
100
AcDbText
 10
-32.65625957956317
 20
3.592593427809589
 30
0.0
 40
1.000000014901161
  1
2
  7
文字スタイル125
100
AcDbText
  0
ENDBLK
  5
164
330
162
100
AcDbEntity
  8
0
100
AcDbBlockEnd
  0
BLOCK
  5
17F
330
17E
100
AcDbEntity
  8
0
100
AcDbBlockBegin
  2
バルブ開閉R1
 70
     0
 10
0.0
 20
0.0
 30
0.0
  3
バルブ開閉R1
  1

  0
ARC
  5
181
330
17E
100
AcDbEntity
  8
AM_6
 62
     7
100
AcDbCircle
 10
0.0
 20
0.0
 30
0.0
 40
31.60554310523806
100
AcDbArc
 50
202.1518571539441
 51
242.8481428460548
  0
LINE
  5
182
330
17E
100
AcDbEntity
  8
AM_6
 62
     7
100
AcDbLine
 10
-14.42320326968719
 20
-28.12261656422398
 30
0.0
 11
-17.42320326968716
 21
-28.12261656422381
 31
0.0
  0
LINE
  5
183
330
17E
100
AcDbEntity
  8
AM_6
 62
     7
100
AcDbLine
 10
-14.42320326968719
 20
-28.12261656422398
 30
0.0
 11
-16.54452361324683
 21
-26.00129622066435
 31
0.0
  0
LINE
  5
184
330
17E
100
AcDbEntity
  8
AM_6
 62
     7
100
AcDbLine
 10
-29.27266651151672
 20
-11.9172710920999
 30
0.0
 11
-29.27266651151651
 21
-14.91727109209995
 31
0.0
  0
LINE
  5
185
330
17E
100
AcDbEntity
  8
AM_6
 62
     7
100
AcDbLine
 10
-29.27266651151672
 20
-11.9172710920999
 30
0.0
 11
-27.15134616795709
 21
-14.03859143565954
 31
0.0
  0
TEXT
  5
187
330
17E
100
AcDbEntity
  8
AM_6
 62
     7
100
AcDbText
 10
-17.58938102507702
 20
-32.173637407816
 30
0.0
 40
2.000000029802322
  1
閉
  7
文字スタイル126
100
AcDbText
  0
TEXT
  5
188
330
17E
100
AcDbEntity
  8
AM_6
 62
     7
100
AcDbText
 10
-34.07208754498853
 20
-14.71927959924537
 30
0.0
 40
2.000000029802322
  1
開
  7
文字スタイル126
100
AcDbText
  0
ENDBLK
  5
180
330
17E
100
AcDbEntity
  8
0
100
AcDbBlockEnd
  0
BLOCK
  5
18A
330
189
100
AcDbEntity
  8
0
100
AcDbBlockBegin
  2
バルブ開閉R2
 70
     0
 10
0.0
 20
0.0
 30
0.0
  3
バルブ開閉R2
  1

  0
ARC
  5
18C
330
189
100
AcDbEntity
  8
AM_6
 62
     7
100
AcDbCircle
 10
0.0
 20
0.0
 30
0.0
 40
31.60554310523806
100
AcDbArc
 50
112.1518571539441
 51
152.8481428460544
  0
LINE
  5
18D
330
189
100
AcDbEntity
  8
AM_6
 62
     7
100
AcDbLine
 10
-28.12261656422434
 20
14.42320326968785
 30
0.0
 11
-28.12261656422432
 21
17.42320326968792
 31
0.0
  0
LINE
  5
18E
330
189
100
AcDbEntity
  8
AM_6
 62
     7
100
AcDbLine
 10
-28.12261656422434
 20
14.42320326968785
 30
0.0
 11
-26.00129622066479
 21
16.54452361324784
 31
0.0
  0
LINE
  5
18F
330
189
100
AcDbEntity
  8
AM_6
 62
     7
100
AcDbLine
 10
-11.91727109210028
 20
29.27266651151738
 30
0.0
 11
-14.91727109210039
 21
29.27266651151745
 31
0.0
  0
LINE
  5
190
330
189
100
AcDbEntity
  8
AM_6
 62
     7
100
AcDbLine
 10
-11.91727109210028
 20
29.27266651151738
 30
0.0
 11
-14.03859143566027
 21
27.1513461679576
 31
0.0
  0
TEXT
  5
191
330
189
100
AcDbEntity
  8
AM_6
 62
     7
100
AcDbText
 10
-15.08194606405059
 20
31.4147512872629
 30
0.0
 40
2.000000029802322
  1
閉
  7
文字スタイル126
100
AcDbText
  0
TEXT
  5
192
330
189
100
AcDbEntity
  8
AM_6
 62
     7
100
AcDbText
 10
-34.27398386649212
 20
14.82775972083301
 30
0.0
 40
2.000000029802322
  1
開
  7
文字スタイル126
100
AcDbText
  0
ENDBLK
  5
18B
330
189
100
AcDbEntity
  8
0
100
AcDbBlockEnd
  0
BLOCK
  5
194
330
193
100
AcDbEntity
  8
0
100
AcDbBlockBegin
  2
ｴｰｽﾎﾞｰﾙｿｹｯﾄ・本体注釈①
 70
     0
 10
0.0
 20
0.0
 30
0.0
  3
ｴｰｽﾎﾞｰﾙｿｹｯﾄ・本体注釈①
  1

  0
MTEXT
  5
196
330
193
100
AcDbEntity
  8
Symbol (ISO)
100
AcDbMText
 10
-27.82894849777225
 20
3.352206237614154
 30
0.0
 40
2.5
 41
0.0
 46
0.0
 71
     1
 72
     1
  1
※本体仮組時に　本体（φ6ｽﾄﾚｰﾄ）\P・ｿｹｯﾄの隙間を0.5㎜とする事。
  7
Note Text (JIS)
 73
     2
 44
1.058181881904602
  0
ENDBLK
  5
195
330
193
100
AcDbEntity
  8
0
100
AcDbBlockEnd
  0
BLOCK
  5
198
330
197
100
AcDbEntity
  8
0
100
AcDbBlockBegin
  2
バルブ仕様書①
 70
     0
 10
0.0
 20
0.0
 30
0.0
  3
バルブ仕様書①
  1

  0
LINE
  5
19A
330
197
100
AcDbEntity
  8
AM_6
 62
     7
100
AcDbLine
 10
-109.9999999999999
 20
27.99999999999997
 30
0.0
 11
0.0
 21
27.99999999999997
 31
0.0
  0
LINE
  5
19B
330
197
100
AcDbEntity
  8
AM_6
 62
     7
100
AcDbLine
 10
-109.9999999999999
 20
13.99999999999998
 30
0.0
 11
0.0
 21
13.99999999999998
 31
0.0
  0
LINE
  5
19C
330
197
100
AcDbEntity
  8
AM_6
 62
     7
100
AcDbLine
 10
-109.9999999999999
 20
20.99999999999994
 30
0.0
 11
0.0
 21
20.99999999999994
 31
0.0
  0
LINE
  5
19D
330
197
100
AcDbEntity
  8
AM_6
 62
     7
100
AcDbLine
 10
-109.9999999999999
 20
0.0
 30
0.0
 11
0.0
 21
0.0
 31
0.0
  0
LINE
  5
19E
330
197
100
AcDbEntity
  8
AM_6
 62
     7
100
AcDbLine
 10
-109.9999999999999
 20
6.999999999999957
 30
0.0
 11
0.0
 21
6.999999999999957
 31
0.0
  0
LINE
  5
19F
330
197
100
AcDbEntity
  8
AM_6
100
AcDbLine
 10
-109.9999999999999
 20
13.99999999999998
 30
0.0
 11
0.0
 21
13.99999999999998
 31
0.0
  0
LINE
  5
1A0
330
197
100
AcDbEntity
  8
AM_6
 62
     7
100
AcDbLine
 10
-79.99999999999997
 20
0.0
 30
0.0
 11
-79.99999999999997
 21
13.99999999999998
 31
0.0
  0
LINE
  5
1A1
330
197
100
AcDbEntity
  8
AM_6
 62
     7
100
AcDbLine
 10
-79.99999999999983
 20
27.99999999999997
 30
0.0
 11
-79.99999999999997
 21
13.99999999999998
 31
0.0
  0
LINE
  5
1A2
330
197
100
AcDbEntity
  8
AM_6
 62
     7
100
AcDbLine
 10
-109.9999999999999
 20
0.0
 30
0.0
 11
-109.9999999999999
 21
13.99999999999998
 31
0.0
  0
LINE
  5
1A3
330
197
100
AcDbEntity
  8
AM_6
 62
     7
100
AcDbLine
 10
-109.9999999999999
 20
27.99999999999997
 30
0.0
 11
-109.9999999999999
 21
13.99999999999998
 31
0.0
  0
LINE
  5
1A4
330
197
100
AcDbEntity
  8
AM_6
 62
     7
100
AcDbLine
 10
0.0
 20
27.99999999999997
 30
0.0
 11
0.0
 21
0.0
 31
0.0
  0
TEXT
  5
1A5
330
197
100
AcDbEntity
  8
AM_6
 62
     7
100
AcDbText
 10
-109.5569312552745
 20
1.35119169264982
 30
0.0
 40
3.000000119209289
  1
気密・耐圧試験
  7
文字スタイル124
100
AcDbText
  0
TEXT
  5
1A6
330
197
100
AcDbEntity
  8
AM_6
 62
     7
100
AcDbText
 10
-65.4524935694148
 20
1.453793852345341
 30
0.0
 40
3.000000119209289
  1
空圧 0.59Mpa 全数
  7
文字スタイル124
100
AcDbText
  0
TEXT
  5
1A8
330
197
100
AcDbEntity
  8
AM_6
100
AcDbText
 10
-32.65625957956317
 20
3.592593427809589
 30
0.0
 40
1.000000014901161
  1
2
  7
文字スタイル133
100
AcDbText
  0
ENDBLK
  5
199
330
197
100
AcDbEntity
  8
0
100
AcDbBlockEnd
  0
BLOCK
  5
1AA
330
1A9
100
AcDbEntity
  8
0
100
AcDbBlockBegin
  2
ストッパー加工注釈
 70
     0
 10
0.0
 20
0.0
 30
0.0
  3
ストッパー加工注釈
  1

  0
MTEXT
  5
1AC
330
1A9
100
AcDbEntity
  8
Symbol (ISO)
100
AcDbMText
 10
-19.48830366134647
 20
3.352206274867057
 30
0.0
 40
2.5
 41
0.0
 46
0.0
 71
     1
 72
     1
  1
※ハンドル開閉治具にて\P角度を確認する事。
  7
Note Text (JIS)
 73
     2
 44
1.058181881904602
  0
ENDBLK
  5
1AB
330
1A9
100
AcDbEntity
  8
0
100
AcDbBlockEnd
  0
BLOCK
  5
1AE
330
1AD
100
AcDbEntity
  8
0
100
AcDbBlockBegin
  2
三方弁説明A
 70
     0
 10
0.0
 20
0.0
 30
0.0
  3
三方弁説明A
  1

  0
MTEXT
  5
1B0
330
1AD
100
AcDbEntity
  8
Symbol (ISO)
100
AcDbMText
 10
-26.24561548233032
 20
4.643620708957314
 30
0.0
 40
1.500000059604644
 41
0.0
 46
0.0
 71
     1
 72
     1
  1
\fＭＳ Ｐゴシック|b0|i0;\H1.5000;※ハンドル位置Aの時、ポートEの圧力がポートF及び\P　ポートGより高い場合、ポートEからポートF及びポートG\P　に漏れが発生する場合が御座います。\P※流路切り替え途中は、流体が混流致します。
  7
Note Text (JIS)
 73
     2
 44
1.058181881904602
  0
ENDBLK
  5
1AF
330
1AD
100
AcDbEntity
  8
0
100
AcDbBlockEnd
  0
BLOCK
  5
1B2
330
1B1
100
AcDbEntity
  8
0
100
AcDbBlockBegin
  2
三方弁説明B
 70
     0
 10
0.0
 20
0.0
 30
0.0
  3
三方弁説明B
  1

  0
MTEXT
  5
1B4
330
1B1
100
AcDbEntity
  8
Symbol (ISO)
100
AcDbMText
 10
-26.10087871551514
 20
4.643620708957314
 30
0.0
 40
1.500000059604644
 41
0.0
 46
0.0
 71
     1
 72
     1
  1
\fＭＳ Ｐゴシック|b0|i0;\H1.5000;※ハンドル位置Bの時、ポートGの圧力がポートE及び\P　ポートFより高い場合、ポートGからポートE及びポートF\P　に漏れが発生する場合が御座います。\P※流路切り替え途中は、流体が混流致します。
  7
Note Text (JIS)
 73
     2
 44
1.058181881904602
  0
ENDBLK
  5
1B3
330
1B1
100
AcDbEntity
  8
0
100
AcDbBlockEnd
  0
BLOCK
  5
1B6
330
1B5
100
AcDbEntity
  8
0
100
AcDbBlockBegin
  2
三方弁説明C
 70
     0
 10
0.0
 20
0.0
 30
0.0
  3
三方弁説明C
  1

  0
MTEXT
  5
1B8
330
1B5
100
AcDbEntity
  8
Symbol (ISO)
100
AcDbMText
 10
-26.24561548233032
 20
8.611802766099572
 30
0.0
 40
1.500000059604644
 41
0.0
 46
0.0
 71
     1
 72
     1
  1
\fＭＳ Ｐゴシック|b0|i0;\H1.5000;※流路F→Gの時、ポートEの圧力がポートF及び\P　ポートGより高い場合、ポートEからポートF及びポートG\P　に漏れが発生する場合が御座います。\P　また、流路F→Eの時、ポートGの圧力がポートF及び\P　ポートEより高い場合、ポートGからポートF及びポートE\P　に漏れが発生する場合が御座います。 \P※流路切り替え途中は、流体が混流致します。
  7
Note Text (JIS)
 73
     2
 44
1.058181881904602
  0
ENDBLK
  5
1B7
330
1B5
100
AcDbEntity
  8
0
100
AcDbBlockEnd
  0
BLOCK
  5
1BA
330
1B9
100
AcDbEntity
  8
0
100
AcDbBlockBegin
  2
三方弁流れ方向
 70
     0
 10
0.0
 20
0.0
 30
0.0
  3
三方弁流れ方向
  1

  0
LINE
  5
1BC
330
1B9
100
AcDbEntity
  8
Sketch Geometry (ISO)
100
AcDbLine
 10
15.0
 20
5.75000000000001
 30
0.0
 11
15.0
 21
-4.249999999999989
 31
0.0
  0
LINE
  5
1BD
330
1B9
100
AcDbEntity
  8
Sketch Geometry (ISO)
100
AcDbLine
 10
15.0
 20
-4.249999999999989
 30
0.0
 11
25.0
 21
-4.249999999999989
 31
0.0
  0
LINE
  5
1BE
330
1B9
100
AcDbEntity
  8
Sketch Geometry (ISO)
100
AcDbLine
 10
25.0
 20
-4.249999999999989
 30
0.0
 11
22.40192378864668
 21
-5.75000000000001
 31
0.0
  0
LINE
  5
1BF
330
1B9
100
AcDbEntity
  8
Sketch Geometry (ISO)
100
AcDbLine
 10
25.0
 20
-4.249999999999989
 30
0.0
 11
22.4019237886467
 21
-2.749999999999985
 31
0.0
  0
LINE
  5
1C0
330
1B9
100
AcDbEntity
  8
Sketch Geometry (ISO)
100
AcDbLine
 10
-15.0
 20
5.75000000000001
 30
0.0
 11
-15.0
 21
-4.249999999999989
 31
0.0
  0
LINE
  5
1C1
330
1B9
100
AcDbEntity
  8
Sketch Geometry (ISO)
100
AcDbLine
 10
-15.0
 20
-4.249999999999989
 30
0.0
 11
-25.0
 21
-4.249999999999989
 31
0.0
  0
LINE
  5
1C2
330
1B9
100
AcDbEntity
  8
Sketch Geometry (ISO)
100
AcDbLine
 10
-25.0
 20
-4.249999999999989
 30
0.0
 11
-22.40192378864668
 21
-5.749999999999992
 31
0.0
  0
LINE
  5
1C3
330
1B9
100
AcDbEntity
  8
Sketch Geometry (ISO)
100
AcDbLine
 10
-25.0
 20
-4.249999999999989
 30
0.0
 11
-22.40192378864668
 21
-2.749999999999985
 31
0.0
  0
ENDBLK
  5
1BB
330
1B9
100
AcDbEntity
  8
0
100
AcDbBlockEnd
  0
ENDSEC
  0
SECTION
  2
ENTITIES
  0
MTEXT
  5
1C4
330
70
100
AcDbEntity
  8
Symbol (ISO)
100
AcDbMText
 10
148.9472183533245
 20
113.8745568814301
 30
0.0
 40
2.5
 41
61.43274784088136
 46
0.0
 71
     1
 72
     1
  1
{エースボールRV ストレート　BM-7922R}
  7
Note Text (JIS)
 73
     1
 44
1.5
  0
LINE
  5
1C5
330
70
100
AcDbEntity
  8
Visible (ISO)
100
AcDbLine
 10
95.76665246084333
 20
54.92471631698069
 30
0.0
 11
95.76665246084333
 21
74.92471631698069
 31
0.0
  0
LINE
  5
1C6
330
70
100
AcDbEntity
  8
Visible (ISO)
100
AcDbLine
 10
96.01665246084335
 20
74.67471631698069
 30
0.0
 11
96.01665246084335
 21
55.17471631698069
 31
0.0
  0
LINE
  5
1C7
330
70
100
AcDbEntity
  8
Visible (ISO)
100
AcDbLine
 10
96.01665246084335
 20
55.17471631698068
 30
0.0
 11
95.76665246084333
 21
54.92471631698069
 31
0.0
  0
LINE
  5
1C8
330
70
100
AcDbEntity
  8
Visible (ISO)
100
AcDbLine
 10
96.01665246084335
 20
74.67471631698069
 30
0.0
 11
95.76665246084333
 21
74.92471631698069
 31
0.0
  0
LINE
  5
1C9
330
70
100
AcDbEntity
  8
Visible (ISO)
100
AcDbLine
 10
93.89861847209344
 20
74.92471631698069
 30
0.0
 11
93.89861847209344
 21
54.92471631698069
 31
0.0
  0
ARC
  5
1CA
330
70
100
AcDbEntity
  8
Visible (ISO)
100
AcDbCircle
 10
95.01665246084334
 20
73.92471631698069
 30
0.0
 40
1.5
100
AcDbArc
 50
138.1896851042216
 51
180.0
  0
ARC
  5
1CB
330
70
100
AcDbEntity
  8
Visible (ISO)
100
AcDbCircle
 10
95.01665246084334
 20
55.92471631698068
 30
0.0
 40
1.5
100
AcDbArc
 50
180.0
 51
221.8103148957783
  0
LINE
  5
1CC
330
70
100
AcDbEntity
  8
Visible (ISO)
100
AcDbLine
 10
78.13468644959323
 20
54.92471631698069
 30
0.0
 11
78.13468644959323
 21
74.92471631698069
 31
0.0
  0
ARC
  5
1CD
330
70
100
AcDbEntity
  8
Visible (ISO)
100
AcDbCircle
 10
77.01665246084333
 20
55.92471631698068
 30
0.0
 40
1.5
100
AcDbArc
 50
318.1896851042212
 51
0.0
  0
ARC
  5
1CE
330
70
100
AcDbEntity
  8
Visible (ISO)
100
AcDbCircle
 10
77.01665246084333
 20
73.92471631698069
 30
0.0
 40
1.5
100
AcDbArc
 50
0.0
 51
41.81031489577882
  0
LINE
  5
1CF
330
70
100
AcDbEntity
  8
Visible (ISO)
100
AcDbLine
 10
76.13468644959323
 20
54.92471631698069
 30
0.0
 11
76.13468644959323
 21
74.92471631698069
 31
0.0
  0
LINE
  5
1D0
330
70
100
AcDbEntity
  8
Visible (ISO)
100
AcDbLine
 10
76.13468644959323
 20
74.92471631698069
 30
0.0
 11
78.13468644959323
 21
74.92471631698069
 31
0.0
  0
LINE
  5
1D1
330
70
100
AcDbEntity
  8
Visible (ISO)
100
AcDbLine
 10
76.13468644959323
 20
54.92471631698069
 30
0.0
 11
78.13468644959323
 21
54.92471631698069
 31
0.0
  0
LINE
  5
1D2
330
70
100
AcDbEntity
  8
Visible (ISO)
100
AcDbLine
 10
74.01665246084333
 20
71.37471631698069
 30
0.0
 11
76.13468644959323
 21
74.92471631698069
 31
0.0
  0
LINE
  5
1D3
330
70
100
AcDbEntity
  8
Visible (ISO)
100
AcDbLine
 10
74.01665246084333
 20
58.4747163169807
 30
0.0
 11
76.13468644959323
 21
54.92471631698069
 31
0.0
  0
LINE
  5
1D4
330
70
100
AcDbEntity
  8
Visible (ISO)
100
AcDbLine
 10
93.14625396133896
 20
69.92471632144212
 30
0.0
 11
78.88705096034771
 21
69.92471632144212
 31
0.0
  0
LINE
  5
1D5
330
70
100
AcDbEntity
  8
Visible (ISO)
100
AcDbLine
 10
93.14625395942483
 20
59.92471632144212
 30
0.0
 11
78.88705096226185
 21
59.92471632144212
 31
0.0
  0
LINE
  5
1D6
330
70
100
AcDbEntity
  8
Visible (ISO)
100
AcDbLine
 10
95.76665246084333
 20
54.92471631698069
 30
0.0
 11
93.89861847209344
 21
54.92471631698069
 31
0.0
  0
LINE
  5
1D7
330
70
100
AcDbEntity
  8
Visible (ISO)
100
AcDbLine
 10
95.76665246084333
 20
74.92471631698069
 30
0.0
 11
93.89861847209344
 21
74.92471631698069
 31
0.0
  0
ARC
  5
1D8
330
70
100
AcDbEntity
  8
Visible (ISO)
100
AcDbCircle
 10
79.61665246084334
 20
73.92471631698069
 30
0.0
 40
0.5
100
AcDbArc
 50
270.0
 51
0.0
  0
ARC
  5
1D9
330
70
100
AcDbEntity
  8
Visible (ISO)
100
AcDbCircle
 10
92.41665246084336
 20
73.92471631698069
 30
0.0
 40
0.5
100
AcDbArc
 50
180.0
 51
270.0
  0
LINE
  5
1DA
330
70
100
AcDbEntity
  8
Visible (ISO)
100
AcDbLine
 10
80.11665246084334
 20
73.92471631698069
 30
0.0
 11
80.11665246084334
 21
75.42471631698069
 31
0.0
  0
LINE
  5
1DB
330
70
100
AcDbEntity
  8
Visible (ISO)
100
AcDbLine
 10
91.91665246084333
 20
73.92471631698069
 30
0.0
 11
91.91665246084333
 21
75.42471631698069
 31
0.0
  0
LINE
  5
1DC
330
70
100
AcDbEntity
  8
Visible (ISO)
100
AcDbLine
 10
79.01665246084333
 20
73.42471631698069
 30
0.0
 11
79.61665246084334
 21
73.42471631698069
 31
0.0
  0
LINE
  5
1DD
330
70
100
AcDbEntity
  8
Visible (ISO)
100
AcDbLine
 10
92.41665246084336
 20
73.42471631698069
 30
0.0
 11
93.01665246084333
 21
73.42471631698069
 31
0.0
  0
LINE
  5
1DE
330
70
100
AcDbEntity
  8
Visible (ISO)
100
AcDbLine
 10
79.01665246084333
 20
56.42471631698068
 30
0.0
 11
93.01665246084333
 21
56.42471631698068
 31
0.0
  0
ARC
  5
1DF
330
70
100
AcDbEntity
  8
Visible (ISO)
100
AcDbCircle
 10
79.01665246084333
 20
55.92471631698068
 30
0.0
 40
0.5
100
AcDbArc
 50
90.00000000000103
 51
180.0
  0
ARC
  5
1E0
330
70
100
AcDbEntity
  8
Visible (ISO)
100
AcDbCircle
 10
79.01665246084333
 20
73.92471631698069
 30
0.0
 40
0.5
100
AcDbArc
 50
180.0
 51
270.0
  0
ARC
  5
1E1
330
70
100
AcDbEntity
  8
Visible (ISO)
100
AcDbCircle
 10
93.01665246084333
 20
55.92471631698068
 30
0.0
 40
0.5
100
AcDbArc
 50
0.0
 51
90.0
  0
ARC
  5
1E2
330
70
100
AcDbEntity
  8
Visible (ISO)
100
AcDbCircle
 10
93.01665246084333
 20
73.92471631698069
 30
0.0
 40
0.5
100
AcDbArc
 50
270.0
 51
0.0
  0
LINE
  5
1E3
330
70
100
AcDbEntity
  8
Visible (ISO)
100
AcDbLine
 10
110.0166524608433
 20
56.92471631698069
 30
0.0
 11
110.0166524608433
 21
72.92471631698072
 31
0.0
  0
SPLINE
  5
1E4
330
70
100
AcDbEntity
  8
Visible (ISO)
100
AcDbSpline
210
0.0
220
0.0
230
1.0
 70
    12
 71
     2
 72
     6
 73
     3
 74
     0
 42
0.000000001
 43
0.0000000001
 40
0.1463461418658453
 40
0.1463461418658453
 40
0.1463461418658453
 40
1.198424304883157
 40
1.198424304883157
 40
1.198424304883157
 10
108.9687879476936
 20
69.83219360509254
 30
0.0
 41
1.051552365563892
 10
110.38545461436
 20
72.28593224914852
 30
0.0
 41
1.21422808265058
 10
108.9687879476936
 20
74.73967089320436
 30
0.0
 41
1.051552365563892
  0
SPLINE
  5
1E5
330
70
100
AcDbEntity
  8
Visible (ISO)
100
AcDbSpline
210
0.0
220
0.0
230
1.0
 70
    12
 71
     2
 72
     6
 73
     3
 74
     0
 42
0.000000001
 43
0.0000000001
 40
0.1463461418658459
 40
0.1463461418658459
 40
0.1463461418658459
 40
1.198424304883158
 40
1.198424304883158
 40
1.198424304883158
 10
108.9687879476936
 20
60.01723902886887
 30
0.0
 41
1.051552365563891
 10
110.38545461436
 20
64.9247163169808
 30
0.0
 41
1.214228082650577
 10
108.9687879476936
 20
69.83219360509254
 30
0.0
 41
1.051552365563891
  0
SPLINE
  5
1E6
330
70
100
AcDbEntity
  8
Visible (ISO)
100
AcDbSpline
210
0.0
220
0.0
230
1.0
 70
    12
 71
     2
 72
     6
 73
     3
 74
     0
 42
0.000000001
 43
0.0000000001
 40
0.146346141865845
 40
0.146346141865845
 40
0.146346141865845
 40
1.198424304883158
 40
1.198424304883158
 40
1.198424304883158
 10
108.9687879476936
 20
55.10976174075704
 30
0.0
 41
1.051552365563892
 10
110.38545461436
 20
57.56350038481301
 30
0.0
 41
1.214228082650582
 10
108.9687879476936
 20
60.01723902886887
 30
0.0
 41
1.051552365563892
  0
LINE
  5
1E7
330
70
100
AcDbEntity
  8
Visible (ISO)
100
AcDbLine
 10
110.0166524608433
 20
56.92471631698069
 30
0.0
 11
108.9687879476936
 21
55.10976174075704
 31
0.0
  0
LINE
  5
1E8
330
70
100
AcDbEntity
  8
Visible (ISO)
100
AcDbLine
 10
110.0166524608433
 20
72.92471631698072
 30
0.0
 11
108.9687879476936
 21
74.73967089320436
 31
0.0
  0
SPLINE
  5
1E9
330
70
100
AcDbEntity
  8
Visible (ISO)
100
AcDbSpline
210
0.0
220
0.0
230
1.0
 70
    12
 71
     2
 72
     6
 73
     3
 74
     0
 42
0.000000001
 43
0.0000000001
 40
0.0606773123555736
 40
0.0606773123555736
 40
0.0606773123555736
 40
1.07667678214846
 40
1.07667678214846
 40
1.07667678214846
 10
97.06451697399302
 20
69.83219360509252
 30
0.0
 41
1.019972620773999
 10
95.64785030732634
 20
64.92471631698069
 30
0.0
 41
1.177762934339832
 10
97.06451697399302
 20
60.01723902886887
 30
0.0
 41
1.019972620773999
  0
SPLINE
  5
1EA
330
70
100
AcDbEntity
  8
Visible (ISO)
100
AcDbSpline
210
0.0
220
0.0
230
1.0
 70
    12
 71
     2
 72
     6
 73
     3
 74
     0
 42
0.000000001
 43
0.0000000001
 40
0.0606773123555735
 40
0.0606773123555735
 40
0.0606773123555735
 40
1.076676782148459
 40
1.076676782148459
 40
1.076676782148459
 10
97.064516973993
 20
74.73967089320436
 30
0.0
 41
1.019972620774
 10
95.64785030732634
 20
72.28593224914843
 30
0.0
 41
1.177762934339833
 10
97.06451697399302
 20
69.83219360509252
 30
0.0
 41
1.019972620773999
  0
SPLINE
  5
1EB
330
70
100
AcDbEntity
  8
Visible (ISO)
100
AcDbSpline
210
0.0
220
0.0
230
1.0
 70
    12
 71
     2
 72
     6
 73
     3
 74
     0
 42
0.000000001
 43
0.0000000001
 40
0.0606773123555737
 40
0.0606773123555737
 40
0.0606773123555737
 40
1.076676782148461
 40
1.076676782148461
 40
1.076676782148461
 10
97.06451697399302
 20
60.01723902886887
 30
0.0
 41
1.019972620773999
 10
95.64785030732634
 20
57.56350038481294
 30
0.0
 41
1.177762934339833
 10
97.06451697399302
 20
55.10976174075702
 30
0.0
 41
1.019972620774
  0
LINE
  5
1EC
330
70
100
AcDbEntity
  8
Visible (ISO)
100
AcDbLine
 10
96.01665246084335
 20
72.9247163169807
 30
0.0
 11
97.064516973993
 21
74.73967089320436
 31
0.0
  0
LINE
  5
1ED
330
70
100
AcDbEntity
  8
Visible (ISO)
100
AcDbLine
 10
96.01665246084335
 20
56.92471631698068
 30
0.0
 11
97.06451697399302
 21
55.10976174075702
 31
0.0
  0
LINE
  5
1EE
330
70
100
AcDbEntity
  8
Visible (ISO)
100
AcDbLine
 10
97.064516973993
 20
74.73967089320436
 30
0.0
 11
108.9687879476936
 21
74.73967089320436
 31
0.0
  0
LINE
  5
1EF
330
70
100
AcDbEntity
  8
Visible (ISO)
100
AcDbLine
 10
97.06451697399302
 20
69.83219360509252
 30
0.0
 11
108.9687879476936
 21
69.83219360509254
 31
0.0
  0
LINE
  5
1F0
330
70
100
AcDbEntity
  8
Visible (ISO)
100
AcDbLine
 10
97.06451697399302
 20
60.01723902886887
 30
0.0
 11
108.9687879476936
 21
60.01723902886887
 31
0.0
  0
LINE
  5
1F1
330
70
100
AcDbEntity
  8
Visible (ISO)
100
AcDbLine
 10
97.06451697399302
 20
55.10976174075702
 30
0.0
 11
108.9687879476936
 21
55.10976174075704
 31
0.0
  0
LINE
  5
1F2
330
70
100
AcDbEntity
  8
Visible (ISO)
100
AcDbLine
 10
49.01665246084334
 20
70.17471631698069
 30
0.0
 11
49.01665246084334
 21
59.67471631698068
 31
0.0
  0
LINE
  5
1F3
330
70
100
AcDbEntity
  8
Visible (ISO)
100
AcDbLine
 10
51.10544011460645
 20
58.46875420280058
 30
0.0
 11
51.10544011460645
 21
71.38067843116079
 31
0.0
  0
LINE
  5
1F4
330
70
100
AcDbEntity
  8
Visible (ISO)
100
AcDbLine
 10
49.01665246084334
 20
70.17471631698069
 30
0.0
 11
51.10544011460645
 21
71.38067843116079
 31
0.0
  0
LINE
  5
1F5
330
70
100
AcDbEntity
  8
Visible (ISO)
100
AcDbLine
 10
49.01665246084334
 20
59.67471631698069
 30
0.0
 11
51.10544011460645
 21
58.4687542028006
 31
0.0
  0
LINE
  5
1F6
330
70
100
AcDbEntity
  8
Visible (ISO)
100
AcDbLine
 10
74.01665246084333
 20
72.67471631698069
 30
0.0
 11
74.01665246084333
 21
57.17471631698068
 31
0.0
  0
LINE
  5
1F7
330
70
100
AcDbEntity
  8
Visible (ISO)
100
AcDbLine
 10
73.51665246084334
 20
56.67471631698069
 30
0.0
 11
73.51665246084334
 21
73.17471631698069
 31
0.0
  0
LINE
  5
1F8
330
70
100
AcDbEntity
  8
Visible (ISO)
100
AcDbLine
 10
74.01665246084333
 20
57.17471631698068
 30
0.0
 11
73.51665246084334
 21
56.67471631698069
 31
0.0
  0
LINE
  5
1F9
330
70
100
AcDbEntity
  8
Visible (ISO)
100
AcDbLine
 10
74.01665246084333
 20
72.67471631698069
 30
0.0
 11
73.51665246084334
 21
73.17471631698069
 31
0.0
  0
LINE
  5
1FA
330
70
100
AcDbEntity
  8
Visible (ISO)
100
AcDbLine
 10
69.01665246084333
 20
73.17471631698069
 30
0.0
 11
69.01665246084333
 21
56.67471631698069
 31
0.0
  0
SPLINE
  5
1FB
330
70
100
AcDbEntity
  8
Visible (ISO)
100
AcDbSpline
210
0.0
220
0.0
230
1.0
 70
     8
 71
     3
 72
     8
 73
     4
 74
     0
 42
0.000000001
 43
0.0000000001
 40
5.004219779514528
 40
5.004219779514528
 40
5.004219779514528
 40
5.004219779514528
 40
5.211535875693249
 40
5.211535875693249
 40
5.211535875693249
 40
5.211535875693249
 10
68.42519948393927
 20
59.34698832704579
 30
0.0
 10
68.42666321603234
 20
59.92199319891256
 30
0.0
 10
68.42828979975269
 20
60.56095576818939
 30
0.0
 10
68.4300066880209
 20
61.23525943946611
 30
0.0
  0
SPLINE
  5
1FC
330
70
100
AcDbEntity
  8
Visible (ISO)
100
AcDbSpline
210
0.0
220
0.0
230
1.0
 70
    12
 71
     2
 72
     6
 73
     3
 74
     0
 42
0.000000001
 43
0.0000000001
 40
0.2964618744956765
 40
0.2964618744956765
 40
0.2964618744956765
 40
1.112709618815163
 40
1.112709618815163
 40
1.112709618815163
 10
68.41590016697222
 20
55.69835844721419
 30
0.0
 41
1.095347893909631
 10
69.24855865675176
 20
57.52425615590166
 30
0.0
 41
1.191768356554786
 10
68.42519948393927
 20
59.34698832704579
 30
0.0
 41
1.096338511801204
  0
SPLINE
  5
1FD
330
70
100
AcDbEntity
  8
Visible (ISO)
100
AcDbSpline
210
0.0
220
0.0
230
1.0
 70
     8
 71
     3
 72
    10
 73
     6
 74
     0
 42
0.000000001
 43
0.0000000001
 40
4.17713294203936
 40
4.17713294203936
 40
4.17713294203936
 40
4.17713294203936
 40
4.177141633641301
 40
4.177141633641301
 40
4.284459251644188
 40
4.284459251644188
 40
4.284459251644188
 40
4.284459251644188
 10
68.41573071331653
 20
55.63388931930018
 30
0.0
 10
68.41573071347301
 20
55.63388931929853
 30
0.0
 10
68.41573071362984
 20
55.63388931943383
 30
0.0
 10
68.41573265444036
 20
55.63389268101627
 30
0.0
 10
68.41578759981365
 20
55.65477269232539
 30
0.0
 10
68.41590016697222
 20
55.69835844721419
 30
0.0
  0
SPLINE
  5
1FE
330
70
100
AcDbEntity
  8
Visible (ISO)
100
AcDbSpline
210
0.0
220
0.0
230
1.0
 70
     8
 71
     3
 72
     8
 73
     4
 74
     0
 42
0.000000001
 43
0.0000000001
 40
1.28234852082939
 40
1.28234852082939
 40
1.28234852082939
 40
1.28234852082939
 40
1.389636215210568
 40
1.389636215210568
 40
1.389636215210568
 40
1.389636215210568
 10
68.46271459946733
 20
74.06942019138125
 30
0.0
 10
68.46282417952524
 20
74.11301542955306
 30
0.0
 10
68.46287561010417
 20
74.1338859585164
 30
0.0
 10
68.46287366999193
 20
74.13388931888937
 30
0.0
  0
SPLINE
  5
1FF
330
70
100
AcDbEntity
  8
Visible (ISO)
100
AcDbSpline
210
0.0
220
0.0
230
1.0
 70
    12
 71
     2
 72
     6
 73
     3
 74
     0
 42
0.000000001
 43
0.0000000001
 40
0.3038347015407218
 40
0.3038347015407218
 40
0.3038347015407218
 40
1.123903861267264
 40
1.123903861267264
 40
1.123903861267264
 10
68.4534185341231
 20
70.42079031154964
 30
0.0
 41
1.099752732484698
 10
69.2919126387521
 20
72.24669862099734
 30
0.0
 41
1.198114783114956
 10
68.46271459946733
 20
74.06942019138124
 30
0.0
 41
1.100754619662588
  0
SPLINE
  5
200
330
70
100
AcDbEntity
  8
Visible (ISO)
100
AcDbSpline
210
0.0
220
0.0
230
1.0
 70
     8
 71
     3
 72
     8
 73
     4
 74
     0
 42
0.000000001
 43
0.0000000001
 40
0.3556734997605204
 40
0.3556734997605204
 40
0.3556734997605204
 40
0.3556734997605204
 40
0.5628189646857993
 40
0.5628189646857993
 40
0.5628189646857993
 40
0.5628189646857993
 10
68.44860206845969
 20
68.53251919912932
 30
0.0
 10
68.45032067544394
 20
69.20638218879435
 30
0.0
 10
68.45195078115065
 20
69.84541684514188
 30
0.0
 10
68.4534185341231
 20
70.42079031154964
 30
0.0
  0
SPLINE
  5
201
330
70
100
AcDbEntity
  8
Visible (ISO)
100
AcDbSpline
210
0.0
220
0.0
230
1.0
 70
    12
 71
     2
 72
     6
 73
     3
 74
     0
 42
0.000000001
 43
0.0000000001
 40
0.2980781999859079
 40
0.2980781999859079
 40
0.2980781999859079
 40
1.116223870764464
 40
1.116223870764464
 40
1.116223870764464
 10
68.4300066880209
 20
61.23525943946612
 30
0.0
 41
1.097044292848638
 10
69.27022098423816
 20
64.8902415162518
 30
0.0
 41
1.194926045466025
 10
68.44860206845969
 20
68.53251919912932
 30
0.0
 41
1.099036745105105
  0
LINE
  5
202
330
70
100
AcDbEntity
  8
Visible (ISO)
100
AcDbLine
 10
69.01665246084333
 20
56.67471631698069
 30
0.0
 11
68.41573071378701
 21
55.63388931970607
 31
0.0
  0
LINE
  5
203
330
70
100
AcDbEntity
  8
Visible (ISO)
100
AcDbLine
 10
69.01665246084333
 20
73.17471631698069
 30
0.0
 11
68.46287366999193
 21
74.13388931888937
 31
0.0
  0
LINE
  5
204
330
70
100
AcDbEntity
  8
Visible (ISO)
100
AcDbLine
 10
59.61740475471445
 20
55.69835844721419
 30
0.0
 11
68.41590016697222
 21
55.69835844721419
 31
0.0
  0
LINE
  5
205
330
70
100
AcDbEntity
  8
Visible (ISO)
100
AcDbLine
 10
59.60810543774741
 20
59.34698832704579
 30
0.0
 11
68.42519948393927
 21
59.34698832704579
 31
0.0
  0
LINE
  5
206
330
70
100
AcDbEntity
  8
Visible (ISO)
100
AcDbLine
 10
59.60329823366578
 20
61.23525943946611
 30
0.0
 11
68.4300066880209
 21
61.23525943946611
 31
0.0
  0
LINE
  5
207
330
70
100
AcDbEntity
  8
Visible (ISO)
100
AcDbLine
 10
59.58470285322698
 20
68.53251919912932
 30
0.0
 11
68.44860206845969
 21
68.53251919912932
 31
0.0
  0
LINE
  5
208
330
70
100
AcDbEntity
  8
Visible (ISO)
100
AcDbLine
 10
59.57988638756356
 20
70.42079031154964
 30
0.0
 11
68.4534185341231
 21
70.42079031154964
 31
0.0
  0
LINE
  5
209
330
70
100
AcDbEntity
  8
Visible (ISO)
100
AcDbLine
 10
59.57059032221935
 20
74.06942019138125
 30
0.0
 11
68.46271459946733
 21
74.06942019138125
 31
0.0
  0
LINE
  5
20A
330
70
100
AcDbEntity
  8
Visible (ISO)
100
AcDbLine
 10
59.61757420837014
 20
55.63388931929772
 30
0.0
 11
68.41573071331652
 21
55.63388931929772
 31
0.0
  0
LINE
  5
20B
330
70
100
AcDbEntity
  8
Visible (ISO)
100
AcDbLine
 10
59.57043125216729
 20
74.13388931929772
 30
0.0
 11
68.46287366951938
 21
74.13388931929772
 31
0.0
  0
SPLINE
  5
20C
330
70
100
AcDbEntity
  8
Visible (ISO)
100
AcDbSpline
210
0.0
220
0.0
230
1.0
 70
     8
 71
     3
 72
     8
 73
     4
 74
     0
 42
0.000000001
 43
0.0000000001
 40
4.069806568453929
 40
4.069806568453929
 40
4.069806568453929
 40
4.069806568453929
 40
4.177124186456814
 40
4.177124186456814
 40
4.177124186456814
 40
4.177124186456814
 10
59.61740475471445
 20
55.69835844721419
 30
0.0
 10
59.61751732187302
 20
55.65477269232539
 30
0.0
 10
59.61757226724632
 20
55.63389268101627
 30
0.0
 10
59.61757420789966
 20
55.63388931970607
 30
0.0
  0
SPLINE
  5
20D
330
70
100
AcDbEntity
  8
Visible (ISO)
100
AcDbSpline
210
0.0
220
0.0
230
1.0
 70
    12
 71
     2
 72
     6
 73
     3
 74
     0
 42
0.000000001
 43
0.0000000001
 40
0.3006765647426856
 40
0.3006765647426856
 40
0.3006765647426856
 40
1.116924309062172
 40
1.116924309062172
 40
1.116924309062172
 10
59.60810543774741
 20
59.34698832704579
 30
0.0
 41
1.096338511801205
 10
58.78474626493493
 20
57.52425615590002
 30
0.0
 41
1.191768356554788
 10
59.61740475471444
 20
55.69835844721419
 30
0.0
 41
1.095347893909632
  0
SPLINE
  5
20E
330
70
100
AcDbEntity
  8
Visible (ISO)
100
AcDbSpline
210
0.0
220
0.0
230
1.0
 70
     8
 71
     3
 72
     8
 73
     4
 74
     0
 42
0.000000001
 43
0.0000000001
 40
3.142729944404867
 40
3.142729944404867
 40
3.142729944404867
 40
3.142729944404867
 40
3.350046040583589
 40
3.350046040583589
 40
3.350046040583589
 40
3.350046040583589
 10
59.60329823366578
 20
61.23525943946611
 30
0.0
 10
59.60501492638436
 20
60.5610325708176
 30
0.0
 10
59.60664160280692
 20
59.92203360016286
 30
0.0
 10
59.60810543774741
 20
59.34698832704579
 30
0.0
  0
SPLINE
  5
20F
330
70
100
AcDbEntity
  8
Visible (ISO)
100
AcDbSpline
210
0.0
220
0.0
230
1.0
 70
    12
 71
     2
 72
     6
 73
     3
 74
     0
 42
0.000000001
 43
0.0000000001
 40
0.306490788774618
 40
0.306490788774618
 40
0.306490788774618
 40
1.124636459553174
 40
1.124636459553174
 40
1.124636459553174
 10
59.58470285322698
 20
68.53251919912932
 30
0.0
 41
1.099036745105105
 10
58.7630839374486
 20
64.8902415162476
 30
0.0
 41
1.194926045466023
 10
59.60329823366578
 20
61.23525943946612
 30
0.0
 41
1.097044292848638
  0
SPLINE
  5
210
330
70
100
AcDbEntity
  8
Visible (ISO)
100
AcDbSpline
210
0.0
220
0.0
230
1.0
 70
     8
 71
     3
 72
     8
 73
     4
 74
     0
 42
0.000000001
 43
0.0000000001
 40
2.216470924017539
 40
2.216470924017539
 40
2.216470924017539
 40
2.216470924017539
 40
2.423616388942817
 40
2.423616388942817
 40
2.423616388942817
 40
2.423616388942817
 10
59.57988638756356
 20
70.42079031154964
 30
0.0
 10
59.58135408376548
 20
69.84543910024547
 30
0.0
 10
59.58298413142781
 20
69.20642720721878
 30
0.0
 10
59.58470285322698
 20
68.53251919912932
 30
0.0
  0
SPLINE
  5
211
330
70
100
AcDbEntity
  8
Visible (ISO)
100
AcDbSpline
210
0.0
220
0.0
230
1.0
 70
    12
 71
     2
 72
     6
 73
     3
 74
     0
 42
0.000000001
 43
0.0000000001
 40
0.3080325734070508
 40
0.3080325734070508
 40
0.3080325734070508
 40
1.128101733133594
 40
1.128101733133594
 40
1.128101733133594
 10
59.57059032221935
 20
74.06942019138125
 30
0.0
 41
1.10075461966259
 10
58.74139228293463
 20
72.24669862099464
 30
0.0
 41
1.198114783114959
 10
59.57988638756355
 20
70.42079031154964
 30
0.0
 41
1.0997527324847
  0
SPLINE
  5
212
330
70
100
AcDbEntity
  8
Visible (ISO)
100
AcDbSpline
210
0.0
220
0.0
230
1.0
 70
     8
 71
     3
 72
    10
 73
     6
 74
     0
 42
0.000000001
 43
0.0000000001
 40
1.389644981891071
 40
1.389644981891071
 40
1.389644981891071
 40
1.389644981891071
 40
1.389653673492769
 40
1.389653673492769
 40
1.496941367873947
 40
1.496941367873947
 40
1.496941367873947
 40
1.496941367873947
 10
59.57043125216731
 20
74.13388931929521
 30
0.0
 10
59.57043125200943
 20
74.13388931929688
 30
0.0
 10
59.5704312518519
 20
74.13388931916161
 30
0.0
 10
59.57042931158249
 20
74.1338859585164
 30
0.0
 10
59.57048074216143
 20
74.11301542955306
 30
0.0
 10
59.57059032221935
 20
74.06942019138125
 30
0.0
  0
LINE
  5
213
330
70
100
AcDbEntity
  8
Visible (ISO)
100
AcDbLine
 10
59.01665246084334
 20
73.17471631698069
 30
0.0
 11
59.01665246084334
 21
56.67471631698069
 31
0.0
  0
LINE
  5
214
330
70
100
AcDbEntity
  8
Visible (ISO)
100
AcDbLine
 10
59.01665246084334
 20
73.17471631698069
 30
0.0
 11
59.57043125169473
 21
74.13388931888937
 31
0.0
  0
LINE
  5
215
330
70
100
AcDbEntity
  8
Visible (ISO)
100
AcDbLine
 10
59.01665246084334
 20
56.67471631698069
 30
0.0
 11
59.61757420789966
 21
55.63388931970607
 31
0.0
  0
LINE
  5
216
330
70
100
AcDbEntity
  8
Visible (ISO)
100
AcDbLine
 10
51.10544011460645
 20
71.38067843116079
 30
0.0
 11
59.01665246084334
 21
71.62790381698069
 31
0.0
  0
LINE
  5
217
330
70
100
AcDbEntity
  8
Visible (ISO)
100
AcDbLine
 10
51.10544011460645
 20
58.4687542028006
 30
0.0
 11
59.01665246084334
 21
58.2215288169807
 31
0.0
  0
LINE
  5
218
330
70
100
AcDbEntity
  8
Visible (ISO)
100
AcDbLine
 10
69.01665246084333
 20
73.17471631698069
 30
0.0
 11
73.51665246084334
 21
73.17471631698069
 31
0.0
  0
LINE
  5
219
330
70
100
AcDbEntity
  8
Visible (ISO)
100
AcDbLine
 10
69.01665246084333
 20
56.67471631698069
 30
0.0
 11
73.51665246084334
 21
56.67471631698069
 31
0.0
  0
ARC
  5
21A
330
70
100
AcDbEntity
  8
Visible (ISO)
100
AcDbCircle
 10
100.0166524608433
 20
91.44367184035838
 30
0.0
 40
5.999999999999998
100
AcDbArc
 50
264.4198332155256
 51
0.0
  0
LINE
  5
21B
330
70
100
AcDbEntity
  8
Visible (ISO)
100
AcDbLine
 10
106.0166524608433
 20
93.42471631698069
 30
0.0
 11
106.0166524608433
 21
91.44367184035836
 31
0.0
  0
ARC
  5
21C
330
70
100
AcDbEntity
  8
Visible (ISO)
100
AcDbCircle
 10
100.4056060251091
 20
95.42471631698068
 30
0.0
 40
10.0
100
AcDbArc
 50
203.5781784782018
 51
264.4198332155255
  0
LINE
  5
21D
330
70
100
AcDbEntity
  8
Visible (ISO)
100
AcDbLine
 10
108.19208932238
 20
93.42471631698069
 30
0.0
 11
106.0166524608433
 21
93.42471631698069
 31
0.0
  0
LINE
  5
21E
330
70
100
AcDbEntity
  8
Visible (ISO)
100
AcDbLine
 10
126.0166524608433
 20
93.42471631698069
 30
0.0
 11
108.19208932238
 21
93.42471631698069
 31
0.0
  0
ARC
  5
21F
330
70
100
AcDbEntity
  8
Visible (ISO)
100
AcDbCircle
 10
121.0166524608433
 20
86.4247163169807
 30
0.0
 40
4.999999999999995
100
AcDbArc
 50
270.0
 51
0.0
  0
LINE
  5
220
330
70
100
AcDbEntity
  8
Visible (ISO)
100
AcDbLine
 10
113.0166524608433
 20
81.4247163169807
 30
0.0
 11
121.0166524608433
 21
81.4247163169807
 31
0.0
  0
SPLINE
  5
221
330
70
100
AcDbEntity
  8
Visible (ISO)
100
AcDbSpline
210
0.0
220
0.0
230
1.0
 70
     8
 71
     3
 72
    14
 73
    10
 74
     0
 42
0.000000001
 43
0.0000000001
 40
0.0979815127343829
 40
0.0979815127343829
 40
0.0979815127343829
 40
0.0979815127343829
 40
0.1506624850332004
 40
0.1506624850332004
 40
0.3013249700664007
 40
0.3013249700664007
 40
0.4554237426914714
 40
0.4554237426914714
 40
0.5051911393277391
 40
0.5051911393277391
 40
0.5051911393277391
 40
0.5051911393277391
 10
92.51665246084334
 20
75.42471631698069
 30
0.0
 10
92.56284735597942
 20
75.60362837652256
 30
0.0
 10
92.62177926914821
 20
75.78032467361925
 30
0.0
 10
92.89515695225778
 20
76.44216910010332
 30
0.0
 10
93.19974717425871
 20
76.88851695031835
 30
0.0
 10
93.90559323655518
 20
77.60065260256197
 30
0.0
 10
94.35717450441513
 20
77.91130263187348
 30
0.0
 10
95.01165728205453
 20
78.18385569968677
 30
0.0
 10
95.1757933010646
 20
78.23997829775911
 30
0.0
 10
95.341938850281
 20
78.28507006848785
 30
0.0
  0
LINE
  5
222
330
70
100
AcDbEntity
  8
Visible (ISO)
100
AcDbLine
 10
95.341938850281
 20
78.28507006848785
 30
0.0
 11
101.1221719512793
 21
79.8538207631545
 31
0.0
  0
SPLINE
  5
223
330
70
100
AcDbEntity
  8
Visible (ISO)
100
AcDbSpline
210
0.0
220
0.0
230
1.0
 70
     8
 71
     3
 72
    10
 73
     6
 74
     0
 42
0.000000001
 43
0.0000000001
 40
5.578615183636053
 40
5.578615183636053
 40
5.578615183636053
 40
5.578615183636053
 40
6.021510703961547
 40
6.021510703961547
 40
6.267952460891863
 40
6.267952460891863
 40
6.267952460891863
 40
6.267952460891863
 10
101.1221719512793
 20
79.85382076315449
 30
0.0
 10
102.5688889734096
 20
80.24645861941344
 30
0.0
 10
104.0710010081902
 20
80.5758497941145
 30
0.0
 10
106.458947890797
 20
80.96862288533925
 30
0.0
 10
107.3226347219462
 20
81.08533406178215
 30
0.0
 10
108.19208932238
 20
81.17697107175162
 30
0.0
  0
ARC
  5
224
330
70
100
AcDbEntity
  8
Visible (ISO)
100
AcDbCircle
 10
112.9087965697431
 20
36.42471631697682
 30
0.0
 40
45.00012925418761
100
AcDbArc
 50
89.86267387728107
 51
96.01653196780475
  0
LINE
  5
225
330
70
100
AcDbEntity
  8
Visible (ISO)
100
AcDbLine
 10
92.51665246084332
 20
75.42471631698069
 30
0.0
 11
93.01665246084333
 21
75.42471631698069
 31
0.0
  0
LINE
  5
226
330
70
100
AcDbEntity
  8
Visible (ISO)
100
AcDbLine
 10
93.01665246084333
 20
75.42471631698069
 30
0.0
 11
93.08737116164104
 21
76.68193766449563
 31
0.0
  0
SPLINE
  5
227
330
70
100
AcDbEntity
  8
Visible (ISO)
100
AcDbSpline
210
0.0
220
0.0
230
1.0
 70
     8
 71
     3
 72
    10
 73
     6
 74
     0
 42
0.000000001
 43
0.0000000001
 40
1.741738255902264
 40
1.741738255902264
 40
1.741738255902264
 40
1.741738255902264
 40
1.747035871281402
 40
1.747035871281402
 40
1.758510453691923
 40
1.758510453691923
 40
1.758510453691923
 40
1.758510453691923
 10
88.01665246084333
 20
75.46253324078067
 30
0.0
 10
88.03239506433857
 20
75.45489606529788
 30
0.0
 10
88.04843328287937
 20
75.44827233540283
 30
0.0
 10
88.09991916494219
 20
75.43100508358316
 30
0.0
 10
88.13620841057046
 20
75.42471631698069
 30
0.0
 10
88.1725977112705
 20
75.42471631698068
 30
0.0
  0
SPLINE
  5
228
330
70
100
AcDbEntity
  8
Visible (ISO)
100
AcDbSpline
210
0.0
220
0.0
230
1.0
 70
     8
 71
     3
 72
     8
 73
     4
 74
     0
 42
0.000000001
 43
0.0000000001
 40
-0.0038487374224739
 40
-0.0038487374224739
 40
-0.0038487374224739
 40
-0.0038487374224739
 40
0.0
 40
0.0
 40
0.0
 40
0.0
 10
88.02345181876038
 20
75.42471631698069
 30
0.0
 10
88.02118492710654
 20
75.43732187846817
 30
0.0
 10
88.01891847445377
 20
75.44992752069176
 30
0.0
 10
88.01665246084333
 20
75.46253324078067
 30
0.0
  0
LINE
  5
229
330
70
100
AcDbEntity
  8
Visible (ISO)
100
AcDbLine
 10
88.17259771127053
 20
75.42471631698069
 30
0.0
 11
88.02345181876164
 21
75.42471631698069
 31
0.0
  0
SPLINE
  5
22A
330
70
100
AcDbEntity
  8
Visible (ISO)
100
AcDbSpline
210
0.0
220
0.0
230
1.0
 70
     8
 71
     3
 72
    22
 73
    18
 74
     0
 42
0.000000001
 43
0.0000000001
 40
1.758510453691923
 40
1.758510453691923
 40
1.758510453691923
 40
1.758510453691923
 40
1.769985036102444
 40
1.769985036102444
 40
1.781459618512965
 40
1.781459618512965
 40
1.804408783334006
 40
1.804408783334006
 40
1.879967807849264
 40
1.879967807849264
 40
1.955526832364522
 40
1.955526832364522
 40
2.150713591741938
 40
2.150713591741938
 40
2.345900351119354
 40
2.345900351119354
 40
2.573780108621498
 40
2.573780108621498
 40
2.573780108621498
 40
2.573780108621498
 10
88.1725977112705
 20
75.42471631698068
 30
0.0
 10
88.20898701197053
 20
75.42471631698068
 30
0.0
 10
88.2452974409893
 20
75.43100508358351
 30
0.0
 10
88.31582445836431
 20
75.45463162394428
 30
0.0
 10
88.35004390318809
 20
75.47195993095411
 30
0.0
 10
88.44750605917385
 20
75.53541263205353
 30
0.0
 10
88.50572963880878
 20
75.59314891919242
 30
0.0
 10
88.71367307877607
 20
75.83858097785287
 30
0.0
 10
88.83206518022165
 20
76.07942781122344
 30
0.0
 10
89.04450143092129
 20
76.57838368916689
 30
0.0
 10
89.13435324707522
 20
76.83844670054177
 30
0.0
 10
89.40572475809084
 20
77.69516863226406
 30
0.0
 10
89.56136829758333
 20
78.33705740847091
 30
0.0
 10
89.84824436545421
 20
79.64974573510835
 30
0.0
 10
89.97691925325547
 20
80.32115669201276
 30
0.0
 10
90.23868291730087
 20
81.7986826345408
 30
0.0
 10
90.36851520754495
 20
82.60829242699138
 30
0.0
 10
90.49119934492379
 20
83.42471631698069
 30
0.0
  0
LINE
  5
22B
330
70
100
AcDbEntity
  8
Visible (ISO)
100
AcDbLine
 10
92.51665246084334
 20
75.42471631698069
 30
0.0
 11
88.17259771127057
 21
75.42471631698069
 31
0.0
  0
LINE
  5
22C
330
70
100
AcDbEntity
  8
Visible (ISO)
100
AcDbLine
 10
89.73098858914076
 20
84.41945989497133
 30
0.0
 11
108.19208932238
 21
84.41945989497133
 31
0.0
  0
SPLINE
  5
22D
330
70
100
AcDbEntity
  8
Visible (ISO)
100
AcDbSpline
210
0.0
220
0.0
230
1.0
 70
     8
 71
     3
 72
    10
 73
     6
 74
     0
 42
0.000000001
 43
0.0000000001
 40
1.026679612955202
 40
1.026679612955202
 40
1.026679612955202
 40
1.026679612955202
 40
1.054986950396901
 40
1.054986950396901
 40
1.150372975748469
 40
1.150372975748469
 40
1.150372975748469
 40
1.150372975748469
 10
90.49119934492379
 20
83.42471631698069
 30
0.0
 10
90.44001390823803
 20
83.50332157652571
 30
0.0
 10
90.38798564873125
 20
83.58096990236692
 30
0.0
 10
90.15637806946246
 20
83.91560312528461
 30
0.0
 10
89.95396818231307
 20
84.18025303048148
 30
0.0
 10
89.73098858914076
 20
84.41945989497133
 30
0.0
  0
LINE
  5
22E
330
70
100
AcDbEntity
  8
Visible (ISO)
100
AcDbLine
 10
126.0166524608433
 20
86.4247163169807
 30
0.0
 11
126.0166524608433
 21
93.42471631698069
 31
0.0
  0
LINE
  5
22F
330
70
100
AcDbEntity
  8
Visible (ISO)
100
AcDbLine
 10
88.01665246084333
 20
75.42471631698069
 30
0.0
 11
88.02345181876038
 21
75.42471631698069
 31
0.0
  0
SPLINE
  5
230
330
70
100
AcDbEntity
  8
Visible (ISO)
100
AcDbSpline
210
0.0
220
0.0
230
1.0
 70
    28
 71
     2
 72
     6
 73
     3
 74
     0
 42
0.000000001
 43
0.0000000001
 40
0.0
 40
0.0
 40
0.0
 40
0.0039177008118712
 40
0.0039177008118712
 40
0.0039177008118712
 10
88.01665246084333
 20
75.42471631698069
 30
0.0
 41
1.0
 10
88.01665246084333
 20
75.44362165105346
 30
0.0
 41
1.000002569573184
 10
88.01665246084333
 20
75.46253324078067
 30
0.0
 41
1.000005114022333
  0
LINE
  5
231
330
70
100
AcDbEntity
  8
Visible (ISO)
100
AcDbLine
 10
79.01665246084333
 20
75.42471631698069
 30
0.0
 11
88.01665246084333
 21
75.42471631698069
 31
0.0
  0
LINE
  5
232
330
70
100
AcDbEntity
  8
Visible (ISO)
100
AcDbLine
 10
78.56665246084334
 20
83.42471631698069
 30
0.0
 11
90.49119934492379
 21
83.42471631698069
 31
0.0
  0
LINE
  5
233
330
70
100
AcDbEntity
  8
Visible (ISO)
100
AcDbLine
 10
80.51665246084333
 20
91.4247163169807
 30
0.0
 11
78.56665246084334
 21
83.42471631698067
 31
0.0
  0
LINE
  5
234
330
70
100
AcDbEntity
  8
Visible (ISO)
100
AcDbLine
 10
79.01665246084333
 20
75.42471631698069
 30
0.0
 11
78.56665246084334
 21
83.42471631698069
 31
0.0
  0
SPLINE
  5
235
330
70
100
AcDbEntity
  8
Visible (ISO)
100
AcDbSpline
210
0.0
220
0.0
230
1.0
 70
    12
 71
     2
 72
     6
 73
     3
 74
     0
 42
0.000000001
 43
0.0000000001
 40
0.0894691240021865
 40
0.0894691240021865
 40
0.0894691240021865
 40
0.8244898720284863
 40
0.8244898720284863
 40
0.8244898720284863
 10
92.96859329916054
 20
84.41945989497135
 30
0.0
 41
1.00231088921009
 10
91.98841759217613
 20
88.40947997713479
 30
0.0
 41
1.010647833933487
 10
91.2404546351974
 20
91.4247163169807
 30
0.0
 41
1.0
  0
LINE
  5
236
330
70
100
AcDbEntity
  8
Visible (ISO)
100
AcDbLine
 10
108.19208932238
 20
84.41945989497135
 30
0.0
 11
108.19208932238
 21
93.42471631698069
 31
0.0
  0
LINE
  5
237
330
70
100
AcDbEntity
  8
Visible (ISO)
100
AcDbLine
 10
91.51665246084334
 20
91.4247163169807
 30
0.0
 11
91.77128682383683
 21
90.38006252008432
 31
0.0
  0
SPLINE
  5
238
330
70
100
AcDbEntity
  8
Visible (ISO)
100
AcDbSpline
210
0.0
220
0.0
230
1.0
 70
     8
 71
     3
 72
    19
 73
    15
 74
     0
 42
0.000000001
 43
0.0000000001
 40
-1.019253894380656
 40
-1.019253894380656
 40
-1.019253894380656
 40
-1.019253894380656
 40
-0.8380733322482749
 40
-0.8380733322482749
 40
-0.6905008978664565
 40
-0.6905008978664565
 40
-0.5587155548321833
 40
-0.5587155548321833
 40
-0.5587155548321833
 40
-0.4269302117979099
 40
-0.4269302117979099
 40
-0.2793577774160916
 40
-0.2793577774160916
 40
-0.0981772152837096
 40
-0.0981772152837096
 40
-0.0981772152837096
 40
-0.0981772152837096
 10
81.41132420343176
 20
91.97479674064403
 30
0.0
 10
82.01441090259551
 20
92.00697662035066
 30
0.0
 10
82.61750671307042
 20
92.03909231962596
 30
0.0
 10
83.71192822061891
 20
92.09666449424387
 30
0.0
 10
84.20316890786407
 20
92.12249157254925
 30
0.0
 10
85.13384061072775
 20
92.16803653182843
 30
0.0
 10
85.57343390479891
 20
92.19214017034254
 30
0.0
 10
86.01665246084335
 20
92.19214017034254
 30
0.0
 10
86.45987101688776
 20
92.19214017034254
 30
0.0
 10
86.89946431095892
 20
92.16803653182843
 30
0.0
 10
87.83013601382263
 20
92.12249157254925
 30
0.0
 10
88.32137670106774
 20
92.09666449424387
 30
0.0
 10
89.41579820861624
 20
92.03909231962596
 30
0.0
 10
90.01889401909116
 20
92.00697662035066
 30
0.0
 10
90.62198071825491
 20
91.97479674064403
 30
0.0
  0
ARC
  5
239
330
70
100
AcDbEntity
  8
Visible (ISO)
100
AcDbCircle
 10
90.61665246084334
 20
91.87703800462205
 30
0.0
 40
0.1
100
AcDbArc
 50
86.91978986335724
 51
98.6979721621757
  0
ARC
  5
23A
330
70
100
AcDbEntity
  8
Visible (ISO)
100
AcDbCircle
 10
81.41665246084333
 20
91.87703800462205
 30
0.0
 40
0.1
100
AcDbArc
 50
81.30202783782431
 51
93.08021013664278
  0
LINE
  5
23B
330
70
100
AcDbEntity
  8
Visible (ISO)
100
AcDbLine
 10
80.11665246084334
 20
91.4247163169807
 30
0.0
 11
80.01665246084334
 21
91.4247163169807
 31
0.0
  0
LINE
  5
23C
330
70
100
AcDbEntity
  8
Visible (ISO)
100
AcDbLine
 10
80.01665246084334
 20
91.82471631698069
 30
0.0
 11
80.01665246084334
 21
91.4247163169807
 31
0.0
  0
SPLINE
  5
23D
330
70
100
AcDbEntity
  8
Visible (ISO)
100
AcDbSpline
210
0.0
220
0.0
230
1.0
 70
     8
 71
     3
 72
    20
 73
    16
 74
     0
 42
0.000000001
 43
0.0000000001
 40
-0.1167463837654997
 40
-0.1167463837654997
 40
-0.1167463837654997
 40
-0.1167463837654997
 40
-0.1163267376802986
 40
-0.1163267376802986
 40
-0.1148286972977117
 40
-0.1148286972977117
 40
-0.111636749464689
 40
-0.111636749464689
 40
-0.107278172338819
 40
-0.107278172338819
 40
-0.1040400035181946
 40
-0.1040400035181946
 40
-0.1011279500247179
 40
-0.1011279500247179
 40
-0.100530888678917
 40
-0.100530888678917
 40
-0.100530888678917
 40
-0.100530888678917
 10
80.69064658026062
 20
91.92471631698069
 30
0.0
 10
80.69092722782263
 20
91.92471631698069
 30
0.0
 10
80.69115953570774
 20
91.92469924379134
 30
0.0
 10
80.69198438871785
 20
91.92453607418428
 30
0.0
 10
80.69191797448935
 20
91.92418403166968
 30
0.0
 10
80.69013596900404
 20
91.92238984797098
 30
0.0
 10
80.68662590964549
 20
91.92008270826319
 30
0.0
 10
80.67715561446362
 20
91.91200285611811
 30
0.0
 10
80.6700174419357
 20
91.90471468013162
 30
0.0
 10
80.65879245176075
 20
91.88602380210925
 30
0.0
 10
80.65469616288419
 20
91.87669411964485
 30
0.0
 10
80.64919072237186
 20
91.85684347467825
 30
0.0
 10
80.64761239111021
 20
91.84676706739308
 30
0.0
 10
80.64718748944189
 20
91.83421439535084
 30
0.0
 10
80.6471672603083
 20
91.8320809082971
 30
0.0
 10
80.64719843130854
 20
91.82995280283277
 30
0.0
  0
LINE
  5
23E
330
70
100
AcDbEntity
  8
Visible (ISO)
100
AcDbLine
 10
80.69064658026062
 20
91.92471631698069
 30
0.0
 11
80.11665246084334
 21
91.92471631698069
 31
0.0
  0
SPLINE
  5
23F
330
70
100
AcDbEntity
  8
Visible (ISO)
100
AcDbSpline
210
0.0
220
0.0
230
1.0
 70
     8
 71
     3
 72
     8
 73
     4
 74
     0
 42
0.000000001
 43
0.0000000001
 40
0.030117303607032
 40
0.030117303607032
 40
0.030117303607032
 40
0.030117303607032
 40
0.0306368404626457
 40
0.0306368404626457
 40
0.0306368404626457
 40
0.0306368404626457
 10
80.64719843130857
 20
91.82995280283259
 30
0.0
 10
80.64722417367637
 20
91.8281953207809
 30
0.0
 10
80.64723675706327
 20
91.82644810649939
 30
0.0
 10
80.64723675706327
 20
91.82471631698069
 30
0.0
  0
ARC
  5
240
330
70
100
AcDbEntity
  8
Visible (ISO)
100
AcDbCircle
 10
80.11665246084334
 20
91.82471631698069
 30
0.0
 40
0.0999999999999998
100
AcDbArc
 50
90.0
 51
180.0
  0
LINE
  5
241
330
70
100
AcDbEntity
  8
Visible (ISO)
100
AcDbLine
 10
92.01665246084333
 20
91.4247163169807
 30
0.0
 11
91.91665246084333
 21
91.4247163169807
 31
0.0
  0
SPLINE
  5
242
330
70
100
AcDbEntity
  8
Visible (ISO)
100
AcDbSpline
210
0.0
220
0.0
230
1.0
 70
     8
 71
     3
 72
     8
 73
     4
 74
     0
 42
0.000000001
 43
0.0000000001
 40
0.0306368404626457
 40
0.0306368404626457
 40
0.0306368404626457
 40
0.0306368404626457
 40
0.0311564612047215
 40
0.0311564612047215
 40
0.0311564612047215
 40
0.0311564612047215
 10
91.3860681646234
 20
91.82471631698069
 30
0.0
 10
91.3860681646234
 20
91.82644838612095
 30
0.0
 10
91.38608075177137
 20
91.82819557755554
 30
0.0
 10
91.38610649037813
 20
91.82995280283273
 30
0.0
  0
LINE
  5
243
330
70
100
AcDbEntity
  8
Visible (ISO)
100
AcDbLine
 10
91.91665246084333
 20
91.92471631698069
 30
0.0
 11
91.34265834142604
 21
91.92471631698069
 31
0.0
  0
SPLINE
  5
244
330
70
100
AcDbEntity
  8
Visible (ISO)
100
AcDbSpline
210
0.0
220
0.0
230
1.0
 70
     8
 71
     3
 72
    18
 73
    14
 74
     0
 42
0.000000001
 43
0.0000000001
 40
-0.1028855666828686
 40
-0.1028855666828686
 40
-0.1028855666828686
 40
-0.1028855666828686
 40
-0.1004689900059198
 40
-0.1004689900059198
 40
-0.0980358109280614
 40
-0.0980358109280614
 40
-0.093790661072223
 40
-0.093790661072223
 40
-0.0887468381604296
 40
-0.0887468381604296
 40
-0.0865906319794494
 40
-0.0865906319794494
 40
-0.0854228207007943
 40
-0.0854228207007943
 40
-0.0854228207007943
 40
-0.0854228207007943
 10
91.38610649037806
 20
91.82995280282833
 30
0.0
 10
91.38622430364799
 20
91.83799614635441
 30
0.0
 10
91.38560500480606
 20
91.84590739913435
 30
0.0
 10
91.38303696923294
 20
91.86119602651148
 30
0.0
 10
91.3811017898511
 20
91.86843492506421
 30
0.0
 10
91.37441503785636
 20
91.88681981398881
 30
0.0
 10
91.36869146946802
 20
91.89664429800096
 30
0.0
 10
91.35522314440704
 20
91.91357991833294
 30
0.0
 10
91.34805222167583
 20
91.91887410310645
 30
0.0
 10
91.34271399831781
 20
91.92290707278489
 30
0.0
 10
91.34148793633347
 20
91.92383362208564
 30
0.0
 10
91.34151429351518
 20
91.92459302217603
 30
0.0
 10
91.34189763549347
 20
91.92471631698069
 30
0.0
 10
91.34265834142604
 20
91.92471631698069
 30
0.0
  0
LINE
  5
245
330
70
100
AcDbEntity
  8
Visible (ISO)
100
AcDbLine
 10
92.01665246084333
 20
91.4247163169807
 30
0.0
 11
92.01665246084333
 21
91.82471631698069
 31
0.0
  0
ARC
  5
246
330
70
100
AcDbEntity
  8
Visible (ISO)
100
AcDbCircle
 10
91.91665246084333
 20
91.82471631698069
 30
0.0
 40
0.1000000000000001
100
AcDbArc
 50
0.0
 51
90.0
  0
LINE
  5
247
330
70
100
AcDbEntity
  8
Visible (ISO)
100
AcDbLine
 10
91.3860681646234
 20
91.4247163169807
 30
0.0
 11
91.91665246084333
 21
91.4247163169807
 31
0.0
  0
LINE
  5
248
330
70
100
AcDbEntity
  8
Visible (ISO)
100
AcDbLine
 10
91.3860681646234
 20
91.4247163169807
 30
0.0
 11
80.64723675706327
 21
91.4247163169807
 31
0.0
  0
LINE
  5
249
330
70
100
AcDbEntity
  8
Visible (ISO)
100
AcDbLine
 10
80.11665246084334
 20
91.4247163169807
 30
0.0
 11
80.64723675706327
 21
91.4247163169807
 31
0.0
  0
LINE
  5
24A
330
70
100
AcDbEntity
  8
Visible (ISO)
100
AcDbLine
 10
91.3860681646234
 20
91.82471631698069
 30
0.0
 11
91.3860681646234
 21
91.4247163169807
 31
0.0
  0
LINE
  5
24B
330
70
100
AcDbEntity
  8
Visible (ISO)
100
AcDbLine
 10
80.64723675706327
 20
91.82471631698069
 30
0.0
 11
80.64723675706327
 21
91.4247163169807
 31
0.0
  0
LINE
  5
24C
330
70
100
AcDbEntity
  8
Visible (ISO)
100
AcDbLine
 10
90.62202585253567
 20
91.97689353357123
 30
0.0
 11
91.49702585253567
 21
91.92980833177754
 31
0.0
  0
LINE
  5
24D
330
70
100
AcDbEntity
  8
Visible (ISO)
100
AcDbLine
 10
81.411279069151
 20
91.97689353357123
 30
0.0
 11
80.53627906915099
 21
91.92980833177754
 31
0.0
  0
ARC
  5
24E
330
70
100
AcDbEntity
  8
Visible (ISO)
100
AcDbCircle
 10
80.54165246084336
 20
91.82995280282833
 30
0.0
 40
0.1
100
AcDbArc
 50
93.08021013665239
 51
108.6239246438592
  0
ARC
  5
24F
330
70
100
AcDbEntity
  8
Visible (ISO)
100
AcDbCircle
 10
91.49165246084335
 20
91.82995280282833
 30
0.0
 40
0.1
100
AcDbArc
 50
71.37607535615041
 51
86.91978986335724
  0
LINE
  5
250
330
70
100
AcDbEntity
  8
Visible (ISO)
100
AcDbLine
 10
95.76665246086013
 20
135.4531371291873
 30
0.0
 11
95.76665246086013
 21
140.7544577957662
 31
0.0
  0
LINE
  5
251
330
70
100
AcDbEntity
  8
Visible (ISO)
100
AcDbLine
 10
95.76665246086013
 20
120.7544577957662
 30
0.0
 11
95.76665246086013
 21
126.0557784623504
 31
0.0
  0
LINE
  5
252
330
70
100
AcDbEntity
  8
Visible (ISO)
100
AcDbLine
 10
96.01665246086014
 20
126.1039584769075
 30
0.0
 11
96.01665246086014
 21
121.0044577957662
 31
0.0
  0
LINE
  5
253
330
70
100
AcDbEntity
  8
Visible (ISO)
100
AcDbLine
 10
96.01665246086014
 20
140.5044577957662
 30
0.0
 11
96.01665246086014
 21
135.40495711463
 31
0.0
  0
LINE
  5
254
330
70
100
AcDbEntity
  8
Visible (ISO)
100
AcDbLine
 10
96.01665246086014
 20
121.0044577957662
 30
0.0
 11
95.76665246086013
 21
120.7544577957662
 31
0.0
  0
LINE
  5
255
330
70
100
AcDbEntity
  8
Visible (ISO)
100
AcDbLine
 10
96.01665246086014
 20
140.5044577957662
 30
0.0
 11
95.76665246086013
 21
140.7544577957662
 31
0.0
  0
LINE
  5
256
330
70
100
AcDbEntity
  8
Visible (ISO)
100
AcDbLine
 10
93.89861847211024
 20
125.6634216025683
 30
0.0
 11
93.89861847211024
 21
120.7544577957662
 31
0.0
  0
LINE
  5
257
330
70
100
AcDbEntity
  8
Visible (ISO)
100
AcDbLine
 10
93.89861847211024
 20
140.7544577957662
 30
0.0
 11
93.89861847211024
 21
135.8454939889693
 31
0.0
  0
ARC
  5
258
330
70
100
AcDbEntity
  8
Visible (ISO)
100
AcDbCircle
 10
95.01665246086014
 20
139.7544577957662
 30
0.0
 40
1.5
100
AcDbArc
 50
138.1896851042216
 51
180.0
  0
ARC
  5
259
330
70
100
AcDbEntity
  8
Visible (ISO)
100
AcDbCircle
 10
95.01665246086014
 20
121.7544577957662
 30
0.0
 40
1.5
100
AcDbArc
 50
180.0
 51
221.8103148957783
  0
LINE
  5
25A
330
70
100
AcDbEntity
  8
Visible (ISO)
100
AcDbLine
 10
78.13468644961004
 20
120.7544577957662
 30
0.0
 11
78.13468644961004
 21
140.7544577957662
 31
0.0
  0
ARC
  5
25B
330
70
100
AcDbEntity
  8
Visible (ISO)
100
AcDbCircle
 10
77.01665246086014
 20
121.7544577957662
 30
0.0
 40
1.5
100
AcDbArc
 50
318.1896851042214
 51
0.0
  0
ARC
  5
25C
330
70
100
AcDbEntity
  8
Visible (ISO)
100
AcDbCircle
 10
77.01665246086014
 20
139.7544577957662
 30
0.0
 40
1.5
100
AcDbArc
 50
0.0
 51
41.81031489577858
  0
LINE
  5
25D
330
70
100
AcDbEntity
  8
Visible (ISO)
100
AcDbLine
 10
76.13468644961002
 20
120.7544577957662
 30
0.0
 11
76.13468644961002
 21
140.7544577957662
 31
0.0
  0
LINE
  5
25E
330
70
100
AcDbEntity
  8
Visible (ISO)
100
AcDbLine
 10
76.13468644961002
 20
140.7544577957662
 30
0.0
 11
78.13468644961004
 21
140.7544577957662
 31
0.0
  0
LINE
  5
25F
330
70
100
AcDbEntity
  8
Visible (ISO)
100
AcDbLine
 10
76.13468644961002
 20
120.7544577957662
 30
0.0
 11
78.13468644961004
 21
120.7544577957662
 31
0.0
  0
LINE
  5
260
330
70
100
AcDbEntity
  8
Visible (ISO)
100
AcDbLine
 10
74.01665246086013
 20
137.2044577957662
 30
0.0
 11
76.13468644961004
 21
140.7544577957662
 31
0.0
  0
LINE
  5
261
330
70
100
AcDbEntity
  8
Visible (ISO)
100
AcDbLine
 10
74.01665246086013
 20
124.3044577957662
 30
0.0
 11
76.13468644961004
 21
120.7544577957662
 31
0.0
  0
LINE
  5
262
330
70
100
AcDbEntity
  8
Visible (ISO)
100
AcDbLine
 10
93.32210055158027
 20
139.2544577957676
 30
0.0
 11
78.71120437014034
 21
139.2544577957676
 31
0.0
  0
LINE
  5
263
330
70
100
AcDbEntity
  8
Visible (ISO)
100
AcDbLine
 10
93.32210055158
 20
122.2544577957676
 30
0.0
 11
78.71120437014003
 21
122.2544577957676
 31
0.0
  0
LINE
  5
264
330
70
100
AcDbEntity
  8
Visible (ISO)
100
AcDbLine
 10
95.76665246086013
 20
120.7544577957662
 30
0.0
 11
93.89861847211024
 21
120.7544577957662
 31
0.0
  0
LINE
  5
265
330
70
100
AcDbEntity
  8
Visible (ISO)
100
AcDbLine
 10
95.76665246086013
 20
140.7544577957662
 30
0.0
 11
93.89861847211024
 21
140.7544577957662
 31
0.0
  0
LINE
  5
266
330
70
100
AcDbEntity
  8
Visible (ISO)
100
AcDbLine
 10
110.0166524608601
 20
134.2544577957684
 30
0.0
 11
110.0166524608601
 21
138.7544577957662
 31
0.0
  0
LINE
  5
267
330
70
100
AcDbEntity
  8
Visible (ISO)
100
AcDbLine
 10
110.0166524608601
 20
122.7544577957663
 30
0.0
 11
110.0166524608601
 21
127.2544577957684
 31
0.0
  0
SPLINE
  5
268
330
70
100
AcDbEntity
  8
Visible (ISO)
100
AcDbSpline
210
0.0
220
0.0
230
1.0
 70
    12
 71
     2
 72
     6
 73
     3
 74
     0
 42
0.000000001
 43
0.0000000001
 40
0.1463461418658468
 40
0.1463461418658468
 40
0.1463461418658468
 40
0.6723852233744971
 40
0.6723852233744971
 40
0.6723852233744971
 10
108.9687879477104
 20
139.2544577957677
 30
0.0
 41
1.05155236556389
 10
106.2948587846683
 20
135.2552496999793
 30
0.0
 41
1.132890224107231
 10
109.7279773262651
 20
139.2544577957662
 30
0.0
 41
1.132890224107232
  0
SPLINE
  5
269
330
70
100
AcDbEntity
  8
Visible (ISO)
100
AcDbSpline
210
0.0
220
0.0
230
1.0
 70
    12
 71
     2
 72
     6
 73
     3
 74
     0
 42
0.000000001
 43
0.0000000001
 40
0.5726325441561574
 40
0.5726325441561574
 40
0.5726325441561574
 40
1.198424304883157
 40
1.198424304883157
 40
1.198424304883157
 10
109.7025717520607
 20
134.2544577957686
 30
0.0
 41
1.129965358938274
 10
109.8598111387072
 20
136.5813882227774
 30
0.0
 41
1.148314304934675
 10
108.9687879477104
 20
139.2544577957677
 30
0.0
 41
1.051552365563892
  0
SPLINE
  5
26A
330
70
100
AcDbEntity
  8
Visible (ISO)
100
AcDbSpline
210
0.0
220
0.0
230
1.0
 70
    12
 71
     2
 72
     6
 73
     3
 74
     0
 42
0.000000001
 43
0.0000000001
 40
0.1463461418658453
 40
0.1463461418658453
 40
0.1463461418658453
 40
0.7721379025928331
 40
0.7721379025928331
 40
0.7721379025928331
 10
108.9687879477104
 20
122.2544577957677
 30
0.0
 41
1.051552365563892
 10
109.8598111387072
 20
124.927527368759
 30
0.0
 41
1.148314304934672
 10
109.7025717520607
 20
127.2544577957686
 30
0.0
 41
1.129965358938274
  0
SPLINE
  5
26B
330
70
100
AcDbEntity
  8
Visible (ISO)
100
AcDbSpline
210
0.0
220
0.0
230
1.0
 70
    12
 71
     2
 72
     6
 73
     3
 74
     0
 42
0.000000001
 43
0.0000000001
 40
0.672385223374495
 40
0.672385223374495
 40
0.672385223374495
 40
1.198424304883158
 40
1.198424304883158
 40
1.198424304883158
 10
109.7279773262651
 20
122.2544577957663
 30
0.0
 41
1.132890224107234
 10
106.2948587846682
 20
118.7434677341056
 30
0.0
 41
1.132890224107235
 10
108.9687879477104
 20
122.2544577957677
 30
0.0
 41
1.051552365563891
  0
LINE
  5
26C
330
70
100
AcDbEntity
  8
Visible (ISO)
100
AcDbLine
 10
110.0166524608601
 20
122.7544577957663
 30
0.0
 11
109.7279773262652
 21
122.2544577957662
 31
0.0
  0
LINE
  5
26D
330
70
100
AcDbEntity
  8
Visible (ISO)
100
AcDbLine
 10
110.0166524608601
 20
138.7544577957662
 30
0.0
 11
109.7279773262652
 21
139.2544577957663
 31
0.0
  0
SPLINE
  5
26E
330
70
100
AcDbEntity
  8
Visible (ISO)
100
AcDbSpline
210
0.0
220
0.0
230
1.0
 70
    12
 71
     2
 72
     6
 73
     3
 74
     0
 42
0.000000001
 43
0.0000000001
 40
0.0606773123555736
 40
0.0606773123555736
 40
0.0606773123555736
 40
0.5686770472520165
 40
0.5686770472520165
 40
0.5686770472520165
 10
97.0645169740098
 20
122.2544577957677
 30
0.0
 41
1.019972620773999
 10
93.82143583743616
 20
118.7434677341052
 30
0.0
 41
1.098867777556916
 10
96.30532759545495
 20
122.2544577957662
 30
0.0
 41
1.098867777556916
  0
SPLINE
  5
26F
330
70
100
AcDbEntity
  8
Visible (ISO)
100
AcDbSpline
210
0.0
220
0.0
230
1.0
 70
    12
 71
     2
 72
     6
 73
     3
 74
     0
 42
0.000000001
 43
0.0000000001
 40
0.6130961414766596
 40
0.6130961414766596
 40
0.6130961414766596
 40
1.076676782148459
 40
1.076676782148459
 40
1.076676782148459
 10
96.31071828209771
 20
126.1593325879369
 30
0.0
 41
1.098264575562274
 10
96.3673336991849
 20
124.3460076202427
 30
0.0
 41
1.091969247572993
 10
97.0645169740098
 20
122.2544577957677
 30
0.0
 41
1.019972620773999
  0
SPLINE
  5
270
330
70
100
AcDbEntity
  8
Visible (ISO)
100
AcDbSpline
210
0.0
220
0.0
230
1.0
 70
    12
 71
     2
 72
     6
 73
     3
 74
     0
 42
0.000000001
 43
0.0000000001
 40
0.0606773123555738
 40
0.0606773123555738
 40
0.0606773123555738
 40
0.5242579530273744
 40
0.5242579530273744
 40
0.5242579530273744
 10
97.06451697400979
 20
139.2544577957677
 30
0.0
 41
1.019972620773999
 10
96.3673336991849
 20
137.1629079712934
 30
0.0
 41
1.091969247572992
 10
96.31071828209771
 20
135.3495830035998
 30
0.0
 41
1.098264575562274
  0
SPLINE
  5
271
330
70
100
AcDbEntity
  8
Visible (ISO)
100
AcDbSpline
210
0.0
220
0.0
230
1.0
 70
    12
 71
     2
 72
     6
 73
     3
 74
     0
 42
0.000000001
 43
0.0000000001
 40
0.5686770472520175
 40
0.5686770472520175
 40
0.5686770472520175
 40
1.07667678214846
 40
1.07667678214846
 40
1.07667678214846
 10
96.30532759545495
 20
139.2544577957662
 30
0.0
 41
1.098867777556916
 10
93.82143583743614
 20
135.2552496999786
 30
0.0
 41
1.098867777556916
 10
97.06451697400979
 20
139.2544577957677
 30
0.0
 41
1.019972620774
  0
LINE
  5
272
330
70
100
AcDbEntity
  8
Visible (ISO)
100
AcDbLine
 10
96.01665246086014
 20
138.7544577957662
 30
0.0
 11
96.30532759545495
 21
139.2544577957662
 31
0.0
  0
LINE
  5
273
330
70
100
AcDbEntity
  8
Visible (ISO)
100
AcDbLine
 10
96.01665246086014
 20
122.7544577957662
 30
0.0
 11
96.30532759545495
 21
122.2544577957662
 31
0.0
  0
LINE
  5
274
330
70
100
AcDbEntity
  8
Visible (ISO)
100
AcDbLine
 10
97.06451697400979
 20
139.2544577957677
 30
0.0
 11
108.9687879477104
 21
139.2544577957677
 31
0.0
  0
LINE
  5
275
330
70
100
AcDbEntity
  8
Visible (ISO)
100
AcDbLine
 10
97.0645169740098
 20
122.2544577957677
 30
0.0
 11
108.9687879477104
 21
122.2544577957677
 31
0.0
  0
LINE
  5
276
330
70
100
AcDbEntity
  8
Visible (ISO)
100
AcDbLine
 10
49.01665246086012
 20
136.0044577957662
 30
0.0
 11
49.01665246086012
 21
125.5044577957662
 31
0.0
  0
LINE
  5
277
330
70
100
AcDbEntity
  8
Visible (ISO)
100
AcDbLine
 10
51.10544011462323
 20
124.2984956815861
 30
0.0
 11
51.10544011462323
 21
137.2104199099463
 31
0.0
  0
LINE
  5
278
330
70
100
AcDbEntity
  8
Visible (ISO)
100
AcDbLine
 10
49.01665246086012
 20
136.0044577957662
 30
0.0
 11
51.10544011462323
 21
137.2104199099463
 31
0.0
  0
LINE
  5
279
330
70
100
AcDbEntity
  8
Visible (ISO)
100
AcDbLine
 10
49.01665246086012
 20
125.5044577957662
 30
0.0
 11
51.10544011462323
 21
124.2984956815861
 31
0.0
  0
LINE
  5
27A
330
70
100
AcDbEntity
  8
Visible (ISO)
100
AcDbLine
 10
74.01665246086013
 20
138.5044577957662
 30
0.0
 11
74.01665246086013
 21
123.0044577957662
 31
0.0
  0
LINE
  5
27B
330
70
100
AcDbEntity
  8
Visible (ISO)
100
AcDbLine
 10
73.51665246086013
 20
122.5044577957662
 30
0.0
 11
73.51665246086013
 21
139.0044577957662
 31
0.0
  0
LINE
  5
27C
330
70
100
AcDbEntity
  8
Visible (ISO)
100
AcDbLine
 10
74.01665246086013
 20
123.0044577957662
 30
0.0
 11
73.51665246086013
 21
122.5044577957662
 31
0.0
  0
LINE
  5
27D
330
70
100
AcDbEntity
  8
Visible (ISO)
100
AcDbLine
 10
74.01665246086013
 20
138.5044577957662
 30
0.0
 11
73.51665246086013
 21
139.0044577957662
 31
0.0
  0
LINE
  5
27E
330
70
100
AcDbEntity
  8
Visible (ISO)
100
AcDbLine
 10
69.01665246086013
 20
139.0044577957662
 30
0.0
 11
69.01665246086013
 21
122.5044577957662
 31
0.0
  0
SPLINE
  5
27F
330
70
100
AcDbEntity
  8
Visible (ISO)
100
AcDbSpline
210
0.0
220
0.0
230
1.0
 70
    12
 71
     2
 72
     6
 73
     3
 74
     0
 42
0.000000001
 43
0.0000000001
 40
0.3064726505217272
 40
0.3064726505217272
 40
0.3064726505217272
 40
0.7113345297979891
 40
0.7113345297979891
 40
0.7113345297979891
 10
68.4485096837257
 20
139.2545447119327
 30
0.0
 41
1.099025857728922
 10
67.56960756740808
 20
136.9492059552049
 30
0.0
 41
1.146475182962381
 10
68.87226471249002
 20
139.2545447119317
 30
0.0
 41
1.1464751829624
  0
SPLINE
  5
280
330
70
100
AcDbEntity
  8
Visible (ISO)
100
AcDbSpline
210
0.0
220
0.0
230
1.0
 70
     8
 71
     3
 72
     8
 73
     4
 74
     0
 42
0.000000001
 43
0.0000000001
 40
2.216470488730172
 40
2.216470488730172
 40
2.216470488730172
 40
2.216470488730172
 40
2.423615995643402
 40
2.423615995643402
 40
2.423615995643402
 40
2.423615995643402
 10
68.45333792556733
 20
138.1643508768744
 30
0.0
 10
68.45186557240893
 20
138.5942767602683
 30
0.0
 10
68.4502315180501
 20
138.9652693618742
 30
0.0
 10
68.4485096837257
 20
139.2545447119327
 30
0.0
  0
SPLINE
  5
281
330
70
100
AcDbEntity
  8
Visible (ISO)
100
AcDbSpline
210
0.0
220
0.0
230
1.0
 70
    12
 71
     2
 72
     6
 73
     3
 74
     0
 42
0.000000001
 43
0.0000000001
 40
0.3080391888845127
 40
0.3080391888845127
 40
0.3080391888845127
 40
1.128103576883222
 40
1.128103576883222
 40
1.128103576883222
 10
68.46270271885227
 20
131.8447385469932
 30
0.0
 41
1.100752842583186
 10
69.29185914829421
 20
135.0017645353018
 30
0.0
 41
1.19810688667043
 10
68.45333792556733
 20
138.1643508768744
 30
0.0
 41
1.0997435627778
  0
SPLINE
  5
282
330
70
100
AcDbEntity
  8
Visible (ISO)
100
AcDbSpline
210
0.0
220
0.0
230
1.0
 70
     8
 71
     3
 72
    10
 73
     6
 74
     0
 42
0.000000001
 43
0.0000000001
 40
1.28234852082939
 40
1.28234852082939
 40
1.28234852082939
 40
1.28234852082939
 40
1.389636215210568
 40
1.389636215210568
 40
1.496940739665217
 40
1.496940739665217
 40
1.496940739665217
 40
1.496940739665217
 10
68.46271459948411
 20
129.6643508768755
 30
0.0
 10
68.46282417954203
 20
130.0316666635047
 30
0.0
 10
68.46287561012096
 20
130.3968321478527
 30
0.0
 10
68.46287172959214
 20
131.1121395439301
 30
0.0
 10
68.46281631980135
 20
131.4773637923202
 30
0.0
 10
68.46270271885227
 20
131.8447385469932
 30
0.0
  0
SPLINE
  5
283
330
70
100
AcDbEntity
  8
Visible (ISO)
100
AcDbSpline
210
0.0
220
0.0
230
1.0
 70
    12
 71
     2
 72
     6
 73
     3
 74
     0
 42
0.000000001
 43
0.0000000001
 40
0.3038347015407218
 40
0.3038347015407218
 40
0.3038347015407218
 40
1.123903861267264
 40
1.123903861267264
 40
1.123903861267264
 10
68.4534185341399
 20
123.3447385469921
 30
0.0
 41
1.099752732484698
 10
69.29191263876887
 20
126.5073045089183
 30
0.0
 41
1.198114783114956
 10
68.46271459948411
 20
129.6643508768755
 30
0.0
 41
1.100754619662588
  0
SPLINE
  5
284
330
70
100
AcDbEntity
  8
Visible (ISO)
100
AcDbSpline
210
0.0
220
0.0
230
1.0
 70
     8
 71
     3
 72
     8
 73
     4
 74
     0
 42
0.000000001
 43
0.0000000001
 40
0.3556734997605204
 40
0.3556734997605204
 40
0.3556734997605204
 40
0.3556734997605204
 40
0.5628189646857993
 40
0.5628189646857993
 40
0.5628189646857993
 40
0.5628189646857993
 10
68.44860206847648
 20
122.2545447119327
 30
0.0
 10
68.45032067546073
 20
122.5438007871099
 30
0.0
 10
68.45195078116744
 20
122.914800144116
 30
0.0
 10
68.4534185341399
 20
123.3447385469921
 30
0.0
  0
SPLINE
  5
285
330
70
100
AcDbEntity
  8
Visible (ISO)
100
AcDbSpline
210
0.0
220
0.0
230
1.0
 70
    12
 71
     2
 72
     6
 73
     3
 74
     0
 42
0.000000001
 43
0.0000000001
 40
0.7113573297694477
 40
0.7113573297694477
 40
0.7113573297694477
 40
1.116223870764464
 40
1.116223870764464
 40
1.116223870764464
 10
68.87236507463308
 20
122.2545447119317
 30
0.0
 41
1.14648840407264
 10
67.56966054433755
 20
120.2305622827004
 30
0.0
 41
1.14648840407265
 10
68.44860206847648
 20
122.2545447119327
 30
0.0
 41
1.099036745105105
  0
LINE
  5
286
330
70
100
AcDbEntity
  8
Visible (ISO)
100
AcDbLine
 10
69.01665246086013
 20
122.5044577957662
 30
0.0
 11
68.87236507463393
 21
122.2545447119312
 31
0.0
  0
LINE
  5
287
330
70
100
AcDbEntity
  8
Visible (ISO)
100
AcDbLine
 10
69.01665246086013
 20
139.0044577957662
 30
0.0
 11
68.87226471249092
 21
139.2545447119322
 31
0.0
  0
LINE
  5
288
330
70
100
AcDbEntity
  8
Visible (ISO)
100
AcDbLine
 10
59.58479523799455
 20
139.2545447119327
 30
0.0
 11
68.4485096837257
 21
139.2545447119327
 31
0.0
  0
LINE
  5
289
330
70
100
AcDbEntity
  8
Visible (ISO)
100
AcDbLine
 10
59.57996699615293
 20
138.1643508768744
 30
0.0
 11
68.45333792556733
 21
138.1643508768744
 31
0.0
  0
LINE
  5
28A
330
70
100
AcDbEntity
  8
Visible (ISO)
100
AcDbLine
 10
59.58470285324377
 20
122.2545447119327
 30
0.0
 11
68.44860206847648
 21
122.2545447119327
 31
0.0
  0
LINE
  5
28B
330
70
100
AcDbEntity
  8
Visible (ISO)
100
AcDbLine
 10
59.57988638758035
 20
123.3447385469921
 30
0.0
 11
68.4534185341399
 21
123.3447385469921
 31
0.0
  0
LINE
  5
28C
330
70
100
AcDbEntity
  8
Visible (ISO)
100
AcDbLine
 10
59.57059032223614
 20
129.6643508768755
 30
0.0
 11
68.46271459948411
 21
129.6643508768755
 31
0.0
  0
LINE
  5
28D
330
70
100
AcDbEntity
  8
Visible (ISO)
100
AcDbLine
 10
59.57060220286798
 20
131.8447385469932
 30
0.0
 11
68.46270271885227
 21
131.8447385469932
 31
0.0
  0
SPLINE
  5
28E
330
70
100
AcDbEntity
  8
Visible (ISO)
100
AcDbSpline
210
0.0
220
0.0
230
1.0
 70
     8
 71
     3
 72
     8
 73
     4
 74
     0
 42
0.000000001
 43
0.0000000001
 40
0.3556738930599403
 40
0.3556738930599403
 40
0.3556738930599403
 40
0.3556738930599403
 40
0.5628193999731695
 40
0.5628193999731695
 40
0.5628193999731695
 40
0.5628193999731695
 10
59.58479523799454
 20
139.2545447119327
 30
0.0
 10
59.5830735186206
 20
138.9652889167211
 30
0.0
 10
59.58143940618192
 20
138.5942899130992
 30
0.0
 10
59.57996699615293
 20
138.1643508768744
 30
0.0
  0
SPLINE
  5
28F
330
70
100
AcDbEntity
  8
Visible (ISO)
100
AcDbSpline
210
0.0
220
0.0
230
1.0
 70
    12
 71
     2
 72
     6
 73
     3
 74
     0
 42
0.000000001
 43
0.0000000001
 40
0.7113345297980623
 40
0.7113345297980623
 40
0.7113345297980623
 40
1.116196409074581
 40
1.116196409074581
 40
1.116196409074581
 10
59.16104020923018
 20
139.2545447119317
 30
0.0
 41
1.146475182962401
 10
58.34412459208276
 20
136.9492059552035
 30
0.0
 41
1.146475182962412
 10
59.58479523799454
 20
139.2545447119327
 30
0.0
 41
1.099025857728923
  0
SPLINE
  5
290
330
70
100
AcDbEntity
  8
Visible (ISO)
100
AcDbSpline
210
0.0
220
0.0
230
1.0
 70
    12
 71
     2
 72
     6
 73
     3
 74
     0
 42
0.000000001
 43
0.0000000001
 40
0.306490788774618
 40
0.306490788774618
 40
0.306490788774618
 40
0.7113573297693782
 40
0.7113573297693782
 40
0.7113573297693782
 10
59.58470285324376
 20
122.2545447119327
 30
0.0
 41
1.099036745105105
 10
58.34399181044894
 20
120.2305622827017
 30
0.0
 41
1.14648840407262
 10
59.1609398470872
 20
122.2545447119316
 30
0.0
 41
1.146488404072639
  0
SPLINE
  5
291
330
70
100
AcDbEntity
  8
Visible (ISO)
100
AcDbSpline
210
0.0
220
0.0
230
1.0
 70
     8
 71
     3
 72
     8
 73
     4
 74
     0
 42
0.000000001
 43
0.0000000001
 40
2.216470924017539
 40
2.216470924017539
 40
2.216470924017539
 40
2.216470924017539
 40
2.423616388942817
 40
2.423616388942817
 40
2.423616388942817
 40
2.423616388942817
 10
59.57988638758035
 20
123.3447385469921
 30
0.0
 10
59.58135408378227
 20
122.914813307134
 30
0.0
 10
59.58298413144459
 20
122.5438203549249
 30
0.0
 10
59.58470285324377
 20
122.2545447119327
 30
0.0
  0
SPLINE
  5
292
330
70
100
AcDbEntity
  8
Visible (ISO)
100
AcDbSpline
210
0.0
220
0.0
230
1.0
 70
    12
 71
     2
 72
     6
 73
     3
 74
     0
 42
0.000000001
 43
0.0000000001
 40
0.3080325734070508
 40
0.3080325734070508
 40
0.3080325734070508
 40
1.128101733133594
 40
1.128101733133594
 40
1.128101733133594
 10
59.57059032223614
 20
129.6643508768755
 30
0.0
 41
1.10075461966259
 10
58.74139228295142
 20
126.5073045089136
 30
0.0
 41
1.198114783114959
 10
59.57988638758036
 20
123.3447385469921
 30
0.0
 41
1.0997527324847
  0
SPLINE
  5
293
330
70
100
AcDbEntity
  8
Visible (ISO)
100
AcDbSpline
210
0.0
220
0.0
230
1.0
 70
     8
 71
     3
 72
    10
 73
     6
 74
     0
 42
0.000000001
 43
0.0000000001
 40
1.28234914903812
 40
1.28234914903812
 40
1.28234914903812
 40
1.28234914903812
 40
1.389653673492769
 40
1.389653673492769
 40
1.496941367873947
 40
1.496941367873947
 40
1.496941367873947
 40
1.496941367873947
 10
59.57060220286798
 20
131.8447385469932
 30
0.0
 10
59.5704886019189
 20
131.4773637923202
 30
0.0
 10
59.57043319212811
 20
131.1121395439301
 30
0.0
 10
59.57042931159929
 20
130.3968321478527
 30
0.0
 10
59.57048074217823
 20
130.0316666635047
 30
0.0
 10
59.57059032223614
 20
129.6643508768755
 30
0.0
  0
SPLINE
  5
294
330
70
100
AcDbEntity
  8
Visible (ISO)
100
AcDbSpline
210
0.0
220
0.0
230
1.0
 70
    12
 71
     2
 72
     6
 73
     3
 74
     0
 42
0.000000001
 43
0.0000000001
 40
0.3038102620679232
 40
0.3038102620679232
 40
0.3038102620679232
 40
1.123874650066634
 40
1.123874650066634
 40
1.123874650066634
 10
59.57996699615293
 20
138.1643508768744
 30
0.0
 41
1.099743562777801
 10
58.74144577342599
 20
135.0017645352971
 30
0.0
 41
1.19810688667043
 10
59.57060220286798
 20
131.8447385469932
 30
0.0
 41
1.100752842583186
  0
LINE
  5
295
330
70
100
AcDbEntity
  8
Visible (ISO)
100
AcDbLine
 10
59.01665246086012
 20
139.0044577957662
 30
0.0
 11
59.01665246086012
 21
122.5044577957662
 31
0.0
  0
LINE
  5
296
330
70
100
AcDbEntity
  8
Visible (ISO)
100
AcDbLine
 10
59.01665246086012
 20
139.0044577957662
 30
0.0
 11
59.16104020922931
 21
139.2545447119321
 31
0.0
  0
LINE
  5
297
330
70
100
AcDbEntity
  8
Visible (ISO)
100
AcDbLine
 10
59.01665246086012
 20
122.5044577957662
 30
0.0
 11
59.16093984708632
 21
122.2545447119312
 31
0.0
  0
LINE
  5
298
330
70
100
AcDbEntity
  8
Visible (ISO)
100
AcDbLine
 10
51.10544011462323
 20
137.2104199099463
 30
0.0
 11
59.01665246086012
 21
137.4576452957662
 31
0.0
  0
LINE
  5
299
330
70
100
AcDbEntity
  8
Visible (ISO)
100
AcDbLine
 10
51.10544011462323
 20
124.2984956815861
 30
0.0
 11
59.01665246086012
 21
124.0512702957662
 31
0.0
  0
LINE
  5
29A
330
70
100
AcDbEntity
  8
Visible (ISO)
100
AcDbLine
 10
69.01665246086013
 20
139.0044577957662
 30
0.0
 11
73.51665246086013
 21
139.0044577957662
 31
0.0
  0
LINE
  5
29B
330
70
100
AcDbEntity
  8
Visible (ISO)
100
AcDbLine
 10
69.01665246086013
 20
122.5044577957662
 30
0.0
 11
73.51665246086013
 21
122.5044577957662
 31
0.0
  0
LINE
  5
29C
330
70
100
AcDbEntity
  8
Visible (ISO)
100
AcDbLine
 10
106.0166524608601
 20
134.0261570598293
 30
0.0
 11
99.43322211446147
 21
133.3352604313397
 31
0.0
  0
LINE
  5
29D
330
70
100
AcDbEntity
  8
Visible (ISO)
100
AcDbLine
 10
99.43322211446147
 20
128.1736551602049
 30
0.0
 11
106.0166524608601
 21
127.4827585317188
 31
0.0
  0
LINE
  5
29E
330
70
100
AcDbEntity
  8
Visible (ISO)
100
AcDbLine
 10
106.0166524608601
 20
127.4827585317194
 30
0.0
 11
106.0166524608601
 21
134.0261570598299
 31
0.0
  0
LINE
  5
29F
330
70
100
AcDbEntity
  8
Visible (ISO)
100
AcDbLine
 10
126.0166524608601
 20
134.2544577957747
 30
0.0
 11
126.0166524608601
 21
127.2544577957747
 31
0.0
  0
LINE
  5
2A0
330
70
100
AcDbEntity
  8
Visible (ISO)
100
AcDbLine
 10
108.1920893223968
 20
134.2544577957747
 30
0.0
 11
126.0166524608601
 21
134.2544577957747
 31
0.0
  0
LINE
  5
2A1
330
70
100
AcDbEntity
  8
Visible (ISO)
100
AcDbLine
 10
106.0166524608601
 20
134.0261570598299
 30
0.0
 11
108.1920893223968
 21
134.2544577957747
 31
0.0
  0
LINE
  5
2A2
330
70
100
AcDbEntity
  8
Visible (ISO)
100
AcDbLine
 10
108.1920893223968
 20
127.2544577957747
 30
0.0
 11
106.0166524608601
 21
127.4827585317194
 31
0.0
  0
LINE
  5
2A3
330
70
100
AcDbEntity
  8
Visible (ISO)
100
AcDbLine
 10
126.0166524608601
 20
127.2544577957747
 30
0.0
 11
108.1920893223968
 21
127.2544577957747
 31
0.0
  0
ARC
  5
2A4
330
70
100
AcDbEntity
  8
Visible (ISO)
100
AcDbCircle
 10
108.1920893223968
 20
62.25445779577171
 30
0.0
 40
65.0000000000003
100
AcDbArc
 50
90.00000000000005
 51
106.5000949922716
  0
ARC
  5
2A5
330
70
100
AcDbEntity
  8
Visible (ISO)
100
AcDbCircle
 10
108.1920893223968
 20
199.2544577957724
 30
0.0
 40
65.00000000000034
100
AcDbArc
 50
253.4999050077283
 51
270.0
  0
SPLINE
  5
2A6
330
70
100
AcDbEntity
  8
Visible (ISO)
100
AcDbSpline
210
0.0
220
0.0
230
1.0
 70
     8
 71
     3
 72
     8
 73
     4
 74
     0
 42
0.000000001
 43
0.0000000001
 40
0.9230683158927151
 40
0.9230683158927151
 40
0.9230683158927151
 40
0.9230683158927151
 40
0.925972547537049
 40
0.925972547537049
 40
0.925972547537049
 40
0.925972547537049
 10
91.38087872885114
 20
132.2718316096231
 30
0.0
 10
91.3844531051839
 20
132.2658139874243
 30
0.0
 10
91.38803390700083
 20
132.2597176709413
 30
0.0
 10
91.39161872677183
 20
132.2535461526544
 30
0.0
  0
SPLINE
  5
2A7
330
70
100
AcDbEntity
  8
Visible (ISO)
100
AcDbSpline
210
0.0
220
0.0
230
1.0
 70
     8
 71
     3
 72
     8
 73
     4
 74
     0
 42
0.000000001
 43
0.0000000001
 40
1.26072965346429
 40
1.26072965346429
 40
1.26072965346429
 40
1.26072965346429
 40
1.263633885108629
 40
1.263633885108629
 40
1.263633885108629
 40
1.263633885108629
 10
91.39161872677185
 20
129.2553694388937
 30
0.0
 10
91.38803390700084
 20
129.2491979206067
 30
0.0
 10
91.3844531051839
 20
129.2431016041237
 30
0.0
 10
91.38087872885114
 20
129.2370839819249
 30
0.0
  0
LINE
  5
2A8
330
70
100
AcDbEntity
  8
Visible (ISO)
100
AcDbLine
 10
91.31675697666791
 20
132.4834798087959
 30
0.0
 11
99.43322211446146
 21
133.3352604313397
 31
0.0
  0
LINE
  5
2A9
330
70
100
AcDbEntity
  8
Visible (ISO)
100
AcDbLine
 10
99.43322211446146
 20
128.1736551602049
 30
0.0
 11
91.31675697666791
 21
129.0254357827522
 31
0.0
  0
ARC
  5
2AA
330
70
100
AcDbEntity
  8
Visible (ISO)
100
AcDbCircle
 10
86.01665246086014
 20
130.754457795772
 30
0.0
 40
7.207531252864777
100
AcDbArc
 50
15.30412371510662
 51
58.97975155669005
  0
ARC
  5
2AB
330
70
100
AcDbEntity
  8
Visible (ISO)
100
AcDbCircle
 10
86.01665246086014
 20
130.754457795772
 30
0.0
 40
7.207531252864783
100
AcDbArc
 50
301.0202484433098
 51
344.6958762848932
  0
ARC
  5
2AC
330
70
100
AcDbEntity
  8
Visible (ISO)
100
AcDbCircle
 10
86.01665246086014
 20
130.7544577957717
 30
0.0
 40
7.450000000000001
100
AcDbArc
 50
53.08637888662943
 51
306.9136211133706
  0
SPLINE
  5
2AD
330
70
100
AcDbEntity
  8
Visible (ISO)
100
AcDbSpline
210
0.0
220
0.0
230
1.0
 70
    24
 71
     3
 72
    11
 73
     7
 74
     0
 42
0.000000001
 43
0.0000000001
 40
0.5082556132472948
 40
0.5082556132472948
 40
0.5082556132472948
 40
0.5082556132472948
 40
0.5582558142562709
 40
0.5582558142562709
 40
0.5582558142562709
 40
0.6082560152652471
 40
0.6082560152652471
 40
0.6082560152652471
 40
0.6082560152652471
 10
90.51665246086015
 20
131.2544577957742
 30
0.0
 10
90.51665246086015
 20
131.0877942025359
 30
0.0
 10
90.51665246086015
 20
130.9211251324708
 30
0.0
 10
90.51665246086015
 20
130.7544577957742
 30
0.0
 10
90.51665246086015
 20
130.5877904590776
 30
0.0
 10
90.51665246086015
 20
130.4211213890125
 30
0.0
 10
90.51665246086015
 20
130.2544577957742
 30
0.0
  0
SPLINE
  5
2AE
330
70
100
AcDbEntity
  8
Visible (ISO)
100
AcDbSpline
210
0.0
220
0.0
230
1.0
 70
     8
 71
     3
 72
    18
 73
    14
 74
     0
 42
0.000000001
 43
0.0000000001
 40
-0.0001066313518541
 40
-0.0001066313518541
 40
-0.0001066313518541
 40
-0.0001066313518541
 40
0.0
 40
0.0
 40
0.0045172709872586
 40
0.0045172709872586
 40
0.0088134160853533
 40
0.0088134160853533
 40
0.0130973002062933
 40
0.0130973002062933
 40
0.0163175638624273
 40
0.0163175638624273
 40
0.0191481319215035
 40
0.0191481319215035
 40
0.0191481319215035
 40
0.0191481319215035
 10
90.62198071827172
 20
130.1537628056771
 30
0.0
 10
90.62172985958396
 20
130.1540141558405
 30
0.0
 10
90.62147894954115
 20
130.1542655135103
 30
0.0
 10
90.61059663116056
 20
130.165165340099
 30
0.0
 10
90.59981236106819
 20
130.1758880926334
 30
0.0
 10
90.57930867440679
 20
130.1961090803765
 30
0.0
 10
90.56942773364353
 20
130.2057748478374
 30
0.0
 10
90.55100102678819
 20
130.2236011258429
 30
0.0
 10
90.54232871540667
 20
130.231884343245
 30
0.0
 10
90.52965194032228
 20
130.243714227496
 30
0.0
 10
90.52505630673259
 20
130.2478948111754
 30
0.0
 10
90.51893741310443
 20
130.2531485870385
 30
0.0
 10
90.5172008916417
 20
130.2544577957742
 30
0.0
 10
90.51676251186755
 20
130.2544577957742
 30
0.0
  0
SPLINE
  5
2AF
330
70
100
AcDbEntity
  8
Visible (ISO)
100
AcDbSpline
210
0.0
220
0.0
230
1.0
 70
     8
 71
     3
 72
    18
 73
    14
 74
     0
 42
0.000000001
 43
0.0000000001
 40
-0.0190744129494767
 40
-0.0190744129494767
 40
-0.0190744129494767
 40
-0.0190744129494767
 40
-0.0189687803634125
 40
-0.0189687803634125
 40
-0.0144938205317899
 40
-0.0144938205317899
 40
-0.0102379154069879
 40
-0.0102379154069879
 40
-0.0059941564165262
 40
-0.0059941564165262
 40
-0.0028040554575467
 40
-0.0028040554575467
 40
0.0
 40
0.0
 40
0.0
 40
0.0
 10
90.62198071827172
 20
131.3551527858714
 30
0.0
 10
90.62172985958396
 20
131.354901435708
 30
0.0
 10
90.62147894954115
 20
131.3546500780382
 30
0.0
 10
90.61059663116056
 20
131.3437502514495
 30
0.0
 10
90.59981236106819
 20
131.3330274989151
 30
0.0
 10
90.57930867440679
 20
131.312806511172
 30
0.0
 10
90.56942773364353
 20
131.3031407437111
 30
0.0
 10
90.55100102678819
 20
131.2853144657055
 30
0.0
 10
90.54232871540667
 20
131.2770312483034
 30
0.0
 10
90.52965194032228
 20
131.2652013640524
 30
0.0
 10
90.52505630673259
 20
131.261020780373
 30
0.0
 10
90.51893741310442
 20
131.25576700451
 30
0.0
 10
90.5172008916417
 20
131.2544577957742
 30
0.0
 10
90.51676251186755
 20
131.2544577957742
 30
0.0
  0
SPLINE
  5
2B0
330
70
100
AcDbEntity
  8
Visible (ISO)
100
AcDbSpline
210
0.0
220
0.0
230
1.0
 70
    24
 71
     3
 72
    11
 73
     7
 74
     0
 42
0.000000001
 43
0.0000000001
 40
0.5082556132472948
 40
0.5082556132472948
 40
0.5082556132472948
 40
0.5082556132472948
 40
0.5582558142562709
 40
0.5582558142562709
 40
0.5582558142562709
 40
0.608256015265247
 40
0.608256015265247
 40
0.608256015265247
 40
0.608256015265247
 10
81.51665246086015
 20
130.2544577957742
 30
0.0
 10
81.51665246086015
 20
130.4211213890125
 30
0.0
 10
81.51665246086015
 20
130.5877904590776
 30
0.0
 10
81.51665246086015
 20
130.7544577957742
 30
0.0
 10
81.51665246086015
 20
130.9211251324708
 30
0.0
 10
81.51665246086015
 20
131.0877942025359
 30
0.0
 10
81.51665246086015
 20
131.2544577957742
 30
0.0
  0
SPLINE
  5
2B1
330
70
100
AcDbEntity
  8
Visible (ISO)
100
AcDbSpline
210
0.0
220
0.0
230
1.0
 70
     8
 71
     3
 72
    18
 73
    14
 74
     0
 42
0.000000001
 43
0.0000000001
 40
-0.0191481319214909
 40
-0.0191481319214909
 40
-0.0191481319214909
 40
-0.0191481319214909
 40
-0.0163175638624168
 40
-0.0163175638624168
 40
-0.013097300206286
 40
-0.013097300206286
 40
-0.0088134160853484
 40
-0.0088134160853484
 40
-0.0045172709872565
 40
-0.0045172709872565
 40
0.0
 40
0.0
 40
0.0001066313518546
 40
0.0001066313518546
 40
0.0001066313518546
 40
0.0001066313518546
 10
81.51654240985273
 20
131.2544577957742
 30
0.0
 10
81.51610403007857
 20
131.2544577957742
 30
0.0
 10
81.51436750861584
 20
131.25576700451
 30
0.0
 10
81.50824861498769
 20
131.261020780373
 30
0.0
 10
81.50365298139801
 20
131.2652013640524
 30
0.0
 10
81.4909762063136
 20
131.2770312483034
 30
0.0
 10
81.4823038949321
 20
131.2853144657055
 30
0.0
 10
81.46387718807675
 20
131.3031407437111
 30
0.0
 10
81.45399624731348
 20
131.312806511172
 30
0.0
 10
81.4334925606521
 20
131.3330274989151
 30
0.0
 10
81.42270829055972
 20
131.3437502514495
 30
0.0
 10
81.41182597217913
 20
131.3546500780382
 30
0.0
 10
81.41157506213632
 20
131.354901435708
 30
0.0
 10
81.41132420344858
 20
131.3551527858714
 30
0.0
  0
SPLINE
  5
2B2
330
70
100
AcDbEntity
  8
Visible (ISO)
100
AcDbSpline
210
0.0
220
0.0
230
1.0
 70
     8
 71
     3
 72
    18
 73
    14
 74
     0
 42
0.000000001
 43
0.0000000001
 40
-0.0190744129494811
 40
-0.0190744129494811
 40
-0.0190744129494811
 40
-0.0190744129494811
 40
-0.018968780363416
 40
-0.018968780363416
 40
-0.0144938205317931
 40
-0.0144938205317931
 40
-0.0102379154069898
 40
-0.0102379154069898
 40
-0.0059941564165267
 40
-0.0059941564165267
 40
-0.0028040554575468
 40
-0.0028040554575468
 40
0.0
 40
0.0
 40
0.0
 40
0.0
 10
81.41132420344858
 20
130.1537628056771
 30
0.0
 10
81.41157506213632
 20
130.1540141558405
 30
0.0
 10
81.41182597217913
 20
130.1542655135103
 30
0.0
 10
81.42270829055973
 20
130.165165340099
 30
0.0
 10
81.4334925606521
 20
130.1758880926334
 30
0.0
 10
81.45399624731348
 20
130.1961090803765
 30
0.0
 10
81.46387718807675
 20
130.2057748478374
 30
0.0
 10
81.4823038949321
 20
130.2236011258429
 30
0.0
 10
81.4909762063136
 20
130.231884343245
 30
0.0
 10
81.50365298139801
 20
130.243714227496
 30
0.0
 10
81.50824861498769
 20
130.2478948111754
 30
0.0
 10
81.51436750861586
 20
130.2531485870385
 30
0.0
 10
81.51610403007857
 20
130.2544577957742
 30
0.0
 10
81.51654240985273
 20
130.2544577957742
 30
0.0
  0
SPLINE
  5
2B3
330
70
100
AcDbEntity
  8
Visible (ISO)
100
AcDbSpline
210
0.0
220
0.0
230
1.0
 70
    24
 71
     3
 72
    19
 73
    15
 74
     0
 42
0.000000001
 43
0.0000000001
 40
0.1081914355857267
 40
0.1081914355857267
 40
0.1081914355857267
 40
0.1081914355857267
 40
0.2793577774160916
 40
0.2793577774160916
 40
0.4269302117979099
 40
0.4269302117979099
 40
0.5587155548321833
 40
0.5587155548321833
 40
0.5587155548321833
 40
0.6905008978664565
 40
0.6905008978664565
 40
0.8380733322482749
 40
0.8380733322482749
 40
1.009239674078639
 40
1.009239674078639
 40
1.009239674078639
 40
1.009239674078639
 10
90.51665246086015
 20
130.2544577957742
 30
0.0
 10
89.94690795413573
 20
130.2544577957742
 30
0.0
 10
89.37716004924217
 20
130.2544577957742
 30
0.0
 10
88.31616420662717
 20
130.2544577957742
 30
0.0
 10
87.82493262561855
 20
130.2544577957742
 30
0.0
 10
86.89485451119038
 20
130.2544577957743
 30
0.0
 10
86.45593693764105
 20
130.2544577957743
 30
0.0
 10
86.01665246086014
 20
130.2544577957743
 30
0.0
 10
85.57736798407923
 20
130.2544577957743
 30
0.0
 10
85.13845041052992
 20
130.2544577957743
 30
0.0
 10
84.20837229610175
 20
130.2544577957742
 30
0.0
 10
83.71714071509311
 20
130.2544577957742
 30
0.0
 10
82.65614487247811
 20
130.2544577957742
 30
0.0
 10
82.08639696758455
 20
130.2544577957742
 30
0.0
 10
81.51665246086015
 20
130.2544577957742
 30
0.0
  0
SPLINE
  5
2B4
330
70
100
AcDbEntity
  8
Visible (ISO)
100
AcDbSpline
210
0.0
220
0.0
230
1.0
 70
    24
 71
     3
 72
     8
 73
     4
 74
     0
 42
0.000000001
 43
0.0000000001
 40
-1.009250694823054
 40
-1.009250694823054
 40
-1.009250694823054
 40
-1.009250694823054
 40
-1.009239674078639
 40
-1.009239674078639
 40
-1.009239674078639
 40
-1.009239674078639
 10
81.51654240985273
 20
130.2544577957742
 30
0.0
 10
81.51657750845894
 20
130.2544577957742
 30
0.0
 10
81.51661419207465
 20
130.2544577957742
 30
0.0
 10
81.51665246086015
 20
130.2544577957742
 30
0.0
  0
SPLINE
  5
2B5
330
70
100
AcDbEntity
  8
Visible (ISO)
100
AcDbSpline
210
0.0
220
0.0
230
1.0
 70
    24
 71
     3
 72
     8
 73
     4
 74
     0
 42
0.000000001
 43
0.0000000001
 40
0.1081804148413112
 40
0.1081804148413112
 40
0.1081804148413112
 40
0.1081804148413112
 40
0.1081914355857267
 40
0.1081914355857267
 40
0.1081914355857267
 40
0.1081914355857267
 10
90.51676251186755
 20
130.2544577957742
 30
0.0
 10
90.51672741326134
 20
130.2544577957742
 30
0.0
 10
90.51669072964562
 20
130.2544577957742
 30
0.0
 10
90.51665246086015
 20
130.2544577957742
 30
0.0
  0
SPLINE
  5
2B6
330
70
100
AcDbEntity
  8
Visible (ISO)
100
AcDbSpline
210
0.0
220
0.0
230
1.0
 70
    24
 71
     3
 72
    19
 73
    15
 74
     0
 42
0.000000001
 43
0.0000000001
 40
0.1081914355857269
 40
0.1081914355857269
 40
0.1081914355857269
 40
0.1081914355857269
 40
0.2793577774160916
 40
0.2793577774160916
 40
0.42693021179791
 40
0.42693021179791
 40
0.5587155548321833
 40
0.5587155548321833
 40
0.5587155548321833
 40
0.6905008978664564
 40
0.6905008978664564
 40
0.8380733322482749
 40
0.8380733322482749
 40
1.009239674078639
 40
1.009239674078639
 40
1.009239674078639
 40
1.009239674078639
 10
81.51665246086015
 20
131.2544577957742
 30
0.0
 10
82.08639696758455
 20
131.2544577957742
 30
0.0
 10
82.65614487247811
 20
131.2544577957742
 30
0.0
 10
83.71714071509311
 20
131.2544577957742
 30
0.0
 10
84.20837229610175
 20
131.2544577957742
 30
0.0
 10
85.13845041052992
 20
131.2544577957743
 30
0.0
 10
85.57736798407923
 20
131.2544577957743
 30
0.0
 10
86.01665246086014
 20
131.2544577957743
 30
0.0
 10
86.45593693764105
 20
131.2544577957743
 30
0.0
 10
86.89485451119038
 20
131.2544577957743
 30
0.0
 10
87.82493262561855
 20
131.2544577957742
 30
0.0
 10
88.31616420662717
 20
131.2544577957742
 30
0.0
 10
89.37716004924217
 20
131.2544577957742
 30
0.0
 10
89.94690795413573
 20
131.2544577957742
 30
0.0
 10
90.51665246086015
 20
131.2544577957742
 30
0.0
  0
SPLINE
  5
2B7
330
70
100
AcDbEntity
  8
Visible (ISO)
100
AcDbSpline
210
0.0
220
0.0
230
1.0
 70
    24
 71
     3
 72
     8
 73
     4
 74
     0
 42
0.000000001
 43
0.0000000001
 40
-1.009250694823055
 40
-1.009250694823055
 40
-1.009250694823055
 40
-1.009250694823055
 40
-1.009239674078639
 40
-1.009239674078639
 40
-1.009239674078639
 40
-1.009239674078639
 10
90.51676251186755
 20
131.2544577957742
 30
0.0
 10
90.51672741326134
 20
131.2544577957742
 30
0.0
 10
90.51669072964562
 20
131.2544577957742
 30
0.0
 10
90.51665246086015
 20
131.2544577957742
 30
0.0
  0
SPLINE
  5
2B8
330
70
100
AcDbEntity
  8
Visible (ISO)
100
AcDbSpline
210
0.0
220
0.0
230
1.0
 70
    24
 71
     3
 72
     8
 73
     4
 74
     0
 42
0.000000001
 43
0.0000000001
 40
-0.1081914355857269
 40
-0.1081914355857269
 40
-0.1081914355857269
 40
-0.1081914355857269
 40
-0.1081804148413115
 40
-0.1081804148413115
 40
-0.1081804148413115
 40
-0.1081804148413115
 10
81.51665246086015
 20
131.2544577957742
 30
0.0
 10
81.51661419207465
 20
131.2544577957742
 30
0.0
 10
81.51657750845894
 20
131.2544577957742
 30
0.0
 10
81.51654240985273
 20
131.2544577957742
 30
0.0
  0
ARC
  5
2B9
330
70
100
AcDbEntity
  8
Visible (ISO)
100
AcDbCircle
 10
80.11665246086014
 20
129.3544577957742
 30
0.0
 40
0.0999999999999998
100
AcDbArc
 50
180.0
 51
270.0
  0
SPLINE
  5
2BA
330
70
100
AcDbEntity
  8
Visible (ISO)
100
AcDbSpline
210
0.0
220
0.0
230
1.0
 70
     8
 71
     3
 72
    20
 73
    16
 74
     0
 42
0.000000001
 43
0.0000000001
 40
-0.1167463837654997
 40
-0.1167463837654997
 40
-0.1167463837654997
 40
-0.1167463837654997
 40
-0.1163267376802986
 40
-0.1163267376802986
 40
-0.1148286972977117
 40
-0.1148286972977117
 40
-0.111636749464689
 40
-0.111636749464689
 40
-0.107278172338819
 40
-0.107278172338819
 40
-0.1040400035181946
 40
-0.1040400035181946
 40
-0.1011279500247179
 40
-0.1011279500247179
 40
-0.100530888678917
 40
-0.100530888678917
 40
-0.100530888678917
 40
-0.100530888678917
 10
80.69064658027743
 20
129.3544577957742
 30
0.0
 10
80.69092722783944
 20
129.3533901310846
 30
0.0
 10
80.69115953572454
 20
129.3523078042037
 30
0.0
 10
80.69198438873465
 20
129.3472876192899
 30
0.0
 10
80.69191797450613
 20
129.3434526958615
 30
0.0
 10
80.69013596902085
 20
129.331485999127
 30
0.0
 10
80.6866259096623
 20
129.3231406562922
 30
0.0
 10
80.67715561448043
 20
129.3042397025478
 30
0.0
 10
80.6700174419525
 20
129.2926405661068
 30
0.0
 10
80.65879245177756
 20
129.2746866508234
 30
0.0
 10
80.654696162901
 20
129.2682585710473
 30
0.0
 10
80.64919072238867
 20
129.2591971229194
 30
0.0
 10
80.64761239112701
 20
129.256357006997
 30
0.0
 10
80.64718748945869
 20
129.2548866620459
 30
0.0
 10
80.64716726032512
 20
129.2547065848534
 30
0.0
 10
80.64719843132534
 20
129.2545949938111
 30
0.0
  0
LINE
  5
2BB
330
70
100
AcDbEntity
  8
Visible (ISO)
100
AcDbLine
 10
80.11665246086014
 20
129.2544577957742
 30
0.0
 11
80.64723675708007
 21
129.2544577957742
 31
0.0
  0
LINE
  5
2BC
330
70
100
AcDbEntity
  8
Visible (ISO)
100
AcDbLine
 10
80.01665246086014
 20
132.1544577957742
 30
0.0
 11
80.01665246086014
 21
129.3544577957742
 31
0.0
  0
ARC
  5
2BD
330
70
100
AcDbEntity
  8
Visible (ISO)
100
AcDbCircle
 10
86.01665246086014
 20
130.7544577957742
 30
0.0
 40
5.506935503526576
100
AcDbArc
 50
165.2723396740592
 51
194.7276603259133
  0
ARC
  5
2BE
330
70
100
AcDbEntity
  8
Visible (ISO)
100
AcDbCircle
 10
86.01665246086014
 20
130.7544577957742
 30
0.0
 40
5.506935503526585
100
AcDbArc
 50
345.2723396740867
 51
14.7276603259133
  0
ARC
  5
2BF
330
70
100
AcDbEntity
  8
Visible (ISO)
100
AcDbCircle
 10
86.01665246086014
 20
130.7544577957742
 30
0.0
 40
5.574999999999997
100
AcDbArc
 50
195.6067736638874
 51
344.3932263361124
  0
SPLINE
  5
2C0
330
70
100
AcDbEntity
  8
Visible (ISO)
100
AcDbSpline
210
0.0
220
0.0
230
1.0
 70
     8
 71
     3
 72
    26
 73
    22
 74
     0
 42
0.000000001
 43
0.0000000001
 40
0.1202727217615084
 40
0.1202727217615084
 40
0.1202727217615084
 40
0.1202727217615084
 40
0.1202991365773451
 40
0.1202991365773451
 40
0.1203429475099263
 40
0.1203429475099263
 40
0.1204385750773929
 40
0.1204385750773929
 40
0.1218155955517658
 40
0.1218155955517658
 40
0.1232684323416687
 40
0.1232684323416687
 40
0.1257179918970292
 40
0.1257179918970292
 40
0.1298582169075374
 40
0.1298582169075374
 40
0.1338256061203832
 40
0.1338256061203832
 40
0.1358218267841507
 40
0.1358218267841507
 40
0.1377756950170718
 40
0.1377756950170718
 40
0.1377756950170718
 40
0.1377756950170718
 10
80.69064658027812
 20
132.1544577957768
 30
0.0
 10
80.69066401581606
 20
132.154524125618
 30
0.0
 10
80.6906811707371
 20
132.154590153124
 30
0.0
 10
80.69072605005407
 20
132.1547649009455
 30
0.0
 10
80.69075335313412
 20
132.154873327281
 30
0.0
 10
80.69083810457089
 20
132.1552165760935
 30
0.0
 10
80.69089344623494
 20
132.1554509710988
 30
0.0
 10
80.69170406356002
 20
132.1590457849084
 30
0.0
 10
80.69193622673603
 20
132.1623694659401
 30
0.0
 10
80.69150476377986
 20
132.1692925613203
 30
0.0
 10
80.6908008706638
 20
132.1727546315004
 30
0.0
 10
80.68824694884403
 20
132.1816616918093
 30
0.0
 10
80.68578511662076
 20
132.1873902608571
 30
0.0
 10
80.6781632976288
 20
132.2027616008111
 30
0.0
 10
80.67198747615279
 20
132.2130233294573
 30
0.0
 10
80.66048810780152
 20
132.2315803458598
 30
0.0
 10
80.65558976262318
 20
132.2392168549874
 30
0.0
 10
80.65048112344028
 20
132.2475817628186
 30
0.0
 10
80.64917160800545
 20
132.2498145786012
 30
0.0
 10
80.64748971050825
 20
132.2530056502951
 30
0.0
 10
80.64710317607953
 20
132.2539795874377
 30
0.0
 10
80.64719843132541
 20
132.2543205977375
 30
0.0
  0
ARC
  5
2C1
330
70
100
AcDbEntity
  8
Visible (ISO)
100
AcDbCircle
 10
86.01665246086014
 20
130.7544577957742
 30
0.0
 40
5.575
100
AcDbArc
 50
15.60677366388743
 51
164.3932263361101
  0
LINE
  5
2C2
330
70
100
AcDbEntity
  8
Visible (ISO)
100
AcDbLine
 10
91.38606816464021
 20
129.2544577957742
 30
0.0
 11
91.91665246086015
 21
129.2544577957742
 31
0.0
  0
SPLINE
  5
2C3
330
70
100
AcDbEntity
  8
Visible (ISO)
100
AcDbSpline
210
0.0
220
0.0
230
1.0
 70
     8
 71
     3
 72
    18
 73
    14
 74
     0
 42
0.000000001
 43
0.0000000001
 40
-0.1028855666828686
 40
-0.1028855666828686
 40
-0.1028855666828686
 40
-0.1028855666828686
 40
-0.1004689900059198
 40
-0.1004689900059198
 40
-0.0980358109280614
 40
-0.0980358109280614
 40
-0.093790661072223
 40
-0.093790661072223
 40
-0.0887468381604296
 40
-0.0887468381604296
 40
-0.0865906319794494
 40
-0.0865906319794494
 40
-0.0854228207007943
 40
-0.0854228207007943
 40
-0.0854228207007943
 40
-0.0854228207007943
 10
91.38610649039486
 20
129.2545949938109
 30
0.0
 10
91.3862243036648
 20
129.2550167610126
 30
0.0
 10
91.38560500482284
 20
129.2564056312678
 30
0.0
 10
91.38303696924976
 20
129.2610051750294
 30
0.0
 10
91.3811017898679
 20
129.2641868544291
 30
0.0
 10
91.37441503787314
 20
129.2749198899178
 30
0.0
 10
91.36869146948482
 20
129.2838154021344
 30
0.0
 10
91.35522314442384
 20
129.3061385513779
 30
0.0
 10
91.34805222169264
 20
129.3188401375163
 30
0.0
 10
91.34271399833464
 20
129.3348843406779
 30
0.0
 10
91.34148793635027
 20
129.3400729640805
 30
0.0
 10
91.34151429353199
 20
129.3486452972723
 30
0.0
 10
91.34189763551027
 20
129.3515638498669
 30
0.0
 10
91.34265834144285
 20
129.3544577957742
 30
0.0
  0
ARC
  5
2C4
330
70
100
AcDbEntity
  8
Visible (ISO)
100
AcDbCircle
 10
91.91665246086015
 20
129.3544577957742
 30
0.0
 40
0.1000000000000001
100
AcDbArc
 50
270.0
 51
0.0
  0
LINE
  5
2C5
330
70
100
AcDbEntity
  8
Visible (ISO)
100
AcDbLine
 10
92.01665246086013
 20
129.3544577957742
 30
0.0
 11
92.01665246086013
 21
132.1544577957742
 31
0.0
  0
ARC
  5
2C6
330
70
100
AcDbEntity
  8
Visible (ISO)
100
AcDbCircle
 10
91.91665246086015
 20
132.1544577957742
 30
0.0
 40
0.0999999999999998
100
AcDbArc
 50
0.0
 51
90.0
  0
LINE
  5
2C7
330
70
100
AcDbEntity
  8
Visible (ISO)
100
AcDbLine
 10
91.91665246086015
 20
132.2544577957742
 30
0.0
 11
91.38606816464021
 21
132.2544577957742
 31
0.0
  0
SPLINE
  5
2C8
330
70
100
AcDbEntity
  8
Visible (ISO)
100
AcDbSpline
210
0.0
220
0.0
230
1.0
 70
     8
 71
     3
 72
    20
 73
    16
 74
     0
 42
0.000000001
 43
0.0000000001
 40
-0.1167463837662684
 40
-0.1167463837662684
 40
-0.1167463837662684
 40
-0.1167463837662684
 40
-0.1163267376810644
 40
-0.1163267376810644
 40
-0.1148286972984718
 40
-0.1148286972984718
 40
-0.1116367494654422
 40
-0.1116367494654422
 40
-0.1072781723395591
 40
-0.1072781723395591
 40
-0.1040400035189335
 40
-0.1040400035189335
 40
-0.101127950025461
 40
-0.101127950025461
 40
-0.1005308886796618
 40
-0.1005308886796618
 40
-0.1005308886796618
 40
-0.1005308886796618
 10
91.34265834144285
 20
132.1544577957742
 30
0.0
 10
91.34237769388084
 20
132.1555254604639
 30
0.0
 10
91.34214538599573
 20
132.1566077873447
 30
0.0
 10
91.34132053298563
 20
132.1616279722586
 30
0.0
 10
91.34138694721414
 20
132.165462895687
 30
0.0
 10
91.34316895269945
 20
132.1774295924215
 30
0.0
 10
91.346679012058
 20
132.1857749352562
 30
0.0
 10
91.35614930723987
 20
132.2046758890007
 30
0.0
 10
91.36328747976778
 20
132.2162750254416
 30
0.0
 10
91.37451246994272
 20
132.234228940725
 30
0.0
 10
91.37860875881928
 20
132.2406570205012
 30
0.0
 10
91.38411419933161
 20
132.249718468629
 30
0.0
 10
91.38569253059328
 20
132.2525585845514
 30
0.0
 10
91.38611743226158
 20
132.2540289295025
 30
0.0
 10
91.38613766139517
 20
132.254209006695
 30
0.0
 10
91.38610649039494
 20
132.2543205977373
 30
0.0
  0
LINE
  5
2C9
330
70
100
AcDbEntity
  8
Visible (ISO)
100
AcDbLine
 10
80.64723675708007
 20
132.2544577957742
 30
0.0
 11
80.11665246086014
 21
132.2544577957742
 31
0.0
  0
ARC
  5
2CA
330
70
100
AcDbEntity
  8
Visible (ISO)
100
AcDbCircle
 10
80.11665246086014
 20
132.1544577957742
 30
0.0
 40
0.1000000000000001
100
AcDbArc
 50
90.0
 51
180.0
  0
CIRCLE
  5
2CB
330
70
100
AcDbEntity
  8
Visible (ISO)
100
AcDbCircle
 10
210.8177829881128
 20
64.92471631698069
 30
0.0
 40
10.0
  0
ARC
  5
2CC
330
70
100
AcDbEntity
  8
Visible (ISO)
100
AcDbCircle
 10
210.8177829881128
 20
64.92471631698069
 30
0.0
 40
9.75
100
AcDbArc
 50
270.6678898322964
 51
329.3321101677038
  0
ARC
  5
2CD
330
70
100
AcDbEntity
  8
Visible (ISO)
100
AcDbCircle
 10
210.8177829881129
 20
64.92471631698069
 30
0.0
 40
9.75
100
AcDbArc
 50
210.6678898322962
 51
269.3321101677038
  0
ARC
  5
2CE
330
70
100
AcDbEntity
  8
Visible (ISO)
100
AcDbCircle
 10
210.8177829881129
 20
64.92471631698069
 30
0.0
 40
9.749999999999998
100
AcDbArc
 50
150.6678898322962
 51
209.3321101677036
  0
ARC
  5
2CF
330
70
100
AcDbEntity
  8
Visible (ISO)
100
AcDbCircle
 10
210.8177829881129
 20
64.92471631698069
 30
0.0
 40
9.750000000000003
100
AcDbArc
 50
90.66788983229637
 51
149.3321101677036
  0
ARC
  5
2D0
330
70
100
AcDbEntity
  8
Visible (ISO)
100
AcDbCircle
 10
210.8177829881128
 20
64.92471631698068
 30
0.0
 40
9.750000000000005
100
AcDbArc
 50
30.66788983229652
 51
89.33211016770362
  0
ARC
  5
2D1
330
70
100
AcDbEntity
  8
Visible (ISO)
100
AcDbCircle
 10
210.8177829881129
 20
64.92471631698069
 30
0.0
 40
9.749999999999998
100
AcDbArc
 50
330.6678898322963
 51
29.33211016770359
  0
LINE
  5
2D2
330
70
100
AcDbEntity
  8
Visible (ISO)
100
AcDbLine
 10
217.2177829881099
 20
73.42471631698069
 30
0.0
 11
217.21778298811
 21
72.6084654019001
 31
0.0
  0
ARC
  5
2D3
330
70
100
AcDbEntity
  8
Visible (ISO)
100
AcDbCircle
 10
216.7177829881099
 20
73.42471631698069
 30
0.0
 40
0.5
100
AcDbArc
 50
0.0
 51
90.0
  0
SPLINE
  5
2D4
330
70
100
AcDbEntity
  8
Visible (ISO)
100
AcDbSpline
210
0.0
220
0.0
230
1.0
 70
     8
 71
     3
 72
    14
 73
    10
 74
     0
 42
0.000000001
 43
0.0000000001
 40
0.3152137287149456
 40
0.3152137287149456
 40
0.3152137287149456
 40
0.3152137287149456
 40
0.339724314007867
 40
0.339724314007867
 40
0.3774719396899205
 40
0.3774719396899205
 40
0.4152184860893204
 40
0.4152184860893204
 40
0.4529650324887202
 40
0.4529650324887202
 40
0.4529650324887202
 40
0.4529650324887202
 10
216.6340426670626
 20
73.05929419611292
 30
0.0
 10
216.636021686138
 20
73.14321259290249
 30
0.0
 10
216.6397650282203
 20
73.2277705247738
 30
0.0
 10
216.6531159062676
 20
73.43088954998231
 30
0.0
 10
216.6645551771491
 20
73.54317347795452
 30
0.0
 10
216.6859582095742
 20
73.72047018370405
 30
0.0
 10
216.6973253520193
 20
73.79739141955278
 30
0.0
 10
216.7133492050161
 20
73.89952114393285
 30
0.0
 10
216.7160094748724
 20
73.91463824776156
 30
0.0
 10
216.7177829881099
 20
73.92471631698069
 30
0.0
  0
LINE
  5
2D5
330
70
100
AcDbEntity
  8
Visible (ISO)
100
AcDbLine
 10
204.9177829881099
 20
72.99874876675447
 30
0.0
 11
204.9177829881099
 21
75.42471631698069
 31
0.0
  0
LINE
  5
2D6
330
70
100
AcDbEntity
  8
Visible (ISO)
100
AcDbLine
 10
216.7177829881099
 20
73.92471631698069
 30
0.0
 11
216.7177829881099
 21
75.42471631698069
 31
0.0
  0
CIRCLE
  5
2D7
330
70
100
AcDbEntity
  8
Visible (ISO)
100
AcDbCircle
 10
210.8177829881137
 20
64.92471631698069
 30
0.0
 40
2.900000000000007
  0
CIRCLE
  5
2D8
330
70
100
AcDbEntity
  8
Visible (ISO)
100
AcDbCircle
 10
210.8177829881168
 20
64.92471631698069
 30
0.0
 40
5.616383764250617
  0
CIRCLE
  5
2D9
330
70
100
AcDbEntity
  8
Visible (ISO)
100
AcDbCircle
 10
210.817782988117
 20
64.92471631698069
 30
0.0
 40
6.338247961374085
  0
CIRCLE
  5
2DA
330
70
100
AcDbEntity
  8
Visible (ISO)
100
AcDbCircle
 10
210.8177829881137
 20
64.92471631698069
 30
0.0
 40
5.294500000000014
  0
CIRCLE
  5
2DB
330
70
100
AcDbEntity
  8
Visible (ISO)
100
AcDbCircle
 10
210.817782988117
 20
64.92471631698069
 30
0.0
 40
8.000000000000021
  0
SPLINE
  5
2DC
330
70
100
AcDbEntity
  8
Visible (ISO)
100
AcDbSpline
210
0.0
220
0.0
230
1.0
 70
    28
 71
     2
 72
     6
 73
     3
 74
     0
 42
0.000000001
 43
0.0000000001
 40
0.1463461418658468
 40
0.1463461418658468
 40
0.1463461418658468
 40
1.198424304883158
 40
1.198424304883158
 40
1.198424304883158
 10
219.3177829881167
 20
69.83219360509254
 30
0.0
 41
1.05155236556389
 10
219.3177829881171
 20
64.92471631698061
 30
0.0
 41
1.214228082650573
 10
219.3177829881167
 20
60.01723902886887
 30
0.0
 41
1.05155236556389
  0
SPLINE
  5
2DD
330
70
100
AcDbEntity
  8
Visible (ISO)
100
AcDbSpline
210
0.0
220
0.0
230
1.0
 70
    28
 71
     2
 72
     6
 73
     3
 74
     0
 42
0.000000001
 43
0.0000000001
 40
0.1463461418658451
 40
0.1463461418658451
 40
0.1463461418658451
 40
1.198424304883157
 40
1.198424304883157
 40
1.198424304883157
 10
210.8177829881167
 20
74.73967089320436
 30
0.0
 41
1.051552365563892
 10
215.0677829881173
 20
72.2859322491484
 30
0.0
 41
1.21422808265058
 10
219.3177829881167
 20
69.83219360509254
 30
0.0
 41
1.051552365563892
  0
SPLINE
  5
2DE
330
70
100
AcDbEntity
  8
Visible (ISO)
100
AcDbSpline
210
0.0
220
0.0
230
1.0
 70
    28
 71
     2
 72
     6
 73
     3
 74
     0
 42
0.000000001
 43
0.0000000001
 40
0.1463461418658453
 40
0.1463461418658453
 40
0.1463461418658453
 40
1.198424304883157
 40
1.198424304883157
 40
1.198424304883157
 10
202.3177829881167
 20
69.83219360509254
 30
0.0
 41
1.051552365563892
 10
206.5677829881173
 20
72.28593224914852
 30
0.0
 41
1.21422808265058
 10
210.8177829881167
 20
74.73967089320436
 30
0.0
 41
1.051552365563892
  0
SPLINE
  5
2DF
330
70
100
AcDbEntity
  8
Visible (ISO)
100
AcDbSpline
210
0.0
220
0.0
230
1.0
 70
    28
 71
     2
 72
     6
 73
     3
 74
     0
 42
0.000000001
 43
0.0000000001
 40
0.1463461418658459
 40
0.1463461418658459
 40
0.1463461418658459
 40
1.198424304883158
 40
1.198424304883158
 40
1.198424304883158
 10
202.3177829881167
 20
60.01723902886887
 30
0.0
 41
1.051552365563891
 10
202.3177829881172
 20
64.9247163169808
 30
0.0
 41
1.214228082650577
 10
202.3177829881167
 20
69.83219360509254
 30
0.0
 41
1.051552365563891
  0
SPLINE
  5
2E0
330
70
100
AcDbEntity
  8
Visible (ISO)
100
AcDbSpline
210
0.0
220
0.0
230
1.0
 70
    28
 71
     2
 72
     6
 73
     3
 74
     0
 42
0.000000001
 43
0.0000000001
 40
0.146346141865845
 40
0.146346141865845
 40
0.146346141865845
 40
1.198424304883158
 40
1.198424304883158
 40
1.198424304883158
 10
210.8177829881167
 20
55.10976174075704
 30
0.0
 41
1.051552365563892
 10
206.567782988117
 20
57.56350038481301
 30
0.0
 41
1.214228082650582
 10
202.3177829881167
 20
60.01723902886887
 30
0.0
 41
1.051552365563892
  0
SPLINE
  5
2E1
330
70
100
AcDbEntity
  8
Visible (ISO)
100
AcDbSpline
210
0.0
220
0.0
230
1.0
 70
    28
 71
     2
 72
     6
 73
     3
 74
     0
 42
0.000000001
 43
0.0000000001
 40
0.1463461418658457
 40
0.1463461418658457
 40
0.1463461418658457
 40
1.198424304883157
 40
1.198424304883157
 40
1.198424304883157
 10
219.3177829881167
 20
60.01723902886887
 30
0.0
 41
1.051552365563891
 10
215.0677829881171
 20
57.5635003848129
 30
0.0
 41
1.214228082650577
 10
210.8177829881167
 20
55.10976174075704
 30
0.0
 41
1.051552365563891
  0
LINE
  5
2E2
330
70
100
AcDbEntity
  8
Visible (ISO)
100
AcDbLine
 10
214.3177829881218
 20
93.42471631698069
 30
0.0
 11
207.3177829881217
 21
93.42471631698069
 31
0.0
  0
LINE
  5
2E3
330
70
100
AcDbEntity
  8
Visible (ISO)
100
AcDbLine
 10
214.3177829881218
 20
86.4247163169807
 30
0.0
 11
214.3177829881202
 21
81.4247163169807
 31
0.0
  0
LINE
  5
2E4
330
70
100
AcDbEntity
  8
Visible (ISO)
100
AcDbLine
 10
207.3177829881203
 20
81.4247163169807
 30
0.0
 11
207.3177829881217
 21
86.4247163169807
 31
0.0
  0
LINE
  5
2E5
330
70
100
AcDbEntity
  8
Visible (ISO)
100
AcDbLine
 10
207.3177829881203
 20
81.4247163169807
 30
0.0
 11
214.3177829881202
 21
81.4247163169807
 31
0.0
  0
LINE
  5
2E6
330
70
100
AcDbEntity
  8
Visible (ISO)
100
AcDbLine
 10
214.3177829881178
 20
81.4247163169807
 30
0.0
 11
214.3177829881165
 21
81.17697107175162
 31
0.0
  0
SPLINE
  5
2E7
330
70
100
AcDbEntity
  8
Visible (ISO)
100
AcDbSpline
210
0.0
220
0.0
230
1.0
 70
     8
 71
     3
 72
    14
 73
    10
 74
     0
 42
0.000000001
 43
0.0000000001
 40
0.0979815127343829
 40
0.0979815127343829
 40
0.0979815127343829
 40
0.0979815127343829
 40
0.1506624850332004
 40
0.1506624850332004
 40
0.3013249700664007
 40
0.3013249700664007
 40
0.4554237426914714
 40
0.4554237426914714
 40
0.5051911393277391
 40
0.5051911393277391
 40
0.5051911393277391
 40
0.5051911393277391
 10
205.3993229122447
 20
75.42471631698069
 30
0.0
 10
205.4108021050943
 20
75.60362837652256
 30
0.0
 10
205.4253955518664
 20
75.78032467361925
 30
0.0
 10
205.4925197186659
 20
76.44216910010332
 30
0.0
 10
205.5661659613634
 20
76.88851695031835
 30
0.0
 10
205.7293767178318
 20
77.60065260256197
 30
0.0
 10
205.8303851525228
 20
77.91130263187348
 30
0.0
 10
205.9676287105981
 20
78.18385569968677
 30
0.0
 10
206.00141326289
 20
78.23997829775911
 30
0.0
 10
206.0349206580081
 20
78.28507006848785
 30
0.0
  0
ELLIPSE
  5
2E8
330
70
100
AcDbEntity
  8
Visible (ISO)
100
AcDbEllipse
 10
142.3177829881164
 20
81.77259074930512
 30
0.0
 11
-64.99999999999999
 21
-0.0000000000000034
 31
0.0
210
0.0
220
0.0
230
1.0
 40
0.2713992095570846
 41
2.94258708611294
 42
3.032609081532716
  0
SPLINE
  5
2E9
330
70
100
AcDbEntity
  8
Visible (ISO)
100
AcDbSpline
210
0.0
220
0.0
230
1.0
 70
     8
 71
     3
 72
    10
 73
     6
 74
     0
 42
0.000000001
 43
0.0000000001
 40
5.578615183636053
 40
5.578615183636053
 40
5.578615183636053
 40
5.578615183636053
 40
6.021510703961547
 40
6.021510703961547
 40
6.267952460891863
 40
6.267952460891863
 40
6.267952460891863
 40
6.267952460891863
 10
206.9321487929864
 20
79.85382076315449
 30
0.0
 10
207.0904443930196
 20
80.24645861941344
 30
0.0
 10
207.2051798168516
 20
80.5758497941145
 30
0.0
 10
207.3002897652846
 20
80.96862288533925
 30
0.0
 10
207.3177829881162
 20
81.08533406178215
 30
0.0
 10
207.3177829881164
 20
81.17697107175162
 30
0.0
  0
LINE
  5
2EA
330
70
100
AcDbEntity
  8
Visible (ISO)
100
AcDbLine
 10
216.2362430639789
 20
75.42471631698069
 30
0.0
 11
213.4158591994651
 21
75.42471631698069
 31
0.0
  0
SPLINE
  5
2EB
330
70
100
AcDbEntity
  8
Visible (ISO)
100
AcDbSpline
210
0.0
220
0.0
230
1.0
 70
     8
 71
     3
 72
    14
 73
    10
 74
     0
 42
0.000000001
 43
0.0000000001
 40
1.926793397172414
 40
1.926793397172414
 40
1.926793397172414
 40
1.926793397172414
 40
1.976560793808681
 40
1.976560793808681
 40
2.130659566433752
 40
2.130659566433752
 40
2.281322051466952
 40
2.281322051466952
 40
2.33400302376577
 40
2.33400302376577
 40
2.33400302376577
 40
2.33400302376577
 10
215.6006453182172
 20
78.28507006848785
 30
0.0
 10
215.6341527133353
 20
78.23997829775911
 30
0.0
 10
215.667937265627
 20
78.18385569968677
 30
0.0
 10
215.8051808237019
 20
77.9113026318735
 30
0.0
 10
215.9061892583926
 20
77.60065260256197
 30
0.0
 10
216.0694000148606
 20
76.88851695031835
 30
0.0
 10
216.1430462575579
 20
76.44216910010332
 30
0.0
 10
216.2101704243573
 20
75.78032467361925
 30
0.0
 10
216.2247638711294
 20
75.60362837652256
 30
0.0
 10
216.2362430639789
 20
75.42471631698069
 30
0.0
  0
LINE
  5
2EC
330
70
100
AcDbEntity
  8
Visible (ISO)
100
AcDbLine
 10
208.2197067767585
 20
75.42471631698069
 30
0.0
 11
205.3993229122447
 21
75.42471631698069
 31
0.0
  0
ELLIPSE
  5
2ED
330
70
100
AcDbEntity
  8
Visible (ISO)
100
AcDbEllipse
 10
279.3177829881165
 20
81.77259074930512
 30
0.0
 11
64.99999999999999
 21
-0.0000000000000022
 31
0.0
210
0.0
220
0.0
230
1.0
 40
0.2713992095570846
 41
3.250576225654226
 42
3.340598221073768
  0
SPLINE
  5
2EE
330
70
100
AcDbEntity
  8
Visible (ISO)
100
AcDbSpline
210
0.0
220
0.0
230
1.0
 70
     8
 71
     3
 72
    10
 73
     6
 74
     0
 42
0.000000001
 43
0.0000000001
 40
4.585290746366444
 40
4.585290746366444
 40
4.585290746366444
 40
4.585290746366444
 40
4.831732503296846
 40
4.831732503296846
 40
5.274628023622252
 40
5.274628023622252
 40
5.274628023622252
 40
5.274628023622252
 10
214.3177829881165
 20
81.17697107175162
 30
0.0
 10
214.3177829881162
 20
81.08533406178212
 30
0.0
 10
214.3352762109474
 20
80.96862288533916
 30
0.0
 10
214.4303861593789
 20
80.57584979411437
 30
0.0
 10
214.54512158321
 20
80.24645861941337
 30
0.0
 10
214.7034171832424
 20
79.85382076315449
 30
0.0
  0
LINE
  5
2EF
330
70
100
AcDbEntity
  8
Visible (ISO)
100
AcDbLine
 10
207.3177829881164
 20
81.17697107175162
 30
0.0
 11
207.3177829881178
 21
81.4247163169807
 31
0.0
  0
LINE
  5
2F0
330
70
100
AcDbEntity
  8
Visible (ISO)
100
AcDbLine
 10
214.3177829881218
 20
86.4247163169807
 30
0.0
 11
214.3177829881218
 21
93.42471631698069
 31
0.0
  0
SPLINE
  5
2F1
330
70
100
AcDbEntity
  8
Visible (ISO)
100
AcDbSpline
210
0.0
220
0.0
230
1.0
 70
     8
 71
     3
 72
    10
 73
     6
 74
     0
 42
0.000000001
 43
0.0000000001
 40
1.758510453691921
 40
1.758510453691921
 40
1.758510453691921
 40
1.758510453691921
 40
1.769985036102442
 40
1.769985036102442
 40
1.77528265148158
 40
1.77528265148158
 40
1.77528265148158
 40
1.77528265148158
 10
217.4775052103328
 20
75.42471631698072
 30
0.0
 10
217.4892854824511
 20
75.42471631698072
 30
0.0
 10
217.5010695104624
 20
75.43100508358328
 30
0.0
 10
217.5178362534758
 20
75.44827233540295
 30
0.0
 10
217.5230663719302
 20
75.4548960652979
 30
0.0
 10
217.5282066224633
 20
75.46253324078069
 30
0.0
  0
LINE
  5
2F2
330
70
100
AcDbEntity
  8
Visible (ISO)
100
AcDbLine
 10
217.5259869206099
 20
75.42471631698069
 30
0.0
 11
217.4775052103334
 21
75.42471631698069
 31
0.0
  0
SPLINE
  5
2F3
330
70
100
AcDbEntity
  8
Visible (ISO)
100
AcDbSpline
210
0.0
220
0.0
230
1.0
 70
     8
 71
     3
 72
     8
 73
     4
 74
     0
 42
0.000000001
 43
0.0000000001
 40
-0.0038487373741095
 40
-0.0038487373741095
 40
-0.0038487373741095
 40
-0.0038487373741095
 40
0.0
 40
0.0
 40
0.0
 40
0.0
 10
217.5282066224633
 20
75.46253324078064
 30
0.0
 10
217.527466727199
 20
75.44992752057942
 30
0.0
 10
217.5267268265316
 20
75.43732187841209
 30
0.0
 10
217.5259869206099
 20
75.42471631698069
 30
0.0
  0
SPLINE
  5
2F4
330
70
100
AcDbEntity
  8
Visible (ISO)
100
AcDbSpline
210
0.0
220
0.0
230
1.0
 70
     8
 71
     3
 72
    10
 73
     6
 74
     0
 42
0.000000001
 43
0.0000000001
 40
1.741738255902264
 40
1.741738255902264
 40
1.741738255902264
 40
1.741738255902264
 40
1.747035871281402
 40
1.747035871281402
 40
1.758510453691923
 40
1.758510453691923
 40
1.758510453691923
 40
1.758510453691923
 10
204.1073593537577
 20
75.46253324078067
 30
0.0
 10
204.1124996042908
 20
75.45489606529788
 30
0.0
 10
204.1177297227452
 20
75.44827233540283
 30
0.0
 10
204.1344964657585
 20
75.43100508358316
 30
0.0
 10
204.1462804937699
 20
75.42471631698069
 30
0.0
 10
204.1580607658883
 20
75.42471631698068
 30
0.0
  0
SPLINE
  5
2F5
330
70
100
AcDbEntity
  8
Visible (ISO)
100
AcDbSpline
210
0.0
220
0.0
230
1.0
 70
     8
 71
     3
 72
     8
 73
     4
 74
     0
 42
0.000000001
 43
0.0000000001
 40
-0.0038487374224739
 40
-0.0038487374224739
 40
-0.0038487374224739
 40
-0.0038487374224739
 40
0.0
 40
0.0
 40
0.0
 40
0.0
 10
204.1095790556111
 20
75.42471631698069
 30
0.0
 10
204.1088391496861
 20
75.43732187846817
 30
0.0
 10
204.1080992490153
 20
75.44992752069176
 30
0.0
 10
204.1073593537577
 20
75.46253324078067
 30
0.0
  0
LINE
  5
2F6
330
70
100
AcDbEntity
  8
Visible (ISO)
100
AcDbLine
 10
204.1580607658883
 20
75.42471631698069
 30
0.0
 11
204.1095790556115
 21
75.42471631698069
 31
0.0
  0
SPLINE
  5
2F7
330
70
100
AcDbEntity
  8
Visible (ISO)
100
AcDbSpline
210
0.0
220
0.0
230
1.0
 70
     8
 71
     3
 72
    22
 73
    18
 74
     0
 42
0.000000001
 43
0.0000000001
 40
1.758510453691923
 40
1.758510453691923
 40
1.758510453691923
 40
1.758510453691923
 40
1.769985036102444
 40
1.769985036102444
 40
1.781459618512965
 40
1.781459618512965
 40
1.804408783334006
 40
1.804408783334006
 40
1.879967807849264
 40
1.879967807849264
 40
1.955526832364522
 40
1.955526832364522
 40
2.150713591741938
 40
2.150713591741938
 40
2.345900351119354
 40
2.345900351119354
 40
2.573780108621498
 40
2.573780108621498
 40
2.573780108621498
 40
2.573780108621498
 10
204.1580607658883
 20
75.42471631698068
 30
0.0
 10
204.1698410380067
 20
75.42471631698068
 30
0.0
 10
204.1815596304523
 20
75.43100508358351
 30
0.0
 10
204.2042554423829
 20
75.45463162394428
 30
0.0
 10
204.2152336393031
 20
75.47195993095411
 30
0.0
 10
204.2464200284111
 20
75.53541263205353
 30
0.0
 10
204.2649364736134
 20
75.59314891919242
 30
0.0
 10
204.3308404524497
 20
75.83858097785287
 30
0.0
 10
204.3677776555172
 20
76.07942781122344
 30
0.0
 10
204.4336605057412
 20
76.57838368916689
 30
0.0
 10
204.4612377200157
 20
76.83844670054177
 30
0.0
 10
204.5440985551566
 20
77.69516863226406
 30
0.0
 10
204.5907195012655
 20
78.33705740847091
 30
0.0
 10
204.6758276572594
 20
79.64974573510835
 30
0.0
 10
204.7134834318331
 20
80.32115669201276
 30
0.0
 10
204.7893500911755
 20
81.7986826345408
 30
0.0
 10
204.8264740860083
 20
82.60829242699138
 30
0.0
 10
204.8611958627376
 20
83.42471631698069
 30
0.0
  0
LINE
  5
2F8
330
70
100
AcDbEntity
  8
Visible (ISO)
100
AcDbLine
 10
205.3993229122447
 20
75.42471631698069
 30
0.0
 11
204.1580607658883
 21
75.42471631698069
 31
0.0
  0
LINE
  5
2F9
330
70
100
AcDbEntity
  8
Visible (ISO)
100
AcDbLine
 10
204.6410351474551
 20
84.41945989497133
 30
0.0
 11
207.3177829881165
 21
84.41945989497133
 31
0.0
  0
SPLINE
  5
2FA
330
70
100
AcDbEntity
  8
Visible (ISO)
100
AcDbSpline
210
0.0
220
0.0
230
1.0
 70
     8
 71
     3
 72
    10
 73
     6
 74
     0
 42
0.000000001
 43
0.0000000001
 40
1.026679612955202
 40
1.026679612955202
 40
1.026679612955202
 40
1.026679612955202
 40
1.054986950396901
 40
1.054986950396901
 40
1.150372975748469
 40
1.150372975748469
 40
1.150372975748469
 40
1.150372975748469
 10
204.8611958627376
 20
83.42471631698069
 30
0.0
 10
204.846709480534
 20
83.50332157652571
 30
0.0
 10
204.8319168388149
 20
83.58096990236692
 30
0.0
 10
204.7657423069436
 20
83.91560312528461
 30
0.0
 10
204.7070851141752
 20
84.18025303048148
 30
0.0
 10
204.6410351474551
 20
84.41945989497133
 30
0.0
  0
SPLINE
  5
2FB
330
70
100
AcDbEntity
  8
Visible (ISO)
100
AcDbSpline
210
0.0
220
0.0
230
1.0
 70
     8
 71
     3
 72
    22
 73
    18
 74
     0
 42
0.000000001
 43
0.0000000001
 40
0.9432407987623509
 40
0.9432407987623509
 40
0.9432407987623509
 40
0.9432407987623509
 40
1.171120556264496
 40
1.171120556264496
 40
1.366307315641912
 40
1.366307315641912
 40
1.561494075019328
 40
1.561494075019328
 40
1.637053099534583
 40
1.637053099534583
 40
1.712612124049838
 40
1.712612124049838
 40
1.73556128887088
 40
1.73556128887088
 40
1.7470358712814
 40
1.7470358712814
 40
1.758510453691921
 40
1.758510453691921
 40
1.758510453691921
 40
1.758510453691921
 10
216.7743701134848
 20
83.42471631698069
 30
0.0
 10
216.809091890214
 20
82.60829242699138
 30
0.0
 10
216.8462158850468
 20
81.7986826345408
 30
0.0
 10
216.922082544389
 20
80.32115669201274
 30
0.0
 10
216.9597383189627
 20
79.64974573510834
 30
0.0
 10
217.0448464749564
 20
78.33705740847088
 30
0.0
 10
217.0914674210651
 20
77.69516863226403
 30
0.0
 10
217.1743282562059
 20
76.83844670054175
 30
0.0
 10
217.2019054704803
 20
76.5783836891669
 30
0.0
 10
217.2677883207042
 20
76.07942781122346
 30
0.0
 10
217.3047255237717
 20
75.8385809778529
 30
0.0
 10
217.3706295026079
 20
75.59314891919244
 30
0.0
 10
217.3891459478101
 20
75.53541263205353
 30
0.0
 10
217.420332336918
 20
75.47195993095411
 30
0.0
 10
217.4313105338382
 20
75.45463162394426
 30
0.0
 10
217.4540063457688
 20
75.43100508358349
 30
0.0
 10
217.4657249382144
 20
75.42471631698072
 30
0.0
 10
217.4775052103328
 20
75.42471631698072
 30
0.0
  0
SPLINE
  5
2FC
330
70
100
AcDbEntity
  8
Visible (ISO)
100
AcDbSpline
210
0.0
220
0.0
230
1.0
 70
     8
 71
     3
 72
    10
 73
     6
 74
     0
 42
0.000000001
 43
0.0000000001
 40
1.527849395011702
 40
1.527849395011702
 40
1.527849395011702
 40
1.527849395011702
 40
1.623235420363269
 40
1.623235420363269
 40
1.651542757804969
 40
1.651542757804969
 40
1.651542757804969
 40
1.651542757804969
 10
216.9945308287669
 20
84.41945989497133
 30
0.0
 10
216.9284808620469
 20
84.18025303048148
 30
0.0
 10
216.8698236692786
 20
83.91560312528463
 30
0.0
 10
216.8036491374075
 20
83.58096990236692
 30
0.0
 10
216.7888564956884
 20
83.50332157652571
 30
0.0
 10
216.7743701134848
 20
83.42471631698069
 30
0.0
  0
LINE
  5
2FD
330
70
100
AcDbEntity
  8
Visible (ISO)
100
AcDbLine
 10
214.3177829881165
 20
84.41945989497133
 30
0.0
 11
216.9945308287669
 21
84.41945989497133
 31
0.0
  0
LINE
  5
2FE
330
70
100
AcDbEntity
  8
Visible (ISO)
100
AcDbLine
 10
217.4775052103328
 20
75.42471631698069
 30
0.0
 11
216.2362430639789
 21
75.42471631698069
 31
0.0
  0
LINE
  5
2FF
330
70
100
AcDbEntity
  8
Visible (ISO)
100
AcDbLine
 10
207.3177829881217
 20
86.4247163169807
 30
0.0
 11
207.3177829881217
 21
93.42471631698069
 31
0.0
  0
SPLINE
  5
300
330
70
100
AcDbEntity
  8
Visible (ISO)
100
AcDbSpline
210
0.0
220
0.0
230
1.0
 70
     8
 71
     3
 72
    22
 73
    18
 74
     0
 42
0.000000001
 43
0.0000000001
 40
0.080169667649563
 40
0.080169667649563
 40
0.080169667649563
 40
0.080169667649563
 40
0.1449225509834109
 40
0.1449225509834109
 40
0.2230755465214004
 40
0.2230755465214004
 40
0.2985369780978444
 40
0.2985369780978444
 40
0.3739984096742883
 40
0.3739984096742883
 40
0.4494598412507324
 40
0.4494598412507324
 40
0.5249212728271763
 40
0.5249212728271763
 40
0.6030742683651658
 40
0.6030742683651658
 40
0.6678271516990137
 40
0.6678271516990137
 40
0.6678271516990137
 40
0.6678271516990137
 10
208.2197067767585
 20
75.42471631698069
 30
0.0
 10
208.3180849136884
 20
75.62369287158562
 30
0.0
 10
208.4559791708442
 20
75.80080764162154
 30
0.0
 10
208.7894760606626
 20
76.11547445884224
 30
0.0
 10
209.0445760703652
 20
76.2763546702456
 30
0.0
 10
209.5006049895569
 20
76.47952054300883
 30
0.0
 10
209.7590915222723
 20
76.55856215989294
 30
0.0
 10
210.2919422223011
 20
76.65955857855364
 30
0.0
 10
210.5662448828572
 20
76.68193766449563
 30
0.0
 10
211.0693210933668
 20
76.68193766449563
 30
0.0
 10
211.3436237539229
 20
76.65955857855364
 30
0.0
 10
211.8764744539516
 20
76.55856215989294
 30
0.0
 10
212.134960986667
 20
76.47952054300883
 30
0.0
 10
212.5909899058586
 20
76.2763546702456
 30
0.0
 10
212.8460899155612
 20
76.11547445884224
 30
0.0
 10
213.1795868053795
 20
75.80080764162154
 30
0.0
 10
213.3174810625352
 20
75.62369287158562
 30
0.0
 10
213.4158591994651
 20
75.42471631698069
 30
0.0
  0
LINE
  5
301
330
70
100
AcDbEntity
  8
Visible (ISO)
100
AcDbLine
 10
208.2197067767585
 20
75.42471631698069
 30
0.0
 11
213.4158591994651
 21
75.42471631698069
 31
0.0
  0
LINE
  5
302
330
70
100
AcDbEntity
  8
Visible (ISO)
100
AcDbLine
 10
203.8177829881099
 20
75.42471631698069
 30
0.0
 11
204.1095790556111
 21
75.42471631698069
 31
0.0
  0
LINE
  5
303
330
70
100
AcDbEntity
  8
Visible (ISO)
100
AcDbLine
 10
217.5259869206099
 20
75.42471631698069
 30
0.0
 11
217.8177829881099
 21
75.42471631698069
 31
0.0
  0
LINE
  5
304
330
70
100
AcDbEntity
  8
Visible (ISO)
100
AcDbLine
 10
203.3677829881099
 20
83.42471631698069
 30
0.0
 11
204.8611958627376
 21
83.42471631698069
 31
0.0
  0
LINE
  5
305
330
70
100
AcDbEntity
  8
Visible (ISO)
100
AcDbLine
 10
216.7743701134848
 20
83.42471631698069
 30
0.0
 11
218.2677829881099
 21
83.42471631698069
 31
0.0
  0
LINE
  5
306
330
70
100
AcDbEntity
  8
Visible (ISO)
100
AcDbLine
 10
216.3177829881099
 20
91.4247163169807
 30
0.0
 11
218.2677829881099
 21
83.42471631698067
 31
0.0
  0
LINE
  5
307
330
70
100
AcDbEntity
  8
Visible (ISO)
100
AcDbLine
 10
205.3177829881099
 20
91.4247163169807
 30
0.0
 11
203.3677829881099
 21
83.42471631698067
 31
0.0
  0
LINE
  5
308
330
70
100
AcDbEntity
  8
Visible (ISO)
100
AcDbLine
 10
203.8177829881099
 20
75.42471631698069
 30
0.0
 11
203.3677829881099
 21
83.42471631698069
 31
0.0
  0
LINE
  5
309
330
70
100
AcDbEntity
  8
Visible (ISO)
100
AcDbLine
 10
217.8177829881099
 20
75.42471631698069
 30
0.0
 11
218.2677829881099
 21
83.42471631698069
 31
0.0
  0
LINE
  5
30A
330
70
100
AcDbEntity
  8
Visible (ISO)
100
AcDbLine
 10
216.3927829881099
 20
91.4247163169807
 30
0.0
 11
214.3177829881111
 21
91.4247163169807
 31
0.0
  0
LINE
  5
30B
330
70
100
AcDbEntity
  8
Visible (ISO)
100
AcDbLine
 10
207.3177829881112
 20
91.4247163169807
 30
0.0
 11
205.2427829881099
 21
91.4247163169807
 31
0.0
  0
LINE
  5
30C
330
70
100
AcDbEntity
  8
Visible (ISO)
100
AcDbLine
 10
205.2427829881099
 20
91.82995280282833
 30
0.0
 11
205.2427829881099
 21
91.4247163169807
 31
0.0
  0
LINE
  5
30D
330
70
100
AcDbEntity
  8
Visible (ISO)
100
AcDbLine
 10
216.3927829881099
 20
91.82995280282833
 30
0.0
 11
216.3927829881099
 21
91.4247163169807
 31
0.0
  0
LINE
  5
30E
330
70
100
AcDbEntity
  8
Visible (ISO)
100
AcDbLine
 10
214.3177829881099
 20
92.0363755098058
 30
0.0
 11
216.2981563798022
 21
91.92980833177754
 31
0.0
  0
LINE
  5
30F
330
70
100
AcDbEntity
  8
Visible (ISO)
100
AcDbLine
 10
207.3177829881099
 20
92.0363755098058
 30
0.0
 11
205.3374095964175
 21
91.92980833177754
 31
0.0
  0
ARC
  5
310
330
70
100
AcDbEntity
  8
Visible (ISO)
100
AcDbCircle
 10
205.3427829881099
 20
91.82995280282833
 30
0.0
 40
0.1
100
AcDbArc
 50
93.08021013665292
 51
180.0
  0
ARC
  5
311
330
70
100
AcDbEntity
  8
Visible (ISO)
100
AcDbCircle
 10
216.2927829881099
 20
91.82995280282833
 30
0.0
 40
0.1
100
AcDbArc
 50
0.0
 51
86.91978986334708
  0
LINE
  5
312
330
70
100
AcDbEntity
  8
Sketch Geometry (ISO)
  6
CHAIN
 48
26.47136497497559
100
AcDbLine
 10
46.41255606872562
 20
64.92471631698069
 30
0.0
 11
112.0641888740867
 21
64.92471631698069
 31
0.0
  0
LINE
  5
313
330
70
100
AcDbEntity
  8
Sketch Geometry (ISO)
  6
CHAIN
 48
26.51030731201172
100
AcDbLine
 10
86.01665246084335
 20
92.96537491894602
 30
0.0
 11
86.01665246084335
 21
55.39496673120327
 31
0.0
  0
LINE
  5
314
330
70
100
AcDbEntity
  8
Sketch Geometry (ISO)
  6
CHAIN
 48
28.53122329711914
100
AcDbLine
 10
210.8177829881217
 20
94.47094841966631
 30
0.0
 11
210.8177829881217
 21
54.03649869465784
 31
0.0
  0
LINE
  5
315
330
70
100
AcDbEntity
  8
Sketch Geometry (ISO)
  6
CHAIN
 48
31.24532890319824
100
AcDbLine
 10
199.597701317931
 20
64.92471631698069
 30
0.0
 11
221.7381418488125
 21
64.92471631698069
 31
0.0
  0
LINE
  5
316
330
70
100
AcDbEntity
  8
Sketch Geometry (ISO)
  6
CHAIN
 48
24.97555160522461
100
AcDbLine
 10
47.61210959799337
 20
130.7544577957662
 30
0.0
 11
127.251651708427
 21
130.7544577957662
 31
0.0
  0
LINE
  5
317
330
70
100
AcDbEntity
  8
Sketch Geometry (ISO)
  6
CHAIN
 48
27.57995223999023
100
AcDbLine
 10
86.01665246086014
 20
140.4005829492233
 30
0.0
 11
86.01665246086014
 21
120.8574282240132
 31
0.0
  0
ENDSEC
  0
SECTION
  2
OBJECTS
  0
DICTIONARY
  5
C
330
0
100
AcDbDictionary
281
     1
  3
ACAD_CIP_PREVIOUS_PRODUCT_INFO
350
318
  3
ACAD_COLOR
350
63
  3
ACAD_DETAILVIEWSTYLE
350
6A
  3
ACAD_GROUP
350
D
  3
ACAD_LAYOUT
350
62
  3
ACAD_MATERIAL
350
10
  3
ACAD_MLEADERSTYLE
350
66
  3
ACAD_MLINESTYLE
350
5F
  3
ACAD_PLOTSETTINGS
350
61
  3
ACAD_PLOTSTYLENAME
350
E
  3
ACAD_SCALELIST
350
42
  3
ACAD_SECTIONVIEWSTYLE
350
68
  3
ACAD_TABLESTYLE
350
64
  3
ACAD_VISUALSTYLE
350
29
  3
ACDB_RECOMPOSE_DATA
350
327
  3
AcDbVariableDictionary
350
319
  0
XRECORD
  5
318
102
{ACAD_REACTORS
330
C
102
}
330
C
100
AcDbXrecord
280
     1
300
INVNTOR
300
2015
300
PDSP_F_S
  0
DICTIONARY
  5
63
102
{ACAD_REACTORS
330
C
102
}
330
C
100
AcDbDictionary
281
     1
  0
DICTIONARY
  5
6A
102
{ACAD_REACTORS
330
C
102
}
330
C
100
AcDbDictionary
281
     1
  3
Imperial24
350
6B
  0
DICTIONARY
  5
D
102
{ACAD_REACTORS
330
C
102
}
330
C
100
AcDbDictionary
281
     1
  0
DICTIONARY
  5
62
102
{ACAD_REACTORS
330
C
102
}
330
C
100
AcDbDictionary
281
     1
  3
Model
350
73
  3
レイアウト1
350
6F
  3
レイアウト2
350
77
  0
DICTIONARY
  5
10
102
{ACAD_REACTORS
330
C
102
}
330
C
100
AcDbDictionary
281
     1
  3
ByBlock
350
19
  3
ByLayer
350
11
  3
Global
350
21
  0
DICTIONARY
  5
66
102
{ACAD_REACTORS
330
C
102
}
330
C
100
AcDbDictionary
281
     1
  3
Standard
350
67
  0
DICTIONARY
  5
5F
102
{ACAD_REACTORS
330
C
102
}
330
C
100
AcDbDictionary
281
     1
  3
Standard
350
60
  0
DICTIONARY
  5
61
102
{ACAD_REACTORS
330
C
102
}
330
C
100
AcDbDictionary
281
     1
  0
ACDBDICTIONARYWDFLT
  5
E
102
{ACAD_REACTORS
330
C
102
}
330
C
100
AcDbDictionary
281
     1
  3
Normal
350
F
100
AcDbDictionaryWithDefault
340
F
  0
DICTIONARY
  5
42
102
{ACAD_REACTORS
330
C
102
}
330
C
100
AcDbDictionary
281
     1
  3
A0
350
43
  3
A1
350
44
  3
A2
350
45
  3
A3
350
46
  3
A4
350
47
  3
A5
350
48
  3
A6
350
49
  3
A7
350
4A
  3
A8
350
4B
  3
A9
350
4C
  3
B0
350
4D
  3
B1
350
4E
  3
B2
350
4F
  3
B3
350
50
  3
B4
350
51
  3
B5
350
52
  3
B6
350
53
  0
DICTIONARY
  5
68
102
{ACAD_REACTORS
330
C
102
}
330
C
100
AcDbDictionary
281
     1
  3
Imperial24
350
69
  0
DICTIONARY
  5
64
102
{ACAD_REACTORS
330
C
102
}
330
C
100
AcDbDictionary
281
     1
  3
Standard
350
65
  0
DICTIONARY
  5
29
102
{ACAD_REACTORS
330
C
102
}
330
C
100
AcDbDictionary
281
     1
  3
2dWireframe
350
2F
  3
Basic
350
2E
  3
Brighten
350
35
  3
ColorChange
350
39
  3
Conceptual
350
32
  3
Dim
350
34
  3
EdgeColorOff
350
41
  3
Facepattern
350
38
  3
Flat
350
2A
  3
FlatWithEdges
350
2B
  3
Gouraud
350
2C
  3
GouraudWithEdges
350
2D
  3
Hidden
350
31
  3
JitterOff
350
3F
  3
Linepattern
350
37
  3
OverhangOff
350
40
  3
Realistic
350
33
  3
Shaded
350
3E
  3
Shaded with edges
350
3D
  3
Shades of Gray
350
3A
  3
Sketchy
350
3B
  3
Thicken
350
36
  3
Wireframe
350
30
  3
X-Ray
350
3C
  0
XRECORD
  5
327
102
{ACAD_REACTORS
330
C
102
}
330
C
100
AcDbXrecord
280
     1
 90
        1
330
65
330
69
330
6B
  0
DICTIONARY
  5
319
102
{ACAD_REACTORS
330
C
102
}
330
C
100
AcDbDictionary
281
     1
  3
CANNOSCALE
350
31E
  3
CMLEADERSTYLE
350
31B
  3
CTABLESTYLE
350
31A
  3
CVIEWDETAILSTYLE
350
31C
  3
CVIEWSECTIONSTYLE
350
31D
  0
ACDBDETAILVIEWSTYLE
  5
6B
102
{ACAD_XDICTIONARY
360
323
102
}
102
{ACAD_REACTORS
330
6A
102
}
330
6A
100
AcDbModelDocViewStyle
 70
     0
  3
Imperial24
290
     0
100
AcDbDetailViewStyle
 70
     0
 71
     0
 90
        3
 71
     1
340
55
 62
   256
 40
0.24
340
0
 62
   256
 40
0.24
300

 40
0.36
280
     3
 71
     2
340
5D
 90
       25
 62
   256
 71
     3
340
55
 62
   256
 40
0.24
 90
        1
 40
0.75
 90
        1
300
%<\AcVar ViewType \f "%tc1">% %<\AcVar ViewDetailId>%\PSCALE %<\AcVar ViewScale \f "%sn">%
 71
     4
340
5D
 90
       25
 62
   256
340
5D
 90
       25
 62
   256
280
     0
  0
LAYOUT
  5
73
102
{ACAD_REACTORS
330
62
102
}
330
62
100
AcDbPlotSettings
  1

  2

  4

  6

 40
0.0
 41
0.0
 42
0.0
 43
0.0
 44
0.0
 45
0.0
 46
0.0
 47
0.0
 48
0.0
 49
0.0
140
0.0
141
0.0
142
1.0
143
1.0
 70
  1712
 72
     0
 73
     0
 74
     0
  7

 75
     0
147
1.0
 76
     0
 77
     2
 78
   300
148
0.0
149
0.0
100
AcDbLayout
  1
Model
 70
     1
 71
     0
 10
0.0
 20
0.0
 11
12.0
 21
9.0
 12
0.0
 22
0.0
 32
0.0
 14
0.0
 24
0.0
 34
0.0
 15
0.0
 25
0.0
 35
0.0
146
0.0
 13
0.0
 23
0.0
 33
0.0
 16
1.0
 26
0.0
 36
0.0
 17
0.0
 27
1.0
 37
0.0
 76
     0
330
70
  0
LAYOUT
  5
6F
102
{ACAD_REACTORS
330
62
102
}
330
62
100
AcDbPlotSettings
  1

  2

  4

  6

 40
0.0
 41
0.0
 42
0.0
 43
0.0
 44
0.0
 45
0.0
 46
0.0
 47
0.0
 48
0.0
 49
0.0
140
0.0
141
0.0
142
1.0
143
1.0
 70
   688
 72
     0
 73
     0
 74
     5
  7

 75
    16
147
1.0
 76
     0
 77
     2
 78
   300
148
0.0
149
0.0
100
AcDbLayout
  1
レイアウト1
 70
     1
 71
     1
 10
0.0
 20
0.0
 11
12.0
 21
9.0
 12
0.0
 22
0.0
 32
0.0
 14
0.0
 24
0.0
 34
0.0
 15
0.0
 25
0.0
 35
0.0
146
0.0
 13
0.0
 23
0.0
 33
0.0
 16
1.0
 26
0.0
 36
0.0
 17
0.0
 27
1.0
 37
0.0
 76
     0
330
6C
  0
LAYOUT
  5
77
102
{ACAD_REACTORS
330
62
102
}
330
62
100
AcDbPlotSettings
  1

  2

  4

  6

 40
0.0
 41
0.0
 42
0.0
 43
0.0
 44
0.0
 45
0.0
 46
0.0
 47
0.0
 48
0.0
 49
0.0
140
0.0
141
0.0
142
1.0
143
1.0
 70
   688
 72
     0
 73
     0
 74
     5
  7

 75
    16
147
1.0
 76
     0
 77
     2
 78
   300
148
0.0
149
0.0
100
AcDbLayout
  1
レイアウト2
 70
     1
 71
     2
 10
0.0
 20
0.0
 11
12.0
 21
9.0
 12
0.0
 22
0.0
 32
0.0
 14
0.0
 24
0.0
 34
0.0
 15
0.0
 25
0.0
 35
0.0
146
0.0
 13
0.0
 23
0.0
 33
0.0
 16
1.0
 26
0.0
 36
0.0
 17
0.0
 27
1.0
 37
0.0
 76
     0
330
74
  0
MATERIAL
  5
19
102
{ACAD_XDICTIONARY
360
1A
102
}
102
{ACAD_REACTORS
330
10
102
}
330
10
100
AcDbMaterial
  1
ByBlock
 72
     0
 43
0.0208333333333333
 43
0.0
 43
0.0
 43
0.0
 43
0.0
 43
0.0208333333333333
 43
0.0
 43
0.0
 43
0.0
 43
0.0
 43
1.0
 43
0.0
 43
0.0
 43
0.0
 43
0.0
 43
1.0
 77
     0
 47
0.0208333333333333
 47
0.0
 47
0.0
 47
0.0
 47
0.0
 47
0.0208333333333333
 47
0.0
 47
0.0
 47
0.0
 47
0.0
 47
1.0
 47
0.0
 47
0.0
 47
0.0
 47
0.0
 47
1.0
171
     0
 49
0.0208333333333333
 49
0.0
 49
0.0
 49
0.0
 49
0.0
 49
0.0208333333333333
 49
0.0
 49
0.0
 49
0.0
 49
0.0
 49
1.0
 49
0.0
 49
0.0
 49
0.0
 49
0.0
 49
1.0
175
     0
142
0.0208333333333333
142
0.0
142
0.0
142
0.0
142
0.0
142
0.0208333333333333
142
0.0
142
0.0
142
0.0
142
0.0
142
1.0
142
0.0
142
0.0
142
0.0
142
0.0
142
1.0
179
     0
144
0.0208333333333333
144
0.0
144
0.0
144
0.0
144
0.0
144
0.0208333333333333
144
0.0
144
0.0
144
0.0
144
0.0
144
1.0
144
0.0
144
0.0
144
0.0
144
0.0
144
1.0
147
0.0208333333333333
147
0.0
147
0.0
147
0.0
147
0.0
147
0.0208333333333333
147
0.0
147
0.0
147
0.0
147
0.0
147
1.0
147
0.0
147
0.0
147
0.0
147
0.0
147
1.0
  0
MATERIAL
  5
11
102
{ACAD_XDICTIONARY
360
12
102
}
102
{ACAD_REACTORS
330
10
102
}
330
10
100
AcDbMaterial
  1
ByLayer
 72
     0
 43
0.0208333333333333
 43
0.0
 43
0.0
 43
0.0
 43
0.0
 43
0.0208333333333333
 43
0.0
 43
0.0
 43
0.0
 43
0.0
 43
1.0
 43
0.0
 43
0.0
 43
0.0
 43
0.0
 43
1.0
 77
     0
 47
0.0208333333333333
 47
0.0
 47
0.0
 47
0.0
 47
0.0
 47
0.0208333333333333
 47
0.0
 47
0.0
 47
0.0
 47
0.0
 47
1.0
 47
0.0
 47
0.0
 47
0.0
 47
0.0
 47
1.0
171
     0
 49
0.0208333333333333
 49
0.0
 49
0.0
 49
0.0
 49
0.0
 49
0.0208333333333333
 49
0.0
 49
0.0
 49
0.0
 49
0.0
 49
1.0
 49
0.0
 49
0.0
 49
0.0
 49
0.0
 49
1.0
175
     0
142
0.0208333333333333
142
0.0
142
0.0
142
0.0
142
0.0
142
0.0208333333333333
142
0.0
142
0.0
142
0.0
142
0.0
142
1.0
142
0.0
142
0.0
142
0.0
142
0.0
142
1.0
179
     0
144
0.0208333333333333
144
0.0
144
0.0
144
0.0
144
0.0
144
0.0208333333333333
144
0.0
144
0.0
144
0.0
144
0.0
144
1.0
144
0.0
144
0.0
144
0.0
144
0.0
144
1.0
147
0.0208333333333333
147
0.0
147
0.0
147
0.0
147
0.0
147
0.0208333333333333
147
0.0
147
0.0
147
0.0
147
0.0
147
1.0
147
0.0
147
0.0
147
0.0
147
0.0
147
1.0
  0
MATERIAL
  5
21
102
{ACAD_XDICTIONARY
360
22
102
}
102
{ACAD_REACTORS
330
10
102
}
330
10
100
AcDbMaterial
  1
Global
 72
     0
 43
0.0208333333333333
 43
0.0
 43
0.0
 43
0.0
 43
0.0
 43
0.0208333333333333
 43
0.0
 43
0.0
 43
0.0
 43
0.0
 43
1.0
 43
0.0
 43
0.0
 43
0.0
 43
0.0
 43
1.0
 77
     0
 47
0.0208333333333333
 47
0.0
 47
0.0
 47
0.0
 47
0.0
 47
0.0208333333333333
 47
0.0
 47
0.0
 47
0.0
 47
0.0
 47
1.0
 47
0.0
 47
0.0
 47
0.0
 47
0.0
 47
1.0
171
     0
 49
0.0208333333333333
 49
0.0
 49
0.0
 49
0.0
 49
0.0
 49
0.0208333333333333
 49
0.0
 49
0.0
 49
0.0
 49
0.0
 49
1.0
 49
0.0
 49
0.0
 49
0.0
 49
0.0
 49
1.0
175
     0
142
0.0208333333333333
142
0.0
142
0.0
142
0.0
142
0.0
142
0.0208333333333333
142
0.0
142
0.0
142
0.0
142
0.0
142
1.0
142
0.0
142
0.0
142
0.0
142
0.0
142
1.0
179
     0
144
0.0208333333333333
144
0.0
144
0.0
144
0.0
144
0.0
144
0.0208333333333333
144
0.0
144
0.0
144
0.0
144
0.0
144
1.0
144
0.0
144
0.0
144
0.0
144
0.0
144
1.0
147
0.0208333333333333
147
0.0
147
0.0
147
0.0
147
0.0
147
0.0208333333333333
147
0.0
147
0.0
147
0.0
147
0.0
147
1.0
147
0.0
147
0.0
147
0.0
147
0.0
147
1.0
  0
MLEADERSTYLE
  5
67
102
{ACAD_REACTORS
330
66
102
}
330
66
100
AcDbMLeaderStyle
179
     2
170
     2
171
     1
172
     0
 90
        2
 40
0.0
 41
0.0
173
     1
 91
-1056964608
340
5B
 92
       -2
290
     1
 42
0.09
291
     1
 43
0.36
  3
Standard
 44
0.18
300

342
55
174
     1
178
     6
175
     1
176
     0
 93
-1056964608
 45
0.18
292
     0
297
     0
 46
0.18
 94
-1056964608
 47
1.0
 49
1.0
140
1.0
293
     1
141
0.0
294
     1
177
     0
142
1.0
295
     1
296
     0
143
0.125
271
     0
272
     9
273
     9
298
     1
  0
MLINESTYLE
  5
60
102
{ACAD_REACTORS
330
5F
102
}
330
5F
100
AcDbMlineStyle
  2
STANDARD
 70
     0
  3

 62
   256
 51
90.0
 52
90.0
 71
     2
 49
0.5
 62
   256
  6
BYLAYER
 49
-0.5
 62
   256
  6
BYLAYER
  0
ACDBPLACEHOLDER
  5
F
102
{ACAD_REACTORS
330
E
102
}
330
E
  0
SCALE
  5
43
102
{ACAD_REACTORS
330
42
102
}
330
42
100
AcDbScale
 70
     0
300
1:1
140
1.0
141
1.0
290
     1
  0
SCALE
  5
44
102
{ACAD_REACTORS
330
42
102
}
330
42
100
AcDbScale
 70
     0
300
1/128" = 1'-0"
140
0.0078125
141
12.0
290
     0
  0
SCALE
  5
45
102
{ACAD_REACTORS
330
42
102
}
330
42
100
AcDbScale
 70
     0
300
1/64" = 1'-0"
140
0.015625
141
12.0
290
     0
  0
SCALE
  5
46
102
{ACAD_REACTORS
330
42
102
}
330
42
100
AcDbScale
 70
     0
300
1/32" = 1'-0"
140
0.03125
141
12.0
290
     0
  0
SCALE
  5
47
102
{ACAD_REACTORS
330
42
102
}
330
42
100
AcDbScale
 70
     0
300
1/16" = 1'-0"
140
0.0625
141
12.0
290
     0
  0
SCALE
  5
48
102
{ACAD_REACTORS
330
42
102
}
330
42
100
AcDbScale
 70
     0
300
3/32" = 1'-0"
140
0.09375
141
12.0
290
     0
  0
SCALE
  5
49
102
{ACAD_REACTORS
330
42
102
}
330
42
100
AcDbScale
 70
     0
300
1/8" = 1'-0"
140
0.125
141
12.0
290
     0
  0
SCALE
  5
4A
102
{ACAD_REACTORS
330
42
102
}
330
42
100
AcDbScale
 70
     0
300
3/16" = 1'-0"
140
0.1875
141
12.0
290
     0
  0
SCALE
  5
4B
102
{ACAD_REACTORS
330
42
102
}
330
42
100
AcDbScale
 70
     0
300
1/4" = 1'-0"
140
0.25
141
12.0
290
     0
  0
SCALE
  5
4C
102
{ACAD_REACTORS
330
42
102
}
330
42
100
AcDbScale
 70
     0
300
3/8" = 1'-0"
140
0.375
141
12.0
290
     0
  0
SCALE
  5
4D
102
{ACAD_REACTORS
330
42
102
}
330
42
100
AcDbScale
 70
     0
300
1/2" = 1'-0"
140
0.5
141
12.0
290
     0
  0
SCALE
  5
4E
102
{ACAD_REACTORS
330
42
102
}
330
42
100
AcDbScale
 70
     0
300
3/4" = 1'-0"
140
0.75
141
12.0
290
     0
  0
SCALE
  5
4F
102
{ACAD_REACTORS
330
42
102
}
330
42
100
AcDbScale
 70
     0
300
1" = 1'-0"
140
1.0
141
12.0
290
     0
  0
SCALE
  5
50
102
{ACAD_REACTORS
330
42
102
}
330
42
100
AcDbScale
 70
     0
300
1-1/2" = 1'-0"
140
1.5
141
12.0
290
     0
  0
SCALE
  5
51
102
{ACAD_REACTORS
330
42
102
}
330
42
100
AcDbScale
 70
     0
300
3" = 1'-0"
140
3.0
141
12.0
290
     0
  0
SCALE
  5
52
102
{ACAD_REACTORS
330
42
102
}
330
42
100
AcDbScale
 70
     0
300
6" = 1'-0"
140
6.0
141
12.0
290
     0
  0
SCALE
  5
53
102
{ACAD_REACTORS
330
42
102
}
330
42
100
AcDbScale
 70
     0
300
1'-0" = 1'-0"
140
12.0
141
12.0
290
     0
  0
ACDBSECTIONVIEWSTYLE
  5
69
102
{ACAD_XDICTIONARY
360
321
102
}
102
{ACAD_REACTORS
330
68
102
}
330
68
100
AcDbModelDocViewStyle
 70
     0
  3
Imperial24
290
     0
100
AcDbSectionViewStyle
 70
     0
 71
     0
 90
       78
 71
     1
340
55
 62
   256
 40
0.24
340
0
340
0
 62
   256
 40
0.24
300
I, O, Q, S, X, Z
 40
0.48
 90
        3
 40
0.18
 90
        1
 71
     2
340
5D
 90
       25
 62
   256
340
5D
 90
       50
 62
   256
 40
0.24
 40
0.0
 40
0.24
 71
     3
340
55
 62
   256
 40
0.24
 90
        1
 40
0.75
 90
        1
300
%<\AcVar ViewType \f "%tc1">% %<\AcVar ViewSectionStartId>%-%<\AcVar ViewSectionEndId>%\PSCALE %<\AcVar ViewScale \f "%sn">%
 71
     4
 62
   256
 62
   257
300
ANSI31
 40
1.0
 90
        0
290
     0
290
     0
 90
        6
 40
0.0
 40
1.570796326794896
 40
0.2617993877991494
 40
1.308996938995747
 40
-0.2617993877991494
 40
1.832595714594046
  0
TABLESTYLE
  5
65
102
{ACAD_XDICTIONARY
360
31F
102
}
102
{ACAD_REACTORS
330
64
102
}
330
64
100
AcDbTableStyle
280
     0
  3
Standard
 70
     0
 71
     0
 40
0.06
 41
0.06
280
     0
281
     0
  7
Standard
140
0.18
170
     2
 62
     0
 63
     7
283
     0
 90
      512
 91
        0
  1

274
    -2
284
     1
 64
     0
275
    -2
285
     1
 65
     0
276
    -2
286
     1
 66
     0
277
    -2
287
     1
 67
     0
278
    -2
288
     1
 68
     0
279
    -2
289
     1
 69
     0
  7
Standard
140
0.25
170
     5
 62
     0
 63
     7
283
     0
 90
      512
 91
        0
  1

274
    -2
284
     1
 64
     0
275
    -2
285
     1
 65
     0
276
    -2
286
     1
 66
     0
277
    -2
287
     1
 67
     0
278
    -2
288
     1
 68
     0
279
    -2
289
     1
 69
     0
  7
Standard
140
0.18
170
     5
 62
     0
 63
     7
283
     0
 90
      512
 91
        0
  1

274
    -2
284
     1
 64
     0
275
    -2
285
     1
 65
     0
276
    -2
286
     1
 66
     0
277
    -2
287
     1
 67
     0
278
    -2
288
     1
 68
     0
279
    -2
289
     1
 69
     0
  0
VISUALSTYLE
  5
2F
102
{ACAD_REACTORS
330
29
102
}
330
29
100
AcDbVisualStyle
  2
2dWireframe
 70
     4
177
     3
291
     0
 70
    58
 90
        0
176
     1
 90
        2
176
     1
 90
        0
176
     1
 90
        0
176
     1
 40
0.6
176
     1
 40
30.0
176
     1
 62
     7
420
 16777215
176
     1
 90
        1
176
     1
 90
        4
176
     1
 62
     7
176
     1
 62
   257
176
     1
 90
        1
176
     1
 90
        1
176
     1
 40
1.0
176
     1
 90
        0
176
     1
 62
   257
176
     1
 40
1.0
176
     1
 90
        1
176
     1
 90
        6
176
     1
 90
        2
176
     1
 62
     7
176
     1
 90
        5
176
     1
 90
        0
176
     1
 90
        0
176
     1
290
     0
176
     1
 90
        1
176
     1
 40
0.0
176
     1
 90
        0
176
     1
290
     1
176
     1
290
     1
176
     1
290
     0
176
     1
290
     0
176
     1
290
     0
176
     1
290
     0
176
     1
290
     0
176
     1
290
     0
176
     1
290
     0
176
     1
 90
       50
176
     1
 40
0.0
176
     1
 40
1.0
176
     1
 90
        0
176
     1
 62
    18
420
        0
176
     1
 90
       50
176
     1
 90
        3
176
     1
 62
     5
420
      255
176
     1
290
     0
176
     1
 90
       50
176
     1
 90
       50
176
     1
 90
       50
176
     1
290
     0
176
     1
 90
       50
176
     1
 62
   256
176
     0
 40
1.0
176
     0
 90
        2
176
     1
  1
strokes_ogs.tif
176
     1
290
     0
176
     1
 40
1.0
176
     1
 40
1.0
176
     1
  0
VISUALSTYLE
  5
2E
102
{ACAD_REACTORS
330
29
102
}
330
29
100
AcDbVisualStyle
  2
Basic
 70
     7
177
     3
291
     1
 70
    58
 90
        1
176
     1
 90
        0
176
     1
 90
        1
176
     1
 90
        0
176
     1
 40
0.6
176
     1
 40
30.0
176
     1
 62
     7
420
 16777215
176
     1
 90
        0
176
     1
 90
        4
176
     1
 62
     7
176
     1
 62
   257
176
     1
 90
        1
176
     1
 90
        1
176
     1
 40
1.0
176
     1
 90
        8
176
     1
 62
     7
176
     1
 40
1.0
176
     1
 90
        1
176
     1
 90
        6
176
     1
 90
        2
176
     1
 62
     7
176
     1
 90
        5
176
     1
 90
        0
176
     1
 90
        0
176
     1
290
     0
176
     1
 90
        1
176
     1
 40
0.0
176
     1
 90
        0
176
     1
290
     0
176
     1
290
     1
176
     1
290
     1
176
     1
290
     0
176
     1
290
     0
176
     1
290
     0
176
     1
290
     0
176
     1
290
     0
176
     1
290
     0
176
     1
 90
       50
176
     1
 40
0.0
176
     1
 40
1.0
176
     1
 90
        0
176
     1
 62
    18
420
        0
176
     1
 90
       50
176
     1
 90
        3
176
     1
 62
     5
420
      255
176
     1
290
     0
176
     1
 90
       50
176
     1
 90
       50
176
     1
 90
       50
176
     1
290
     0
176
     1
 90
       50
176
     1
 62
   256
176
     0
 40
1.0
176
     0
 90
        2
176
     1
  1
strokes_ogs.tif
176
     1
290
     0
176
     1
 40
1.0
176
     1
 40
1.0
176
     1
  0
VISUALSTYLE
  5
35
102
{ACAD_REACTORS
330
29
102
}
330
29
100
AcDbVisualStyle
  2
Brighten
 70
    12
177
     3
291
     1
 70
    58
 90
        2
176
     1
 90
        2
176
     1
 90
        0
176
     1
 90
        0
176
     1
 40
0.6
176
     1
 40
30.0
176
     1
 62
     7
420
 16777215
176
     1
 90
        1
176
     1
 90
        4
176
     1
 62
     7
176
     1
 62
   257
176
     1
 90
        1
176
     1
 90
        1
176
     1
 40
1.0
176
     1
 90
        8
176
     1
 62
     7
176
     1
 40
1.0
176
     1
 90
        1
176
     1
 90
        6
176
     1
 90
        2
176
     1
 62
     7
176
     1
 90
        5
176
     1
 90
        0
176
     1
 90
        0
176
     1
290
     0
176
     1
 90
        1
176
     1
 40
50.0
176
     1
 90
        0
176
     1
290
     0
176
     1
290
     1
176
     1
290
     1
176
     1
290
     0
176
     1
290
     0
176
     1
290
     0
176
     1
290
     0
176
     1
290
     0
176
     1
290
     0
176
     1
 90
       50
176
     1
 40
0.0
176
     1
 40
1.0
176
     1
 90
        0
176
     1
 62
    18
420
        0
176
     1
 90
       50
176
     1
 90
        3
176
     1
 62
     5
420
      255
176
     1
290
     0
176
     1
 90
       50
176
     1
 90
       50
176
     1
 90
       50
176
     1
290
     0
176
     1
 90
       50
176
     1
 62
   256
176
     0
 40
1.0
176
     0
 90
        2
176
     1
  1
strokes_ogs.tif
176
     1
290
     0
176
     1
 40
1.0
176
     1
 40
1.0
176
     1
  0
VISUALSTYLE
  5
39
102
{ACAD_REACTORS
330
29
102
}
330
29
100
AcDbVisualStyle
  2
ColorChange
 70
    16
177
     3
291
     1
 70
    58
 90
        2
176
     1
 90
        2
176
     1
 90
        3
176
     1
 90
        0
176
     1
 40
0.6
176
     1
 40
30.0
176
     1
 62
     8
420
  8421504
176
     1
 90
        1
176
     1
 90
        4
176
     1
 62
     7
176
     1
 62
   257
176
     1
 90
        1
176
     1
 90
        1
176
     1
 40
1.0
176
     1
 90
        8
176
     1
 62
     8
420
  8421504
176
     1
 40
1.0
176
     1
 90
        1
176
     1
 90
        6
176
     1
 90
        2
176
     1
 62
     7
176
     1
 90
        5
176
     1
 90
        0
176
     1
 90
        0
176
     1
290
     0
176
     1
 90
        1
176
     1
 40
0.0
176
     1
 90
        0
176
     1
290
     0
176
     1
290
     1
176
     1
290
     1
176
     1
290
     0
176
     1
290
     0
176
     1
290
     0
176
     1
290
     0
176
     1
290
     0
176
     1
290
     0
176
     1
 90
       50
176
     1
 40
0.0
176
     1
 40
1.0
176
     1
 90
        0
176
     1
 62
    18
420
        0
176
     1
 90
       50
176
     1
 90
        3
176
     1
 62
     5
420
      255
176
     1
290
     0
176
     1
 90
       50
176
     1
 90
       50
176
     1
 90
       50
176
     1
290
     0
176
     1
 90
       50
176
     1
 62
   256
176
     0
 40
1.0
176
     0
 90
        2
176
     1
  1
strokes_ogs.tif
176
     1
290
     0
176
     1
 40
1.0
176
     1
 40
1.0
176
     1
  0
VISUALSTYLE
  5
32
102
{ACAD_REACTORS
330
29
102
}
330
29
100
AcDbVisualStyle
  2
Conceptual
 70
     9
177
     3
291
     0
 70
    58
 90
        3
176
     1
 90
        2
176
     1
 90
        0
176
     1
 90
        0
176
     1
 40
0.6
176
     1
 40
30.0
176
     1
 62
     7
420
 16777215
176
     1
 90
        2
176
     1
 90
        2
176
     1
 62
     7
176
     1
 62
   257
176
     1
 90
        1
176
     1
 90
        1
176
     1
 40
179.0
176
     1
 90
        8
176
     1
 62
     7
176
     1
 40
1.0
176
     1
 90
        1
176
     1
 90
        6
176
     1
 90
        2
176
     1
 62
     7
176
     1
 90
        3
176
     1
 90
        0
176
     1
 90
        0
176
     1
290
     0
176
     1
 90
        1
176
     1
 40
0.0
176
     1
 90
        0
176
     1
290
     0
176
     1
290
     1
176
     1
290
     1
176
     1
290
     0
176
     1
290
     0
176
     1
290
     0
176
     1
290
     0
176
     1
290
     0
176
     1
290
     0
176
     1
 90
       50
176
     1
 40
0.0
176
     1
 40
1.0
176
     1
 90
        0
176
     1
 62
    18
420
        0
176
     1
 90
       50
176
     1
 90
        3
176
     1
 62
     5
420
      255
176
     1
290
     0
176
     1
 90
       50
176
     1
 90
       50
176
     1
 90
       50
176
     1
290
     0
176
     1
 90
       50
176
     1
 62
   256
176
     0
 40
1.0
176
     0
 90
        2
176
     1
  1
strokes_ogs.tif
176
     1
290
     0
176
     1
 40
1.0
176
     1
 40
1.0
176
     1
  0
VISUALSTYLE
  5
34
102
{ACAD_REACTORS
330
29
102
}
330
29
100
AcDbVisualStyle
  2
Dim
 70
    11
177
     3
291
     1
 70
    58
 90
        2
176
     1
 90
        2
176
     1
 90
        0
176
     1
 90
        0
176
     1
 40
0.6
176
     1
 40
30.0
176
     1
 62
     7
420
 16777215
176
     1
 90
        1
176
     1
 90
        4
176
     1
 62
     7
176
     1
 62
   257
176
     1
 90
        1
176
     1
 90
        1
176
     1
 40
1.0
176
     1
 90
        8
176
     1
 62
     7
176
     1
 40
1.0
176
     1
 90
        1
176
     1
 90
        6
176
     1
 90
        2
176
     1
 62
     7
176
     1
 90
        5
176
     1
 90
        0
176
     1
 90
        0
176
     1
290
     0
176
     1
 90
        1
176
     1
 40
-50.0
176
     1
 90
        0
176
     1
290
     0
176
     1
290
     1
176
     1
290
     1
176
     1
290
     0
176
     1
290
     0
176
     1
290
     0
176
     1
290
     0
176
     1
290
     0
176
     1
290
     0
176
     1
 90
       50
176
     1
 40
0.0
176
     1
 40
1.0
176
     1
 90
        0
176
     1
 62
    18
420
        0
176
     1
 90
       50
176
     1
 90
        3
176
     1
 62
     5
420
      255
176
     1
290
     0
176
     1
 90
       50
176
     1
 90
       50
176
     1
 90
       50
176
     1
290
     0
176
     1
 90
       50
176
     1
 62
   256
176
     0
 40
1.0
176
     0
 90
        2
176
     1
  1
strokes_ogs.tif
176
     1
290
     0
176
     1
 40
1.0
176
     1
 40
1.0
176
     1
  0
VISUALSTYLE
  5
41
102
{ACAD_REACTORS
330
29
102
}
330
29
100
AcDbVisualStyle
  2
EdgeColorOff
 70
    22
177
     3
291
     1
 70
    58
 90
        2
176
     0
 90
        2
176
     0
 90
        0
176
     0
 90
        0
176
     0
 40
0.6
176
     0
 40
30.0
176
     0
 62
     7
420
 16777215
176
     0
 90
        1
176
     0
 90
        4
176
     0
 62
     7
176
     0
 62
   257
176
     0
 90
        1
176
     0
 90
        1
176
     0
 40
1.0
176
     0
 90
        8
176
     2
 62
     7
176
     0
 40
1.0
176
     0
 90
        1
176
     0
 90
        6
176
     0
 90
        2
176
     0
 62
     7
176
     0
 90
        5
176
     0
 90
        0
176
     0
 90
        0
176
     0
290
     0
176
     0
 90
        1
176
     0
 40
0.0
176
     0
 90
        0
176
     0
290
     0
176
     0
290
     1
176
     0
290
     1
176
     0
290
     0
176
     0
290
     0
176
     0
290
     0
176
     0
290
     0
176
     0
290
     0
176
     0
290
     0
176
     0
 90
       50
176
     0
 40
0.0
176
     0
 40
1.0
176
     0
 90
        0
176
     0
 62
    18
420
        0
176
     0
 90
       50
176
     0
 90
        3
176
     0
 62
     5
420
      255
176
     0
290
     0
176
     0
 90
       50
176
     0
 90
       50
176
     0
 90
       50
176
     0
290
     0
176
     0
 90
       50
176
     0
 62
   256
176
     0
 40
1.0
176
     0
 90
        2
176
     0
  1
strokes_ogs.tif
176
     0
290
     0
176
     0
 40
1.0
176
     0
 40
1.0
176
     0
  0
VISUALSTYLE
  5
38
102
{ACAD_REACTORS
330
29
102
}
330
29
100
AcDbVisualStyle
  2
Facepattern
 70
    15
177
     3
291
     1
 70
    58
 90
        2
176
     1
 90
        2
176
     1
 90
        0
176
     1
 90
        0
176
     1
 40
0.6
176
     1
 40
30.0
176
     1
 62
     7
420
 16777215
176
     1
 90
        1
176
     1
 90
        4
176
     1
 62
     7
176
     1
 62
   257
176
     1
 90
        1
176
     1
 90
        1
176
     1
 40
1.0
176
     1
 90
        8
176
     1
 62
     7
176
     1
 40
1.0
176
     1
 90
        1
176
     1
 90
        6
176
     1
 90
        2
176
     1
 62
     7
176
     1
 90
        5
176
     1
 90
        0
176
     1
 90
        0
176
     1
290
     0
176
     1
 90
        1
176
     1
 40
0.0
176
     1
 90
        0
176
     1
290
     0
176
     1
290
     1
176
     1
290
     1
176
     1
290
     0
176
     1
290
     0
176
     1
290
     0
176
     1
290
     0
176
     1
290
     0
176
     1
290
     0
176
     1
 90
       50
176
     1
 40
0.0
176
     1
 40
1.0
176
     1
 90
        0
176
     1
 62
    18
420
        0
176
     1
 90
       50
176
     1
 90
        3
176
     1
 62
     5
420
      255
176
     1
290
     0
176
     1
 90
       50
176
     1
 90
       50
176
     1
 90
       50
176
     1
290
     0
176
     1
 90
       50
176
     1
 62
   256
176
     0
 40
1.0
176
     0
 90
        2
176
     1
  1
strokes_ogs.tif
176
     1
290
     0
176
     1
 40
1.0
176
     1
 40
1.0
176
     1
  0
VISUALSTYLE
  5
2A
102
{ACAD_REACTORS
330
29
102
}
330
29
100
AcDbVisualStyle
  2
Flat
 70
     0
177
     3
291
     1
 70
    58
 90
        2
176
     1
 90
        1
176
     1
 90
        1
176
     1
 90
        2
176
     1
 40
0.6
176
     1
 40
30.0
176
     1
 62
     7
420
 16777215
176
     1
 90
        0
176
     1
 90
        0
176
     1
 62
     7
176
     1
 62
   257
176
     1
 90
        1
176
     1
 90
        1
176
     1
 40
1.0
176
     1
 90
        8
176
     1
 62
     7
176
     1
 40
1.0
176
     1
 90
        1
176
     1
 90
        6
176
     1
 90
        2
176
     1
 62
     7
176
     1
 90
        5
176
     1
 90
        0
176
     1
 90
        0
176
     1
290
     0
176
     1
 90
       13
176
     1
 40
0.0
176
     1
 90
        0
176
     1
290
     0
176
     1
290
     1
176
     1
290
     1
176
     1
290
     0
176
     1
290
     0
176
     1
290
     0
176
     1
290
     0
176
     1
290
     0
176
     1
290
     0
176
     1
 90
       50
176
     1
 40
0.0
176
     1
 40
1.0
176
     1
 90
        0
176
     1
 62
    18
420
        0
176
     1
 90
       50
176
     1
 90
        3
176
     1
 62
     5
420
      255
176
     1
290
     0
176
     1
 90
       50
176
     1
 90
       50
176
     1
 90
       50
176
     1
290
     0
176
     1
 90
       50
176
     1
 62
   256
176
     0
 40
1.0
176
     0
 90
        2
176
     1
  1
strokes_ogs.tif
176
     1
290
     0
176
     1
 40
1.0
176
     1
 40
1.0
176
     1
  0
VISUALSTYLE
  5
2B
102
{ACAD_REACTORS
330
29
102
}
330
29
100
AcDbVisualStyle
  2
FlatWithEdges
 70
     1
177
     3
291
     1
 70
    58
 90
        2
176
     1
 90
        1
176
     1
 90
        1
176
     1
 90
        2
176
     1
 40
0.6
176
     1
 40
30.0
176
     1
 62
     7
420
 16777215
176
     1
 90
        1
176
     1
 90
        0
176
     1
 62
     7
176
     1
 62
   257
176
     1
 90
        1
176
     1
 90
        1
176
     1
 40
1.0
176
     1
 90
        0
176
     1
 62
   257
176
     1
 40
1.0
176
     1
 90
        1
176
     1
 90
        6
176
     1
 90
        2
176
     1
 62
     7
176
     1
 90
        5
176
     1
 90
        0
176
     1
 90
        0
176
     1
290
     0
176
     1
 90
       13
176
     1
 40
0.0
176
     1
 90
        0
176
     1
290
     0
176
     1
290
     1
176
     1
290
     1
176
     1
290
     0
176
     1
290
     0
176
     1
290
     0
176
     1
290
     0
176
     1
290
     0
176
     1
290
     0
176
     1
 90
       50
176
     1
 40
0.0
176
     1
 40
1.0
176
     1
 90
        0
176
     1
 62
    18
420
        0
176
     1
 90
       50
176
     1
 90
        3
176
     1
 62
     5
420
      255
176
     1
290
     0
176
     1
 90
       50
176
     1
 90
       50
176
     1
 90
       50
176
     1
290
     0
176
     1
 90
       50
176
     1
 62
   256
176
     0
 40
1.0
176
     0
 90
        2
176
     1
  1
strokes_ogs.tif
176
     1
290
     0
176
     1
 40
1.0
176
     1
 40
1.0
176
     1
  0
VISUALSTYLE
  5
2C
102
{ACAD_REACTORS
330
29
102
}
330
29
100
AcDbVisualStyle
  2
Gouraud
 70
     2
177
     3
291
     1
 70
    58
 90
        2
176
     1
 90
        2
176
     1
 90
        1
176
     1
 90
        2
176
     1
 40
0.6
176
     1
 40
30.0
176
     1
 62
     7
420
 16777215
176
     1
 90
        0
176
     1
 90
        0
176
     1
 62
     7
176
     1
 62
   257
176
     1
 90
        1
176
     1
 90
        1
176
     1
 40
1.0
176
     1
 90
        0
176
     1
 62
     7
176
     1
 40
1.0
176
     1
 90
        1
176
     1
 90
        6
176
     1
 90
        2
176
     1
 62
     7
176
     1
 90
        5
176
     1
 90
        0
176
     1
 90
        0
176
     1
290
     0
176
     1
 90
       13
176
     1
 40
0.0
176
     1
 90
        0
176
     1
290
     0
176
     1
290
     1
176
     1
290
     1
176
     1
290
     0
176
     1
290
     0
176
     1
290
     0
176
     1
290
     0
176
     1
290
     0
176
     1
290
     0
176
     1
 90
       50
176
     1
 40
0.0
176
     1
 40
1.0
176
     1
 90
        0
176
     1
 62
    18
420
        0
176
     1
 90
       50
176
     1
 90
        3
176
     1
 62
     5
420
      255
176
     1
290
     0
176
     1
 90
       50
176
     1
 90
       50
176
     1
 90
       50
176
     1
290
     0
176
     1
 90
       50
176
     1
 62
   256
176
     0
 40
1.0
176
     0
 90
        2
176
     1
  1
strokes_ogs.tif
176
     1
290
     0
176
     1
 40
1.0
176
     1
 40
1.0
176
     1
  0
VISUALSTYLE
  5
2D
102
{ACAD_REACTORS
330
29
102
}
330
29
100
AcDbVisualStyle
  2
GouraudWithEdges
 70
     3
177
     3
291
     1
 70
    58
 90
        2
176
     1
 90
        2
176
     1
 90
        1
176
     1
 90
        2
176
     1
 40
0.6
176
     1
 40
30.0
176
     1
 62
     7
420
 16777215
176
     1
 90
        1
176
     1
 90
        0
176
     1
 62
     7
176
     1
 62
   257
176
     1
 90
        1
176
     1
 90
        1
176
     1
 40
1.0
176
     1
 90
        0
176
     1
 62
   257
176
     1
 40
1.0
176
     1
 90
        1
176
     1
 90
        6
176
     1
 90
        2
176
     1
 62
     7
176
     1
 90
        5
176
     1
 90
        0
176
     1
 90
        0
176
     1
290
     0
176
     1
 90
       13
176
     1
 40
0.0
176
     1
 90
        0
176
     1
290
     0
176
     1
290
     1
176
     1
290
     1
176
     1
290
     0
176
     1
290
     0
176
     1
290
     0
176
     1
290
     0
176
     1
290
     0
176
     1
290
     0
176
     1
 90
       50
176
     1
 40
0.0
176
     1
 40
1.0
176
     1
 90
        0
176
     1
 62
    18
420
        0
176
     1
 90
       50
176
     1
 90
        3
176
     1
 62
     5
420
      255
176
     1
290
     0
176
     1
 90
       50
176
     1
 90
       50
176
     1
 90
       50
176
     1
290
     0
176
     1
 90
       50
176
     1
 62
   256
176
     0
 40
1.0
176
     0
 90
        2
176
     1
  1
strokes_ogs.tif
176
     1
290
     0
176
     1
 40
1.0
176
     1
 40
1.0
176
     1
  0
VISUALSTYLE
  5
31
102
{ACAD_REACTORS
330
29
102
}
330
29
100
AcDbVisualStyle
  2
Hidden
 70
     6
177
     3
291
     0
 70
    58
 90
        1
176
     1
 90
        2
176
     1
 90
        2
176
     1
 90
        0
176
     1
 40
0.6
176
     1
 40
30.0
176
     1
 62
     7
420
 16777215
176
     1
 90
        2
176
     1
 90
        2
176
     1
 62
     7
176
     1
 62
   257
176
     1
 90
        2
176
     1
 90
        1
176
     1
 40
40.0
176
     1
 90
        0
176
     1
 62
   257
176
     1
 40
1.0
176
     1
 90
        1
176
     1
 90
        6
176
     1
 90
        2
176
     1
 62
     7
176
     1
 90
        3
176
     1
 90
        0
176
     1
 90
        0
176
     1
290
     0
176
     1
 90
        1
176
     1
 40
0.0
176
     1
 90
        0
176
     1
290
     0
176
     1
290
     1
176
     1
290
     1
176
     1
290
     0
176
     1
290
     0
176
     1
290
     0
176
     1
290
     0
176
     1
290
     0
176
     1
290
     0
176
     1
 90
       50
176
     1
 40
0.0
176
     1
 40
1.0
176
     1
 90
        0
176
     1
 62
    18
420
        0
176
     1
 90
       50
176
     1
 90
        3
176
     1
 62
     5
420
      255
176
     1
290
     0
176
     1
 90
       50
176
     1
 90
       50
176
     1
 90
       50
176
     1
290
     0
176
     1
 90
       50
176
     1
 62
   256
176
     0
 40
1.0
176
     0
 90
        2
176
     1
  1
strokes_ogs.tif
176
     1
290
     0
176
     1
 40
1.0
176
     1
 40
1.0
176
     1
  0
VISUALSTYLE
  5
3F
102
{ACAD_REACTORS
330
29
102
}
330
29
100
AcDbVisualStyle
  2
JitterOff
 70
    20
177
     3
291
     1
 70
    58
 90
        2
176
     0
 90
        2
176
     0
 90
        0
176
     0
 90
        0
176
     0
 40
0.6
176
     0
 40
30.0
176
     0
 62
     7
420
 16777215
176
     0
 90
        1
176
     0
 90
        4
176
     0
 62
     7
176
     0
 62
   257
176
     0
 90
        1
176
     0
 90
        1
176
     0
 40
1.0
176
     0
 90
       10
176
     2
 62
     7
176
     0
 40
1.0
176
     0
 90
        1
176
     0
 90
        6
176
     0
 90
        2
176
     0
 62
     7
176
     0
 90
        5
176
     0
 90
        0
176
     0
 90
        0
176
     0
290
     0
176
     0
 90
        1
176
     0
 40
0.0
176
     0
 90
        0
176
     0
290
     0
176
     0
290
     1
176
     0
290
     1
176
     0
290
     0
176
     0
290
     0
176
     0
290
     0
176
     0
290
     0
176
     0
290
     0
176
     0
290
     0
176
     0
 90
       50
176
     0
 40
0.0
176
     0
 40
1.0
176
     0
 90
        0
176
     0
 62
    18
420
        0
176
     0
 90
       50
176
     0
 90
        3
176
     0
 62
     5
420
      255
176
     0
290
     0
176
     0
 90
       50
176
     0
 90
       50
176
     0
 90
       50
176
     0
290
     0
176
     0
 90
       50
176
     0
 62
   256
176
     0
 40
1.0
176
     0
 90
        2
176
     0
  1
strokes_ogs.tif
176
     0
290
     0
176
     0
 40
1.0
176
     0
 40
1.0
176
     0
  0
VISUALSTYLE
  5
37
102
{ACAD_REACTORS
330
29
102
}
330
29
100
AcDbVisualStyle
  2
Linepattern
 70
    14
177
     3
291
     1
 70
    58
 90
        2
176
     1
 90
        2
176
     1
 90
        0
176
     1
 90
        0
176
     1
 40
0.6
176
     1
 40
30.0
176
     1
 62
     7
420
 16777215
176
     1
 90
        1
176
     1
 90
        4
176
     1
 62
     7
176
     1
 62
   257
176
     1
 90
        7
176
     1
 90
        7
176
     1
 40
1.0
176
     1
 90
        8
176
     1
 62
     7
176
     1
 40
1.0
176
     1
 90
        1
176
     1
 90
        6
176
     1
 90
        2
176
     1
 62
     7
176
     1
 90
        5
176
     1
 90
        0
176
     1
 90
        0
176
     1
290
     0
176
     1
 90
        1
176
     1
 40
0.0
176
     1
 90
        0
176
     1
290
     0
176
     1
290
     1
176
     1
290
     1
176
     1
290
     0
176
     1
290
     0
176
     1
290
     0
176
     1
290
     0
176
     1
290
     0
176
     1
290
     0
176
     1
 90
       50
176
     1
 40
0.0
176
     1
 40
1.0
176
     1
 90
        0
176
     1
 62
    18
420
        0
176
     1
 90
       50
176
     1
 90
        3
176
     1
 62
     5
420
      255
176
     1
290
     0
176
     1
 90
       50
176
     1
 90
       50
176
     1
 90
       50
176
     1
290
     0
176
     1
 90
       50
176
     1
 62
   256
176
     0
 40
1.0
176
     0
 90
        2
176
     1
  1
strokes_ogs.tif
176
     1
290
     0
176
     1
 40
1.0
176
     1
 40
1.0
176
     1
  0
VISUALSTYLE
  5
40
102
{ACAD_REACTORS
330
29
102
}
330
29
100
AcDbVisualStyle
  2
OverhangOff
 70
    21
177
     3
291
     1
 70
    58
 90
        2
176
     0
 90
        2
176
     0
 90
        0
176
     0
 90
        0
176
     0
 40
0.6
176
     0
 40
30.0
176
     0
 62
     7
420
 16777215
176
     0
 90
        1
176
     0
 90
        4
176
     0
 62
     7
176
     0
 62
   257
176
     0
 90
        1
176
     0
 90
        1
176
     0
 40
1.0
176
     0
 90
        9
176
     2
 62
     7
176
     0
 40
1.0
176
     0
 90
        1
176
     0
 90
        6
176
     0
 90
        2
176
     0
 62
     7
176
     0
 90
        5
176
     0
 90
        0
176
     0
 90
        0
176
     0
290
     0
176
     0
 90
        1
176
     0
 40
0.0
176
     0
 90
        0
176
     0
290
     0
176
     0
290
     1
176
     0
290
     1
176
     0
290
     0
176
     0
290
     0
176
     0
290
     0
176
     0
290
     0
176
     0
290
     0
176
     0
290
     0
176
     0
 90
       50
176
     0
 40
0.0
176
     0
 40
1.0
176
     0
 90
        0
176
     0
 62
    18
420
        0
176
     0
 90
       50
176
     0
 90
        3
176
     0
 62
     5
420
      255
176
     0
290
     0
176
     0
 90
       50
176
     0
 90
       50
176
     0
 90
       50
176
     0
290
     0
176
     0
 90
       50
176
     0
 62
   256
176
     0
 40
1.0
176
     0
 90
        2
176
     0
  1
strokes_ogs.tif
176
     0
290
     0
176
     0
 40
1.0
176
     0
 40
1.0
176
     0
  0
VISUALSTYLE
  5
33
102
{ACAD_REACTORS
330
29
102
}
330
29
100
AcDbVisualStyle
  2
Realistic
 70
     8
177
     3
291
     0
 70
    58
 90
        2
176
     1
 90
        3
176
     1
 90
        0
176
     1
 90
        2
176
     1
 40
0.6
176
     1
 40
30.0
176
     1
 62
     7
420
 16777215
176
     1
 90
        0
176
     1
 90
        0
176
     1
 62
     7
176
     1
 62
   257
176
     1
 90
        1
176
     1
 90
        1
176
     1
 40
1.0
176
     1
 90
        8
176
     1
 62
   257
176
     1
 40
1.0
176
     1
 90
        1
176
     1
 90
        6
176
     1
 90
        2
176
     1
 62
     7
176
     1
 90
        3
176
     1
 90
        0
176
     1
 90
        0
176
     1
290
     0
176
     1
 90
       13
176
     1
 40
0.0
176
     1
 90
        0
176
     1
290
     0
176
     1
290
     1
176
     1
290
     1
176
     1
290
     0
176
     1
290
     0
176
     1
290
     0
176
     1
290
     0
176
     1
290
     0
176
     1
290
     0
176
     1
 90
       50
176
     1
 40
0.0
176
     1
 40
1.0
176
     1
 90
        0
176
     1
 62
    18
420
        0
176
     1
 90
       50
176
     1
 90
        3
176
     1
 62
     5
420
      255
176
     1
290
     0
176
     1
 90
       50
176
     1
 90
       50
176
     1
 90
       50
176
     1
290
     0
176
     1
 90
       50
176
     1
 62
   256
176
     0
 40
1.0
176
     0
 90
        2
176
     1
  1
strokes_ogs.tif
176
     1
290
     0
176
     1
 40
1.0
176
     1
 40
1.0
176
     1
  0
VISUALSTYLE
  5
3E
102
{ACAD_REACTORS
330
29
102
}
330
29
100
AcDbVisualStyle
  2
Shaded
 70
    27
177
     3
291
     0
 70
    58
 90
        2
176
     1
 90
        2
176
     1
 90
        1
176
     1
 90
        2
176
     1
 40
0.6
176
     1
 40
30.0
176
     1
 62
     7
420
 16777215
176
     1
 90
        0
176
     1
 90
        4
176
     1
 62
     7
176
     1
 62
   257
176
     1
 90
        1
176
     1
 90
        1
176
     1
 40
1.0
176
     1
 90
        8
176
     1
 62
   257
176
     1
 40
1.0
176
     1
 90
        1
176
     1
 90
        6
176
     1
 90
        2
176
     1
 62
     8
420
  7895160
176
     1
 90
        3
176
     1
 90
        0
176
     1
 90
        0
176
     1
290
     0
176
     1
 90
        5
176
     1
 40
0.0
176
     1
 90
        0
176
     1
290
     0
176
     1
290
     1
176
     1
290
     1
176
     1
290
     0
176
     1
290
     0
176
     1
290
     0
176
     1
290
     0
176
     1
290
     0
176
     1
290
     0
176
     1
 90
       50
176
     1
 40
0.0
176
     1
 40
1.0
176
     1
 90
        0
176
     1
 62
    18
420
        0
176
     1
 90
       50
176
     1
 90
        3
176
     1
 62
     5
420
      255
176
     1
290
     0
176
     1
 90
       50
176
     1
 90
       50
176
     1
 90
       50
176
     1
290
     0
176
     1
 90
       50
176
     1
 62
   256
176
     0
 40
1.0
176
     0
 90
        2
176
     1
  1
strokes_ogs.tif
176
     1
290
     0
176
     1
 40
1.0
176
     1
 40
1.0
176
     1
  0
VISUALSTYLE
  5
3D
102
{ACAD_REACTORS
330
29
102
}
330
29
100
AcDbVisualStyle
  2
Shaded with edges
 70
    26
177
     3
291
     0
 70
    58
 90
        2
176
     1
 90
        2
176
     1
 90
        1
176
     1
 90
        2
176
     1
 40
0.6
176
     1
 40
30.0
176
     1
 62
     7
420
 16777215
176
     1
 90
        1
176
     1
 90
       10
176
     1
 62
     7
176
     1
 62
   257
176
     1
 90
        2
176
     1
 90
        1
176
     1
 40
1.0
176
     1
 90
        8
176
     1
 62
   257
176
     1
 40
1.0
176
     1
 90
        1
176
     1
 90
        6
176
     1
 90
        2
176
     1
 62
     7
176
     1
 90
        3
176
     1
 90
        0
176
     1
 90
        0
176
     1
290
     0
176
     1
 90
        5
176
     1
 40
0.0
176
     1
 90
        0
176
     1
290
     0
176
     1
290
     1
176
     1
290
     1
176
     1
290
     0
176
     1
290
     0
176
     1
290
     0
176
     1
290
     0
176
     1
290
     0
176
     1
290
     0
176
     1
 90
       50
176
     1
 40
0.0
176
     1
 40
1.0
176
     1
 90
        0
176
     1
 62
    18
420
        0
176
     1
 90
       50
176
     1
 90
        3
176
     1
 62
     5
420
      255
176
     1
290
     0
176
     1
 90
       50
176
     1
 90
       50
176
     1
 90
       50
176
     1
290
     0
176
     1
 90
       50
176
     1
 62
   256
176
     0
 40
1.0
176
     0
 90
        2
176
     1
  1
strokes_ogs.tif
176
     1
290
     0
176
     1
 40
1.0
176
     1
 40
1.0
176
     1
  0
VISUALSTYLE
  5
3A
102
{ACAD_REACTORS
330
29
102
}
330
29
100
AcDbVisualStyle
  2
Shades of Gray
 70
    23
177
     3
291
     0
 70
    58
 90
        2
176
     1
 90
        2
176
     1
 90
        3
176
     1
 90
        0
176
     1
 40
0.6
176
     1
 40
30.0
176
     1
 62
     7
420
 16777215
176
     1
 90
        2
176
     1
 90
        2
176
     1
 62
     7
176
     1
 62
     7
176
     1
 90
        1
176
     1
 90
        1
176
     1
 40
40.0
176
     1
 90
        8
176
     1
 62
     7
176
     1
 40
1.0
176
     1
 90
        1
176
     1
 90
        6
176
     1
 90
        2
176
     1
 62
     7
176
     1
 90
        3
176
     1
 90
        0
176
     1
 90
        0
176
     1
290
     0
176
     1
 90
        1
176
     1
 40
0.0
176
     1
 90
        0
176
     1
290
     0
176
     1
290
     1
176
     1
290
     1
176
     1
290
     0
176
     1
290
     0
176
     1
290
     0
176
     1
290
     0
176
     1
290
     0
176
     1
290
     0
176
     1
 90
       50
176
     1
 40
0.0
176
     1
 40
1.0
176
     1
 90
        0
176
     1
 62
    18
420
        0
176
     1
 90
       50
176
     1
 90
        3
176
     1
 62
     5
420
      255
176
     1
290
     0
176
     1
 90
       50
176
     1
 90
       50
176
     1
 90
       50
176
     1
290
     0
176
     1
 90
       50
176
     1
 62
   256
176
     0
 40
1.0
176
     0
 90
        2
176
     1
  1
strokes_ogs.tif
176
     1
290
     0
176
     1
 40
1.0
176
     1
 40
1.0
176
     1
  0
VISUALSTYLE
  5
3B
102
{ACAD_REACTORS
330
29
102
}
330
29
100
AcDbVisualStyle
  2
Sketchy
 70
    24
177
     3
291
     0
 70
    58
 90
        1
176
     1
 90
        2
176
     1
 90
        2
176
     1
 90
        0
176
     1
 40
0.6
176
     1
 40
30.0
176
     1
 62
     7
420
 16777215
176
     1
 90
        2
176
     1
 90
        2
176
     1
 62
     7
176
     1
 62
     7
176
     1
 90
        1
176
     1
 90
        1
176
     1
 40
40.0
176
     1
 90
       11
176
     1
 62
     7
176
     1
 40
1.0
176
     1
 90
        1
176
     1
 90
        6
176
     1
 90
        2
176
     1
 62
     7
176
     1
 90
        6
176
     1
 90
        0
176
     1
 90
        0
176
     1
290
     0
176
     1
 90
        1
176
     1
 40
0.0
176
     1
 90
        0
176
     1
290
     0
176
     1
290
     1
176
     1
290
     1
176
     1
290
     0
176
     1
290
     0
176
     1
290
     0
176
     1
290
     0
176
     1
290
     0
176
     1
290
     0
176
     1
 90
       50
176
     1
 40
0.0
176
     1
 40
1.0
176
     1
 90
        0
176
     1
 62
    18
420
        0
176
     1
 90
       50
176
     1
 90
        3
176
     1
 62
     5
420
      255
176
     1
290
     0
176
     1
 90
       50
176
     1
 90
       50
176
     1
 90
       50
176
     1
290
     0
176
     1
 90
       50
176
     1
 62
   256
176
     0
 40
1.0
176
     0
 90
        2
176
     1
  1
strokes_ogs.tif
176
     1
290
     0
176
     1
 40
1.0
176
     1
 40
1.0
176
     1
  0
VISUALSTYLE
  5
36
102
{ACAD_REACTORS
330
29
102
}
330
29
100
AcDbVisualStyle
  2
Thicken
 70
    13
177
     3
291
     1
 70
    58
 90
        2
176
     1
 90
        2
176
     1
 90
        0
176
     1
 90
        0
176
     1
 40
0.6
176
     1
 40
30.0
176
     1
 62
     7
420
 16777215
176
     1
 90
        1
176
     1
 90
        4
176
     1
 62
     7
176
     1
 62
   257
176
     1
 90
        1
176
     1
 90
        1
176
     1
 40
1.0
176
     1
 90
       12
176
     1
 62
     7
176
     1
 40
1.0
176
     1
 90
        1
176
     1
 90
        6
176
     1
 90
        2
176
     1
 62
     7
176
     1
 90
        5
176
     1
 90
        0
176
     1
 90
        0
176
     1
290
     0
176
     1
 90
        1
176
     1
 40
0.0
176
     1
 90
        0
176
     1
290
     0
176
     1
290
     1
176
     1
290
     1
176
     1
290
     0
176
     1
290
     0
176
     1
290
     0
176
     1
290
     0
176
     1
290
     0
176
     1
290
     0
176
     1
 90
       50
176
     1
 40
0.0
176
     1
 40
1.0
176
     1
 90
        0
176
     1
 62
    18
420
        0
176
     1
 90
       50
176
     1
 90
        3
176
     1
 62
     5
420
      255
176
     1
290
     0
176
     1
 90
       50
176
     1
 90
       50
176
     1
 90
       50
176
     1
290
     0
176
     1
 90
       50
176
     1
 62
   256
176
     0
 40
1.0
176
     0
 90
        2
176
     1
  1
strokes_ogs.tif
176
     1
290
     0
176
     1
 40
1.0
176
     1
 40
1.0
176
     1
  0
VISUALSTYLE
  5
30
102
{ACAD_REACTORS
330
29
102
}
330
29
100
AcDbVisualStyle
  2
Wireframe
 70
     5
177
     3
291
     0
 70
    58
 90
        0
176
     1
 90
        2
176
     1
 90
        0
176
     1
 90
        0
176
     1
 40
0.6
176
     1
 40
30.0
176
     1
 62
     7
420
 16777215
176
     1
 90
        1
176
     1
 90
        4
176
     1
 62
     7
176
     1
 62
   257
176
     1
 90
        1
176
     1
 90
        1
176
     1
 40
1.0
176
     1
 90
        0
176
     1
 62
   257
176
     1
 40
1.0
176
     1
 90
        1
176
     1
 90
        6
176
     1
 90
        2
176
     1
 62
     7
176
     1
 90
        3
176
     1
 90
        0
176
     1
 90
        0
176
     1
290
     0
176
     1
 90
        1
176
     1
 40
0.0
176
     1
 90
        0
176
     1
290
     0
176
     1
290
     1
176
     1
290
     1
176
     1
290
     0
176
     1
290
     0
176
     1
290
     0
176
     1
290
     0
176
     1
290
     0
176
     1
290
     0
176
     1
 90
       50
176
     1
 40
0.0
176
     1
 40
1.0
176
     1
 90
        0
176
     1
 62
    18
420
        0
176
     1
 90
       50
176
     1
 90
        3
176
     1
 62
     5
420
      255
176
     1
290
     0
176
     1
 90
       50
176
     1
 90
       50
176
     1
 90
       50
176
     1
290
     0
176
     1
 90
       50
176
     1
 62
   256
176
     0
 40
1.0
176
     0
 90
        2
176
     1
  1
strokes_ogs.tif
176
     1
290
     0
176
     1
 40
1.0
176
     1
 40
1.0
176
     1
  0
VISUALSTYLE
  5
3C
102
{ACAD_REACTORS
330
29
102
}
330
29
100
AcDbVisualStyle
  2
X-Ray
 70
    25
177
     3
291
     0
 70
    58
 90
        2
176
     1
 90
        2
176
     1
 90
        1
176
     1
 90
        1
176
     1
 40
0.5
176
     1
 40
30.0
176
     1
 62
     7
420
 16777215
176
     1
 90
        1
176
     1
 90
        0
176
     1
 62
     7
176
     1
 62
   257
176
     1
 90
        1
176
     1
 90
        1
176
     1
 40
1.0
176
     1
 90
        8
176
     1
 62
     7
176
     1
 40
1.0
176
     1
 90
        1
176
     1
 90
        6
176
     1
 90
        2
176
     1
 62
     7
176
     1
 90
        3
176
     1
 90
        0
176
     1
 90
        0
176
     1
290
     0
176
     1
 90
       13
176
     1
 40
0.0
176
     1
 90
        0
176
     1
290
     0
176
     1
290
     1
176
     1
290
     1
176
     1
290
     0
176
     1
290
     0
176
     1
290
     0
176
     1
290
     0
176
     1
290
     0
176
     1
290
     0
176
     1
 90
       50
176
     1
 40
0.0
176
     1
 40
1.0
176
     1
 90
        0
176
     1
 62
    18
420
        0
176
     1
 90
       50
176
     1
 90
        3
176
     1
 62
     5
420
      255
176
     1
290
     0
176
     1
 90
       50
176
     1
 90
       50
176
     1
 90
       50
176
     1
290
     0
176
     1
 90
       50
176
     1
 62
   256
176
     0
 40
1.0
176
     0
 90
        2
176
     1
  1
strokes_ogs.tif
176
     1
290
     0
176
     1
 40
1.0
176
     1
 40
1.0
176
     1
  0
DICTIONARYVAR
  5
31E
102
{ACAD_REACTORS
330
319
102
}
330
319
100
DictionaryVariables
280
     0
  1
1:1
  0
DICTIONARYVAR
  5
31B
102
{ACAD_REACTORS
330
319
102
}
330
319
100
DictionaryVariables
280
     0
  1
STANDARD
  0
DICTIONARYVAR
  5
31A
102
{ACAD_REACTORS
330
319
102
}
330
319
100
DictionaryVariables
280
     0
  1
STANDARD
  0
DICTIONARYVAR
  5
31C
102
{ACAD_REACTORS
330
319
102
}
330
319
100
DictionaryVariables
280
     0
  1
Imperial24
  0
DICTIONARYVAR
  5
31D
102
{ACAD_REACTORS
330
319
102
}
330
319
100
DictionaryVariables
280
     0
  1
Imperial24
  0
DICTIONARY
  5
323
330
6B
100
AcDbDictionary
280
     1
281
     1
  3
ACAD_XREC_ROUNDTRIP
360
324
  0
DICTIONARY
  5
1A
330
19
100
AcDbDictionary
280
     1
281
     1
  3
BUMPTILE
360
1C
  3
DIFFUSETILE
360
1B
  3
OPACITYTILE
360
1F
  3
REFLECTIONTILE
360
1E
  3
REFRACTIONTILE
360
20
  3
SPECULARTILE
360
1D
  0
DICTIONARY
  5
12
330
11
100
AcDbDictionary
280
     1
281
     1
  3
BUMPTILE
360
14
  3
DIFFUSETILE
360
13
  3
FBXASSET
360
E3
  3
OPACITYTILE
360
17
  3
REFLECTIONTILE
360
16
  3
REFRACTIONTILE
360
18
  3
SPECULARTILE
360
15
  0
DICTIONARY
  5
22
330
21
100
AcDbDictionary
280
     1
281
     1
  3
BUMPTILE
360
24
  3
DIFFUSETILE
360
23
  3
OPACITYTILE
360
27
  3
REFLECTIONTILE
360
26
  3
REFRACTIONTILE
360
28
  3
SPECULARTILE
360
25
  0
DICTIONARY
  5
321
330
69
100
AcDbDictionary
280
     1
281
     1
  3
ACAD_XREC_ROUNDTRIP
360
322
  0
DICTIONARY
  5
31F
330
65
100
AcDbDictionary
280
     1
281
     1
  3
ACAD_ROUNDTRIP_2008_TABLESTYLE_CELLSTYLEMAP
360
320
  0
XRECORD
  5
324
102
{ACAD_REACTORS
330
323
102
}
330
323
100
AcDbXrecord
280
     1
102
DISPLAYNAME
  1
Imperial24
102
FLAGS
 90
        0
  0
XRECORD
  5
1C
102
{ACAD_REACTORS
330
1A
102
}
330
1A
100
AcDbXrecord
280
     1
270
     1
271
     1
  0
XRECORD
  5
1B
102
{ACAD_REACTORS
330
1A
102
}
330
1A
100
AcDbXrecord
280
     1
270
     1
271
     1
  0
XRECORD
  5
1F
102
{ACAD_REACTORS
330
1A
102
}
330
1A
100
AcDbXrecord
280
     1
270
     1
271
     1
  0
XRECORD
  5
1E
102
{ACAD_REACTORS
330
1A
102
}
330
1A
100
AcDbXrecord
280
     1
270
     1
271
     1
  0
XRECORD
  5
20
102
{ACAD_REACTORS
330
1A
102
}
330
1A
100
AcDbXrecord
280
     1
270
     1
271
     1
  0
XRECORD
  5
1D
102
{ACAD_REACTORS
330
1A
102
}
330
1A
100
AcDbXrecord
280
     1
270
     1
271
     1
  0
XRECORD
  5
14
102
{ACAD_REACTORS
330
12
102
}
330
12
100
AcDbXrecord
280
     1
270
     1
271
     1
  0
XRECORD
  5
13
102
{ACAD_REACTORS
330
12
102
}
330
12
100
AcDbXrecord
280
     1
270
     1
271
     1
  0
XRECORD
  5
E3
102
{ACAD_REACTORS
330
12
102
}
330
12
100
AcDbXrecord
280
     1
 70
     1
 90
1959938040
 71
     1
  1
655498D7-4DE3-4572-8D09-243DDCC58C41
311
504B0304140006080800C28087519E03E09FD7000000200100004F00000036353135373445412D303239352D344434342D414530302D3931383636373641383442412F4173736574446174612F446566696E6974696F6E4974657261746F7250726F706572746965732E62696E4550C14EC3300C0D5C10070EFCC17E2024ED
311
9C364542A86B2A2EEC021F80BC62B64A693735AD60378EFC35385A272CD97EB19FEDA7FC08217E6763282ED8BF39DE707EA29E86B6796D76D4A1B8E2CAEAF88C471A229C9B970CE3D3D1074E7E8C63EB3634E43DF6B49FC2ED3F75D1E1C8FBD0DFC5A16BF67321C40DDBD3B528E0F3A4E98BA1C0F7C3FD238640E383CA4C62
311
72A84BA9D3C2487000B2ACB5964562B32CCF4A0BAB52BD50D84F434381E9060AEB7266D64B09264FA575BA90292C9DAB2A632B48D4B89BBA4D8FAD575ACD12DE0EFDF6FC277F504B0304140006080800C280875125471723EA000000300200004500000036353135373445412D303239352D344434342D414530302D393138
311
3636373641383442412F4173736574446174612F496E7374616E636550726F706572746965732E62696EEB606060F80F0540260323103700495E20ED9E9A975A94991C9C9C919A9BA8021430333535B1B47031D735717135D635313537D2B57031B0D43532317671717636B57036316447680469313604AA3532B5D4353531
311
016A313332D475727372D13534373670367376B67474B5042A03DBCBA019D37FE8ABC6157B20CD04146B0062181F4C03F940F0C11EA29A8141C08141002C0426541C106CAC2CA046088033B02A030AC2157C6006F21A8018AAF50194E6010A610250382264E08660284CD9E98021862280A91564B406929A0FF62C401E28B6
311
F88038B83CB1243943D7A928312F25350524432B0000504B0304140006080800C280875188E57597CD3F0000904100006B00000036353135373445412D303239352D344434342D414530302D3931383636373641383442412F5265736F75726365732F36353534393844372D344445332D343537322D384430392D32343344
311
44434335384334312F7468756D626E61696C2F302F67656E657269635F706E67355B773CD4FF1FBF73E71C0E67EF7576C9DEF3EC995D46C6A1EC5046649CBDF79E192942562825CE965D8A868C2842C8DE9FDFD1F7E7F138F7078FCF6B3F5FCFD7EBFDFEC41B196891913091804020321D6D7513FC77D8C5070EC3FFEE51B2
311
1F068154CC75D455CC028A3EA68992803810109FDDE5D5CEC5521B28A1B422BF80741695D5B529DA1C2D058AD2388BDA9F476F7C2CADC939304173DBF48A452BF8A700C0C70C3D121C1AA15A5270C22E2B9E28763651F7DA0D12CE11077B2ECD0D560B5E3DE2368B1E65C5E1C87384A4CC5F2D9FB8BE39E9B77C753783A379
311
98F5CEF1B4FEE553463245C9712270880DF339E0B882A6BA713D865F6F384C842D440934EF264F4A304F8DE4EEFA1E2BF5E2D91F5ADD9613D6E31DDB33ED31DB1D7916CAF091286EA3D31B9CFECB78BB0060245B943C4C040119FF780A74DD308BA9D028678674EB5504ECF284EE814DAED07440BAF649BE4B55DA2890F4D7
311
3E2D489A59EE54FDB0A85B59F2F52C4858A02705C4815A792B0C4A996A2023ECB195073E115E3E3647F64243A8338F2000BCB58DA5692C7E7C3D413F963FEDF3CF00FBB0F831A9D51360FECA43819F527B89FA260EB63C5DA676830AA3626A3693B23F1A17A0DFFCE3EE164E31B5365EDF0C89EF64D8E38AB0BA9A1117D7C3
311
A0EC44F44F4023095E80BA610DE336D0F99593A88BFC5306E72DF98F7FD132ED95878DF2964EA7E43071359FD83B2BDF9C6B5BDF768F0F3C0FC351199526F53D9460A34511F75D1B63E488178569472C91A94497807A3FD4A390C6558F26D416365C3656DE6E769DA9D8FC73774E1709812842DD8EF96AED1960F79D21B395
311
CDDFE6F92CB4EB962A4668C76990E2EF29798C8941D67DA50F4A5F947872460F1F6FDB794E8A29FD7AC0C0D6E0714339CE258FB17AE8535221E3464A10F29A0BE5EEECEFC5675926A89F49EB14E5711894F6586DB5754EB4D5DA9C6437EBA57DB97A24F8B8A8DB295FFD73266CF57E82694DF5166DDF93573AFE9C9C5EB05F
311
8FEF8E89E0A8917B0B3724DB7BEBB53252581EFC3E38166BA131A3A5B42FE2AD00A769BBFA4458D2DE7822F8C4F63D0B8E21B285AE13325F3410A435C648C9D91FDEB109E73CEDA7BC796961AF79175E1A3CE4C5E8B0D009B0C9E29EFD98BC8E97554E3D8D838424E270F7685226E5AC268E021EDE3522D583E8F20C0BDE29
311
59EF5BBFEEDAB32FE9A3ED0E39F211A86AA9DEBFC68182EDED132AB8BB794442D2D7EA9F4D8BFF52BC4D55BB165124EE90A42D101E67BBBB292FFB4F66DE5BF2300E44546757DA7CEF8932BFC9F92A0707953491A55C5A5ACEDABD9FA1AEA01BAC3DC5A24E22E7C47213493996EFBC369D086ED9397C9BA6C7F9855C7BD5E1
311
5BFC8C53DB3D2A4C5901A57ACD2FBDF4D1676E95338B2C2BCE65FDA4C64F5FEFDC7D9CA5AA1FCF11E193F2FDABF0F4916BF13FB916A224380E6462A9815F2300DC49CC4DF8D055CEF76462F4B7A7ACA7365C2707891370BC1D0AA6203C44CCAB47084FEC057F27FFCD57F89B8B9852459798A675C66BD7CE572CAF71FF7E6D
311
7ECF7BF62CAB7B3F1107DCD04DC55A3F9961700286141C94A4F771FEB2BCDA2DDEE0CB0BAE402FF1DB0100F8E475DFFFC074DDB4498AB7D186A7654DDB1CB680D703D47CEB4E72F8CB13D86A4AA68116E26387B93FD6738779B34FEDB8E517EDF2BAF28D9BE93A1D3A164320E07D42E514725C29515FF361754213EDE06B07
311
9A2E99EB1CA82A02019EADEEB87B9AF005BD04BBCECB14AACD6B24EFBE482194A97DD32400685FF1FEF1544D1B14EFB1E7F08E6D2CD2AF52DE757F35F5E62332EE88EA26417AD5C3E0E319D68F25414E6D672BD4522B278C57D18F0113921C71D96527E091F00CEB15AE23D24667369BD3CEFA10C7549D930890BA4366F4EB
311
C55F01F746109F98ABCDD5A3EE06619C6AD78AB33E48E4C9BD21BF7478B385EC05C4F8987E2C1BFA0A60EBEDAA0AE0B015C2720ECE180FB6F2DEFBEB822D96338C9B63822183BBF52FB664A7AE57003AABCE512BF77E7E31BDA2E739AC4C131657DDFE5225E900FB56CC01CDE808FA4A9C9DA16AC679656BB64796283D8981
311
2B8F91136AE18EE5EBBAF47A73BE3C153EB5D4CD491B4BFB4FE690A4CF9ABA08C0D8AA64220C438C96EA6CA80B58FE5761E697B3A292EB9FBDA502FA863E49FE694ADDFFF9D62C520BDD1A22014147A0903A05B9B729F54272EF83931FEEC057BFF8C8055C279EAC5C0011804828734024F6CFA319C9CC6867C727184465CD
311
9BB7ED386AFFD96B294A85E3802FAE47244602D8273615952B98C4F23F7EAE4463D9D638EEE374A20959E0FE519C4CFB0FBFE5DD80C2AA3F9DB961D1BDE57E67C9BB47B77FDD74EE3094F5DBBE3EBC1FBDB7393F5116263009E2EFE1AF9A221B2AE234C902BF70E9F280ED23E73908361565964333A3F01D0B006AF32FB21A
311
A1316744B489D5A198E85299241735BE559675130955C902A8ED761FC0DBE337A9F91919AF5CE32AF902ADF9AB2615E00E8A94586BA1A90839B61832FF1BFB76D2EFADE6DB1BA04CCAD3DA649E7E2A0219F592E22F2AD54847EEA8E42271011E9074F8F3DD9FBA6CDF88FFC9FC7E811AD1CA8F4557CE4AFC7BBEDCF0114A48
311
689F20A584520C74DA8127124B767E2FB91A6B186246727BE63C9445BAE02088D58B8EFDC0F1072407CD9B89A13F6303B4A928F593AD489B58E6869325790ADC406036C591729FE14021F94B7796BB11848D463536A092A26F077F94639F7CEEE2A724C66EC885F4A24F8B8A0AC321F8FD149BA529460FAA34E4663C02D41F
311
DF80BCA222D42F0ABFF8490F4FA74C673807C2051D8E467B47B616072860069A9A303ABA9B319D58404461401B0A0F9BE5E1E151C14BC33B32ABE03DDE91708DFAEB15E7C0D593C86BB7D7EC17BE56E57975F077BFD5525F3A1A361D584A75E08CF29FC7B44B2B3085014F3A5A14517377C3F6B8F37E59514C3B12F8AACDED
311
DA4DFC49BE5710101534CD6FB6DE15B50F11A09472AABA727F0C49D9CB906B158030065F48EB3625E010CEC1D511D0053474B11E6A4F01C0D6EF1BED3A944FDEC70E0DDCDC756C86545910E0DAE3BE3AA9A404574C2995CD5CAF9549226BC94B4F4F0F5F9086F418F6B32346464610D8BC7391D3C3A3CCF04CFC1FB2A3A317
311
0E369511868F14EEA4E5E438CC73DB1F3248AA94B6B2FF33B222FF3D1E7BF146CAD229770158063BCE4F5391964DF62F7E52A7BE0EEA829C9E13C4C147D6F93FE59E111DAB5E4594D6F3CD1AD375EE039930EFE5AF2BB2D41C83C7DABD8C659BAFBE8FAB392CA634F3D15C1D945DB4588D2B0824A4EC928AAC565557CA2F0D
311
AA588CA5BE30B3A8004F7BF005E96CBF891D7F18112A3619FDF530DC8AA64954258E1811789B5189B49B4EB53F5F89F7D37523894F3EB57B373763C91E502F52CC99EB7BDDF933FC324C4FFC2561DFFA7339FAFDD0A4BFBE6D3A8FF9ED1FC49898139864602458968913181918F719CCF5A68B2EE9C1FF050E34E63107003B
311
8120FA982C21B30A874E4F5E4B38D5A8290C4B8D9BE48A0BE31EA995BDC37AC6DE90BA17D259DEF53605D55922FEB1855D915B659FBEB350EE0DFB2F9F766E1C84CC8964B75D08667445EAB966015F63A18A9E0A325C1B3DC628C0D3CB60F767FA93CC65F25458BD23C3B312716E5F40E5858AC06EBA9AB14F95DB99147B83
311
2069201541D09A0D856E12C629CF32683760EE855537D1901988D5EBC156676C7DD51D7207CF3267AF1D76C2AD867315E44618015313A98B19941C696FED3461CAA9B5415F918556D7802EDACEFD6B2E45853A9735DFC9DBF7E440F9319F8B6805A973BCCDC76C069A9144E51F187EDCC12FC31B5DEAAF0A76137199B106EC
311
84ADA6B6EE697D4E6A96E007417F4E880E8B1E89B4BCE9D81EF611E2ED8F0C1A6C25F620FAFAAB656A7C42D464880E8AFAB0E0FC8EA38CA9A8AEEAEE3E4648BA4680270A89743CDD3E6C6CBF34B7B640EFA285ABC7EA0A1E28F3CC963D114A80123EE66D0AF7D5380EB41909B605AB4765B709B808590458157E69BA1378FE
311
C4B48CAF6A730E3BE3C5EF2DD1A5EAF94B1DDE50CEB55DDFD7EE9A16747FA4B223359FB1FCC69E1194892BABB93A1D5C4E807AC0EA2E30180811E77A2291F6E7F7FAA5E0F60215BC6024E48DE436C511F0628B8CA189982D4D83CCA17D305A7E923C37941CFDFDCD93ACAF735EF5F0E61BBD3E6C41A59B242790D3A3BAC706
311
4DCD89AA2E37214EC839820949D5CAA31E240D2948E48F690298974A96BA9A8432BC90F5071D6537C9666EA4564796B7AFFFA548077BEEA75F63083435074BA182F3699557397F71548383FDA8CA34D99B981E72835ECDA5DDDC151315173D05A21F651AAF8524E88209E2E7A737ED1045800CE3390050BCFB8BE588DF1116
311
17874C62575039CA588EEFDEFEFE319B739DE2EDC147092A262611E159650E787917885EF08F1F51B8F2D8A71D60B58B190FEF9541A1BE94BC19FEA50784DA1419FE4B0FB51B8D36B5FF8E1286FD8AF42B91E59A5F1CC4D60174E764045FD8C57B18209B217F89A62252BD20BE0E63E12B8E8F029FE19E0E8D0870F58721A5
311
57082250D5424F7909369376E41666C0EE77CD87CB283F661D5FB6D0DA023CB67320A20DC7BE661E9E1BFE5463085C557DA1FF9BE835733766C3D139F2CF9E2208873AD0EB4814DE9E6BF2CAF81614D4D43906ED1C05A3265CABBFE192770FC2F64F940CB6B17B5F166F133C9AEEAD2641807C3E69515171DD74C4A8531151
311
3D6EC9530B3B601B6BA3EBFF3B5C3D2F7D69765141E345F75433953D013ADDF8F6AA7DC3F4A7563FE5C7D367937E2900D7EAD0F9FC9A4A1A9B5BDF1FEF08532660C01C5D6DE22199AA774383E306DAB87E301ABB7D213887F9869D4942D0D71E94B27EDF216A318BD488D45DF84529EF575AF3C3938C0AAA0215B01994153E
311
2054A0B894DA5C784980633AAD48576957CF4AEAEAFADC7C587368551C73DBE1E57C58AC713303A8BFC258BD04B51724459FF9E24C03A81E0E0679CEB9B348C0DC998FEB9C6D6EFA77D247CC8F92D3848599ED89A23218D0636465AD1CEEB7DC140D7426F83491C4E8E8281C2FB35240918FFECE880CA2A42D70E8B20B34DF
311
5221C7DB0CF90ECCB9C745B37A47E9B716FF7A97B7A252C1F3814DC7B1E1A7F72B8751D524EF7CAE45B0C73B3BE7D08ED39781B380DDFC9AA4A4749C9493DB5BAD07A6EA6C092FBD0E85DB004DF06B8C9D3089C5320187E4CE1846158C7EA7DDAE8AD9AFFF21AA3A1026BB06A259845E8232DEE62811A4DA9CEAB3A4887320
311
B76E2AE5615EAB7BDF738CBDD01F1E64064BC13D9EC53576751CA8CACD58B3CEB0E6CA585BD089B2A59B9FC101403387AADBDBE70586B93D64BF3AD4453EF9C3B6A93817E8346991798601344F79A83C51F3D50F7BF2683A3605F51A72449489E0EE6169C749C60B1035651103AEE24D24E51A759C840DD3FC6504DA6FE107
311
510E447B43461C79D22970B75DE5E1BD3007D1AFC619A4A4A69B5626AF5E9B8374E20677F77E2F8E73DF868E8BEC7EBA7B6A75EEF7205E1AB9486CB642741D6E03FF13FCCEDB1C4AC129886268B01CDF4B124AF797CF784F3C6DEC97A17D4B558070A0F1C04DA4FF9BDBF34159AEFE958479824B3F58EBD1E19088A2AFDE50
311
1B6F2052368A3FD0E650A179EFAB1561E1D27527077136E652676C3670F42DCB3352F48F6BC86D2C3B0051727E41A0A4DC6CE2BE9D47F5CAA2935A3C0539AF080665997194ABECD723B08129CC5B6B21D2E7D54CD4D12610E7E9FB8306771A89576C7A982002775ED44F3F744CF21EEBB27A631671D921938AAEE3EB0D19CD
311
1E083727F607823E817BF599DCED5394E37EEBC2E88782E638920CA641EF74D4CDFCDEF06F4278ECB18E31E7E9876F2D783C8BF429C75395F57E98C2B495A3DA077EB3AC3C158608B6B57FE3EA48484D9A480096FCEE0DE880950E7E5A5714131C5C41AAA29FD19AE81AC145FA1B9E85C7169A5AB837B213493DF7E9AA4B5F
311
BF9CDEB36EBD21EF1181B7CF7366AB2A951D01E37AF4EB835D1BE8C117CFBE7625D2EBCDB0B20C5A4B45CED0BCDE3EE8DA9DA78C2E21DEAAFFD1197E463C33CC6A80FB785669B856EFF7A8CCCA2841B5A5369173320B1170C368B2748D81062EA0296E5E2D95D7667A4A46D98A6FF475C76AAB0A8C8D45E226FAFC9FE0133E
311
A9F60111F99CA81ACE03A1D14C89E8B0D69079C91464FA1D99E651D0EAF606F345C42A8A1AA9BA391031582B96D5B4176A77AADB01F12FD298A75DEEBB2C82F0B8650E880722F8DDD90C56A7A058E5FDEF1AC93545BA27367C76F5D8F9690CB6F8DAE141EDD7971F0FB548A2AE435F224D6E5954CA155512F7332029D5A123
311
0854B79F258EC5FFDB09F5F6343A8EB193229B7F7E79B3E48F8E183860B38C8269D1B53738FF1E0BACF6AADA6D4869E9DE708E79B5DADCC09B1BC76F649731CFAF59A83FD8BAE4C749D66FA87A3810D4D62FFE826FA400C0F325D2BC0F3CA35F5847B82A2ACC7961745C823E4D863D54460AF792CE6F79B5C7A33B25C3AEA6
311
CDE15A919B6367D781E9D44F61BF828672594A3E1D9EDD6DF179A81F27EAC05B936575D73E05C209DDD2115CFB705DF9BBF3C911589B3640735E9E618FC9C36A7326C82B2205E244C55D56FDB9D5DC93CE958D4BF8174D2B3DA54CB3C09F2C2A6DFF73D23B2197355761AD421EC581284A7EF8DE2CE3497C0C804D49B41DFD
311
6A7360844E5BEFFB495CFCDB97A4595911CDBA623274CE852B5E278AF0BEB1770E9D37CD977B2766A7DED0E94B840E1E95E8C77DE5CB6354AF7871427C28ADBEEF7BA0A28E19DE9ACD75F379FE373EAE6DDDAE3834692F9C2B03B4FCA8FCA9ABE8EEEBEBB725B88A7C90941E850682CA04061A7DF0CE82ED49BFAFFD42C309
311
818FAE14755CAAE78B0F73243ECCCAD7DF58FCB9CDFAE7A4D3E6671A613639130D056C8383C8F4FCF4808C331E544DD26E4755D09EA05253B3049A1E32587CC25D72E073E2CD96D04A71BBCB0038FEC3F53D254199C3CDC67CD66640269431860225392B2CB3ECD0B4498AAE78BA1994246AE1EE78F2EDFB79F6C6CB6B5E27
311
9C4D373FBC21CB2698C9ACBBEB6A4BB6B39E16AB0E421CCBFC7654D81ED86022F9BB522146F9F4772E2D0E4FA70120C95A85A417BF5078B232F4754363EB1750B2AC2148EB46B1EA72AD9B4D23ADCBC589D70106C3EC2ABEEED84DFE28E718C6C83502C28E9FDD3B09DA0A6F6F7B72B706A31C9E2A331EE70DA56A083D2177
311
BFD63C55B11D8D949FAFCF90B23A1E24B9B5018B9A17E99F2890EC302F330FE7936E2C23F0D237EC8916F5166AB84B62A21BB0B950146962D754F92CC2C8877BED8FC7B7B25726DD19545392570B3A2C66B58F027BEF412E552D12A588C4A3CC5C3193FCB3485EFFF700D0B9EEC077754A33DC1FB9E25AF814628F91DDFECB
311
667D3F7690803F38D13F8AE39353523BB08FC6760144AFA2CE28236F65EDBB3D5F59A57D612B99E3D7E5F8A851666BF9B5A6658EFC96EEB37A378ABB0EB3FDDF1303AF32C41BD1C8560745D7BD81066B0D6313359CF488563D3BA3F8E2185D1FAA3EBA1397C9D0E3DD232180A4DCADB6AF25DB3AC3CC26589C8239E66E8154
311
7BC7E2F328F9884764CA37EB5DBE390DFC03A5246B456A7C3684C4377D0EEF9A350680FA9A077E8B2957B489E09AB1AD41316944C2254B5984830F691C93CAA767EECF976FA5647538830B5E63236A6F0365C1E0F3E327F24FE35EDDBD7360B0F7374837409F7A6311BECC12B7026D4FA1AE204FA3F5FE904B1F420C7A9044
311
AE58E403E7C4848E7DA25DC9EDAC79DD756FAA26B9EA83ACE8A214A2612A22AFA19DAE7DBAC5F8CDE1292A485F98DAC731A29FE01A3966E96BCB9FB5A4C8830E1B9AF0C54B87FBE221A097036E5D28D1F869F810C06A9BB0AC0612F69AEBAF893C6E7AD59460208BAB3A6B09CA4F6BDDAB8CF0D1F84B72487498395A70DCD7
311
54796E271099A567A55CF242BBED64696378BB6CF25EF0FCDB589F3A82F1116D010A9AB9FA4358809EE0C973A2B4229BAA876A70B03AB49CBA7FBE71DB1832FFD32F9BF2C8E98075CACAFB36921235D0F552B6A67E94E094097A5D7DF681B40623DA535ADA7A9AD8E9A62407D7C9A5AE51D62A17A83A23728DE86BB5611580
311
4D3F2675F2C6B87541A0FC497BF0CA86420F558C9859EBE9FAD62747E323E3AADC03FDCDDFE7407B09DA90B44E3185723C5381EAEF589765E2F7A099BA46695BAD60CEF3491B8A171F5F56444F7CE9455312C3498C74173AEA0214EC029833B34B650CBB5A5508D5091665309642791708ECF27CF11DB3D797D6CFE474453B
311
D4BFADB768094B2147814D81C7CBAF8228DCAF5564B5891F5EF6A860EB2E323CB82AB868D8EA048880D63B0DE5341F1B3D53297B928A11E15F25E5148990F710747C3509ED14909C552EBE3973246FCE55D00564D8310BC3EBC5085D08D806799B77D6C57FDF5E55837F9E934F09C03C729271B64F12D0A9F9E938107CAF7B
311
F1EC8CF1BB9B42363D33070F4CACB425E605DDB0A34A12BB936DE286B9887A4E2E558F0886498BFF49C311D96C277CF6A9FC0D75AD0ECC5226D7E0E3572012E56D7FDE4410CEC7A6D0F997F225A2055B8B92E3956E875AE4993CB3D4C9063AF98FD45E1BAB165640A43439A2C9181A7C355B297C0A0CCFFAE19B6FA3C2BA23
311
8A885FBC98B8F6DAF4B94B97304878DF4D8BFF6A4AEDF79E90ED4E68F00CD7299F4E0D83E35601AF0CBEF18C1E870E74758FA91F5131075004DB3CFCF09AE1DABC11957FD9808C92E8A678CE9DBE40DDA0E0D1D505AAFBCBA208232BFB6FB3704E8985E61ADE53DE74152F5C7DE74B1DEDCD37DC3E8FB30D7EBA8B9EFFC360
311
6BF90B8D438279CB7709FC7C00D327F41817EEA71CD9E49FE9C8C9A81C70915D9F0F15958EC5AA4C3BBFAF46986B90F188BDB24B89DE3C6F29EC3E6F66D84856EE96A35E657CA41B41EFD8DBFA16AD6E91439EA92B40B21C053249F51AE50EB0B24C770FFAF40DF12C8436366819C48E36547D4E7B72FE2BBF108285830578
311
14A668BDF183F6B2E58DFB151103E56303E63D00F39C27C4661605DB644D19175D02E3F0241E8FC3458D17AAAADB117CE9EEA690D0DB01E634878C04C2C9310B69FCAB831151E3AD293BEF6E46B0ABCECB50F5939B39C613D41E81FAE8D34CAE3C4566B761D37185FE864AC32FCB71AEF39DAA5BAB88609BB980CD2F07A8F9
311
41653B529567726E2B2A58D079DD57E1E5E31426CF184A04D7B03B985F276D47406AF276FE32E3328BA866EB1FD39BEF57863A317634AA5FE467409B3873F5069EF0D71AF00AD189D17BA1974ECDB2D623E9E14086386A6AAB5807825C37B015BFE892AFD154920EC437EB945D958E18622E1E0FE2FA06557CE4BB9BBD05A2
311
D40E774DA2B65473791E314B7D6C886820B2FCFE4AA272B3B8B15E7344A145E8AF919B5454D89D36D413E87211186BF6F645E5EC94DCCE8E1C799022E4EC9BC86D7A0F2AFB1FC4B2CE48F84B3F49ECE65BAD24CADCC07EFF39AB06BE9E6B27A059938EA7208838455383DDBCFCD967DDE4650EF92A14FF933C975DB20BD7FE
311
EBC4487576485963D757D16340D9599FEB362F775F38CA4185A86F74B629C81B133644A3B18FD056E997E0734F9BE26D11C0AAFC669E2AC9FC41D281F8B2E1C35AE27BCE05F3DA295488096688719D974DF1B5D182DB7792288697F8763CFB43562C1CDEE11C4AABD5C22B6E33F6F389CFC3477C5919DC0D533F8A7A1846B7
311
ADB60ABDC26C43D0CFC8910B7C15EE22675BD02702ED39DB77A87A192CA7A543E6205B979B9F5A6B512A3CA799E198B2D5797C0AF8D1D872CA455D4D431A7879D4DD76110B5FF7F4176B54477A9EB5E4A5D11214FDA585F0382751D8E2582BA5D2075053298FEB8F1537304E32CB22C2E2B693DC0A760B1DFCA751BDC445AF
311
DCBB12820ED85F6D5298933C7EF1211E9E057684056CDA3FEF3BB6052355E162DF27C59E965A8DDB7F9437EB72CDDA3A090DE65A5B2F50326247B7EC67B73ACC7047FC9B353D6EE990F772207C6EC52B39DC2F3C0754821DAB559F7C1809C7D0DD5B0499D0442E0A6E391B3D5DB46D11E731E6794EC77523FBDAA242ED67F9
311
FA1FB684255671F63C9BCFE6E7E896D51001A6113EF2298BA494E0B0980D1FA5B9D60796554C02256B1E0345FB7C6186B6A19D2DCA270416262845FA4F42DB5D9B0A0B6F07FCA2E56C242522E001E0CEB734AF310FC8BFB57E38E03AACE93B3326A2197891E68452B26A6307FDABFEE0223D3C03C3C73D2D5BC054C8311F12
311
004CAE488E5C29287F8156A2CAA4AD0D7BE6B97264E4139F437CE73ADF52E5134C52B819777C18B323A5924E4F67AFD13B1CDC3A61793A79FAF5C0CEB718E441071E797C6DCCB9EFCF7E4A1E9F3DF3C2F9C9E8294E9586868788C972857FB0556D7A26941A7EEB9B580AD78EC40B85DC906B4120A563CA3B87797ED612D3B0
311
35962BB75F6515A393F4CB057F564CDF54F2E5A024514E6A1F901DB80C7E70B1FC05E356A7E72FABF4775B3E3FB8F70A2A8E7B6A94542BB304157978CCC999E707A29CC795E67A59CC546A5D47B368954CA7B6E75EC9E1F6FC73CE3B4F71F8CB1A6B15923D61EAAEB14626AAA9D04A26EB9C66CD1BE86CA31A5D8703DE04CD
311
1EBCE4F5CCB62F93909AD11E55799A781A956ED27D3E738F4538CB04ADABC7DAEF20BC35BA6A90BCC1DC61BA05F20D8832FFB9BC9B15E2DB838A0AFBB7E0C82A562127E0446894F427794C3037186F622BF24DE1B00AA10A23BFA47B2A180D6DA5AD6F7326FEB8C100C2D7142EB2A0B2A9D1008A09BA343D70E054AB69E2A7
311
EDB783CBD92537FAF4A44D1296AC2792729104B3276C276C951D0CF3CF3F1E6B017720A7B8505A5FF9589365979678C36F1BAF759EAF57C60F1FF5FE9DCF5F8E764FF25A2D06CF25117A8FED51884C13B2B750DB0E4F5E3D64124FCF11F0AD8F1CC3B3DA4B38ED22BF1CB2585EE6BFEBBA63FBFD44F9537B9B37BDD6B35872
311
0F98A8125AED4349CCFEB0E135F19E208A04CA7E2B10711185D72E381F448036EF57C9F874E54A971CA37A639E986AC0226DC5AA00D5B14FEA9192234B3DE617814FC221C92F33F1D392F297731B567FD98FD91D989379AF567A65B8ADF177591DB90FBEA99BF4ED11B16E50A0AB1DBF1156D034BBE04D69D08F939D8E92BF
311
525A1DDAFF80ECBC95D8F45D3FDD289FD23F7D8B452F8EBB34EC082DEEE68E18EDDF072060FAD2AB1504DD4879BF67099FC58F6E9DEFBF645D16334A3E9A127C6F1AF6132CF287E433B43A0EE93812B4AA0B194E03EE3FF91EF9C6ED0074A2F6EB18A96A7C9890B1FCDA1F2095E944DB911ED54C60DF16FB74C8CE9BDC7C54
311
C4F14078CF73C2FFF1F1BBCCD7CF64F71407EA1683DBC410D226627F66E509060D5C0AFD611DE681D509DB8DD12FB1265B03C6F5C55FF4C30BD94187FF692B4F152982502F193098A789526A038AB529A52BC0DC4FB6285CBAC10A8B8DB75DCD9BDABBB221E27D1F8DA9F5EE5926A1C8AA9BA9BC09239C6A7F12914EA3B59E
311
FF7AAEC3FFCCE56F1C5C2980AD072793527565E774F4631DB178CEEC691B1F367BEA0CF2907E1D6B854D527065979DDEF002D8B2ACEA7CE21AE297737EDE1D45B31233B73FEA35BCFDD0B09721FDBAF6432681F2FD10C3E9EFB246FD6E854B344ACC9D8A0EEF876A7314B49B6A499FC650B099D650DBFEC7638ADFD245E2B7
311
839DA5AC5F7D5623FC0ECEEC8653FC9B2BDD1AD4D00A566FBA7186DD3C9CD26512551637498CADB950FEC71ADB9A5524285DE328B8EC7EC75D2345AEC6A27C42AF6D9B92155315C80DBFCABBB7DA0FAE425C4FB896B15C9BFAC4FE67DF5A23D30C93DA4D8F36FB15D100050DA6062E22AEC5F4DAC4F6FEEF97AE05DE63C6D3
311
8F9E068A20BC5E3B6BCD75320C5090924E7F93640A7735B1A43451C2D91EE62C6238B797349E59890AF3A520DF4A87095F3ABEC2E61F0593416CE46CDCBE0E00E2523FCCD04408588B5B6C9DB6459C786CE378770B54F51DA3A5E1DF2A3349BEAAC234A6CF8993B598B3B25B4B113E353A4D750FA7534749430F3EBF2512E7
311
EA3FD43C6AB9A1F765A58463B306721A15D224FAFE8C6F5E3432D57EE697DA0DD5A9D4866A8BCCAAA9DFF1F06047851408FEC060471D0E3EB86BFAF46E4B5E60311DC3E3CEA147C75CF971BE74689507154FF2D2E92F15CDB2B9182B11459FD8ACAC5A85F174BC94A7F4EE4C4F5CAFA7C02E37BF0BC77B7DCD0C047BC316F5
311
62A01A441AFA7931CC84A28CB9F4AA367EB515778F29BFE61195FA671F4352E5E46E3A64773F1F76EE5EB36D7BCE9BCEAD837A4D77F8DB8C92AEEF6711920D7C7D0F76B0FD0EB7AB83724CD35BCA7D36DDDF5FBB7FF6F04A91F3E2BB3B8F1A43CD659639507FF6331C5F697BCC782AE57D757A27D97F1AB9E0AEDB43F92F1B
311
2AACDF5FEC8ADBAF9F814E2027003BA2F9E144B1938A7A04050AE5D953B82C45619165C813A10E76DD6906B3C16438064D14CDA713AEC420034613E1AC7241904A49FBF87409AFB1FCB9B72FE7933A87D8FBEDACECE4EDCF6A4FE9FB94D5DEB74FAB7CFEAE17EE965DF980DCCA2D04134994F9A2E94D2265DA4FE6AA7B7AC1
311
5FACAC2B5ABBCD7DFF542C5314FDAB2E1B9D8B65220B8E2B638BE008E8DCA22678C820C5053664D15E89F2D735B51A84955E81A443545E9FF787BE0FA700A76D136C27DA179A7C6E8939E01BE756E19CB292798063D8B97F44E8A27BCF3A614FEB8BE974A718E86F7EC99B53CA35FA24F61F2B07266684623A3D4CF073E511
311
F3A10A8FDAFAF0078C577F4DF9D339FE7862E5FA47CF4344209E5BF76D783B1B48E152AD281B15FCB934DCDA49CEC5706B1EE8B460F435324A5CAD154725E21AB8044B75A557A79F6C807B9340AA3D92503E866F4274412926C8C504E4D5EF8C0E68DD0B028781A6B4054F11CF18941F101C57CCC796773ABC8DED9CD91FE5
311
788806C05E548895354AEAC96546D55B0E94A59F148D061F42AA398D822CDECA4CDE79E13469BDCC44FDC990F366BA5978C15F97ED80CBFD73B0CD9B8B83A4F6845BDFBFAF034019473FB9A63BD55D3A4A7284757071574029A4D016DCCBE95DD679EF3C4880BF169422F8C89B68A988D2B13793CAED4F74DE7486C72DC94D
311
F46B8E93D8E02EFCB1FF9B3BA10C8AE7F653DF94F4AF466CDDCEF5776687F7C4C14B63E4EED1719DC2EC482D7DBCC7AE518CDE3D5FF86D39000EC3673C0044E1D308BF05F74D1B5F033A7D1BE7F74BC55BBE3E4A20F920946CA0271EB17BD2B80E5660ACB8A29A79F5E4BBA49D4D945B6EEF4A7EFEAA65E5555BBB57A7E15D
311
2F83C69F30BBB978D2B39F1F26FC097424D39BB33CA3D87ABF64E307938B685BAD44F71556A30B7E712CA4FE600613C3E554B69ADE949A7CFE214DF1FFF05CB82151EC6FC31950239F94CF7AD39DC473F6EA356E5EC2C4EFA04383CEFE985A127484366FBEE3C0EC4FEA363E4F6632AE781392FD45D67B63FB8DF70E82734F
311
431FD3443172A0E30A83D60982D55FA6A2CF86DBA8382502ACC6CDEF3B907982EED1160E14863FA242F9757347E1544275CCDCF71ECD5F8621CBEA326B8BA884AD7F825781923E66971F04010D574C541D8427A438A37EEF8AF88240EED7362C953F5A81DE2D56109CDE2524EA0F5D2F87308C0C47BD97AD605878AB8589E1
311
7CA83930CB5E0DCCD75853D68B1AB136594926DE426C367428E9334AFAFF90ECE221BB5DC9E5BB53D2CDEF954EAA9CD814F0E5725F1965DD458E5F8487683AD86B9D0076BE3EE91EB1CECC5331A67A3F79D8B27587C12EC2A6A70474749F27B4C0BBAFB94B34189E88DC18964BE4121B9137FD516C7755356E50D6714E31AC
311
D222621EBBCD1CFF81D87479056A9DA0E0B8EA19D24CF937DA89F78E8650CCBDC110AAB6C4E46DCBFD0446BA9E2060E81F314AC2031E88135E5476AC0160EF5C0DD2EEF1B8B5CB2D198BE9A554A9093B5F7D7E4B5407DDFCA1D9C152FD97F55BFFFDFE802954DFEC8995B983E28AC92F1971E28F531DC407A1280EB125F64A
311
72E617EFB27DFBCEDCDA2D6F2BDADA36873EE46B9BE1782998C63DA7182BC383FB6FD15DA472B175D7E8B4FC88F38D6E07FEAA3FA3CBB8F6B449ECF14D2175E5C5CCA3A42ABF24CA6C9395AF74535F4DDB38CB84F56614B0FD32D7E19CA5CF988DB4449C40E23DF2B16772594554579094450F56F253CD25EA7F77366FB1CF
311
E79696C428BB64D5A41E986189427E5E4D7E2DAE3D5BB4972B3DC44EAABDDDD63A2264ECFA5C786EB0EE1FDC5BE34FA0F08376869FD1E61EA06CAE15191135445EE8F0394161C3266A596AA035572BB0C8876180D8B9C77D307DF9DCDF7365ABDA6F3A2366436457A4DFC1F259666569A9E4A79C817BDD5610E5200FCE894A
311
358EC72858D50EF67545DA81C6FACE3D457BAF70367E1E6BDD9A952FB4F56247F58F523B97E640246051A72F79BE42FFA0B3187F63097F91C48B868586F714B0EBD5A00A8412C1236E1298F60C72BE6C96B82B404CADAA304AE9F303176B14BA53FBC2D5E86377E35542019E24D97B96A49B2C0E5006E7795954DEAF5DA589
311
58839043C6C70BD3B1B33B6DC5C31316D8A6923F142E26F6711A2258AF977DDF1F970ECC4F1F2B434B96D81BEB6E89BF3BBB3C7C8CC80505070723D6D7D7D3C8CA27CA164A26024FED94B12A86031867241DA53D929636DA600F050BC40CE48B8BA03D69224720DEE2ED2127390BDF5E6EA64527BBD4C4C63FA76BB801FEEC
311
0E61218EC98A8A86CD8313781617877E66692839B9468CF4DB8E50A73986E558E309C0D6F676F921BE02F1185454DC75B111572FF9D27D85EA14C05AD7271225B391C4275659CA4A43759D0BA44639BE4C30A84DB7F67A41399FB95CBF923B1B1672ABC807C1590557FB18D811983FA97F5E609516D62281D38B1281F68FC7
311
5528C35E4CD7DF0F7DBB5E5DD69C414EBEA2F4A5B241B996BA77AE6C772E367408C633EA3E438B68563EA8BE7667F3A4C4FDEEA52ABD78A2820F443B7914A15F180018D231E64519C56A12F6CA7C8DAE18F06F6B769DBF92329EF6A5D18FBCE600F36BD8E8198DE5CDAA96181F3A756EBA5501CEE58F497EA4F418A2B82565
311
B9BCC611713C0B708CCA1F398B78C5F7D03B3437CC18F13061F55C7BEDADD5ACB1DB0E36D3CE47FF6EA1A563A57E9649EA5D14D1A50EAA457463381C073777EF1600607BAF6428A7DDC079D47A204EF1E1F1F0589FB054D45E02CE623B3823C317C601E589E22B1E88B448524B86A82828E32345EC18AE17214B42F8C41C6D
311
428016D9BA31DDCB47572561E5A402E5BA4FCE55F78AF7268524AA04130F3A20BA5D1E9F9948EA48FC8F5314FDB35E21898198060034ACE5E3E2BBCA34092518F275190AF65F45867FF0900AA4B81F25427414C372BF51DC29AA855C5428EE1EEDD6B849AD60F6E73475C2D2523F8A2772C840A478DED18A8C5C91B085F255
311
DC4F54EA7AA8947354FD17ECF8FB3B4A0DE7B483CAF3A1165EE05BBA413E5C1FEF3DE1D6B8F2F3F3251C17D9FCAB48A9AAF63AC773A0E413BBC46A9ADF84A566FC920E4D8C52C9769EE3301CADEEEDD92B312E02E2A7E35B7F1E7D203FE5A7D75578B06E99D0E46FFADB8FDA17ED8880390DA29094202D6F645F76F6F96409
311
CDA05495A96E84B04A00D1A6C6C81D7F3DE9376E828CCF144EE50E364ACCE7237EA0BFB5607ED1AC3CFE73794E5B61739D14DF1743441B1AC98F00ECEDE9E7301FA29755FBEFA68C91EF2B314CF510537EF1ABFC9A762496280B546F5EDAAF8A5B387D469FC9A878A92828C88608453ACEC6094DCA54111E7AD5B2663DFE2D
311
D151B7F123B9F4FEF8EE36AB125FD7AD52A59B1B765B3E3F73E3F73DEA93875004D2AFFE3CDE9493B87A9904DD052028949041A91DC0E1BA47BA714343FD5B25E0A6A09503AFC17C790058A836A324FE31D7893512E28230332F153181C1E018E1124EBE1BA262AA428A518237D1EA7275E48C5C561BD19ED6912EDD8367DA
311
0F31E40EEAE9683DA9257525AEA7B632B97119E17145A90231768A4F3B9120FF32E8319B015E3CBE26F1A754177D8185345817C096B0CE443A955D13AC15E1FB5DEEA0239EC32A3C92241A237B0B02FFCB4F93CF2B02570C8D192E2F2A68CEEB42F12E6F8CEEFF46C251E22B4341C56FB08CCE550E7A9D6F4D6564B9EA52A8
311
3D5BF2C6E03FA19D2775E15A8A7ACF30A13C259EE7F5EF2AC3BA354F1500E1A07FC63FB4686E2F12EC69719F9ECF5FE3F35598DF2CE944008CE78F0911BA5BE5D0A34E0098FF038669C26030BA9B300303039852A8F6F496341737CA7E0D2E3AAA36DE0A70AA7D9CA0D54D9AD84B18A44C9E625475E1C97B93BEBB38DCE7D2
311
27E67A2D00F531436136355F243D1FC0D712C5765754FA22FCFFAE97919161F46D6E61ACB37D83777B385889770B50765B127768443A5C4D3A4E35A3151111F146B7CA116F918A049F1C272F2CD7976C69A0068773451659A97E0F4A08FE604C3FF6CE7385DB19F4D3ABC8A0D80DA8A42096AC377DB49382B36E270B6FA757
311
0188B4B7D1DDDDA82ACA487CCA5D38BD3BD039ADBAFA4ACFF27809239B722081E2EB9F145320553D183F28471C388BC8814E5045676767AB58A8E72D1CED2CA731379515D2E533E4CF0B39DFC625F97AC4836831A4DE330E87A8126FA17EBE583D614E71E22A8DBF2825599743E0640037303E8E1B1E8EA4E1ABFA4F62907B
311
5E4E0E5DCFDAB417C36C6848A2B8D15F1E505434C0707E16B1CFC2A1C36A42BBF55734F8F4301DDC2A5110CEE8C0747F69519265012A2174BF4E955ECD4FDE095A3ABC70536B7AD0B9D7892F81287D667C108703C9B66A221E9A0929D030008F77FF6F5D2108EF5706FC87A3069B976F7C9FC3239D13D283CDEA8359746107
311
9FEEE049B0F392889898B7D87D31F8D60ED7B56B91823A8E4EDDB36C6172ECEE42BD42B12CD67994FA0F0DFAE9389356F4CD4425A4B8AA55CBF7ECD585C6A2C2316791E43D5C06841ADBB226A87FD61515FFBB0167B74E56BD7F3E90A57A97FEDCBDF483A0D6699A8C0849CAEB4947FAA90D8E332D9DEBD9F4738C37DA0CAF
311
9CF3DAA68BCB67C420459C7A64498D6E848E5CADE92BB6901F607AA331104A67F7CD650EE169B1DAE94D2C31C2F993632259B6957E246EFE4C5481107B07118607700040E5812A2A2A38DA0076875258C753F60E0F2662C748EDD5F3F3686B8FC3BD6FE631ECCAA1E8B1C1E565AD117E54893E79F4672E32F9E46B2A183DFD
311
CF3EECB4D4D077DBEA0DA254D256045109670050129E9B9B1A9E4A11344D61497A992778095151510C4BB7EF2009B63AA4360635312E4CF668B7E0D3D85A8688E2BD83B569439892ADB63461930D428E0DE42E4AC57CE48DA5CC1449530D8BD3D6A0F08DF20C8E8F570F2CFFFCEA286E30969B4654D498A58D9DA782E19FE3
311
F002181838925592C4A1EF0B332D88B61A92C644547BED490D3A42CFFAB70E36D961F694F6307F72FF15A1C79D5B1B5CEFD353D9E2B52566DEC8F8F09CB3E8359C0F68EBBB7898243E34E12A015B2685AB303C04D3A9E00671FF3DFF0A184E4A2ABEB2B666AF5B3A209C73D8EF29DCDB069C9F391EEE9DD0F74C7BCDE16F8F
311
02E3B8816122BBEB50665775B600549D8BB33A54A6BF940C028118BC6878C79958D6784F9DEAA6E26748386FFAF8D0D0101E2847B6563F5D8DC1D78F787BE00E2C941AE12148D4A81599FE8F68D4DA5CDED75530ADE138240300EE13B0FC13A1687FED6774662C05A2B7DFB186732F0D7A93545D8B0A6390AE5054D9CB582D
311
A846D7A061B3358B45E2B52DDE63E114397EDB7E09233A579155D795BE76102CF277F4DF8B188C4F2879BEAE3C08347124BF9ED23B128259FE107D31E34A652F090B30B39E0D9AF917B76A2806135621A8A60681F16AF216514BBD02711585B5B1AE823F4B2D0369EA5B6BCB863072727FFC871CA6C9AB79A814D989057E94
311
70A3D238BC87CBB4A0EA49AFE2B86F22E499793CAA9047080450166BDC357524561E258C77CB697F1ABB32562CF87C3B7AA12F911EF19FB3E5C02222E887D08202A60A17151F5E053A86B437771088B4FEE14D652C43E8D939995D34545E12E2FF93D4E366EAD25F10CB7DED141563C3D0C447AF06078A91135FD4B9611583
311
CB4BF3BD167F2399CEAB0E0100F8FFC305F00F1711717173138B4B48C83022295DE657EFEDD97F238ECA80F528AFB4F8D67AD4E2594B9A3AA86D7487EFC313BA95745C186F0CDD84CC12DC9CB0424B42203D351FD9C0A3AF10CC7F388E0329279087386421F194F4A29464C1DEF7EF8BE515E4A199DCD5B909342598D8FE6A
311
231F71336248D5CEC5454455C7BE383B3BC7B260FED27F703FDC39A170F3827239102F59D4DEE7FEF82EAA1A5E4BA94DCC4CC44E7E2EDE20F24244E4454369D2E87C3F823F193FD4FD27E1C23984B01898D15ABC20711A8A558054951A6AE280096BA36CBA439603B7B0B4C45F248C14B2383B4B5CD8ECECE4FF859AD4A6CA
311
2326D020EF090F4041D28DB66E5256B56232CC52829DE8060BAE6BBF37D4B7469B822454FE93210A3E8D15E69FFCF01123222611C51C4FD0A041A0CFA2471CF6BE38D2B20FA4C3525B5B8B586759475CF80ADFE67A284AC24651E52B8E683D24C2622642F27E7C3C22783BCF63648BC398BD6CD0D9C97E7E7E3EACB6126DB7
311
A6C1FD9F1031302EE67ED96F22B77C7CA0239BB324207559B105E4693EB26EC46182A92C9C0DBD24F29B31C5C5AC1F84300E0E17CEEAC15F5736FA4A98971E2F1423BFCD68D4BBD5F86E74B40A369F39507C88FCDB35D2DD8DEBEA4AF999E23CF2816D204200DF6E611781B9884C1AC8888B4DE397320472959434323A5A36
311
B22A8E1F721A270DF3BD65E4A31C11FF048AFB0D8B7B6881423793963A23CFCE935FC189ED36FAE35C46DA3574C979E4394BE52084F3081837BE033396D2EBD80F1F691B273F660D2B32FA27A33B1DE4ADA5F0FA4651511102DFA410DDA86E065272CA314D5249DF91B06BB92807B28EFD54F08F7B525252782CD276DD02E6
311
B0319B13DF87B1F6361AD6B28FC0D711CF445429B9E5A433CD493051C49A9E03DDB1B147D880253514A5DED88009018620EE229101C041950E2D8AA8E1F5F5438E0C0C0C60EEDEE9E3E0C051948C69F84BB7B2A48A1F3C8EB9E6864687F4F4F6F6E2FA87608ADAF9C5E117B7C1A737E710769DA1D15ECE6A84502AA8553987
311
12D5FB51BE92E4EF824969CE18278798AC303C2C7980DD2500ADF8FB1E6D6C2FAAFF9987178923334A244758BAA01A9A1B70FA5097D01E1CC2A58DAD0EC94CE6430AA9B0C10D75E3C6BAC670EFBADEE1607739CE0FC18A2587E3EC3058562014C64219C69BC269082D5C2F4A659278D585755912176D78A1B641719C2A394C
311
ED495A1AC5D583FD2F5EDD93308EA7EAE8A6DD396598BDBD3D4CFED62D18A5BDFDE0DD5C80D1A89BA62697B131AE7CE9A6594138582F1B37D68F1749AC7CB67A70695D48A4A056AC1FBD4E82358CEAE38F54B95A9016F9000F9879C0D9D131768635CA798895F27D6F1614F11F2838A83611AA51C9A3DDB539D42979C29F10
311
465655C17BEC3E2760B80DCBF609198C7B171A531905F3EC218D696025975E986C6B4C666666787271F202805577DD5A3EF0CAFAF91B62DC4B2DB4217A7606282F31D8DDBC290593BAA93EA6353AFA9939B877978481E15CFC9F2755CDC00C538F63A4BA3E80AE009B73CA0185687D339A507D165B74290D6EE46D5C58148F
311
020C3668ABE9EF2F7549170DC80DB41FFC1D678FF19AEB10C7133832B104B80F691B3138F97A92D26E551F1F110400D45AC71A9B9AC41A1A1B1DAEED0B0810638EFFB511D46B121C6FEA0F38CD00E03CFFEB9713FE1F9C263E4DDEC160D0497FA9A132BA608584057FB15380825DE6C7FC3C667EE947D488A09898D8E939C4
311
953BF4EC9836344D2CC6B2971B2A21A572B06096F4982D2CC7232D46E8EA69DC83722E267754D777F97F96D5DA74E1E75178084D0E70F12AD33E5F71EF2AFA599B2BEBF60A5BE475F444F240CBFE8143C334E7ED9150FEEFEF7EB020C4DBED388DD1D6A167A76F3CBF119B578AE8CFA7736ACAFA4440A1C47185638A0D2F3E
311
B5BDDEFDA958FB13CE4AA4923D5BF840392D45544329525749734866684BF7F8D9D54D892E19BCA9F829A0F8BFCBEEA6CFDFC61D74EA1A645ED7A1FF241739F15694BD835B66FEC5677E40FE69BD3F91AE402F036537218A401CB0828604AD189E575015C6F3F6BBC8AC79CF6C70653847254B31551EFCBEB5978B9DB85D58
311
D0FA41A9DFE9C624834AA04949D24B5AE6D299E072D152D12097920F14AA92C31C3B97E28B6C2E6E9C23D63043ECBBC0A60FDF5BD0C33C127EA8A3308B8B6AFFEB28B4455BF6E7AF4FC6222728357EB8E46E85053E6A8843AB23295BF838ABDA94658FEF3F832F147046B4ACD6F7D48E8FCC9618582961C898D1C7A253C91B
311
FECBDA6BA18A1FCF70755DCCEE2222F41B76D23CA98D0CB3D95F0CF66D57FFF65E2A90F5DF40FC3187621E981BD0BC1D992787212688976B94A8F0C6EF646624B570B78E068826F87CE27041A95C9A4871FF65CC17FCB1639629AD6A9517000D63AC231F3D741CB8430777E7ECF80CE7A3F73C0F162F7E56AA71F4DA80A33C
311
D6ACEE78E2C11FAC03DAFCE929B106F8F6B3ED2DC71FF994BD9CEF4E9A94896EF1B6E2B7B4978168BCF0847A3D2A4F1B0500B926E634B174548E9FBAD27153FB5FC36799B1E6C7C38A94E1F9E996796D7B485E635D5287A2AE76FBD11A341DB3F8F810385BB7296391973DC6C37C452A9305AEBBE0CDB6C566DB59FE60C8E9
311
4B1FD090354BF51439FFD1B48D725228FFA88C84F686F547107A7A235665A4593B7C34D748C1AC8D56DD5DA861EEFBADDECBBD65117E65851F90351AEB65F0EFCFF4BCFEF24CB7A5879699FAC437A7AF9099186CF006BB923A59E37D7A36A29FD8D2CBB914A5E9D0A8FD212FBF796AE9A67958FF1D5D8B85F78F96219D4714
311
EB919929241B6C018AAE0C02069F8D919961EC5DDFBFB7573E3AC8E08BFB7C8534BE6DE045B3CD63DBD71F7638BA2309CAE398EA3A7D8F98BBBC7AEB367EFA5CFA27A9F8F2F52FE878058E6209C026453F8E7E8A237DFC389E9590F6059B397CFD65183BBF936E86896612A5B5FEE49DAC8455D026218AFEBEC12B3523A45B
311
57B82C9C97E02ACFA1184DB18E48CF615DBF39C3CC6F0B4AE6BBEEA2E39D944E290302FA3DE33FA7E40296E2EF7BF1CD855BBECFAD0FD622BEE9746FC4FDFDE545AE6E3BC234CADF83A0FB76DFB145BF3828AE3436368AC24989454F8FF70A177672C711CAA1A76107218CF948CA01F873520E7A2B118EBB161ABAD4329320
311
29628B6761590C98AB590C8C8C79798CE9F715BA696E839E9131A4BB68BE923F1747FBFF165331FFDD4D05997ACD168F12CA75348DAC04C7F509FE83898A8B421181AF492861CE81E4A2DD0A30850CFA95E05F097FF70F9E777310D584A75BA7018922E271DAB1D785671157685B7D383D3E074DDB4F1E44EF04B07BAAC75A
311
062077C54B9752C738C9D804D402E02851F3F89605AF189738C18C021D2139EAF72513824E10DDD3047BACC8521ED7E98B257D1166903B1B08FA6F918FD7E162913FEC7D0EF4787E29C35FBA8C6E2C9C20E9AB30AE42CA2A01A090E7D010C1B5BF9CEE2A304BF3A987FB40D836979B79E18D70F257DA61E808472DD85B8276
311
1825779D6B90CAEB0F23360C6F80A7D7D77545E95B3DFF0CF96A827F9B5BCECD2C9698718417EF80FEEDEE938AFF55859D0D540B7FE09435583A6F04874A0C7E8CF234DF4879722000167F5872CEC6BF3EF7E5A8CC8121E6A359227C8A29C95212F9F735BC72A887D56B8F309FC525BFB4FD767AAEC4AEFF249CFBBD2DE1AB
311
9969A6155C7D8DABC307E47324C1F916C7BCFF40ABA5644E9FFB9238D19ADADA49D9610F01ABBA57E4DFCBDCCBB2B93C8953206C91DE01B0E2651A6D6C31721915B31F7B7CBCE55466F6D70402788FA91D73BE4ADCBA99A35F17D6B83383704917D6833F0FA3CD45C926ADB8BC17999A4A0AFBCE2541F7B8CF4C2F5FBA611B
311
3E626D64407CB32C122DFF4EF8674D6EDBB86C8F7C6A16D50FA685E2CCA34F8F7D1D8265BB0042E9D7F1F666F7BE5FAA5184DF58E12122A42EF02F461B3F369AC746F96528AD208512AB56844CF75B97F352DF7995024FB02855385854F3798670D01CAC771AC3E1889EC25F61A20C1F8CAB46898817F9C47E2CDA1F286BF2
311
F358298709FE567C91133E2638C8B53975E753EA8BFD3578B5F7186B7BF084EBA3F77BAC3132A5779902EC22AF2D2E79F42D324E083386DAEE9810D1B44A5DAA54513C7A71E52A4AB9257D975B621308FE4D2141CC3DCFE946C154A3C1DFCCA7629EC69ACFA831634ADDA93C0388D2A9A2DDAFCF957C6995BCE7FBB6DC4EBA
311
E79E63EB08E9A25F52F67076F7093CA545CA3053B5BF576DEAD4E0017143C5F759F32B2D6F145B52B67B48909B7C7FCA6586EE385A2189C16932CB6DDFD9152AE317C430492A578ED27B72D85D40C7C93C097939E1B50F4D67F05334FE9DC362C30B7FF561B95259138ECFD9274C8D695C31B14D4EAA9F3D7FA8DDF652F8C5
311
DEFA23284C799B7D94416DEE81E05A866302DC70192A5368EA65E1CED8BF107A1E2D3119A71E85DC1A7B0C1E93274CE04DD0F2ABC8AC7C987FDB002B6F81757B43502EF7A0D92E416494FAEEA4C9C090CD9557AA4D532F4996A272B94355C5A0E4974EEA9627476F30809B94D8D8D860062E02204643BEC7D0438AF800FC7E
311
2B26955D595421E83C69E1A07E0E3122285835F014AD538188CF9737CE76D464A353FA55A001AB2526B84E985083693BC76FE211CA1D000679C889E3C009832C87E1AC2EDD05C302557422DF0800E316FCAC86978A371F025A6C7DAA9F333E7BD160403A1A06EA75AA9888FF01504B0304140006080800C280875128BB58AF
311
800100009E0500003D00000036353135373445412D303239352D344434342D414530302D3931383636373641383442412F536368656D61732F436F6D6D6F6E536368656D612E786D6CBD544D4FC23018BEFB2B96DE15493C78601010A34B880709DEDFB52FD0D8B54BD70DF6EFED3AC0B12E6442E2716BFB3CEFF3D18E26FB
311
440405EA8C2B1992E1C323095052C5B8DC842437EBFB673219DF8DA659866649B798C078B48AE6410122242F2A4994AC7F93815DF85C049C8564CA0A901499DD886B2EB9B1E02448F358701A9235880C49A0119892A20C89D1B9FD768815CAD268CB5E0355B40B1E47F3E37A2020464BED06AA57CE8FCC20C3C3446D46761A
311
2632A8C1283D07031EFF2AE7CCB1BFEEE916E406DFAC8E36FFD99A9D60A6944090EEDC3B670C7DC13DE86B6B2C5C240D6E503BB85ACD579D513F1B9F9A69DC9CC22AFA80C426D40AF0B21EA168559156B6276F0F726A6BFF04DCD513A87A62CAD41FB24FCB2858B3952E3D852084DA25B9303C15687973CC8E8AAE11DF2836
311
C38C6A9E765E8C1BA1BFB1DC29CDFE518C8B5A7655A4ED7E77291ABEB80DBD82EC866ADE1B8D05AF9E35CF09D7A061F38A986D9EC412B8F0F65E5D81534D9B231D1E5A8FE577A241F3A5FD01504B0304140006080800C28087512CCEBD668A040000E01200003E00000036353135373445412D303239352D344434342D4145
311
30302D3931383636373641383442412F536368656D61732F47656E65726963536368656D612E786D6CD5586D6FDB380CFE7EBF42F0F7A649B70E1B90744856B4970F450FCD7A5F05459613EDE4174872DADCAF3F522F8ED3B88D2F1D06AC4050DBA2493EE4438AF2F8EB73AEC8466823CB62928C06C384888297A92C5693A4
311
B6D9D9E7E4EBD51FE3A931C22EF85AE4EC6AFC38BF261BA626C9AD288496DC3F4FCEAFC63366845F7A10452AF41DB320C0D44EC26EAB20918735565582695670811A6A49643A49A6E9069FA4604A64B29016DC4B48552F95E4932463CA888468C1D2B250DB4962750DF7CE273069CE8363F1FF4EDB00E0A21999574AE4A2B0
311
0C353B93F3BD4777B8A61ED8F604ABFEDD79CE56A2B7BDFBDBC50996E0ADDE16FED26223C5D30956C29BDF4A55EA686E5E58B112DA45CE67F76F4FA27EFA3FB672FD7372FC388FAECDCA5209E693CAD167BADCD272F943701B3812F8A3D852008B1D2E32DB927B2F833C6EA95879925356D254582695095A3CE982924720BE
311
5774A3CB9CDCDB350427D2DF20DA1B5532EBE2D5D6288D75D4F7E4FD9890A0EF8E3D93EBB8F8BA4758158EF6FB90A6F9520281C93DE7AAC6D24607DA296BB96018123F821A7D6A5C5884050C475DA4865442732C8B95684A50165CBB3A32F25F783A4A480ED59AD7F924B968AEA50131F46303223E6A397B0E52976030DC1D
311
CA81D7E7C1EDEEA42C19FF27635C505E2BD5198A599020DF50A2330FCB3AAF28CB0124108429553EF1B228802E2265D8F7CC2401042B155BCC7070F1E5C55F13B4A9577362CCCE46C32174E010C3C378C44841A4BDA00FE3A12006CE11EE6AEC59894D3526DDE1CD59D503ECC324017F8061B7F162162FA62EDD81AE330861
311
7770796DCBDAD2B2625C5AE8A63DE20B2C8AA5E95E76E5730823955956E33E705425A2187C185D36489A1B44D3DCEC2172F6BA2105C3546287A7194B2331768EBBE64F6E70A9930ABE0ADEA89E9E2C38523B810287AD67A54A039C1606EAFE68F8304610BB9093DBDDABC0B2AE4E290DCDA15376D7E39F72B556F0B32EAB5D
311
3D498B4C41ABADEC3A1434C422D87E8025A84BDCB2B1417ED750FAE4DA8976863974C577C7F902D3F156AD354DEA3540DE6BEAE2BEA52F7A2EB4CA43802ECE5BF2CE2EDC9347179FFB023CE412E60BE16DA0BE29B374988A553F561DC04615DD35F7D2C8979F60E5955CE93DF29DED8AFA1EE6642D53418086C03C47C37791
311
0F75F7E8F5EF665F70B60FFB22AEDF897D119E8423C773E819A3C1E55E550599EE6EDCA34D0C86FD72057DF2CD46F16A470682471C164E4346D5306BF12D7D12D82CFF673D41636C347443FEB51B50D72EA171A8E4A58623A4A16E0FA2B8B10A0D23268D87C33896EE8FB73305A74BF224EDBADFA0BD674AB354D63DB7BD5D
311
83426761C077DE767728235446A552754EB93B755891C3C4CC6CADE37CF0E912A7BB38DBA010F9DE1282EDF470CA69A9CDA482E334C4A6EA4107987980B17E72F31730EBF88BBD39E7C629F56797A3C0009C2C5AE7951D9A05A02773440F02EEB4DE396A3B6A570C72CCFBCD823B0B8ED3F1D5CEDDFED772FA70236C83FB7D
311
86C385D570B87107535572A60A96035F8F7C6A7192F13007246BBE0521855E6AC46F3E27689CEE7D186A6FD679D98CDCAD13333E04EBE7ED6F55FF01504B0304140006080800C28087516180134D5F0100006B0300004500000036353135373445412D303239352D344434342D414530302D3931383636373641383442412F
311
536368656D61732F52656E6465724D6174657269616C536368656D612E786D6CA5934D6FC2300C86EFFB1551EEE343DBA41D1A103009551ADAD40EAE28A4A68D9426284961FCFBE5A340113B2071746D3F765EBF4DC6BFB5407BD0862B49F0B037C0082453059725C18DDD3EBFE3F1E829991803366715D474942CD30FB4A7
311
82E00C64017A412D684E454CE3FE28995203B162A6EA5AC94B66997D225E109CD63B0135484BAD1B3C07E9080CA35DB3119C11BCA5C200461A68A1A438126C75E3E230D40FF81FB3F03C91D1E3A3A0AF79FE28E25BC39EC3E17E4C2A2D94A0833A51AF55BCCA7D88572FCBAC529C4140B020FC3AAFA886621DCED7EAD7664C
311
C86024E806DC297DA1BB393E4156543457A4537DB8817349A70F8ACBF09B3EEE2CB2F33E91B65D60786E4E3B39B77E3FEEEF5650424525DA657FB8B46BE6BF064646F0A0F7327C0BC1BC1B4CBBC1C419FA3CCB23500007872A2580CAAE5461865565294E4EDB4617B62FF579DF9A5B2F54E834076A597573A020912FED777F
311
9B3F504B0304140006080800C280875112B5F5D251000000570000004700000036353135373445412D303239352D344434342D414530302D3931383636373641383442412F4173736574446174612F41737365745461626C654F66436F6E74656E74732E62696E5361606030333535B1B47031D735717135D635313537D2B5
311
7031B0D43532317671717636B57036311402AACB4D2C492DCA4CCC492C28484D2C4ACC4B4E050A82012F90744FCD03CA26072767A4E6260200504B0304140006080800C2808751F865834058000000680000004500000036353135373445412D303239352D344434342D414530302D3931383636373641383442412F417373
311
6574446174612F53747265616D56657273696F6E5461626C652E696E66558CBD0A80300C06F73E4B117FB66E451741D041DC5BF98480A492E4FDD18EAEC7DD4555D89EF28DF51A0B1BD8340C4DE7DD848B988C0ACF0649566493F2408C508DDEBB99D5129FF8F1AF8CF5B9503E20FAE5A16B5AF702504B0304140006080800
311
C2808751A6F2536D340100009A0400003600000036353135373445412D303239352D344434342D414530302D3931383636373641383442412F4173736574446174612F636E782E786D6CCD543D4FC33010FD2B91F7D849243E841C5708964E205131B05D9D4BB1EAD8917D41F0EFB1930CA022A60E953C3DBFBB7B7EF23BB9
311
F91C6CF181211AEF5A56F38A15E8B4EF8C3BB46CA2BEBC65C546C9E03DFDA0B1C2C1802DCB3053F210FC34AE50873D4C36A3D6B8E30ADEC788B483BDC5A7FEC13B42479115DA428C2D8BFA1D07E03091EF301E790704BCE601A39F82C6D489CC806B271D10083BA69AAAA9CABA29AB9B5D7D7D57A573F52645662AB9F7DEAE
311
7C9386053F167A99CA542545BE56720A66E5E4B730F59746BE374E8AC4543252489EAC15F435A60A18476B3450B24E784D486522210C522C642545F6E097138FD81B6772C9360903F2E139C9C340062FCE91FFB49EDF99AD8B044EE3E5FA71AAF0FC2EBCCC3FE87509E49C984BCBC9A9426E5C7F869488798DA4D0E4ADA2BE
311
01504B0304140006080800C2808751C62E366EE30000005E0100006700000036353135373445412D303239352D344434342D414530302D3931383636373641383442412F5265736F75726365732F36353534393844372D344445332D343537322D384430392D3234334444434335384334312F7468756D626E61696C2F302F
311
636E782E786D6C4D90CD6A05210C855F45DCCFE80CF487E2785FA2AB6E4AEAE44EE53A463496F6EDABAD8B0B8184938F9073CCE5FB0CE20B73F11437B9CC5A0A8C8E761F8F4D56BE4ECF525CACC9447C874911E1C44D76595A7364AA69483B5EA186AE061F6F433C3062F6EE3DC5430A17A0944D16F78927CC5099762CB779
311
078679993316AAD9613BC0FEC471C06504C65DDA55AF7A5AD6493FBD2E8F2FBAD5C39B519DB4E683280CDE47C64C49386A436CDF68A3FADA9A9AFD60BA0569EF5E33AA2DAD299C9BFB01F14F6A10A414BC036E2129728C3C3508E134EA1FB64675B7ADFD45D17A4FC6FE02504B0304140006080800C2808751A233C2345D00
311
0000800000006500000036353135373445412D303239352D344434342D414530302D3931383636373641383442412F5265736F75726365732F36353534393844372D344445332D343537322D384430392D3234334444434335384334312F7468756D626E61696C2F636E782E786D6C4D8B490E80201004BF42E6EE76F3C0F2
311
16234B883063108CCF170C074F95AE5473F5C4C06E932E4F28601967600677D21E9D8092EDB002539227A2FCCB80E1168D80A6417297A89C5D6963B7129A0D1E8F2EE73AA7B62BBEB8B27DE50B504B0304140006080800C2808751BE89762363000000880000005B00000036353135373445412D303239352D344434342D41
311
4530302D3931383636373641383442412F5265736F75726365732F36353534393844372D344445332D343537322D384430392D3234334444434335384334312F636E782E786D6C4DCC3B0E80201004D0AB90EDFD75167CCE820A4A845D83603CBE602CAC26799919AEEEE0D965E2E908050C6D0FCCE04C8BC355404EB61981
311
29C92351FAD580A10E464065907C8D948F8F166375F655BDC3FDC3B4E530A176BE7057BDC43B2A593FE403504B0304140006080800C2808751C2CB15D47D000000A30000003600000036353135373445412D303239352D344434342D414530302D3931383636373641383442412F5265736F75726365732F636E782E786D6C
311
4D8C4D0E83201805AF42BE3DAD3F5031015C400F622A1A520443C578FC42E3A2AB974CDE0C1FCED5A1C3C48F0D5E407DAB0019FF0A93F58B80B4CF98011A248F21EC7F37407E5C8D808241F22586B45D6832F3985CA1CEFAF7051F94929EE90E13FD6C31A15D8399AE7ADC90566BA52853A4CEC6BD28797EBDBC252FBF504B
311
0304140006080800C2808751B248DFB0080100004F0300003400000036353135373445412D303239352D344434342D414530302D3931383636373641383442412F536368656D61732F636E782E786D6CCD933B4F04211485FFCA847E8099C4470CC3161656366A65877077250BDC090FA3FF5E182976133B2D36A180C3979B
311
7B0E17B1FBF46EF880982C86854C949301824663C3612125EFC75B32ECA48888F9042343501E16D26422C5216259BB6460AF8A6BAAB3E1D8C57BF41EC3B37E07AFC8A09D4A6921693B5255321A48476A545674A2111296A8A156C8D643AFA023A80C86C899CF7C9CE691DFBC4CD777BCAEAB57C11A29C51BA2EBBC0D1922AE
311
83C6BA09B51D2E58BB96A244DB99E681C8D3DE684D43B04A489172AC1974327FAD9554EBEAAC56B946C536F087918235AB67861F2040B4FA321D9F35F76F969F2018888FF595A255EE329DFFD6E3DF0260DBECD711685F417E03504B0304140006080800C2808751E3603EBE7A000000C20000002C00000036353135373445
311
412D303239352D344434342D414530302D3931383636373641383442412F636E782E786D6C6DCD410EC2201085E1AB90D9DBEACE05D09878023D01A1D34A8419C380F1F82DA68B9AB8FDFEC93C3D7C52546FCC12980C9CBA232824CF63A0D9402DD3E10C6AB03A3397DD192872090D3406ABE7CCF5B5D18893ABB1690CF4DC
311
F02282E5EA8A5BB96FFE536F285CB347F95BEFFE81C9ED5AFF9D5B1FB575BB00504B0304140006080800C2808751668968A97D000000A300000007000000636E782E786D6C4D8CD10AC22018465F45FE7B4B439D037518ED41467343721A36A3C74F63175D7D70F8CE51C3670BE8EDF2CBA7A8819E082017EF69F671D550F6
311
054B40835139A5FDEF06284E9BD3D03018B5E6549E079ADD3295D068F0F17140C129EFD86831B9F41CB31B63D88E84E09E4A213A6125BBDA6A9C9B52E7D7ABDBF2E60B504B0304140006080800C2808751CA1DF9C9A900000073010000130000005B436F6E74656E745F54797065735D2E786D6CA590410EC2300C04BF12E5
311
DEBA70400835E500FC800F84E0B411AD13252E2ABF27A55740421CEDDDD9B55CEFA7A117778CC979527255565220197F75D42A39B22DB652EC9BFAFC089844F65252B2630E3B80643A1C742A7D40CA8AF571D09CC7D842D0E6A65B8475556DC07862242E78CE904D7D44ABC79EC569CAEBA537E3521C16DF5CA5A40EA17746
311
733E0B6615DE7217475F386F18B9481C510F1F021CD9FF027EA0E1F5C4E609504B0304140006080800C28087513DEE336E64000000790000001B0000006175746F6465736B2D64657369676E2D7061636B6167652E786D6C35CBC10E83200C00D05F21DCA56CA76D41FC96062B120735B69A7DBE268BB7777961F8D5AF3968
311
93C2ADB70FE7ADA196782C2DF776D7A97B5933C430F15651E5469C55D70F80A4992A3ADC954792C525AE70A1E4D6AD9816CC044FEFDF01FE3FDE907802504B0304140006080800C28087513FAD7281F9000000960100003700000036353135373445412D303239352D344434342D414530302D393138363637364138344241
311
2F4173736574446174612F636F72652E786D6C8550CB6E833010FC15B4770336109AC83882A47C414FBD59C6A156828DFCA8FAF9B50395DA53254B6BCDCECCEE0E3D7F2D8FEC535AA78CEE00E72564520B33293D7710FC0DBD407666D41AE37FD120D37C911D2418189DAD09EB0E09A3BDD409D566923BC89D931E32F1889F
311
0E9CF8900BCF79F091E1EEF9CAC59DCF32C7F9C663340435ED523545377553D202237D756CABA14687D7FE82EA6BD3A26118096AC60B3ED6A41EEB61A4451233EAD5F2335D58C9BD9CA2BE2425C20495ED1B3E9CCAF89A775A2426A3CEDB78F33E345D07AC4F5B5FB9E7B4D8BA7F5CC33AFDEF1A94F615D95D37850386E392
311
CF06A3454A29966784B1A644D937504B0304140006080800C28087510047F2BAF40000008E0100006800000036353135373445412D303239352D344434342D414530302D3931383636373641383442412F5265736F75726365732F36353534393844372D344445332D343537322D384430392D323433444443433538433431
311
2F7468756D626E61696C2F302F636F72652E786D6C8550CB6EC32010FC156BEFD880EDB8A930519CD65FD0536F08131725068B47D5CF2FC4AED49E2AADB4AB6166961D76FA5AEEC5A7725E5BD303293114CA483B6933F710C3153D4171E2CC591B7ED1A03062513D6418389B9D8DEB0E496B8232193576523B28BC57010A79
311
4F430F5E7EA845942286C4F0B77215F22666559272E37116A39E76A99E929BBE6AE580D3737DECEAA14187D7F305352F6D878661A4A81D2FE4D8D0666C86915559CC59D0CBCF76E994086A4A7A4C312214E1EE8D1C9E71AAF69D5599C9990F2EDDBC2FCDD701C7ACDAD03F6E719DFE778BDA849AEE6E9BC20327E9738F07CE
311
AA9C4E6A8FE852CF49F26F504B0304140006080800C28087515F634383FA000000960100006600000036353135373445412D303239352D344434342D414530302D3931383636373641383442412F5265736F75726365732F36353534393844372D344445332D343537322D384430392D3234334444434335384334312F7468
311
756D626E61696C2F636F72652E786D6C8550CB6E833010FC15B4770336109ACA380A69F9829E7A73B143AC808DFCA8FAF9B50395DA53254B6BCDCECCEE0E3D7D2D73F629AD53467780F31232A94723949E3A08FE8A9E203B316A8DF1BF689069BEC80E120C8C4ED684758746A3BDD409D546C81DE4CE490FD938C74F076EBC
311
C985E73CF8C870F77CE5E39D4F32C7F9C66334042576A912D14D5D95B4C0C8B93AB6555FA3C3EBF982EA97A6457D3F10D40C177CAC493DD4FD408B2466D4ABE567FA6825F752447D494A84092ADB377C782EE36BDE6991988C3A6FE3CDFBD0741D307F0BCB87E66AA6C5D6FDE31A56F1BF6B50DA576477DD140E188E4B3E1A
311
8C1629A5581E11C69A1265DF504B0304140006080800C28087516648CD140D010000B10100005C00000036353135373445412D303239352D344434342D414530302D3931383636373641383442412F5265736F75726365732F36353534393844372D344445332D343537322D384430392D3234334444434335384334312F63
311
6F72652E786D6C8590DB6E842010865FC5708F07040F0DB259757D825EF58E286BC9AE6038347DFC42B5497BD58464C83FFF3F5F66E8E5737B261FC258A955078A34078950B35EA45A3BE0DD1D3620B9306AB476BF6C20517C131D8832607435DAEFA7346BE5848AAAD28B38456EAD7020999FE1D3013BBF8B8DA7DCBBE0B0
311
8F74E7F383AF222DD2C3C7A8F77239A37209D3E45D0A0318BA966D5DF61856B7EB00F1486AD8F71382641A8A16233CE17EA2590C33EAE4F6439F8DE04E2C219FA31C1608E6F56B51BDE4E191379A4527A3D699B0F3098DDB01561182DB66AC03E956424C6A049B316F21C2E5380E0369065CD0EC08FE01FA7DF91FE8A57225
311
3A8147C20216061E0D46B378C050BEAF1B6A3C36FB02504B0304140006080800C2808751ABF115DCFB000000960100003700000036353135373445412D303239352D344434342D414530302D3931383636373641383442412F5265736F75726365732F636F72652E786D6C8550CB6EC32010FC158B3BB6C176DC4498284EEB
311
0FA87AEA0DC1C64589C1E251F5F30B892BB5A74A488B66676677871DBF965BF109CE6B6B0644CA1A1560A455DACC038AE1829F5071E4CC591B7ED15061C40203CA30E26C7636AE1B24AD0960326AAC820D14DE434085BCA5CF80BCFC8045942286C4F0D77215F22A662849F9E07116A3569B54ABE4A62F1A1CE2F4D4ECFB66
311
6CF1EEE574C6ED73D7E3719C28EEA633D9B7B49DDA716255167316F4F2335D3A100154D2D7B4C684E2BA7F23BB439D5EF7CEAACCE4CC07976EDE86E6EB107F056FA393E059F5E8FE718DABFADF356A131ABAB93E141E719296BC3738AB724AA9DC234C3527CABF01504B0304140006080800C2808751A3640C1AF800000094
311
0100003500000036353135373445412D303239352D344434342D414530302D3931383636373641383442412F536368656D61732F636F72652E786D6C8550CB6EC32010FC156BEFF881EDB88930519CD63FD09E7A43405C94182C1E553FBF60BB527BAA84B46876667677C8F96B7E649FD23A65740F555E4226353742E9A987
311
E06FE809B23325D618FF8B069966B3EC21C140C9644D5876881BEDA54EA83642EE20734E7AC8F8237E7A70FC43CE2C67C14786BBE70BE37736C9BCCA371E252128B14B95886EEAA6A4058A2FF5B1AB87061D5E2E57D43CB71D1A8611A376BC56C7063763338CA448624ABC9A7FA6732B999722EA4B5CA20AA3B27BAB0EA732
311
BEF69D14894989F336DEBC0F4DD7017D5DF774A4D87A7F3CC322FEF70C4AFB1AEF9E9BC201ADE28A6B8392226514CB1A60AC294FFA0D504B0304140006080800C28087518A0B75B700010000D70100002D00000036353135373445412D303239352D344434342D414530302D3931383636373641383442412F636F72652E78
311
6D6C9591DD4EC42010855F85CC3D2DD4FEEC1ACAA6C67D03AFBCC3325BC96EA1E1C7F8F8525BA3DE694202397C67E0CC88D3FB7C236FE88371B6075E30206847A78D9D7A48F1420F404E5278E7E20F0C885533F6B0CA20C5E45D5A76697436A25D55EB34EEA20A012390F1960F3D84F1156755A8143311AEC5A2C6AB9AB0E0
311
C5C64911CDFC651D3DAA881A64C52A46794559F7C4DB7B9657F32CCA959422191BEFAAFD319C5F5013B7C41C096423CAED3653C9E89D313AFFD15C0C7A906DC39BAE3E0F9455C786D68F754D873363F4C80F6DDBB5C3A17E1872916C9622449F3BB317597BF057FB66FC952C2DFA9FC9364700C9BF43956B9BA5283F6790F7
311
7524F203504B0304140006080800C2808751E2280A8608010000B201000008000000636F72652E786D6C8D50416EC32010FC0AE28E8DB11D3711268AD3FA053DF5460D71516CB00047EDEFBB24AED4DE2A212D9A9DD9995D7EFC9C2774D33E18675B5C6414236D07A78C1D5BBCC60B79C2E828B8772EFEA26164E5AC5B9C60
311
2CF8E8DDBA6CD0E06CD436A1D629BD8132041D311A26F8B4380C1F7A96995C2330C2355BE47095A3CE8AECC1133C9AF9473A782DA3565830CA282918A1CD6BB13B5078F51BCF1353F075356AB3320ADCCDC5680F9253B96FCAAE22BB97D39954CF7543BAAE67A4EECFC5BE62555F753DCF9358F0103DECBC0D819C1105794B
311
BE3C7FB4047F776EDA08104A2167A72F2C28CF53E34FE87551FF086D6C2CD936F0A108581410E8DE00E3744128F7F3424DD716DF504B01021400140006080800C28087519E03E09FD7000000200100004F000000000000000000000000000000000036353135373445412D303239352D344434342D414530302D3931383636
311
373641383442412F4173736574446174612F446566696E6974696F6E4974657261746F7250726F706572746965732E62696E504B01021400140006080800C280875125471723EA0000003002000045000000000000000000000000004401000036353135373445412D303239352D344434342D414530302D39313836363736
311
41383442412F4173736574446174612F496E7374616E636550726F706572746965732E62696E504B01021400140006080800C280875188E57597CD3F0000904100006B000000000000000000000000009102000036353135373445412D303239352D344434342D414530302D3931383636373641383442412F5265736F7572
311
6365732F36353534393844372D344445332D343537322D384430392D3234334444434335384334312F7468756D626E61696C2F302F67656E657269635F706E67504B01021400140006080800C280875128BB58AF800100009E0500003D00000000000000000000000000E742000036353135373445412D303239352D344434
311
342D414530302D3931383636373641383442412F536368656D61732F436F6D6D6F6E536368656D612E786D6C504B01021400140006080800C28087512CCEBD668A040000E01200003E00000000000000000000000000C244000036353135373445412D303239352D344434342D414530302D3931383636373641383442412F
311
536368656D61732F47656E65726963536368656D612E786D6C504B01021400140006080800C28087516180134D5F0100006B0300004500000000000000000000000000A849000036353135373445412D303239352D344434342D414530302D3931383636373641383442412F536368656D61732F52656E6465724D61746572
311
69616C536368656D612E786D6C504B01021400140006080800C280875112B5F5D2510000005700000047000000000000000000000000006A4B000036353135373445412D303239352D344434342D414530302D3931383636373641383442412F4173736574446174612F41737365745461626C654F66436F6E74656E74732E
311
62696E504B01021400140006080800C2808751F865834058000000680000004500000000000000000000000000204C000036353135373445412D303239352D344434342D414530302D3931383636373641383442412F4173736574446174612F53747265616D56657273696F6E5461626C652E696E66504B01021400140006
311
080800C2808751A6F2536D340100009A0400003600000000000000000000000000DB4C000036353135373445412D303239352D344434342D414530302D3931383636373641383442412F4173736574446174612F636E782E786D6C504B01021400140006080800C2808751C62E366EE30000005E0100006700000000000000
311
000000000000634E000036353135373445412D303239352D344434342D414530302D3931383636373641383442412F5265736F75726365732F36353534393844372D344445332D343537322D384430392D3234334444434335384334312F7468756D626E61696C2F302F636E782E786D6C504B01021400140006080800C280
311
8751A233C2345D000000800000006500000000000000000000000000CB4F000036353135373445412D303239352D344434342D414530302D3931383636373641383442412F5265736F75726365732F36353534393844372D344445332D343537322D384430392D3234334444434335384334312F7468756D626E61696C2F63
311
6E782E786D6C504B01021400140006080800C2808751BE89762363000000880000005B00000000000000000000000000AB50000036353135373445412D303239352D344434342D414530302D3931383636373641383442412F5265736F75726365732F36353534393844372D344445332D343537322D384430392D32343344
311
44434335384334312F636E782E786D6C504B01021400140006080800C2808751C2CB15D47D000000A300000036000000000000000000000000008751000036353135373445412D303239352D344434342D414530302D3931383636373641383442412F5265736F75726365732F636E782E786D6C504B010214001400060808
311
00C2808751B248DFB0080100004F03000034000000000000000000000000005852000036353135373445412D303239352D344434342D414530302D3931383636373641383442412F536368656D61732F636E782E786D6C504B01021400140006080800C2808751E3603EBE7A000000C20000002C0000000000000000000000
311
0000B253000036353135373445412D303239352D344434342D414530302D3931383636373641383442412F636E782E786D6C504B01021400140006080800C2808751668968A97D000000A3000000070000000000000000000000000076540000636E782E786D6C504B01021400140006080800C2808751CA1DF9C9A9000000
311
730100001300000000000000000000000000185500005B436F6E74656E745F54797065735D2E786D6C504B01021400140006080800C28087513DEE336E64000000790000001B00000000000000000000000000F25500006175746F6465736B2D64657369676E2D7061636B6167652E786D6C504B01021400140006080800C2
311
8087513FAD7281F90000009601000037000000000000000000000000008F56000036353135373445412D303239352D344434342D414530302D3931383636373641383442412F4173736574446174612F636F72652E786D6C504B01021400140006080800C28087510047F2BAF40000008E0100006800000000000000000000
311
000000DD57000036353135373445412D303239352D344434342D414530302D3931383636373641383442412F5265736F75726365732F36353534393844372D344445332D343537322D384430392D3234334444434335384334312F7468756D626E61696C2F302F636F72652E786D6C504B01021400140006080800C2808751
311
5F634383FA0000009601000066000000000000000000000000005759000036353135373445412D303239352D344434342D414530302D3931383636373641383442412F5265736F75726365732F36353534393844372D344445332D343537322D384430392D3234334444434335384334312F7468756D626E61696C2F636F72
311
652E786D6C504B01021400140006080800C28087516648CD140D010000B10100005C00000000000000000000000000D55A000036353135373445412D303239352D344434342D414530302D3931383636373641383442412F5265736F75726365732F36353534393844372D344445332D343537322D384430392D3234334444
311
434335384334312F636F72652E786D6C504B01021400140006080800C2808751ABF115DCFB0000009601000037000000000000000000000000005C5C000036353135373445412D303239352D344434342D414530302D3931383636373641383442412F5265736F75726365732F636F72652E786D6C504B0102140014000608
311
0800C2808751A3640C1AF8000000940100003500000000000000000000000000AC5D000036353135373445412D303239352D344434342D414530302D3931383636373641383442412F536368656D61732F636F72652E786D6C504B01021400140006080800C28087518A0B75B700010000D70100002D000000000000000000
311
00000000F75E000036353135373445412D303239352D344434342D414530302D3931383636373641383442412F636F72652E786D6C504B01021400140006080800C2808751E2280A8608010000B2010000080000000000000000000000000042600000636F72652E786D6C504B0506000000001A001A00210B000070610000
311
0000
310
504B0304140006080800C2808751000000000000000000000000370000006662782F42383131343344312D303736352D343230412D414638462D4445453945303541424641362F617474726962757465732E62696E504B0304140006080800C2808751000000000000000000000000350000006662782F4238313134334431
310
2D303736352D343230412D414638462D4445453945303541424641362F76657274696365732E62696E504B0304140006080800C2808751F270F1330600000004000000360000006662782F42383131343344312D303736352D343230412D414638462D4445453945303541424641362F747269616E676C65732E62696E6366
310
60600000504B0304140006080800C280875188E57597CD3F000090410000420000006662782F42383131343344312D303736352D343230412D414638462D4445453945303541424641362F7265736F75726365732F322F305F67656E657269632E706E67355B773CD4FF1FBF73E71C0E67EF7576C9DEF3EC995D46C6A1EC50
310
46649CBDF79E192942562825CE965D8A868C2842C8DE9FDFD1F7E7F138F7078FCF6B3F5FCFD7EBFDFEC41B196891913091804020321D6D7513FC77D8C5070EC3FFEE51B21F068154CC75D455CC028A3EA68992803810109FDDE5D5CEC5521B28A1B422BF80741695D5B529DA1C2D058AD2388BDA9F476F7C2CADC939304173
310
DBF48A452BF8A700C0C70C3D121C1AA15A5270C22E2B9E28763651F7DA0D12CE11077B2ECD0D560B5E3DE2368B1E65C5E1C87384A4CC5F2D9FB8BE39E9B77C753783A37998F5CEF1B4FEE553463245C9712270880DF339E0B882A6BA713D865F6F384C842D440934EF264F4A304F8DE4EEFA1E2BF5E2D91F5ADD9613D6E31D
310
DB33ED31DB1D7916CAF091286EA3D31B9CFECB78BB0060245B943C4C040119FF780A74DD308BA9D028678674EB5504ECF284EE814DAED07440BAF649BE4B55DA2890F4D73E2D489A59EE54FDB0A85B59F2F52C4858A02705C4815A792B0C4A996A2023ECB195073E115E3E3647F64243A8338F2000BCB58DA5692C7E7C3D41
310
3F963FEDF3CF00FBB0F831A9D51360FECA43819F527B89FA260EB63C5DA676830AA3626A3693B23F1A17A0DFFCE3EE164E31B5365EDF0C89EF64D8E38AB0BA9A1117D7C3A0EC44F44F4023095E80BA610DE336D0F99593A88BFC5306E72DF98F7FD132ED95878DF2964EA7E43071359FD83B2BDF9C6B5BDF768F0F3C0FC351
310
199526F53D9460A34511F75D1B63E488178569472C91A94497807A3FD4A390C6558F26D416365C3656DE6E769DA9D8FC73774E1709812842DD8EF96AED1960F79D21B395CDDFE6F92CB4EB962A4668C76990E2EF29798C8941D67DA50F4A5F947872460F1F6FDB794E8A29FD7AC0C0D6E0714339CE258FB17AE8535221E346
310
4A10F29A0BE5EEECEFC5675926A89F49EB14E5711894F6586DB5754EB4D5DA9C6437EBA57DB97A24F8B8A8DB295FFD73266CF57E82694DF5166DDF93573AFE9C9C5EB05F8FEF8E89E0A8917B0B3724DB7BEBB53252581EFC3E38166BA131A3A5B42FE2AD00A769BBFA4458D2DE7822F8C4F63D0B8E21B285AE13325F3410A4
310
35C648C9D91FDEB109E73CEDA7BC796961AF79175E1A3CE4C5E8B0D009B0C9E29EFD98BC8E97554E3D8D838424E270F7685226E5AC268E021EDE3522D583E8F20C0BDE2959EF5BBFEEDAB32FE9A3ED0E39F211A86AA9DEBFC68182EDED132AB8BB794442D2D7EA9F4D8BFF52BC4D55BB165124EE90A42D101E67BBBB292FFB
310
4F66DE5BF2300E44546757DA7CEF8932BFC9F92A0707953491A55C5A5ACEDABD9FA1AEA01BAC3DC5A24E22E7C47213493996EFBC369D086ED9397C9BA6C7F9855C7BD5E15BFC8C53DB3D2A4C5901A57ACD2FBDF4D1676E95338B2C2BCE65FDA4C64F5FEFDC7D9CA5AA1FCF11E193F2FDABF0F4916BF13FB916A224380E6462
310
A9815F2300DC49CC4DF8D055CEF76462F4B7A7ACA7365C2707891370BC1D0AA6203C44CCAB47084FEC057F27FFCD57F89B8B9852459798A675C66BD7CE572CAF71FF7E6D7ECF7BF62CAB7B3F1107DCD04DC55A3F9961700286141C94A4F771FEB2BCDA2DDEE0CB0BAE402FF1DB0100F8E475DFFFC074DDB4498AB7D186A765
310
4DDB1CB680D703D47CEB4E72F8CB13D86A4AA68116E26387B93FD6738779B34FEDB8E517EDF2BAF28D9BE93A1D3A164320E07D42E514725C29515FF361754213EDE06B079A2E99EB1CA82A02019EADEEB87B9AF005BD04BBCECB14AACD6B24EFBE482194A97DD32400685FF1FEF1544D1B14EFB1E7F08E6D2CD2AF52DE757F
310
35F5E62332EE88EA26417AD5C3E0E319D68F25414E6D672BD4522B278C57D18F0113921C71D96527E091F00CEB15AE23D24667369BD3CEFA10C7549D930890BA4366F4EBC55F01F746109F98ABCDD5A3EE06619C6AD78AB33E48E4C9BD21BF7478B385EC05C4F8987E2C1BFA0A60EBEDAA0AE0B015C2720ECE180FB6F2DEFB
310
EB822D96338C9B63822183BBF52FB664A7AE57003AABCE512BF77E7E31BDA2E739AC4C131657DDFE5225E900FB56CC01CDE808FA4A9C9DA16AC679656BB64796283D89812B8F91136AE18EE5EBBAF47A73BE3C153EB5D4CD491B4BFB4FE690A4CF9ABA08C0D8AA64220C438C96EA6CA80B58FE5761E697B3A292EB9FBDA502
310
FA863E49FE694ADDFFF9D62C520BDD1A22014147A0903A05B9B729F54272EF83931FEEC057BFF8C8055C279EAC5C0011804828734024F6CFA319C9CC6867C727184465CD9BB7ED386AFFD96B294A85E3802FAE47244602D8273615952B98C4F23F7EAE4463D9D638EEE374A20959E0FE519C4CFB0FBFE5DD80C2AA3F9DB961
310
D1BDE57E67C9BB47B77FDD74EE3094F5DBBE3EBC1FBDB7393F5116263009E2EFE1AF9A221B2AE234C902BF70E9F280ED23E73908361565964333A3F01D0B006AF32FB21AA1316744B489D5A198E85299241735BE559675130955C902A8ED761FC0DBE337A9F91919AF5CE32AF902ADF9AB2615E00E8A94586BA1A90839B618
310
32FF1BFB76D2EFADE6DB1BA04CCAD3DA649E7E2A0219F592E22F2AD54847EEA8E42271011E9074F8F3DD9FBA6CDF88FFC9FC7E811AD1CA8F4557CE4AFC7BBEDCF0114A48689F20A584520C74DA8127124B767E2FB91A6B186246727BE63C9445BAE02088D58B8EFDC0F1072407CD9B89A13F6303B4A928F593AD489B58E686
310
9325790ADC406036C591729FE14021F94B7796BB11848D463536A092A26F077F94639F7CEEE2A724C66EC885F4A24F8B8A0AC321F8FD149BA529460FAA34E4663C02D41FDF80BCA222D42F0ABFF8490F4FA74C673807C2051D8E467B47B616072860069A9A303ABA9B319D58404461401B0A0F9BE5E1E151C14BC33B32ABE0
310
3DDE91708DFAEB15E7C0D593C86BB7D7EC17BE56E57975F077BFD5525F3A1A361D584A75E08CF29FC7B44B2B3085014F3A5A14517377C3F6B8F37E59514C3B12F8AACDEDDA4DFC49BE5710101534CD6FB6DE15B50F11A09472AABA727F0C49D9CB906B158030065F48EB3625E010CEC1D511D0053474B11E6A4F01C0D6EF1B
310
ED3A944FDEC70E0DDCDC756C86545910E0DAE3BE3AA9A404574C2995CD5CAF9549226BC94B4F4F0F5F9086F418F6B32346464610D8BC7391D3C3A3CCF04CFC1FB2A3A3170E369511868F14EEA4E5E438CC73DB1F3248AA94B6B2FF33B222FF3D1E7BF146CAD229770158063BCE4F5391964DF62F7E52A7BE0EEA829C9E13C4
310
C147D6F93FE59E111DAB5E4594D6F3CD1AD375EE039930EFE5AF2BB2D41C83C7DABD8C659BAFBE8FAB392CA634F3D15C1D945DB4588D2B0824A4EC928AAC565557CA2F0DAA588CA5BE30B3A8004F7BF005E96CBF891D7F18112A3619FDF530DC8AA64954258E1811789B5189B49B4EB53F5F89F7D37523894F3EB57B373763
310
C91E502F52CC99EB7BDDF933FC324C4FFC2561DFFA7339FAFDD0A4BFBE6D3A8FF9ED1FC49898139864602458968913181918F719CCF5A68B2EE9C1FF050E34E63107003B8120FA982C21B30A874E4F5E4B38D5A8290C4B8D9BE48A0BE31EA995BDC37AC6DE90BA17D259DEF53605D55922FEB1855D915B659FBEB350EE0DFB
310
2F9F766E1C84CC8964B75D08667445EAB966015F63A18A9E0A325C1B3DC628C0D3CB60F767FA93CC65F25458BD23C3B312716E5F40E5858AC06EBA9AB14F95DB99147B832069201541D09A0D856E12C629CF32683760EE855537D1901988D5EBC156676C7DD51D7207CF3267AF1D76C2AD867315E44618015313A98B19941C
310
696FED3461CAA9B5415F918556D7802EDACEFD6B2E45853A9735DFC9DBF7E440F9319F8B6805A973BCCDC76C069A9144E51F187EDCC12FC31B5DEAAF0A76137199B106EC84ADA6B6EE697D4E6A96E007417F4E880E8B1E89B4BCE9D81EF611E2ED8F0C1A6C25F620FAFAAB656A7C42D464880E8AFAB0E0FC8EA38CA9A8AEEA
310
EE3E4648BA4680270A89743CDD3E6C6CBF34B7B640EFA285ABC7EA0A1E28F3CC963D114A80123EE66D0AF7D5380EB41909B605AB4765B709B808590458157E69BA1378FEC4B48CAF6A730E3BE3C5EF2DD1A5EAF94B1DDE50CEB55DDFD7EE9A16747FA4B223359FB1FCC69E1194892BABB93A1D5C4E807AC0EA2E30180811E7
310
7A2291F6E7F7FAA5E0F60215BC6024E48DE436C511F0628B8CA189982D4D83CCA17D305A7E923C37941CFDFDCD93ACAF735EF5F0E61BBD3E6C41A59B242790D3A3BAC7064DCD89AA2E37214EC839820949D5CAA31E240D2948E48F690298974A96BA9A8432BC90F5071D6537C9666EA4564796B7AFFFA548077BEEA75F6308
310
3435074BA182F3699557397F71548383FDA8CA34D99B981E72835ECDA5DDDC151315173D05A21F651AAF8524E88209E2E7A737ED1045800CE3390050BCFB8BE588DF111617874C62575039CA588EEFDEFEFE319B739DE2EDC147092A262611E159650E787917885EF08F1F51B8F2D8A71D60B58B190FEF9541A1BE94BC19FE
310
A50784DA1419FE4B0FB51B8D36B5FF8E1286FD8AF42B91E59A5F1CC4D60174E764045FD8C57B18209B217F89A62252BD20BE0E63E12B8E8F029FE19E0E8D0870F58721A557082250D5424F7909369376E41666C0EE77CD87CB283F661D5FB6D0DA023CB67320A20DC7BE661E9E1BFE5463085C557DA1FF9BE835733766C3D1
310
39F2CF9E2208873AD0EB4814DE9E6BF2CAF81614D4D43906ED1C05A3265CABBFE192770FC2F64F940CB6B17B5F166F133C9AEEAD2641807C3E69515171DD74C4A85311513D6EC9530B3B601B6BA3EBFF3B5C3D2F7D69765141E345F75433953D013ADDF8F6AA7DC3F4A7563FE5C7D367937E2900D7EAD0F9FC9A4A1A9B5BDF
310
1FEF08532660C01C5D6DE22199AA774383E306DAB87E301ABB7D213887F9869D4942D0D71E94B27EDF216A318BD488D45DF84529EF575AF3C3938C0AAA0215B01994153E2054A0B894DA5C784980633AAD48576957CF4AEAEAFADC7C587368551C73DBE1E57C58AC713303A8BFC258BD04B51724459FF9E24C03A81E0E0679
310
CEB9B348C0DC998FEB9C6D6EFA77D247CC8F92D3848599ED89A23218D0636465AD1CEEB7DC140D7426F83491C4E8E8281C2FB35240918FFECE880CA2A42D70E8B20B34DF5221C7DB0CF90ECCB9C745B37A47E9B716FF7A97B7A252C1F3814DC7B1E1A7F72B8751D524EF7CAE45B0C73B3BE7D08ED39781B380DDFC9AA4A474
310
9C9493DB5BAD07A6EA6C092FBD0E85DB004DF06B8C9D3089C5320187E4CE1846158C7EA7DDAE8AD9AFFF21AA3A1026BB06A259845E8232DEE62811A4DA9CEAB3A4887320B76E2AE5615EAB7BDF738CBDD01F1E64064BC13D9EC53576751CA8CACD58B3CEB0E6CA585BD089B2A59B9FC101403387AADBDBE70586B93D64BF3A
310
D4453EF9C3B6A93817E8346991798601344F79A83C51F3D50F7BF2683A3605F51A72449489E0EE6169C749C60B1035651103AEE24D24E51A759C840DD3FC6504DA6FE107510E447B43461C79D22970B75DE5E1BD3007D1AFC619A4A4A69B5626AF5E9B8374E20677F77E2F8E73DF868E8BEC7EBA7B6A75EEF7205E1AB9486C
310
B642741D6E03FF13FCCEDB1C4AC129886268B01CDF4B124AF797CF784F3C6DEC97A17D4B558070A0F1C04DA4FF9BDBF34159AEFE958479824B3F58EBD1E19088A2AFDE501B6F2052368A3FD0E650A179EFAB1561E1D27527077136E652676C3670F42DCB3352F48F6BC86D2C3B0051727E41A0A4DC6CE2BE9D47F5CAA2935A
310
3C0539AF080665997194ABECD723B08129CC5B6B21D2E7D54CD4D12610E7E9FB8306771A89576C7A982002775ED44F3F744CF21EEBB27A631671D921938AAEE3EB0D19CD1E083727F607823E817BF599DCED5394E37EEBC2E88782E638920CA641EF74D4CDFCDEF06F4278ECB18E31E7E9876F2D783C8BF429C75395F57E98
310
C2B495A3DA077EB3AC3C158608B6B57FE3EA48484D9A480096FCEE0DE880950E7E5A5714131C5C41AAA29FD19AE81AC145FA1B9E85C7169A5AB837B213493DF7E9AA4B5FBF9CDEB36EBD21EF1181B7CF7366AB2A951D01E37AF4EB835D1BE8C117CFBE7625D2EBCDB0B20C5A4B45CED0BCDE3EE8DA9DA78C2E21DEAAFFD119
310
7E463C33CC6A80FB785669B856EFF7A8CCCA2841B5A5369173320B1170C368B2748D81062EA0296E5E2D95D7667A4A46D98A6FF475C76AAB0A8C8D45E226FAFC9FE0133EA9F60111F99CA81ACE03A1D14C89E8B0D69079C91464FA1D99E651D0EAF606F345C42A8A1AA9BA391031582B96D5B4176A77AADB01F12FD298A75D
310
EEBB2C82F0B8650E880722F8DDD90C56A7A058E5FDEF1AC93545BA27367C76F5D8F9690CB6F8DAE141EDD7971F0FB548A2AE435F224D6E5954CA155512F7332029D5A1230854B79F258EC5FFDB09F5F6343A8EB193229B7F7E79B3E48F8E183860B38C8269D1B53738FF1E0BACF6AADA6D4869E9DE708E79B5DADCC09B1BC7
310
6F649731CFAF59A83FD8BAE4C749D66FA87A3810D4D62FFE826FA400C0F325D2BC0F3CA35F5847B82A2ACC7961745C823E4D863D54460AF792CE6F79B5C7A33B25C3AEA6CDE15A919B6367D781E9D44F61BF828672594A3E1D9EDD6DF179A81F27EAC05B936575D73E05C209DDD2115CFB705DF9BBF3C911589B3640735E9E
310
618FC9C36A7326C82B2205E244C55D56FDB9D5DC93CE958D4BF8174D2B3DA54CB3C09F2C2A6DFF73D23B2197355761AD421EC581284A7EF8DE2CE3497C0C804D49B41DFD6A7360844E5BEFFB495CFCDB97A4595911CDBA623274CE852B5E278AF0BEB1770E9D37CD977B2766A7DED0E94B840E1E95E8C77DE5CB6354AF7871
310
427C28ADBEEF7BA0A28E19DE9ACD75F379FE373EAE6DDDAE3834692F9C2B03B4FCA8FCA9ABE8EEEBEBB725B88A7C90941E850682CA04061A7DF0CE82ED49BFAFFD42C309818FAE14755CAAE78B0F73243ECCCAD7DF58FCB9CDFAE7A4D3E6671A613639130D056C8383C8F4FCF4808C331E544DD26E4755D09EA05253B3049A
310
1E32587CC25D72E073E2CD96D04A71BBCB0038FEC3F53D254199C3CDC67CD66640269431860225392B2CB3ECD0B4498AAE78BA1994246AE1EE78F2EDFB79F6C6CB6B5E279C4D373FBC21CB2698C9ACBBEB6A4BB6B39E16AB0E421CCBFC7654D81ED86022F9BB522146F9F4772E2D0E4FA70120C95A85A417BF5078B232F475
310
4363EB1750B2AC2148EB46B1EA72AD9B4D23ADCBC589D70106C3EC2ABEEED84DFE28E718C6C83502C28E9FDD3B09DA0A6F6F7B72B706A31C9E2A331EE70DA56A083D2177BFD63C55B11D8D949FAFCF90B23A1E24B9B5018B9A17E99F2890EC302F330FE7936E2C23F0D237EC8916F5166AB84B62A21BB0B950146962D754F9
310
2CC2C8877BED8FC7B7B25726DD19545392570B3A2C66B58F027BEF412E552D12A588C4A3CC5C3193FCB3485EFFF700D0B9EEC077754A33DC1FB9E25AF814628F91DDFECB667D3F7690803F38D13F8AE39353523BB08FC6760144AFA2CE28236F65EDBB3D5F59A57D612B99E3D7E5F8A851666BF9B5A6658EFC96EEB37A378A
310
BB0EB3FDDF1303AF32C41BD1C8560745D7BD81066B0D6313359CF488563D3BA3F8E2185D1FAA3EBA1397C9D0E3DD232180A4DCADB6AF25DB3AC3CC26589C8239E66E81547BC7E2F328F9884764CA37EB5DBE390DFC03A5246B456A7C3684C4377D0EEF9A350680FA9A077E8B2957B489E09AB1AD41316944C2254B5984830F
310
691C93CAA767EECF976FA5647538830B5E63236A6F0365C1E0F3E327F24FE35EDDBD7360B0F7374837409F7A6311BECC12B7026D4FA1AE204FA3F5FE904B1F420C7A9044AE58E403E7C4848E7DA25DC9EDAC79DD756FAA26B9EA83ACE8A214A2612A22AFA19DAE7DBAC5F8CDE1292A485F98DAC731A29FE01A3966E96BCB9F
310
B5A4C8830E1B9AF0C54B87FBE221A097036E5D28D1F869F810C06A9BB0AC0612F69AEBAF893C6E7AD59460208BAB3A6B09CA4F6BDDAB8CF0D1F84B72487498395A70DCD754796E271099A567A55CF242BBED64696378BB6CF25EF0FCDB589F3A82F1116D010A9AB9FA4358809EE0C973A2B4229BAA876A70B03AB49CBA7FBE
310
71DB1832FFD32F9BF2C8E98075CACAFB36921235D0F552B6A67E94E094097A5D7DF681B40623DA535ADA7A9AD8E9A62407D7C9A5AE51D62A17A83A23728DE86BB56115804D3F2675F2C6B87541A0FC497BF0CA86420F558C9859EBE9FAD62747E323E3AADC03FDCDDFE7407B09DA90B44E3185723C5381EAEF589765E2F7A0
310
99BA46695BAD60CEF3491B8A171F5F56444F7CE9455312C3498C74173AEA0214EC029833B34B650CBB5A5508D5091665309642791708ECF27CF11DB3D797D6CFE474453BD4BFADB768094B2147814D81C7CBAF8228DCAF5564B5891F5EF6A860EB2E323CB82AB868D8EA048880D63B0DE5341F1B3D53297B928A11E15F25E5
310
148990F710747C3509ED14909C552EBE3973246FCE55D00564D8310BC3EBC5085D08D806799B77D6C57FDF5E55837F9E934F09C03C729271B64F12D0A9F9E938107CAF7BF1EC8CF1BB9B42363D33070F4CACB425E605DDB0A34A12BB936DE286B9887A4E2E558F0886498BFF49C311D96C277CF6A9FC0D75AD0ECC5226D7E0
310
E3572012E56D7FDE4410CEC7A6D0F997F225A2055B8B92E3956E875AE4993CB3D4C9063AF98FD45E1BAB165640A43439A2C9181A7C355B297C0A0CCFFAE19B6FA3C2BA238A885FBC98B8F6DAF4B94B97304878DF4D8BFF6A4AEDF79E90ED4E68F00CD7299F4E0D83E35601AF0CBEF18C1E870E74758FA91F5131075004DB3C
310
FCF09AE1DABC11957FD9808C92E8A678CE9DBE40DDA0E0D1D505AAFBCBA208232BFB6FB3704E8985E61ADE53DE74152F5C7DE74B1DEDCD37DC3E8FB30D7EBA8B9EFFC3606BF90B8D438279CB7709FC7C00D327F41817EEA71CD9E49FE9C8C9A81C70915D9F0F15958EC5AA4C3BBFAF46986B90F188BDB24B89DE3C6F29EC3E
310
6F66D84856EE96A35E657CA41B41EFD8DBFA16AD6E91439EA92B40B21C053249F51AE50EB0B24C770FFAF40DF12C8436366819C48E36547D4E7B72FE2BBF10828583057814A668BDF183F6B2E58DFB151103E56303E63D00F39C27C4661605DB644D19175D02E3F0241E8FC3458D17AAAADB117CE9EEA690D0DB01E634878C
310
04C2C9310B69FCAB831151E3AD293BEF6E46B0ABCECB50F5939B39C613D41E81FAE8D34CAE3C4566B761D37185FE864AC32FCB71AEF39DAA5BAB88609BB980CD2F07A8F941653B529567726E2B2A58D079DD57E1E5E31426CF184A04D7B03B985F276D47406AF276FE32E3328BA866EB1FD39BEF57863A317634AA5FE46740
310
9B3873F5069EF0D71AF00AD189D17BA1974ECDB2D623E9E14086386A6AAB5807825C37B015BFE892AFD154920EC437EB945D958E18622E1E0FE2FA06557CE4BB9BBD05A2D40E774DA2B65473791E314B7D6C886820B2FCFE4AA272B3B8B15E7344A145E8AF919B5454D89D36D413E87211186BF6F645E5EC94DCCE8E1C7990
310
22E4EC9BC86D7A0F2AFB1FC4B2CE48F84B3F49ECE65BAD24CADCC07EFF39AB06BE9E6B27A059938EA7208838455383DDBCFCD967DDE4650EF92A14FF933C975DB20BD7FEEBC4487576485963D757D16340D9599FEB362F775F38CA4185A86F74B629C81B133644A3B18FD056E997E0734F9BE26D11C0AAFC669E2AC9FC41D2
310
81F8B2E1C35AE27BCE05F3DA295488096688719D974DF1B5D182DB7792288697F8763CFB43562C1CDEE11C4AABD5C22B6E33F6F389CFC3477C5919DC0D533F8A7A1846B7ADB60ABDC26C43D0CFC8910B7C15EE22675BD02702ED39DB77A87A192CA7A543E6205B979B9F5A6B512A3CA799E198B2D5797C0AF8D1D872CA455D
310
4D431A7879D4DD76110B5FF7F4176B54477A9EB5E4A5D11214FDA585F0382751D8E2582BA5D2075053298FEB8F1537304E32CB22C2E2B693DC0A760B1DFCA751BDC445AFDCBB12820ED85F6D5298933C7EF1211E9E057684056CDA3FEF3BB6052355E162DF27C59E965A8DDB7F9437EB72CDDA3A090DE65A5B2F50326247B7
310
EC67B73ACC7047FC9B353D6EE990F772207C6EC52B39DC2F3C0754821DAB559F7C1809C7D0DD5B0499D0442E0A6E391B3D5DB46D11E731E6794EC77523FBDAA242ED67F9FA1FB684255671F63C9BCFE6E7E896D51001A6113EF2298BA494E0B0980D1FA5B9D60796554C02256B1E0345FB7C6186B6A19D2DCA270416262845
310
FA4F42DB5D9B0A0B6F07FCA2E56C242522E001E0CEB734AF310FC8BFB57E38E03AACE93B3326A2197891E68452B26A6307FDABFEE0223D3C03C3C73D2D5BC054C8311F12004CAE488E5C29287F8156A2CAA4AD0D7BE6B97264E4139F437CE73ADF52E5134C52B819777C18B323A5924E4F67AFD13B1CDC3A61793A79FAF5C0
310
CEB718E441071E797C6DCCB9EFCF7E4A1E9F3DF3C2F9C9E8294E9586868788C972857FB0556D7A26941A7EEB9B580AD78EC40B85DC906B4120A563CA3B87797ED612D3B035962BB75F6515A393F4CB057F564CDF54F2E5A024514E6A1F901DB80C7E70B1FC05E356A7E72FABF4775B3E3FB8F70A2A8E7B6A94542BB3041579
310
78CCC999E707A29CC795E67A59CC546A5D47B368954CA7B6E75EC9E1F6FC73CE3B4F71F8CB1A6B15923D61EAAEB14626AAA9D04A26EB9C66CD1BE86CA31A5D8703DE04CD1EBCE4F5CCB62F93909AD11E55799A781A956ED27D3E738F4538CB04ADABC7DAEF20BC35BA6A90BCC1DC61BA05F20D8832FFB9BC9B15E2DB838A0A
310
FBB7E0C82A562127E0446894F427794C3037186F622BF24DE1B00AA10A23BFA47B2A180D6DA5AD6F7326FEB8C100C2D7142EB2A0B2A9D1008A09BA343D70E054AB69E2A7EDB783CBD92537FAF4A44D1296AC2792729104B3276C276C951D0CF3CF3F1E6B017720A7B8505A5FF9589365979678C36F1BAF759EAF57C60F1FF5
310
FE9DCF5F8E764FF25A2D06CF25117A8FED51884C13B2B750DB0E4F5E3D64124FCF11F0AD8F1CC3B3DA4B38ED22BF1CB2585EE6BFEBBA63FBFD44F9537B9B37BDD6B358720F98A8125AED4349CCFEB0E135F19E208A04CA7E2B10711185D72E381F448036EF57C9F874E54A971CA37A639E986AC0226DC5AA00D5B14FEA9192
310
234B3DE617814FC221C92F33F1D392F297731B567FD98FD91D989379AF567A65B8ADF177591DB90FBEA99BF4ED11B16E50A0AB1DBF1156D034BBE04D69D08F939D8E92BF525A1DDAFF80ECBC95D8F45D3FDD289FD23F7D8B452F8EBB34EC082DEEE68E18EDDF072060FAD2AB1504DD4879BF67099FC58F6E9DEFBF645D1633
310
4A3E9A127C6F1AF6132CF287E433B43A0EE93812B4AA0B194E03EE3FF91EF9C6ED0074A2F6EB18A96A7C9890B1FCDA1F2095E944DB911ED54C60DF16FB74C8CE9BDC7C54C4F14078CF73C2FFF1F1BBCCD7CF64F71407EA1683DBC410D226627F66E509060D5C0AFD611DE681D509DB8DD12FB1265B03C6F5C55FF4C30BD941
310
87FF692B4F152982502F193098A789526A038AB529A52BC0DC4FB6285CBAC10A8B8DB75DCD9BDABBB221E27D1F8DA9F5EE5926A1C8AA9BA9BC09239C6A7F12914EA3B59EFF7AAEC3FFCCE56F1C5C2980AD072793527565E774F4631DB178CEEC691B1F367BEA0CF2907E1D6B854D527065979DDEF002D8B2ACEA7CE21AE297
310
737EDE1D45B31233B73FEA35BCFDD0B09721FDBAF6432681F2FD10C3E9EFB246FD6E854B344ACC9D8A0EEF876A7314B49B6A499FC650B099D650DBFEC7638ADFD245E2B7839DA5AC5F7D5623FC0ECEEC8653FC9B2BDD1AD4D00A566FBA7186DD3C9CD26512551637498CADB950FEC71ADB9A5524285DE328B8EC7EC75D2345
310
AEC6A27C42AF6D9B92155315C80DBFCABBB7DA0FAE425C4FB896B15C9BFAC4FE67DF5A23D30C93DA4D8F36FB15D100050DA6062E22AEC5F4DAC4F6FEEF97AE05DE63C6D38F9E068A20BC5E3B6BCD75320C5090924E7F93640A7735B1A43451C2D91EE62C6238B797349E59890AF3A520DF4A87095F3ABEC2E61F0593416CE4
310
6CDCBE0E00E2523FCCD04408588B5B6C9DB6459C786CE378770B54F51DA3A5E1DF2A3349BEAAC234A6CF8993B598B3B25B4B113E353A4D750FA7534749430F3EBF2512E7EA3FD43C6AB9A1F765A58463B306721A15D224FAFE8C6F5E3432D57EE697DA0DD5A9D4866A8BCCAAA9DFF1F06047851408FEC060471D0E3EB86BFA
310
F46E4B5E60311DC3E3CEA147C75CF971BE74689507154FF2D2E92F15CDB2B9182B11459FD8ACAC5A85F174BC94A7F4EE4C4F5CAFA7C02E37BF0BC77B7DCD0C047BC316F562A01A441AFA7931CC84A28CB9F4AA367EB515778F29BFE61195FA671F4352E5E46E3A64773F1F76EE5EB36D7BCE9BCEAD837A4D77F8DB8C92AEEF
310
6711920D7C7D0F76B0FD0EB7AB83724CD35BCA7D36DDDF5FBB7FF6F04A91F3E2BB3B8F1A43CD659639507FF6331C5F697BCC782AE57D757A27D97F1AB9E0AEDB43F92F1B2AACDF5FEC8ADBAF9F814E2027003BA2F9E144B1938A7A04050AE5D953B82C45619165C813A10E76DD6906B3C16438064D14CDA713AEC420034613
310
E1AC7241904A49FBF87409AFB1FCB9B72FE7933A87D8FBEDACECE4EDCF6A4FE9FB94D5DEB74FAB7CFEAE17EE965DF980DCCA2D04134994F9A2E94D2265DA4FE6AA7B7AC15FACAC2B5ABBCD7DFF542C5314FDAB2E1B9D8B65220B8E2B638BE008E8DCA22678C820C5053664D15E89F2D735B51A84955E81A443545E9FF787BE
310
0FA700A76D136C27DA179A7C6E8939E01BE756E19CB292798063D8B97F44E8A27BCF3A614FEB8BE974A718E86F7EC99B53CA35FA24F61F2B07266684623A3D4CF073E511F3A10A8FDAFAF0078C577F4DF9D339FE7862E5FA47CF4344209E5BF76D783B1B48E152AD281B15FCB934DCDA49CEC5706B1EE8B460F435324A5CAD
310
154725E21AB8044B75A557A79F6C807B9340AA3D92503E866F4274412926C8C504E4D5EF8C0E68DD0B028781A6B4054F11CF18941F101C57CCC796773ABC8DED9CD91FE5788806C05E548895354AEAC96546D55B0E94A59F148D061F42AA398D822CDECA4CDE79E13469BDCC44FDC990F366BA5978C15F97ED80CBFD73B0CD
310
9B8B83A4F6845BDFBFAF034019473FB9A63BD55D3A4A7284757071574029A4D016DCCBE95DD679EF3C4880BF169422F8C89B68A988D2B13793CAED4F74DE7486C72DC94DF46B8E93D8E02EFCB1FF9B3BA10C8AE7F653DF94F4AF466CDDCEF5776687F7C4C14B63E4EED1719DC2EC482D7DBCC7AE518CDE3D5FF86D39000EC3
310
673C0044E1D308BF05F74D1B5F033A7D1BE7F74BC55BBE3E4A20F920946CA0271EB17BD2B80E5660ACB8A29A79F5E4BBA49D4D945B6EEF4A7EFEAA65E5555BBB57A7E15D2F83C69F30BBB978D2B39F1F26FC097424D39BB33CA3D87ABF64E307938B685BAD44F71556A30B7E712CA4FE600613C3E554B69ADE949A7CFE214D
310
F1FFF05CB82151EC6FC31950239F94CF7AD39DC473F6EA356E5EC2C4EFA04383CEFE985A127484366FBEE3C0EC4FEA363E4F6632AE781392FD45D67B63FB8DF70E82734F431FD3443172A0E30A83D60982D55FA6A2CF86DBA8382502ACC6CDEF3B907982EED1160E14863FA242F9757347E1544275CCDCF71ECD5F8621CBEA
310
326B8BA884AD7F825781923E66971F04010D574C541D8427A438A37EEF8AF88240EED7362C953F5A81DE2D56109CDE2524EA0F5D2F87308C0C47BD97AD605878AB8589E17CA83930CB5E0DCCD75853D68B1AB136594926DE426C367428E9334AFAFF90ECE221BB5DC9E5BB53D2CDEF954EAA9CD814F0E5725F1965DD458E5F
310
8487683AD86B9D0076BE3EE91EB1CECC5331A67A3F79D8B27587C12EC2A6A70474749F27B4C0BBAFB94B34189E88DC18964BE4121B9137FD516C7755356E50D6714E31ACD222621EBBCD1CFF81D87479056A9DA0E0B8EA19D24CF937DA89F78E8650CCBDC110AAB6C4E46DCBFD0446BA9E2060E81F314AC2031E88135E5476
310
AC0160EF5C0DD2EEF1B8B5CB2D198BE9A554A9093B5F7D7E4B5407DDFCA1D9C152FD97F55BFFFDFE802954DFEC8995B983E28AC92F1971E28F531DC407A1280EB125F64A72E617EFB27DFBCEDCDA2D6F2BDADA36873EE46B9BE1782998C63DA7182BC383FB6FD15DA472B175D7E8B4FC88F38D6E07FEAA3FA3CBB8F6B449EC
310
F14D2175E5C5CCA3A42ABF24CA6C9395AF74535F4DDB38CB84F56614B0FD32D7E19CA5CF988DB4449C40E23DF2B16772594554579094450F56F253CD25EA7F77366FB1CFE79696C428BB64D5A41E986189427E5E4D7E2DAE3D5BB4972B3DC44EAABDDDD63A2264ECFA5C786EB0EE1FDC5BE34FA0F08376869FD1E61EA06CAE
310
15191135445EE8F0394161C3266A596AA035572BB0C8876180D8B9C77D307DF9DCDF7365ABDA6F3A2366436457A4DFC1F259666569A9E4A79C817BDD5610E5200FCE894A358EC72858D50EF67545DA81C6FACE3D457BAF70367E1E6BDD9A952FB4F56247F58F523B97E640246051A72F79BE42FFA0B3187F63097F91C48B86
310
8586F714B0EBD5A00A8412C1236E1298F60C72BE6C96B82B404CADAA304AE9F303176B14BA53FBC2D5E86377E35542019E24D97B96A49B2C0E5006E7795954DEAF5DA58958839043C6C70BD3B1B33B6DC5C31316D8A6923F142E26F6711A2258AF977DDF1F970ECC4F1F2B434B96D81BEB6E89BF3BBB3C7C8CC80505070723
310
D6D7D7D3C8CA27CA164A26024FED94B12A86031867241DA53D929636DA600F050BC40CE48B8BA03D69224720DEE2ED2127390BDF5E6EA64527BBD4C4C63FA76BB801FEEC0E61218EC98A8A86CD8313781617877E66692839B9468CF4DB8E50A73986E558E309C0D6F676F921BE02F1185454DC75B111572FF9D27D85EA14C0
310
5AD7271225B391C4275659CA4A43759D0BA44639BE4C30A84DB7F67A41399FB95CBF923B1B1672ABC807C1590557FB18D811983FA97F5E609516D62281D38B1281F68FC75528C35E4CD7DF0F7DBB5E5DD69C414EBEA2F4A5B241B996BA77AE6C772E367408C633EA3E438B68563EA8BE7667F3A4C4FDEEA52ABD78A2820F44
310
3B7914A15F180018D231E64519C56A12F6CA7C8DAE18F06F6B769DBF92329EF6A5D18FBCE600F36BD8E8198DE5CDAA96181F3A756EBA5501CEE58F497EA4F418A2B82565B9BCC611713C0B708CCA1F398B78C5F7D03B3437CC18F13061F55C7BEDADD5ACB1DB0E36D3CE47FF6EA1A563A57E9649EA5D14D1A50EAA45746338
310
1C073777EF1600607BAF6428A7DDC079D47A204EF1E1F1F0589FB054D45E02CE623B3823C317C601E589E22B1E88B448524B86A82828E32345EC18AE17214B42F8C41C6D428016D9BA31DDCB47572561E5A402E5BA4FCE55F78AF7268524AA04130F3A20BA5D1E9F9948EA48FC8F5314FDB35E21898198060034ACE5E3E2BB
310
CA34092518F275190AF65F45867FF0900AA4B81F25427414C372BF51DC29AA855C5428EE1EEDD6B849AD60F6E73475C2D2523F8A2772C840A478DED18A8C5C91B085F255DC4F54EA7AA8947354FD17ECF8FB3B4A0DE7B483CAF3A1165EE05BBA413E5C1FEF3DE1D6B8F2F3F3251C17D9FCAB48A9AAF63AC773A0E413BBC46A
310
9ADF84A566FC920E4D8C52C9769EE3301CADEEEDD92B312E02E2A7E35B7F1E7D203FE5A7D75578B06E99D0E46FFADB8FDA17ED8880390DA29094202D6F645F76F6F96409CDA05495A96E84B04A00D1A6C6C81D7F3DE9376E828CCF144EE50E364ACCE7237EA0BFB5607ED1AC3CFE73794E5B61739D14DF1743441B1AC98F00
310
ECEDE9E7301FA29755FBEFA68C91EF2B314CF510537EF1ABFC9A762496280B546F5EDAAF8A5B387D469FC9A878A92828C88608453ACEC6094DCA54111E7AD5B2663DFE2DD151B7F123B9F4FEF8EE36AB125FD7AD52A59B1B765B3E3F73E3F73DEA93875004D2AFFE3CDE9493B87A9904DD052028949041A91DC0E1BA47BA71
310
4343FD5B25E0A6A09503AFC17C790058A836A324FE31D7893512E28230332F153181C1E018E1124EBE1BA262AA428A518237D1EA7275E48C5C561BD19ED6912EDD8367DA0F31E40EEAE9683DA9257525AEA7B632B97119E17145A90231768A4F3B9120FF32E8319B015E3CBE26F1A754177D8185345817C096B0CE443A955D
310
13AC15E1FB5DEEA0239EC32A3C92241A237B0B02FFCB4F93CF2B02570C8D192E2F2A68CEEB42F12E6F8CEEFF46C251E22B4341C56FB08CCE550E7A9D6F4D6564B9EA52A83D5BF2C6E03FA19D2775E15A8A7ACF30A13C259EE7F5EF2AC3BA354F1500E1A07FC63FB4686E2F12EC69719F9ECF5FE3F35598DF2CE944008CE78F
310
0911BA5BE5D0A34E0098FF038669C26030BA9B300303039852A8F6F496341737CA7E0D2E3AAA36DE0A70AA7D9CA0D54D9AD84B18A44C9E625475E1C97B93BEBB38DCE7D227E67A2D00F531436136355F243D1FC0D712C5765754FA22FCFFAE97919161F46D6E61ACB37D83777B385889770B50765B127768443A5C4D3A4E35
310
A3151111F146B7CA116F918A049F1C272F2CD7976C69A0068773451659A97E0F4A08FE604C3FF6CE7385DB19F4D3ABC8A0D80DA8A42096AC377DB49382B36E270B6FA7570188B4B7D1DDDDA82ACA487CCA5D38BD3BD039ADBAFA4ACFF27809239B722081E2EB9F145320553D183F28471C388BC8814E5045676767AB58A8E7
310
2D1CED2CA731379515D2E533E4CF0B39DFC625F97AC4836831A4DE330E87A8126FA17EBE583D614E71E22A8DBF2825599743E0640037303E8E1B1E8EA4E1ABFA4F62907B5E4E0E5DCFDAB417C36C6848A2B8D15F1E505434C0707E16B1CFC2A1C36A42BBF55734F8F4301DDC2A5110CEE8C0747F69519265012A2174BF4E95
310
5ECD4FDE095A3ABC70536B7AD0B9D7892F81287D667C108703C9B66A221E9A0929D030008F77FF6F5D2108EF5706FC87A3069B976F7C9FC3239D13D283CDEA83597461079FEEE049B0F392889898B7D87D31F8D60ED7B56B91823A8E4EDDB36C6172ECEE42BD42B12CD67994FA0F0DFAE9389356F4CD4425A4B8AA55CBF7EC
310
D585C6A2C2316791E43D5C06841ADBB226A87FD61515FFBB0167B74E56BD7F3E90A57A97FEDCBDF483A0D6699A8C0849CAEB4947FAA90D8E332D9DEBD9F4738C37DA0CAF9CF3DAA68BCB67C420459C7A64498D6E848E5CADE92BB6901F607AA331104A67F7CD650EE169B1DAE94D2C31C2F993632259B6957E246EFE4C5481
310
107B07118607700040E5812A2A2A38DA0076875258C753F60E0F2662C748EDD5F3F3686B8FC3BD6FE631ECCAA1E8B1C1E565AD117E54893E79F4672E32F9E46B2A183DFDCF3EECB4D4D077DBEA0DA254D256045109670050129E9B9B1A9E4A11344D61497A992778095151510C4BB7EF2009B63AA4360635312E4CF668B7E0
310
D3D85A8688E2BD83B569439892ADB63461930D428E0DE42E4AC57CE48DA5CC1449530D8BD3D6A0F08DF20C8E8F570F2CFFFCEA286E30969B4654D498A58D9DA782E19FE3F002181838925592C4A1EF0B332D88B61A92C644547BED490D3A42CFFAB70E36D961F694F6307F72FF15A1C79D5B1B5CEFD353D9E2B52566DEC8F8
310
F09CB3E8359C0F68EBBB7898243E34E12A015B2685AB303C04D3A9E00671FF3DFF0A184E4A2ABEB2B666AF5B3A209C73D8EF29DCDB069C9F391EEE9DD0F74C7BCDE16F8F02E3B8816122BBEB50665775B600549D8BB33A54A6BF940C028118BC6878C79958D6784F9DEAA6E26748386FFAF8D0D0101E2847B6563F5D8DC1D7
310
8F787BE00E2C941AE12148D4A81599FE8F68D4DA5CDED75530ADE138240300EE13B0FC13A1687FED6774662C05A2B7DFB186732F0D7A93545D8B0A6390AE5054D9CB582DA846D7A061B3358B45E2B52DDE63E114397EDB7E09233A579155D795BE76102CF277F4DF8B188C4F2879BEAE3C08347124BF9ED23B128259FE107D
310
31E34A652F090B30B39E0D9AF917B76A2806135621A8A60681F16AF216514BBD02711585B5B1AE823F4B2D0369EA5B6BCB863072727FFC871CA6C9AB79A814D989057E9470A3D238BC87CBB4A0EA49AFE2B86F22E499793CAA9047080450166BDC357524561E258C77CB697F1ABB32562CF87C3B7AA12F911EF19FB3E5C022
310
22E887D08202A60A17151F5E053A86B437771088B4FEE14D652C43E8D939995D34545E12E2FF93D4E366EAD25F10CB7DED141563C3D0C447AF06078A91135FD4B9611583CB4BF3BD167F2399CEAB0E0100F8FFC305F00F1711717173138B4B48C83022295DE657EFEDD97F238ECA80F528AFB4F8D67AD4E2594B9A3AA86D74
310
87EFC313BA95745C186F0CDD84CC12DC9CB0424B42203D351FD9C0A3AF10CC7F388E0329279087386421F194F4A29464C1DEF7EF8BE515E4A199DCD5B909342598D8FE6A231F71336248D5CEC5454455C7BE383B3BC7B260FED27F703FDC39A170F3827239102F59D4DEE7FEF82EAA1A5E4BA94DCC4CC44E7E2EDE20F24244
310
E4454369D2E87C3F823F193FD4FD27E1C23984B01898D15ABC20711A8A558054951A6AE280096BA36CBA439603B7B0B4C45F248C14B2383B4B5CD8ECECE4FF859AD4A6CA2326D020EF090F4041D28DB66E5256B56232CC52829DE8060BAE6BBF37D4B7469B822454FE93210A3E8D15E69FFCF01123222611C51C4FD0A041A0
310
CFA2471CF6BE38D2B20FA4C3525B5B8B586759475CF80ADFE67A284AC24651E52B8E683D24C2622642F27E7C3C22783BCF63648BC398BD6CD0D9C97E7E7E3EACB6126DB7A6C1FD9F1031302EE67ED96F22B77C7CA0239BB324207559B105E4693EB26EC46182A92C9C0DBD24F29B31C5C5AC1F84300E0E17CEEAC15F5736FA
310
4A98971E2F1423BFCD68D4BBD5F86E74B40A369F39507C88FCDB35D2DD8DEBEA4AF999E23CF2816D204200DF6E611781B9884C1AC8888B4DE397320472959434323A5A36B22A8E1F721A270DF3BD65E4A31C11FF048AFB0D8B7B6881423793963A23CFCE935FC189ED36FAE35C46DA3574C979E4394BE52084F3081837BE03
310
3396D2EBD80F1F691B273F660D2B32FA27A33B1DE4ADA5F0FA4651511102DFA410DDA86E065272CA314D5249DF91B06BB92807B28EFD54F08F7B525252782CD276DD02E6B0319B13DF87B1F6361AD6B28FC0D711CF445429B9E5A433CD493051C49A9E03DDB1B147D880253514A5DED88009018620EE229101C041950E2D8A
310
A8E1F5F5438E0C0C0C60EEDEE9E3E0C051948C69F84BB7B2A48A1F3C8EB9E6864687F4F4F6F6E2FA87608ADAF9C5E117B7C1A737E710769DA1D15ECE6A84502AA855398712D5FB51BE92E4EF824969CE18278798AC303C2C7980DD2500ADF8FB1E6D6C2FAAFF9987178923334A244758BAA01A9A1B70FA5097D01E1CC2A58D
310
AD0EC94CE6430AA9B0C10D75E3C6BAC670EFBADEE1607739CE0FC18A2587E3EC3058562014C64219C69BC269082D5C2F4A659278D585755912176D78A1B641719C2A394CED495A1AC5D583FD2F5EDD93308EA7EAE8A6DD396598BDBD3D4CFED62D18A5BDFDE0DD5C80D1A89BA62697B131AE7CE9A6594138582F1B37D68F17
310
49AC7CB67A70695D48A4A056AC1FBD4E82358CEAE38F54B95A9016F9000F9879C0D9D131768635CA798895F27D6F1614F11F2838A83611AA51C9A3DDB539D42979C29F10465655C17BEC3E2760B80DCBF609198C7B171A531905F3EC218D696025975E986C6B4C666666787271F202805577DD5A3EF0CAFAF91B62DC4B2DB4
310
217A7606282F31D8DDBC290593BAA93EA6353AFA9939B877978481E15CFC9F2755CDC00C538F63A4BA3E80AE009B73CA0185687D339A507D165B74290D6EE46D5C58148F020C3668ABE9EF2F7549170DC80DB41FFC1D678FF19AEB10C7133832B104B80F691B3138F97A92D26E551F1F110400D45AC71A9B9AC41A1A1B1DAE
310
ED0B0810638EFFB511D46B121C6FEA0F38CD00E03CFFEB9713FE1F9C263E4DDEC160D0497FA9A132BA608584057FB15380825DE6C7FC3C667EE947D488A09898D8E939C4953BF4EC9836344D2CC6B2971B2A21A572B06096F4982D2CC7232D46E8EA69DC83722E267754D777F97F96D5DA74E1E75178084D0E70F12AD33E5F
310
71EF2AFA599B2BEBF60A5BE475F444F240CBFE8143C334E7ED9150FEEFEF7EB020C4DBED388DD1D6A167A76F3CBF119B578AE8CFA7736ACAFA4440A1C47185638A0D2F3EB5BDDEFDA958FB13CE4AA4923D5BF840392D45544329525749734866684BF7F8D9D54D892E19BCA9F829A0F8BFCBEEA6CFDFC61D74EA1A645ED7A1
310
FF241739F15694BD835B66FEC5677E40FE69BD3F91AE402F036537218A401CB0828604AD189E575015C6F3F6BBC8AC79CF6C70653847254B31551EFCBEB5978B9DB85D58D0FA41A9DFE9C624834AA04949D24B5AE6D299E072D152D12097920F14AA92C31C3B97E28B6C2E6E9C23D63043ECBBC0A60FDF5BD0C33C127EA8A3
310
308B8B6AFFEB28B4455BF6E7AF4FC6222728357EB8E46E85053E6A8843AB23295BF838ABDA94658FEF3F832F147046B4ACD6F7D48E8FCC9618582961C898D1C7A253C91BFECBDA6BA18A1FCF70755DCCEE2222F41B76D23CA98D0CB3D95F0CF66D57FFF65E2A90F5DF40FC3187621E981BD0BC1D992787212688976B94A8F0
310
C6EF646624B570B78E068826F87CE27041A95C9A4871FF65CC17FCB1639629AD6A9517000D63AC231F3D741CB8430777E7ECF80CE7A3F73C0F162F7E56AA71F4DA80A33CD6ACEE78E2C11FAC03DAFCE929B106F8F6B3ED2DC71FF994BD9CEF4E9A94896EF1B6E2B7B4978168BCF0847A3D2A4F1B0500B926E634B174548E9F
310
BAD27153FB5FC36799B1E6C7C38A94E1F9E996796D7B485E635D5287A2AE76FBD11A341DB3F8F810385BB7296391973DC6C37C452A9305AEBBE0CDB6C566DB59FE60C8E94B1FD090354BF51439FFD1B48D725228FFA88C84F686F547107A7A235665A4593B7C34D748C1AC8D56DD5DA861EEFBADDECBBD65117E65851F9035
310
1AEB65F0EFCFF4BCFEF24CB7A5879699FAC437A7AF9099186CF006BB923A59E37D7A36A29FD8D2CBB914A5E9D0A8FD212FBF796AE9A67958FF1D5D8B85F78F96219D4714EB919929241B6C018AAE0C02069F8D919961EC5DDFBFB7573E3AC8E08BFB7C8534BE6DE045B3CD63DBD71F7638BA2309CAE398EA3A7D8F98BBBC7A
310
EB367EFA5CFA27A9F8F2F52FE878058E6209C026453F8E7E8A237DFC389E9590F6059B397CFD65183BBF936E86896612A5B5FEE49DAC8455D026218AFEBEC12B3523A45B57B82C9C97E02ACFA1184DB18E48CF615DBF39C3CC6F0B4AE6BBEEA2E39D944E290302FA3DE33FA7E40296E2EF7BF1CD855BBECFAD0FD622BEE974
310
6FC4FDFDE545AE6E3BC234CADF83A0FB76DFB145BF3828AE3436368AC24989454F8FF70A177672C711CAA1A76107218CF948CA01F873520E7A2B118EBB161ABAD432932029628B6761590C98AB590C8C8C79798CE9F715BA696E839E9131A4BB68BE923F1747FBFF165331FFDD4D05997ACD168F12CA75348DAC04C7F509FE
310
83898A8B421181AF492861CE81E4A2DD0A30850CFA95E05F097FF70F9E777310D584A75BA7018922E271DAB1D785671157685B7D383D3E074DDB4F1E44EF04B07BAAC75A062077C54B9752C738C9D804D402E02851F3F89605AF189738C18C021D2139EAF72513824E10DDD3047BACC8521ED7E98B257D1166903B1B08FA6F
310
918FD7E162913FEC7D0EF4787E29C35FBA8C6E2C9C20E9AB30AE42CA2A01A090E7D010C1B5BF9CEE2A304BF3A987FB40D836979B79E18D70F257DA61E808472DD85B82761825779D6B90CAEB0F23360C6F80A7D7D77545E95B3DFF0CF96A827F9B5BCECD2C9698718417EF80FEEDEE938AFF55859D0D540B7FE09435583A6F
310
04874A0C7E8CF234DF4879722000167F5872CEC6BF3EF7E5A8CC8121E6A359227C8A29C95212F9F735BC72A887D56B8F309FC525BFB4FD767AAEC4AEFF249CFBBD2DE1AB9969A6155C7D8DABC307E47324C1F916C7BCFF40ABA5644E9FFB9238D19ADADA49D9610F01ABBA57E4DFCBDCCBB2B93C8953206C91DE01B0E2651A
310
6D6C31721915B31F7B7CBCE55466F6D70402788FA91D73BE4ADCBA99A35F17D6B83383704917D6833F0FA3CD45C926ADB8BC17999A4A0AFBCE2541F7B8CF4C2F5FBA611B3E626D64407CB32C122DFF4EF8674D6EDBB86C8F7C6A16D50FA685E2CCA34F8F7D1D8265BB0042E9D7F1F666F7BE5FAA5184DF58E12122A42EF02F
310
461B3F369AC746F96528AD208512AB56844CF75B97F352DF7995024FB02855385854F3798670D01CAC771AC3E1889EC25F61A20C1F8CAB46898817F9C47E2CDA1F286BF2F358298709FE567C91133E2638C8B53975E753EA8BFD3578B5F7186B7BF084EBA3F77BAC3132A5779902EC22AF2D2E79F42D324E083386DAEE9810
310
D1B44A5DAA54513C7A71E52A4AB9257D975B621308FE4D2141CC3DCFE946C154A3C1DFCCA7629EC69ACFA831634ADDA93C0388D2A9A2DDAFCF957C6995BCE7FBB6DC4EBAE79E63EB08E9A25F52F67076F7093CA545CA3053B5BF576DEAD4E0017143C5F759F32B2D6F145B52B67B48909B7C7FCA6586EE385A2189C16932CB
310
6DDFD9152AE317C430492A578ED27B72D85D40C7C93C097939E1B50F4D67F05334FE9DC362C30B7FF561B95259138ECFD9274C8D695C31B14D4EAA9F3D7FA8DDF652F8C5DEFA23284C799B7D94416DEE81E05A866302DC70192A5368EA65E1CED8BF107A1E2D3119A71E85DC1A7B0C1E93274CE04DD0F2ABC8AC7C987FDB00
310
2B6F81757B43502EF7A0D92E416494FAEEA4C9C090CD9557AA4D532F4996A272B94355C5A0E4974EEA9627476F30809B94D8D8D860062E02204643BEC7D0438AF800FC7E2B26955D595421E83C69E1A07E0E3122285835F014AD538188CF9737CE76D464A353FA55A001AB2526B84E985083693BC76FE211CA1D000679C889
310
E3C009832C87E1AC2EDD05C302557422DF0800E316FCAC86978A371F025A6C7DAA9F333E7BD160403A1A06EA75AA9888FF01504B0304140006080800C280875151464CB48900000043010000360000006662782F42383131343344312D303736352D343230412D414638462D4445453945303541424641362F646972656374
310
6F72792E786D6C9D8F310EC2300C45AF127987122606C71DD918B841D4B851A43646695A717C52A85029031293A5A76FBF6FACEF7DA7264E43906840EF0FA03836E242F406C6DCEE4EA06AC22492573150D1F66C60C640E8938CB705396EEDD86DE9B5042FE27813D640EA63BB001C722AF6E55CB61E4863F58284D5D3F53D
310
D715CE1C3985E63FD7F1B7EBDD617E9F1E504B0304140006080800C2808751D54CC3473E070000211C0000340000006662782F42383131343344312D303736352D343230412D414638462D4445453945303541424641362F6F626A656374732E786D6CDD59596FDB3810FE2B84F665F74197AFD885E322B193C2E8A62D6A74
310
B16F022DD30E37BA404A89BDBF7E8714298B8A6CAB1750AC03C432450D67BEB947D3B7FB3842CF84719A26D796EF78162249986E68B2BBB68A7C6B8F2DF47686A62C4DF3DA3E0B253826D79658B666D31D4B8B4C2D6DC816175173F5FEF66FC44392100B8511E6FCDAE2E12389B1838B3CDD10FEE46C708E9DDD76EFF84EB9
310
D124BB63387B6C1C956146921C5885F504A8280E7CF32788E4CEA6AED8606CEB77DBD63BB3CD95829B8CD284E738095F71D538AE7782ABC6717D7FB0B8EB0D27F67030E8DB8351CFB76FEF6F17B67FD5F7E6A3F97C727337B1D06CBA4ED3A8524046920D68F160CDFCA92BEE54E22B14DAF80ED32421A142B36DC38628BA94
310
F0262606B0BE14ADA69052D6DA42BFA3F027B67502C560C9405B0BA7BFEBD69BAEFF011078172B659C082BE739035D2BEC4B7FF0A66EB96AE8857214E39C308A2314D135C30C14045B4B05196484B70852486026B5A8E9D57905C3BEEC4B6D5C6E8B2812FE6BCDA4A705E08F24E79233FA2F6147EEEBA7014F206D41937CAC
310
84CD0F1990984C5DB958DEEBF7D4CD1248B48DF00EAC05C4149BFABD065E73110B960B6BF6FE7EBD5F89F8D07E78C6D28CB05C589E7466E5775A8335D302E3EB004A89ABA9BB232A9F01FA0F807CC50B9A82E618DD0FF6032D3BC309DFA62C06ED200FD91EFCF390B87C753575AB87670819B1F214A6E0B63F0853430CE3EC
310
1AA4B3E933187DCAFA4AB8558823B0E9079A083F074341510A4B10EFB7EBBD355B42308545780A47203DFC4D5D7189E0ABA403F1A6A1A1B6F0DB4151DA619A7E76D4D53BB01946C34A55868CA7F01DFE107C6F16ABF7AB826D71481E94632FC89626348764DACE9001BAE1F25F961FA447DE1EFEC487BA0F1ABB423867978A
310
C0D1A29795D20B928A0156441E2E5523571E28B87B14E184A40557EB6D812A4CA39405EB4350FA70EB597F6923280F5316D01ACC20BB878C6602146BA6D4554542E788130713C34C99E0AE546BB02EE22CC0715A2422D6BEB6C5261F106884290255494D5BB6765B4D7643B7DB8243F46A25393780540EAD0997263E8040D6
310
C62F235B86218BA64940210983B7B49E601C5081779E674EA26D40A3A888832D8D20910431CE4ED0EF28413D753D91C34BCA36AD044DCBD24EA96D4800AE80D520E97455067DA553469EA9A8336542D3E9C0D8A10A516B3638912F44AA6801541BA334F3D17038988C175736544E50320DAF7AF678E14DECDEA0BF58CCE7C3
310
F17C70445C22700C57F58407AA14758EE17FF96311AF134C23B821C4C69BECCD5B993EAF5D888DEEEDD8F7E118DFF6AE46437BD0F36EEC9BFBF1BDBDB8BB9BDC79C39BDBFB9B91CB084F0B1612EEF65C2FD0269925BB267A978328D43597B39DD6575398FF6F107DD74C0A86127FD5205AC5AE968AB06B10158F3643280E9F
310
448E0A4228FB5ADDA711449B7CB4C5B9AF8CCB9ED3F7E4C7F7273D6FD21B4F4695B19F0DD4F29CEF8E736D1284D0781679906638A4797B426DE0728C1A6759FEAADCE2F4FD210274AAFFD521E7F38C3A24A031DE91608B459BD012182F49D09AC37651CA394D08976DDEABF2AF41D373A09A32736E8B11521EC424C7DF627F
310
B26F68D834C4E6288086341723818B554165D0AA05394551B4BF90B8A5FC8780E3388BCA56F712067E4F43A09B9C368B134C8B239EC1DE029C07DE86C8C9C525EA15FBBA3E68D55A93FAE49BC99F8047D7353F111E7D44F7D2C919FA13F1194350190DFDFE9556C425ACF451B968E4A2025ACFF010BC10BA7BEC546876D349
310
AD642B8BEA9CC4D0C7E2BC609DFC7534F45E1DA4E242C3216A277D6571281B38DDC2017AB2833B55DED68E813A942630E8EA24C82B295A4D58EA420EF5C4ECEA2BFCFAACB2EB54BF3B5EFEF48AB9EE7CB19CFE5CC601AAE53200ABE863D4D4AD55B7510FF1179C87104857F2DBBE058FD890CDB13133C8B595E8BA4EBD543D
310
2F45408D61648B459C7D1017D1670CAA86F699BBAA6873CBF5A5486C0E4CA78F7C184C9BB43EBE5B35A8C04AE7A73F098CC84B83825A9D8B6EF80CA92FCB63D3DFA0A024FAB23CF3F82FD1516805D6E668300EE66944612A4F36684752C8DE3076E8D06DB098709995C1785590D2AF043A3CFD5C0E5573BC8EF4D3E12386C9
310
74A47AB12284A92864CC6B4BADA3DF600E2A4691723AE53C411BA66298850A46AF2DB0D89C42B7E5AC619E25A787927A635E098E8D939DC8F7E553D5EFE363021D884A47B9AA3D5D70519219CE04856D265F1440D557DE984DBF5D74CD0EC2395CAE8BBC12E6B870944681A0DF0894C2C1D8EF49C1BB8782E2BC5CBE23F718
310
90741ACD9FB58392AA9D63B693F3F51ADE378B4FAE188D2F3FA22C2A76429DE7BA5F83922DBAEEA828A75053300C256686450D397FE37E6229BC638AD13D052340BFEFC7A33FDC791AC769522EB937EA4D155A3DC27BA78DAB677ED0C67BFED095530035D70FD69813076FF8132C806A1915C3D11262C300AA685A3300AD11
310
A10B78CCD8BF5C20551BD52624F5B02BE091437D048E245EE608B7A96FA84D20C117802B79F378A117A62E8329F8EC3F504B0304140006080800C28087516E19D7B9DD000000530100003C0000006662782F42383131343344312D303736352D343230412D414638462D4445453945303541424641362F7265736F75726365
310
732F322F636E782E786D6C4D90CD6A042110845F45BC8FE30C6C1282E3BE444EB92CC6E935B26A0FFE2CC9DBA7DD1808082D551F4D55ABF3570CEC0EB9784C1B5F84E40C92C5DD27B7F156AFD30B6767AD3262FD8771964C848D77996BE532B663483B5C4D0B5D0D3EDD86282F0E12646F2F47729CD9604AD978B19F108D30
310
ADE20EE52676538D584486822D5BA015D547182B6C065361E77A95AB9C967592CF6FCBD3ABA4777A577327B5FA400C83F7A942C68359A44FA23C52CDDDD6AA653F985E828CBF7082C2A9996CAD4ACD748181D5EF83301F8D83F981FCBA5ACDBD228D477F9AFD1CFA07504B0304140006080800C2808751FF15A4A45D000000
310
800000003A0000006662782F42383131343344312D303736352D343230412D414638462D4445453945303541424641362F7265736F75726365732F636E782E786D6C4D8B3B0E80201005AF42B6F75B59F0390B113044D83508C6E30BC6C26AF226F3B8BA6360974DA7271430F523308B2B198F9B80925DB700539227A2FCCB
310
80A18E5640D320F996A81C9F32D6E9129A0D1EF74FCE750E6D57BC7165FBCA07504B0304140006080800C2808751D5BBF20C3D01000046050000300000006662782F42383131343344312D303736352D343230412D414638462D4445453945303541424641362F636E782E786D6CCD94CF6AC42010C65F45BC479340FF508C
310
0B3DF4097A28BD19339BDA351A7452BA6F5FDDBADB96B2A587855DF020E3277CBF998F11ABF7C9923708D178D7D186D59480D37E306EECE882EBEA96929514C17BFC26A3C4A9093A9ACB548A31F8652EA501D66AB1B96A8DDB94A2420CA65F102225DAAA183B1AF50B4C8AA905FD0071C306858A352C40F44BD090FEA399A0
310
FCD70114C240655BB775D5B4557DF3D85CDFD5E95C3D0B9E9552F4DEDBA2370E21F899689F2E2E99A905CFCF522CC1144D26A0F2CB19EB8D133CBD4B11935B37161D6EE7AC9B676BB4C2D426EE35025649046A12FC532C05CFBC3FA81FEE9FF60EC8600268F4617BA60634C71A7030C65212FEC7BF13FE8DEDFBD7847BAE69
310
1F852DB64E86BA4F6B4C71FD3DFF9422E5467B79A13F183B7DE6D32A41A32F0F79EFEB44C47CB7F2D2D0F306941F504B0304140006080800C280875106DA84F07F000000A30000000B0000006662782F636E782E786D6C4D8CD10E822018465F85FDF714941A6D82C309EFE1121D13A191B41E3F685E74F56D67DF396DF7D9
310
1C7A9BF8B2C173A02702C8F84798AC5F38A47DC60C5027DA18C2FE7703E4C7CD70281844BBC4909E079ACC3C2657A8B37E3D60CF28ADAE03C5E4D6D4B8BA1089A5661A0F4ADD15A965AF65938D7351F2FC7A794B5E7C01504B0304140006080800C2808751A6D797065F0000008200000007000000636E782E786D6C4DCB3B
310
0E80201045D1AD90E9FD7516806B51190811670C8A61F982B1B0BAC9C97B72CA7B1037C6D3332918DA1E04D2CAC69353902EDB8C20262D23F3F59B81A079470595414B17391D1F19B4730A5583A7ED43BBE4025D9592775E5ADFFA01504B0304140006080800C2808751ECFD112DA800000026010000130000005B436F6E74
310
656E745F54797065735D2E786D6C7D4F4B0EC22010BD0A61DF525D18634ABB506FE00510A79458060253536F2FD89D5197F3FED3F68B9BD80362B21E25DFD40D6780DADF2C1AC9671AAA3D677DD75E9E0112CB5A4C928F44E12044D22338956A1F003333F8E814E5331A1194BE2B0362DB343BA13D122055543278D79E6050
310
F344ECBC6478EDCD76CE8EABAE5449AE4298AC56946789C28AAFBEABC53F3EAF09A84A1441B91F0101CD4780756578C173A578FFDDBD00504B0304140006080800C28087513DEE336E64000000790000001B0000006175746F6465736B2D64657369676E2D7061636B6167652E786D6C35CBC10E83200C00D05F21DCA56CA7
310
6D41FC96062B120735B69A7DBE268BB7777961F8D5AF396893C2ADB70FE7ADA196782C2DF776D7A97B5933C430F15651E5469C55D70F80A4992A3ADC954792C525AE70A1E4D6AD9816CC044FEFDF01FE3FDE907802504B0304140006080800C2808751EED5D39AF30000008E0100003D0000006662782F4238313134334431
310
2D303736352D343230412D414638462D4445453945303541424641362F7265736F75726365732F322F636F72652E786D6C8550CB6EC32010FC156BEFD86013B78E30519AA65FD0536F08888B1283C523EAE71762576A4F9556DAD53033CB0E3B7CCDB7EAAE7D30CE8E406A0C95B6D22963A71152BCA067A80E9C79E7E22F1A
310
5456CC7A84020367937769D920E96CD4B6A0D629BD8122041DA192B73C8C10E4A79E452D52CC8C70AD1721AF62D235A9571E672919B5498DCA6EE662B4073E9C7B8A091DD091F61DA28450F4427714BDD2EE3CF4C3E9ED487AD6143167D1CC3FDBA5D7226A05BCC52D46A445F8E99DF47B9C6BF7C19AC2E42C449F6FDE9696
310
EB329D352BFAC72D2DEA7FB7646CECDACD6D5504E0247FEEF1C05953D2C9ED115DEE2549FE0D504B0304140006080800C2808751BB5AF214F8000000960100003B0000006662782F42383131343344312D303736352D343230412D414638462D4445453945303541424641362F7265736F75726365732F636F72652E786D6C
310
8550CB6EC32010FC156BEFD86013B78E3051DAA65FD0536F086F5C94182C1E553FBF90B8527BAA84B46876667677C4E16BB9569FE8837176045653A8D06A37193B8F90E2993C427590C23B177FD1A0B26AC1110A0C52CCDEA57583B4B3116D41AD9B7003550818A1D2D7FC1921E80F5C54AD52CC8C70A957A52F6AC69AD577
310
9E14299969939A29BB99B3410F7238F59C323E9023EF3BC219E3E489EF3879E1DD69E887E7D723EB4553C45244B3FC4CD71E55C409644B5B4A584BE8C31BEBF734BFDDBB680A538A107DBE791B5AAE03E931B8E43506D1DCBB7F5CD33AFDEF9A8C8D5DBBB9DE150124CB4BDE1A523425A55C6E11E65A1295DF504B03041400
310
06080800C2808751F46408F4F2000000B1010000310000006662782F42383131343344312D303736352D343230412D414638462D4445453945303541424641362F636F72652E786D6C8D504B6EC32014BC8AF5F6D8E0C4AE5B612247B14FD0557708888B1283C5A7EAF10BB12BB5BB48480F0D33CCBCA1A7EFE55E7C29E7B5
310
353D901243A18CB0529BB98718AEA883E2C4A8B336FCA14161F8A27AC830303A3B1BD71D12D60465326AAC543BC8BD57010A714F971EBCF8540B2F790C89E16FE5CAC58DCFAA24E5C66334E8E5572A9CE241496035AE312235C22FEFA47DC3E9341FB4CA4C4663D472B7D232B9EBAB560ED8B923E478B890A4691B74ACF180
310
86A99BD0651C5F47DC0CE769686995C58CFAE0D2CEFB2779BB67E59BF05FE6B8CA27326B130EF56EB8293C3092F23C1E18AD7281693CDA4D3397CD7E00504B0304140006080800C2808751BD65CABA53010000DD0200000C0000006662782F636F72652E786D6C8D52CB6E833010FC15E43B0F138736957194B6E917F4D49B
310
631C6A056C646C94CFEF9A8728873E04C2D6ECCEECCE087ABCB74D3448DB2BA34B84930C45520B53295D97C8BB6BFC88A223A3D618F7AD0D459AB7B24401468CD6D6F86E8684D14EEA806A53C919E47D2F1D8A44039712F5E253B63CE1DE41477F4B3A2E6EBC96094EA63E46BD57D54C5515A8A9AB9216B1C3B920192687F8
310
448A5D4C3026F133D993F895ECCE87E2F0F276C2054D039951A7DA65BAB0923B592196677916E33CCE1EDE71F194C1BBFFA069E864B477163CCF43833BC4AE973B4D277CA3E7BBEA6F3DAFB4DBE5B3DEC4E811C3B0DE5860340DF9C03186B7CD1006437E8E5F9AC5C20DA0410A672C814A65FC5A1A78E3254867D1F8D074AA
310
82F228F0934EFE8BCEEF1A1014D735ACC61D5C2FDE85E9DB9D3A69E3C1DD236D6CCB9B75B969C5F5BB0EDA585AE8C234C6FE87BD585DC24CC38FC9BE00504B0304140006080800C280875104105CE307010000B201000008000000636F72652E786D6C8D50D14EC42010FC15B2EFB4D072D51ACAE5D4F30B7CF20D81ABE45A
310
680ABDE8DF0B7798E89B09C99299D99DD9E5FBCF794217B306EBDD00B422808C535E5B370EB0C513BE07B4177CF53EFE9201727236036418041F57BF2D0552DE45E332EABC360594219808484DE93340501F669695DC62528473B5487596A3A96875D3091EEDFCD3AA5623A3D1201AD2104C1B4CEE5E69F740D2DBBDF13A2B
310
05DF36AB8B95D5C9DD9EAC5941F4C78E11CA7A7C605D8B19A50C3FB21DC3CFAC3DF65DFFF472A01DAF73B3E021AE69E73224E58C28C84BF6E5F58D12FCDDFBA90852288DBC9BBE40105E67E24FE86DD1FF086D5D6C9B32F0D61140D014E84A24E37CC154AEE74D355F5B7C03504B01021400140006080800C2808751000000
310
0000000000000000003700000000000000000000000000000000006662782F42383131343344312D303736352D343230412D414638462D4445453945303541424641362F617474726962757465732E62696E504B01021400140006080800C28087510000000000000000000000003500000000000000000000000000550000
310
006662782F42383131343344312D303736352D343230412D414638462D4445453945303541424641362F76657274696365732E62696E504B01021400140006080800C2808751F270F13306000000040000003600000000000000000000000000A80000006662782F42383131343344312D303736352D343230412D41463846
310
2D4445453945303541424641362F747269616E676C65732E62696E504B01021400140006080800C280875188E57597CD3F0000904100004200000000000000000000000000020100006662782F42383131343344312D303736352D343230412D414638462D4445453945303541424641362F7265736F75726365732F322F30
310
5F67656E657269632E706E67504B01021400140006080800C280875151464CB4890000004301000036000000000000000000000000002F4100006662782F42383131343344312D303736352D343230412D414638462D4445453945303541424641362F6469726563746F72792E786D6C504B01021400140006080800C28087
310
51D54CC3473E070000211C000034000000000000000000000000000C4200006662782F42383131343344312D303736352D343230412D414638462D4445453945303541424641362F6F626A656374732E786D6C504B01021400140006080800C28087516E19D7B9DD000000530100003C000000000000000000000000009C49
310
00006662782F42383131343344312D303736352D343230412D414638462D4445453945303541424641362F7265736F75726365732F322F636E782E786D6C504B01021400140006080800C2808751FF15A4A45D000000800000003A00000000000000000000000000D34A00006662782F42383131343344312D303736352D34
310
3230412D414638462D4445453945303541424641362F7265736F75726365732F636E782E786D6C504B01021400140006080800C2808751D5BBF20C3D010000460500003000000000000000000000000000884B00006662782F42383131343344312D303736352D343230412D414638462D4445453945303541424641362F63
310
6E782E786D6C504B01021400140006080800C280875106DA84F07F000000A30000000B00000000000000000000000000134D00006662782F636E782E786D6C504B01021400140006080800C2808751A6D797065F000000820000000700000000000000000000000000BB4D0000636E782E786D6C504B010214001400060808
310
00C2808751ECFD112DA80000002601000013000000000000000000000000003F4E00005B436F6E74656E745F54797065735D2E786D6C504B01021400140006080800C28087513DEE336E64000000790000001B00000000000000000000000000184F00006175746F6465736B2D64657369676E2D7061636B6167652E786D6C
310
504B01021400140006080800C2808751EED5D39AF30000008E0100003D00000000000000000000000000B54F00006662782F42383131343344312D303736352D343230412D414638462D4445453945303541424641362F7265736F75726365732F322F636F72652E786D6C504B01021400140006080800C2808751BB5AF214
310
F8000000960100003B00000000000000000000000000035100006662782F42383131343344312D303736352D343230412D414638462D4445453945303541424641362F7265736F75726365732F636F72652E786D6C504B01021400140006080800C2808751F46408F4F2000000B10100003100000000000000000000000000
310
545200006662782F42383131343344312D303736352D343230412D414638462D4445453945303541424641362F636F72652E786D6C504B01021400140006080800C2808751BD65CABA53010000DD0200000C00000000000000000000000000955300006662782F636F72652E786D6C504B01021400140006080800C2808751
310
04105CE307010000B2010000080000000000000000000000000012550000636F72652E786D6C504B050600000000120012002D0600003F5600000000
  0
XRECORD
  5
17
102
{ACAD_REACTORS
330
12
102
}
330
12
100
AcDbXrecord
280
     1
270
     1
271
     1
  0
XRECORD
  5
16
102
{ACAD_REACTORS
330
12
102
}
330
12
100
AcDbXrecord
280
     1
270
     1
271
     1
  0
XRECORD
  5
18
102
{ACAD_REACTORS
330
12
102
}
330
12
100
AcDbXrecord
280
     1
270
     1
271
     1
  0
XRECORD
  5
15
102
{ACAD_REACTORS
330
12
102
}
330
12
100
AcDbXrecord
280
     1
270
     1
271
     1
  0
XRECORD
  5
24
102
{ACAD_REACTORS
330
22
102
}
330
22
100
AcDbXrecord
280
     1
270
     1
271
     1
  0
XRECORD
  5
23
102
{ACAD_REACTORS
330
22
102
}
330
22
100
AcDbXrecord
280
     1
270
     1
271
     1
  0
XRECORD
  5
27
102
{ACAD_REACTORS
330
22
102
}
330
22
100
AcDbXrecord
280
     1
270
     1
271
     1
  0
XRECORD
  5
26
102
{ACAD_REACTORS
330
22
102
}
330
22
100
AcDbXrecord
280
     1
270
     1
271
     1
  0
XRECORD
  5
28
102
{ACAD_REACTORS
330
22
102
}
330
22
100
AcDbXrecord
280
     1
270
     1
271
     1
  0
XRECORD
  5
25
102
{ACAD_REACTORS
330
22
102
}
330
22
100
AcDbXrecord
280
     1
270
     1
271
     1
  0
XRECORD
  5
322
102
{ACAD_REACTORS
330
321
102
}
330
321
100
AcDbXrecord
280
     1
102
DISPLAYNAME
  1
Imperial24
102
FLAGS
 90
        0
  0
CELLSTYLEMAP
  5
320
102
{ACAD_REACTORS
330
31F
102
}
330
31F
100
AcDbCellStyleMap
 90
        3
300
CELLSTYLE
  1
TABLEFORMAT_BEGIN
 90
        5
170
     1
 91
        0
 92
    32768
 62
   257
 93
        1
300
CONTENTFORMAT
  1
CONTENTFORMAT_BEGIN
 90
        0
 91
        0
 92
      512
 93
        0
300

 40
0.0
140
1.0
 94
        5
 62
     0
340
55
144
0.25
309
CONTENTFORMAT_END
171
     0
 94
        0
309
TABLEFORMAT_END
  1
CELLSTYLE_BEGIN
 90
        1
 91
        1
300
_TITLE
309
CELLSTYLE_END
300
CELLSTYLE
  1
TABLEFORMAT_BEGIN
 90
        5
170
     1
 91
        0
 92
        0
 62
   257
 93
        1
300
CONTENTFORMAT
  1
CONTENTFORMAT_BEGIN
 90
        0
 91
        0
 92
      512
 93
        0
300

 40
0.0
140
1.0
 94
        5
 62
     0
340
55
144
0.18
309
CONTENTFORMAT_END
171
     0
 94
        0
309
TABLEFORMAT_END
  1
CELLSTYLE_BEGIN
 90
        2
 91
        1
300
_HEADER
309
CELLSTYLE_END
300
CELLSTYLE
  1
TABLEFORMAT_BEGIN
 90
        5
170
     1
 91
        0
 92
        0
 62
   257
 93
        1
300
CONTENTFORMAT
  1
CONTENTFORMAT_BEGIN
 90
        0
 91
        0
 92
      512
 93
        0
300

 40
0.0
140
1.0
 94
        2
 62
     0
340
55
144
0.18
309
CONTENTFORMAT_END
171
     0
 94
        0
309
TABLEFORMAT_END
  1
CELLSTYLE_BEGIN
 90
        3
 91
        2
300
_DATA
309
CELLSTYLE_END
  0
ENDSEC
  0
EOF
