  0
SECTION
  2
HEADER
  9
$ACADVER
  1
AC1027
  9
$ACADMAINTVER
 70
    81
  9
$DWGCODEPAGE
  3
ANSI_932
  9
$AUTHOR
  1
水田
  9
$REVISIONNUMBER
  1
A
  9
$CUSTOMPROPERTYTAG
  1
マネージャ
  9
$CUSTOMPROPERTY
  1

  9
$CUSTOMPROPERTYTAG
  1
会社
  9
$CUSTOMPROPERTY
  1

  9
$CUSTOMPROPERTYTAG
  1
カテゴリ
  9
$CUSTOMPROPERTY
  1

  9
$CUSTOMPROPERTYTAG
  1
部品番号
  9
$CUSTOMPROPERTY
  1
DXF用
  9
$CUSTOMPROPERTYTAG
  1
説明
  9
$CUSTOMPROPERTY
  1

  9
$CUSTOMPROPERTYTAG
  1
プロジェクト
  9
$CUSTOMPROPERTY
  1

  9
$CUSTOMPROPERTYTAG
  1
設計者
  9
$CUSTOMPROPERTY
  1
水田
  9
$CUSTOMPROPERTYTAG
  1
エンジニア
  9
$CUSTOMPROPERTY
  1

  9
$CUSTOMPROPERTYTAG
  1
責任者
  9
$CUSTOMPROPERTY
  1
mizuta
  9
$CUSTOMPROPERTYTAG
  1
コスト センター
  9
$CUSTOMPROPERTY
  1

  9
$CUSTOMPROPERTYTAG
  1
原価
  9
$CUSTOMPROPERTY
  1

  9
$CUSTOMPROPERTYTAG
  1
ベンダー
  9
$CUSTOMPROPERTY
  1

  9
$CUSTOMPROPERTYTAG
  1
ユーザ ステータス
  9
$CUSTOMPROPERTY
  1

  9
$CUSTOMPROPERTYTAG
  1
設計ステータス
  9
$CUSTOMPROPERTY
  1
作業中
  9
$CUSTOMPROPERTYTAG
  1
確認者
  9
$CUSTOMPROPERTY
  1
mizuta
  9
$CUSTOMPROPERTYTAG
  1
エンジニアリング承認者
  9
$CUSTOMPROPERTY
  1

  9
$CUSTOMPROPERTYTAG
  1
製造承認者
  9
$CUSTOMPROPERTY
  1

  9
$CUSTOMPROPERTYTAG
  1
作成日
  9
$CUSTOMPROPERTY
  1
03/17/2014
  9
$CUSTOMPROPERTYTAG
  1
ストック番号
  9
$CUSTOMPROPERTY
  1

  9
$REQUIREDVERSIONS
160
                 0
  9
$INSBASE
 10
0.0
 20
0.0
 30
0.0
  9
$EXTMIN
 10
0.0
 20
0.0
 30
0.0
  9
$EXTMAX
 10
297.0
 20
210.0
 30
0.0
  9
$LIMMIN
 10
0.0
 20
0.0
  9
$LIMMAX
 10
297.0
 20
210.0
  9
$ORTHOMODE
 70
     0
  9
$REGENMODE
 70
     1
  9
$FILLMODE
 70
     1
  9
$QTEXTMODE
 70
     0
  9
$MIRRTEXT
 70
     0
  9
$LTSCALE
 40
1.0
  9
$ATTMODE
 70
     1
  9
$TEXTSIZE
 40
0.2
  9
$TRACEWID
 40
0.05
  9
$TEXTSTYLE
  7
Standard
  9
$CLAYER
  8
0
  9
$CELTYPE
  6
ByLayer
  9
$CECOLOR
 62
   256
  9
$CELTSCALE
 40
1.0
  9
$DISPSILH
 70
     0
  9
$DIMSCALE
 40
1.0
  9
$DIMASZ
 40
1.799999999999999
  9
$DIMEXO
 40
0.0625
  9
$DIMDLI
 40
0.38
  9
$DIMRND
 40
0.0
  9
$DIMDLE
 40
0.0
  9
$DIMEXE
 40
0.18
  9
$DIMTP
 40
0.0
  9
$DIMTM
 40
0.0
  9
$DIMTXT
 40
0.25
  9
$DIMCEN
 40
0.09
  9
$DIMTSZ
 40
0.0
  9
$DIMTOL
 70
     0
  9
$DIMLIM
 70
     0
  9
$DIMTIH
 70
     1
  9
$DIMTOH
 70
     1
  9
$DIMSE1
 70
     0
  9
$DIMSE2
 70
     0
  9
$DIMTAD
 70
     0
  9
$DIMZIN
 70
     0
  9
$DIMBLK
  1

  9
$DIMASO
 70
     1
  9
$DIMSHO
 70
     1
  9
$DIMPOST
  1

  9
$DIMAPOST
  1

  9
$DIMALT
 70
     0
  9
$DIMALTD
 70
     2
  9
$DIMALTF
 40
25.4
  9
$DIMLFAC
 40
1.0
  9
$DIMTOFL
 70
     0
  9
$DIMTVP
 40
0.0
  9
$DIMTIX
 70
     0
  9
$DIMSOXD
 70
     0
  9
$DIMSAH
 70
     0
  9
$DIMBLK1
  1

  9
$DIMBLK2
  1

  9
$DIMSTYLE
  2
Standard
  9
$DIMCLRD
 70
     0
  9
$DIMCLRE
 70
     0
  9
$DIMCLRT
 70
     0
  9
$DIMTFAC
 40
1.0
  9
$DIMGAP
 40
0.09
  9
$DIMJUST
 70
     0
  9
$DIMSD1
 70
     0
  9
$DIMSD2
 70
     0
  9
$DIMTOLJ
 70
     1
  9
$DIMTZIN
 70
     0
  9
$DIMALTZ
 70
     0
  9
$DIMALTTZ
 70
     0
  9
$DIMUPT
 70
     0
  9
$DIMDEC
 70
     4
  9
$DIMTDEC
 70
     4
  9
$DIMALTU
 70
     2
  9
$DIMALTTD
 70
     2
  9
$DIMTXSTY
  7
Standard
  9
$DIMAUNIT
 70
     0
  9
$DIMADEC
 70
     0
  9
$DIMALTRND
 40
0.0
  9
$DIMAZIN
 70
     0
  9
$DIMDSEP
 70
    46
  9
$DIMATFIT
 70
     3
  9
$DIMFRAC
 70
     0
  9
$DIMLDRBLK
  1

  9
$DIMLUNIT
 70
     2
  9
$DIMLWD
 70
    -2
  9
$DIMLWE
 70
    -2
  9
$DIMTMOVE
 70
     0
  9
$DIMFXL
 40
1.0
  9
$DIMFXLON
 70
     0
  9
$DIMJOGANG
 40
0.7853981633974483
  9
$DIMTFILL
 70
     0
  9
$DIMTFILLCLR
 70
     0
  9
$DIMARCSYM
 70
     0
  9
$DIMLTYPE
  6

  9
$DIMLTEX1
  6

  9
$DIMLTEX2
  6

  9
$DIMTXTDIRECTION
 70
     0
  9
$LUNITS
 70
     2
  9
$LUPREC
 70
     4
  9
$SKETCHINC
 40
0.1
  9
$FILLETRAD
 40
0.0
  9
$AUNITS
 70
     0
  9
$AUPREC
 70
     0
  9
$MENU
  1
.
  9
$ELEVATION
 40
0.0
  9
$PELEVATION
 40
0.0
  9
$THICKNESS
 40
0.0
  9
$LIMCHECK
 70
     0
  9
$CHAMFERA
 40
0.0
  9
$CHAMFERB
 40
0.0
  9
$CHAMFERC
 40
0.0
  9
$CHAMFERD
 40
0.0
  9
$SKPOLY
 70
     0
  9
$TDCREATE
 40
2459191.669038935
  9
$TDUCREATE
 40
2459191.294038935
  9
$TDUPDATE
 40
2459191.669038935
  9
$TDUUPDATE
 40
2459191.294038935
  9
$TDINDWG
 40
0.0000291667
  9
$TDUSRTIMER
 40
0.0000291667
  9
$USRTIMER
 70
     1
  9
$ANGBASE
 50
0.0
  9
$ANGDIR
 70
     0
  9
$PDMODE
 70
     0
  9
$PDSIZE
 40
0.0
  9
$PLINEWID
 40
0.0
  9
$SPLFRAME
 70
     0
  9
$SPLINETYPE
 70
     6
  9
$SPLINESEGS
 70
     8
  9
$HANDSEED
  5
328
  9
$SURFTAB1
 70
     6
  9
$SURFTAB2
 70
     6
  9
$SURFTYPE
 70
     6
  9
$SURFU
 70
     6
  9
$SURFV
 70
     6
  9
$UCSBASE
  2

  9
$UCSNAME
  2

  9
$UCSORG
 10
0.0
 20
0.0
 30
0.0
  9
$UCSXDIR
 10
1.0
 20
0.0
 30
0.0
  9
$UCSYDIR
 10
0.0
 20
1.0
 30
0.0
  9
$UCSORTHOREF
  2

  9
$UCSORTHOVIEW
 70
     0
  9
$UCSORGTOP
 10
0.0
 20
0.0
 30
0.0
  9
$UCSORGBOTTOM
 10
0.0
 20
0.0
 30
0.0
  9
$UCSORGLEFT
 10
0.0
 20
0.0
 30
0.0
  9
$UCSORGRIGHT
 10
0.0
 20
0.0
 30
0.0
  9
$UCSORGFRONT
 10
0.0
 20
0.0
 30
0.0
  9
$UCSORGBACK
 10
0.0
 20
0.0
 30
0.0
  9
$PUCSBASE
  2

  9
$PUCSNAME
  2

  9
$PUCSORG
 10
0.0
 20
0.0
 30
0.0
  9
$PUCSXDIR
 10
1.0
 20
0.0
 30
0.0
  9
$PUCSYDIR
 10
0.0
 20
1.0
 30
0.0
  9
$PUCSORTHOREF
  2

  9
$PUCSORTHOVIEW
 70
     0
  9
$PUCSORGTOP
 10
0.0
 20
0.0
 30
0.0
  9
$PUCSORGBOTTOM
 10
0.0
 20
0.0
 30
0.0
  9
$PUCSORGLEFT
 10
0.0
 20
0.0
 30
0.0
  9
$PUCSORGRIGHT
 10
0.0
 20
0.0
 30
0.0
  9
$PUCSORGFRONT
 10
0.0
 20
0.0
 30
0.0
  9
$PUCSORGBACK
 10
0.0
 20
0.0
 30
0.0
  9
$USERI1
 70
     0
  9
$USERI2
 70
     0
  9
$USERI3
 70
     0
  9
$USERI4
 70
     0
  9
$USERI5
 70
     0
  9
$USERR1
 40
0.0
  9
$USERR2
 40
0.0
  9
$USERR3
 40
0.0
  9
$USERR4
 40
0.0
  9
$USERR5
 40
0.0
  9
$WORLDVIEW
 70
     1
  9
$SHADEDGE
 70
     3
  9
$SHADEDIF
 70
    70
  9
$TILEMODE
 70
     1
  9
$MAXACTVP
 70
    64
  9
$PINSBASE
 10
0.0
 20
0.0
 30
0.0
  9
$PLIMCHECK
 70
     0
  9
$PEXTMIN
 10
0.0
 20
0.0
 30
0.0
  9
$PEXTMAX
 10
297.0
 20
210.0
 30
0.0
  9
$PLIMMIN
 10
0.0
 20
0.0
  9
$PLIMMAX
 10
297.0
 20
210.0
  9
$UNITMODE
 70
     0
  9
$VISRETAIN
 70
     1
  9
$PLINEGEN
 70
     0
  9
$PSLTSCALE
 70
     1
  9
$TREEDEPTH
 70
  3020
  9
$CMLSTYLE
  2
Standard
  9
$CMLJUST
 70
     0
  9
$CMLSCALE
 40
1.0
  9
$PROXYGRAPHICS
 70
     1
  9
$MEASUREMENT
 70
     1
  9
$CELWEIGHT
370
    -1
  9
$ENDCAPS
280
     0
  9
$JOINSTYLE
280
     0
  9
$LWDISPLAY
290
     0
  9
$INSUNITS
 70
     4
  9
$HYPERLINKBASE
  1

  9
$STYLESHEET
  1

  9
$XEDIT
290
     1
  9
$CEPSNTYPE
380
     0
  9
$PSTYLEMODE
290
     1
  9
$FINGERPRINTGUID
  2
{28EADF27-FD86-4535-8ECC-ED2E0F82507E}
  9
$VERSIONGUID
  2
{B3A55991-9B12-4ADF-A0C4-B54D8A03B72F}
  9
$EXTNAMES
290
     1
  9
$PSVPSCALE
 40
0.0
  9
$OLESTARTUP
290
     0
  9
$SORTENTS
280
   127
  9
$INDEXCTL
280
     0
  9
$HIDETEXT
280
     1
  9
$XCLIPFRAME
280
     2
  9
$HALOGAP
280
     0
  9
$OBSCOLOR
 70
   257
  9
$OBSLTYPE
280
     0
  9
$INTERSECTIONDISPLAY
280
     0
  9
$INTERSECTIONCOLOR
 70
   257
  9
$DIMASSOC
280
     1
  9
$PROJECTNAME
  1

  9
$CAMERADISPLAY
290
     0
  9
$LENSLENGTH
 40
50.0
  9
$CAMERAHEIGHT
 40
0.0
  9
$STEPSPERSEC
 40
2.0
  9
$STEPSIZE
 40
6.0
  9
$3DDWFPREC
 40
2.0
  9
$PSOLWIDTH
 40
0.25
  9
$PSOLHEIGHT
 40
4.0
  9
$LOFTANG1
 40
1.570796326794896
  9
$LOFTANG2
 40
1.570796326794896
  9
$LOFTMAG1
 40
0.0
  9
$LOFTMAG2
 40
0.0
  9
$LOFTPARAM
 70
     7
  9
$LOFTNORMALS
280
     1
  9
$LATITUDE
 40
37.795
  9
$LONGITUDE
 40
-122.394
  9
$NORTHDIRECTION
 40
0.0
  9
$TIMEZONE
 70
 -8000
  9
$LIGHTGLYPHDISPLAY
280
     1
  9
$TILEMODELIGHTSYNCH
280
     1
  9
$CMATERIAL
347
11
  9
$SOLIDHIST
280
     0
  9
$SHOWHIST
280
     1
  9
$DWFFRAME
280
     2
  9
$DGNFRAME
280
     0
  9
$REALWORLDSCALE
290
     1
  9
$INTERFERECOLOR
 62
     1
  9
$INTERFEREOBJVS
345
33
  9
$INTERFEREVPVS
346
30
  9
$CSHADOW
280
     0
  9
$SHADOWPLANELOCATION
 40
0.0
  0
ENDSEC
  0
SECTION
  2
CLASSES
  0
CLASS
  1
ACDBDICTIONARYWDFLT
  2
AcDbDictionaryWithDefault
  3
ObjectDBX Classes
 90
        0
 91
        1
280
     0
281
     0
  0
CLASS
  1
MATERIAL
  2
AcDbMaterial
  3
ObjectDBX Classes
 90
     1153
 91
        3
280
     0
281
     0
  0
CLASS
  1
VISUALSTYLE
  2
AcDbVisualStyle
  3
ObjectDBX Classes
 90
     4095
 91
       24
280
     0
281
     0
  0
CLASS
  1
SCALE
  2
AcDbScale
  3
ObjectDBX Classes
 90
     1153
 91
       17
280
     0
281
     0
  0
CLASS
  1
TABLESTYLE
  2
AcDbTableStyle
  3
ObjectDBX Classes
 90
     4095
 91
        1
280
     0
281
     0
  0
CLASS
  1
MLEADERSTYLE
  2
AcDbMLeaderStyle
  3
ACDB_MLEADERSTYLE_CLASS
 90
     4095
 91
        1
280
     0
281
     0
  0
CLASS
  1
ACDBSECTIONVIEWSTYLE
  2
AcDbSectionViewStyle
  3
ObjectDBX Classes
 90
     1025
 91
        1
280
     0
281
     0
  0
CLASS
  1
ACDBDETAILVIEWSTYLE
  2
AcDbDetailViewStyle
  3
ObjectDBX Classes
 90
     1025
 91
        1
280
     0
281
     0
  0
CLASS
  1
DICTIONARYVAR
  2
AcDbDictionaryVar
  3
ObjectDBX Classes
 90
        0
 91
        5
280
     0
281
     0
  0
CLASS
  1
CELLSTYLEMAP
  2
AcDbCellStyleMap
  3
ObjectDBX Classes
 90
     1152
 91
        1
280
     0
281
     0
  0
ENDSEC
  0
SECTION
  2
TABLES
  0
TABLE
  2
VPORT
  5
8
330
0
100
AcDbSymbolTable
 70
     1
  0
VPORT
  5
57
330
8
100
AcDbSymbolTableRecord
100
AcDbViewportTableRecord
  2
*Active
 70
     0
 10
0.0
 20
0.0
 11
1.0
 21
1.0
 12
148.5
 22
105.0
 13
0.0
 23
0.0
 14
1.0
 24
1.0
 15
0.0
 25
0.0
 16
0.0
 26
0.0
 36
1.0
 17
0.0
 27
0.0
 37
0.0
 40
210.0
 41
1.414285714285714
 42
50.0
 43
0.0
 44
0.0
 50
0.0
 51
0.0
 71
     0
 72
   100
 73
     1
 74
     1
 75
     0
 76
     0
 77
     0
 78
     0
281
     0
 65
     1
110
0.0
120
0.0
130
0.0
111
1.0
121
0.0
131
0.0
112
0.0
122
1.0
132
0.0
 79
     0
146
0.0
 60
     3
 61
     5
292
     1
282
     1
141
0.0
142
0.0
 63
   250
421
  3355443
  0
ENDTAB
  0
TABLE
  2
LTYPE
  5
5
330
0
100
AcDbSymbolTable
 70
    58
  0
LTYPE
  5
5B
330
5
100
AcDbSymbolTableRecord
100
AcDbLinetypeTableRecord
  2
ByBlock
 70
     0
  3

 72
    65
 73
     0
 40
0.0
  0
LTYPE
  5
5C
330
5
100
AcDbSymbolTableRecord
100
AcDbLinetypeTableRecord
  2
ByLayer
 70
     0
  3

 72
    65
 73
     0
 40
0.0
  0
LTYPE
  5
5D
330
5
100
AcDbSymbolTableRecord
100
AcDbLinetypeTableRecord
  2
Continuous
 70
     0
  3
Solid line
 72
    65
 73
     0
 40
0.0
  0
LTYPE
  5
78
330
5
100
AcDbSymbolTableRecord
100
AcDbLinetypeTableRecord
  2
CHAIN
 70
     0
  3
Chain ____ _ ____ _ ____ _ ____ _ ____ _ ____
 72
    65
 73
     4
 40
0.3543
 49
0.2362
 74
     0
 49
-0.0295
 74
     0
 49
0.0591
 74
     0
 49
-0.0295
 74
     0
  0
LTYPE
  5
79
330
5
100
AcDbSymbolTableRecord
100
AcDbLinetypeTableRecord
  2
DASH_DOT
 70
     0
  3
Dash dot __ . __ . __ . __ . __ . __ . __ . __
 72
    65
 73
     4
 40
0.37
 49
0.24
 74
     0
 49
-0.06
 74
     0
 49
0.01
 74
     0
 49
-0.06
 74
     0
  0
LTYPE
  5
7A
330
5
100
AcDbSymbolTableRecord
100
AcDbLinetypeTableRecord
  2
DASH_DOUBLE_DOT
 70
     0
  3
Dash Double-Dot __ . . __ . . __ . . __ . .
 72
    65
 73
     6
 40
0.4398
 49
0.24
 74
     0
 49
-0.06
 74
     0
 49
0.0098
 74
     0
 49
-0.06
 74
     0
 49
0.01
 74
     0
 49
-0.06
 74
     0
  0
LTYPE
  5
7B
330
5
100
AcDbSymbolTableRecord
100
AcDbLinetypeTableRecord
  2
DASH_TRIPLE_DOT
 70
     0
  3
Dash Triple-Dot _ . . . _ . . . _ . . . _
 72
    65
 73
     8
 40
0.51
 49
0.24
 74
     0
 49
-0.06
 74
     0
 49
0.01
 74
     0
 49
-0.06
 74
     0
 49
0.01
 74
     0
 49
-0.06
 74
     0
 49
0.01
 74
     0
 49
-0.06
 74
     0
  0
LTYPE
  5
7C
330
5
100
AcDbSymbolTableRecord
100
AcDbLinetypeTableRecord
  2
DASHED
 70
     0
  3
Dashed __ __ __ __ __ __ __ __ __ __ __ __ __ _
 72
    65
 73
     2
 40
0.2067
 49
0.1654
 74
     0
 49
-0.0413
 74
     0
  0
LTYPE
  5
7D
330
5
100
AcDbSymbolTableRecord
100
AcDbLinetypeTableRecord
  2
DASHED_SPACE
 70
     0
  3
Dashed Space __ __ __ __ __ __ __ __ __ __ __ _
 72
    65
 73
     2
 40
0.0826
 49
0.0413
 74
     0
 49
-0.0413
 74
     0
  0
LTYPE
  5
7E
330
5
100
AcDbSymbolTableRecord
100
AcDbLinetypeTableRecord
  2
DOTTED
 70
     0
  3
Dotted . . . . . . . . . . . . . . . . . . . . 
 72
    65
 73
     2
 40
0.0482
 49
0.0069
 74
     0
 49
-0.0413
 74
     0
  0
LTYPE
  5
7F
330
5
100
AcDbSymbolTableRecord
100
AcDbLinetypeTableRecord
  2
DOUBLE_DASH_CHAIN
 70
     0
  3
Double Dash Chain ___ _ _ ___ _ _ ___ _ _ ___ _
 72
    65
 73
     6
 40
1.240299999999999
 49
0.6614
 74
     0
 49
-0.0827
 74
     0
 49
0.1654
 74
     0
 49
-0.0827
 74
     0
 49
0.1654
 74
     0
 49
-0.0827
 74
     0
  0
LTYPE
  5
80
330
5
100
AcDbSymbolTableRecord
100
AcDbLinetypeTableRecord
  2
DOUBLE_DASH_DOT
 70
     0
  3
Double Dash Dot __ __ . __ __ . __ __ . __ _
 72
    65
 73
     6
 40
0.67
 49
0.24
 74
     0
 49
-0.06
 74
     0
 49
0.24
 74
     0
 49
-0.06
 74
     0
 49
0.01
 74
     0
 49
-0.06
 74
     0
  0
LTYPE
  5
81
330
5
100
AcDbSymbolTableRecord
100
AcDbLinetypeTableRecord
  2
DOUBLE_DASH_DOUBLE_DOT
 70
     0
  3
Double-dash double-dot _ _ . . _ _ . . _
 72
    65
 73
     8
 40
0.7400000000000001
 49
0.24
 74
     0
 49
-0.06
 74
     0
 49
0.24
 74
     0
 49
-0.06
 74
     0
 49
0.01
 74
     0
 49
-0.06
 74
     0
 49
0.01
 74
     0
 49
-0.06
 74
     0
  0
LTYPE
  5
82
330
5
100
AcDbSymbolTableRecord
100
AcDbLinetypeTableRecord
  2
DOUBLE_DASH_TRIPLE_DOT
 70
     0
  3
Double Dash Triple Dot __ __ . . . __ __ . . .
 72
    65
 73
    10
 40
0.8100000000000001
 49
0.24
 74
     0
 49
-0.06
 74
     0
 49
0.24
 74
     0
 49
-0.06
 74
     0
 49
0.01
 74
     0
 49
-0.06
 74
     0
 49
0.01
 74
     0
 49
-0.06
 74
     0
 49
0.01
 74
     0
 49
-0.06
 74
     0
  0
LTYPE
  5
83
330
5
100
AcDbSymbolTableRecord
100
AcDbLinetypeTableRecord
  2
LONG_DASH_DOTTED
 70
     0
  3
Long Dash Dotted ____ . ____ . ____ . ____ . _
 72
    65
 73
     4
 40
0.61
 49
0.48
 74
     0
 49
-0.06
 74
     0
 49
0.01
 74
     0
 49
-0.06
 74
     0
  0
LTYPE
  5
84
330
5
100
AcDbSymbolTableRecord
100
AcDbLinetypeTableRecord
  2
LONG_DASH_DOUBLE_DOT
 70
     0
  3
Long Dash Double Dot ____ . . ____ . . ____ . .
 72
    65
 73
     6
 40
0.3345
 49
0.2362
 74
     0
 49
-0.0295
 74
     0
 49
0.0049
 74
     0
 49
-0.0295
 74
     0
 49
0.0049
 74
     0
 49
-0.0295
 74
     0
  0
LTYPE
  5
85
330
5
100
AcDbSymbolTableRecord
100
AcDbLinetypeTableRecord
  2
LONG_DASH_TRIPLE_DOT
 70
     0
  3
Long Dash Triple Dot ____ ... ____ ... ____
 72
    65
 73
     8
 40
0.75
 49
0.48
 74
     0
 49
-0.06
 74
     0
 49
0.01
 74
     0
 49
-0.06
 74
     0
 49
0.01
 74
     0
 49
-0.06
 74
     0
 49
0.01
 74
     0
 49
-0.06
 74
     0
  0
LTYPE
  5
86
330
5
100
AcDbSymbolTableRecord
100
AcDbLinetypeTableRecord
  2
BORDER
 70
     0
  3
Border __ __ . __ __ . __ __ . __ __ . __ __ .
 72
    65
 73
     6
 40
44.45
 49
12.7
 74
     0
 49
-6.349999999999999
 74
     0
 49
12.7
 74
     0
 49
-6.349999999999999
 74
     0
 49
0.0
 74
     0
 49
-6.349999999999999
 74
     0
  0
LTYPE
  5
87
330
5
100
AcDbSymbolTableRecord
100
AcDbLinetypeTableRecord
  2
BORDER2
 70
     0
  3
Border (.5x) __.__.__.__.__.__.__.__.__.__.__.
 72
    65
 73
     6
 40
22.225
 49
6.349999999999999
 74
     0
 49
-3.174999999999999
 74
     0
 49
6.349999999999999
 74
     0
 49
-3.174999999999999
 74
     0
 49
0.0
 74
     0
 49
-3.174999999999999
 74
     0
  0
LTYPE
  5
88
330
5
100
AcDbSymbolTableRecord
100
AcDbLinetypeTableRecord
  2
BORDERX2
 70
     0
  3
Border (2x) ____  ____  .  ____  ____  .  ___
 72
    65
 73
     6
 40
88.9
 49
25.4
 74
     0
 49
-12.7
 74
     0
 49
25.4
 74
     0
 49
-12.7
 74
     0
 49
0.0
 74
     0
 49
-12.7
 74
     0
  0
LTYPE
  5
89
330
5
100
AcDbSymbolTableRecord
100
AcDbLinetypeTableRecord
  2
CENTER
 70
     0
  3
Center ____ _ ____ _ ____ _ ____ _ ____ _ ____
 72
    65
 73
     4
 40
50.8
 49
31.75
 74
     0
 49
-6.349999999999999
 74
     0
 49
6.349999999999999
 74
     0
 49
-6.349999999999999
 74
     0
  0
LTYPE
  5
8A
330
5
100
AcDbSymbolTableRecord
100
AcDbLinetypeTableRecord
  2
CENTER2
 70
     0
  3
Center (.5x) ___ _ ___ _ ___ _ ___ _ ___ _ ___
 72
    65
 73
     4
 40
28.575
 49
19.05
 74
     0
 49
-3.174999999999999
 74
     0
 49
3.174999999999999
 74
     0
 49
-3.174999999999999
 74
     0
  0
LTYPE
  5
8B
330
5
100
AcDbSymbolTableRecord
100
AcDbLinetypeTableRecord
  2
CENTERX2
 70
     0
  3
Center (2x) ________  __  ________  __  _____
 72
    65
 73
     4
 40
101.6
 49
63.5
 74
     0
 49
-12.7
 74
     0
 49
12.7
 74
     0
 49
-12.7
 74
     0
  0
LTYPE
  5
8C
330
5
100
AcDbSymbolTableRecord
100
AcDbLinetypeTableRecord
  2
DASHDOT
 70
     0
  3
Dash dot __ . __ . __ . __ . __ . __ . __ . __
 72
    65
 73
     4
 40
25.4
 49
12.7
 74
     0
 49
-6.349999999999999
 74
     0
 49
0.0
 74
     0
 49
-6.349999999999999
 74
     0
  0
LTYPE
  5
8D
330
5
100
AcDbSymbolTableRecord
100
AcDbLinetypeTableRecord
  2
DASHDOT2
 70
     0
  3
Dash dot (.5x) _._._._._._._._._._._._._._._.
 72
    65
 73
     4
 40
12.7
 49
6.349999999999999
 74
     0
 49
-3.174999999999999
 74
     0
 49
0.0
 74
     0
 49
-3.174999999999999
 74
     0
  0
LTYPE
  5
8E
330
5
100
AcDbSymbolTableRecord
100
AcDbLinetypeTableRecord
  2
DASHDOTX2
 70
     0
  3
Dash dot (2x) ____  .  ____  .  ____  .  ___
 72
    65
 73
     4
 40
50.8
 49
25.4
 74
     0
 49
-12.7
 74
     0
 49
0.0
 74
     0
 49
-12.7
 74
     0
  0
LTYPE
  5
8F
330
5
100
AcDbSymbolTableRecord
100
AcDbLinetypeTableRecord
  2
DASHED2
 70
     0
  3
Dashed (.5x) _ _ _ _ _ _ _ _ _ _ _ _ _ _ _ _ _
 72
    65
 73
     2
 40
9.524999999999998
 49
6.349999999999999
 74
     0
 49
-3.174999999999999
 74
     0
  0
LTYPE
  5
90
330
5
100
AcDbSymbolTableRecord
100
AcDbLinetypeTableRecord
  2
DASHEDX2
 70
     0
  3
Dashed (2x) ____  ____  ____  ____  ____  ___
 72
    65
 73
     2
 40
38.1
 49
25.4
 74
     0
 49
-12.7
 74
     0
  0
LTYPE
  5
91
330
5
100
AcDbSymbolTableRecord
100
AcDbLinetypeTableRecord
  2
DIVIDE
 70
     0
  3
Divide ____ . . ____ . . ____ . . ____ . . ____
 72
    65
 73
     6
 40
31.75
 49
12.7
 74
     0
 49
-6.349999999999999
 74
     0
 49
0.0
 74
     0
 49
-6.349999999999999
 74
     0
 49
0.0
 74
     0
 49
-6.349999999999999
 74
     0
  0
LTYPE
  5
92
330
5
100
AcDbSymbolTableRecord
100
AcDbLinetypeTableRecord
  2
DIVIDE2
 70
     0
  3
Divide (.5x) __..__..__..__..__..__..__..__.._
 72
    65
 73
     6
 40
15.875
 49
6.349999999999999
 74
     0
 49
-3.174999999999999
 74
     0
 49
0.0
 74
     0
 49
-3.174999999999999
 74
     0
 49
0.0
 74
     0
 49
-3.174999999999999
 74
     0
  0
LTYPE
  5
93
330
5
100
AcDbSymbolTableRecord
100
AcDbLinetypeTableRecord
  2
DIVIDEX2
 70
     0
  3
Divide (2x) ________  .  .  ________  .  .  _
 72
    65
 73
     6
 40
63.49999999999999
 49
25.4
 74
     0
 49
-12.7
 74
     0
 49
0.0
 74
     0
 49
-12.7
 74
     0
 49
0.0
 74
     0
 49
-12.7
 74
     0
  0
LTYPE
  5
94
330
5
100
AcDbSymbolTableRecord
100
AcDbLinetypeTableRecord
  2
DOT2
 70
     0
  3
Dot (.5x) .....................................
 72
    65
 73
     2
 40
3.174999999999999
 49
0.0
 74
     0
 49
-3.174999999999999
 74
     0
  0
LTYPE
  5
95
330
5
100
AcDbSymbolTableRecord
100
AcDbLinetypeTableRecord
  2
DOTX2
 70
     0
  3
Dot (2x) .  .  .  .  .  .  .  .  .  .  .  .  . 
 72
    65
 73
     2
 40
12.7
 49
0.0
 74
     0
 49
-12.7
 74
     0
  0
LTYPE
  5
96
330
5
100
AcDbSymbolTableRecord
100
AcDbLinetypeTableRecord
  2
HIDDEN
 70
     0
  3
Hidden __ __ __ __ __ __ __ __ __ __ __ __ __ _
 72
    65
 73
     2
 40
9.524999999999998
 49
6.349999999999999
 74
     0
 49
-3.174999999999999
 74
     0
  0
LTYPE
  5
97
330
5
100
AcDbSymbolTableRecord
100
AcDbLinetypeTableRecord
  2
HIDDEN2
 70
     0
  3
Hidden (.5x) _ _ _ _ _ _ _ _ _ _ _ _ _ _ _ _ _
 72
    65
 73
     2
 40
4.762499999999999
 49
3.174999999999999
 74
     0
 49
-1.587499999999999
 74
     0
  0
LTYPE
  5
98
330
5
100
AcDbSymbolTableRecord
100
AcDbLinetypeTableRecord
  2
HIDDENX2
 70
     0
  3
Hidden (2x) ____ ____ ____ ____ ____ ____ ____
 72
    65
 73
     2
 40
19.05
 49
12.7
 74
     0
 49
-6.349999999999999
 74
     0
  0
LTYPE
  5
99
330
5
100
AcDbSymbolTableRecord
100
AcDbLinetypeTableRecord
  2
PHANTOM
 70
     0
  3
Phantom ______  __  __  ______  __  __  ______
 72
    65
 73
     6
 40
63.5
 49
31.75
 74
     0
 49
-6.349999999999999
 74
     0
 49
6.349999999999999
 74
     0
 49
-6.349999999999999
 74
     0
 49
6.349999999999999
 74
     0
 49
-6.349999999999999
 74
     0
  0
LTYPE
  5
9A
330
5
100
AcDbSymbolTableRecord
100
AcDbLinetypeTableRecord
  2
PHANTOM2
 70
     0
  3
Phantom (.5x) ___ _ _ ___ _ _ ___ _ _ ___ _ _
 72
    65
 73
     6
 40
31.75
 49
15.875
 74
     0
 49
-3.174999999999999
 74
     0
 49
3.174999999999999
 74
     0
 49
-3.174999999999999
 74
     0
 49
3.174999999999999
 74
     0
 49
-3.174999999999999
 74
     0
  0
LTYPE
  5
9B
330
5
100
AcDbSymbolTableRecord
100
AcDbLinetypeTableRecord
  2
PHANTOMX2
 70
     0
  3
Phantom (2x) ____________    ____    ____   _
 72
    65
 73
     6
 40
127.0
 49
63.5
 74
     0
 49
-12.7
 74
     0
 49
12.7
 74
     0
 49
-12.7
 74
     0
 49
12.7
 74
     0
 49
-12.7
 74
     0
  0
LTYPE
  5
9C
330
5
100
AcDbSymbolTableRecord
100
AcDbLinetypeTableRecord
  2
ACAD_ISO02W100
 70
     0
  3
ISO dash __ __ __ __ __ __ __ __ __ __ __ __ __
 72
    65
 73
     2
 40
15.0
 49
12.0
 74
     0
 49
-3.0
 74
     0
  0
LTYPE
  5
9D
330
5
100
AcDbSymbolTableRecord
100
AcDbLinetypeTableRecord
  2
ACAD_ISO03W100
 70
     0
  3
ISO dash space __    __    __    __    __    __
 72
    65
 73
     2
 40
30.0
 49
12.0
 74
     0
 49
-18.0
 74
     0
  0
LTYPE
  5
9E
330
5
100
AcDbSymbolTableRecord
100
AcDbLinetypeTableRecord
  2
ACAD_ISO04W100
 70
     0
  3
ISO long-dash dot ____ . ____ . ____ . ____ . _
 72
    65
 73
     4
 40
30.0
 49
24.0
 74
     0
 49
-3.0
 74
     0
 49
0.0
 74
     0
 49
-3.0
 74
     0
  0
LTYPE
  5
9F
330
5
100
AcDbSymbolTableRecord
100
AcDbLinetypeTableRecord
  2
ACAD_ISO05W100
 70
     0
  3
ISO long-dash double-dot ____ .. ____ .. ____ .
 72
    65
 73
     6
 40
33.0
 49
24.0
 74
     0
 49
-3.0
 74
     0
 49
0.0
 74
     0
 49
-3.0
 74
     0
 49
0.0
 74
     0
 49
-3.0
 74
     0
  0
LTYPE
  5
A0
330
5
100
AcDbSymbolTableRecord
100
AcDbLinetypeTableRecord
  2
ACAD_ISO06W100
 70
     0
  3
ISO long-dash triple-dot ____ ... ____ ... ____
 72
    65
 73
     8
 40
36.0
 49
24.0
 74
     0
 49
-3.0
 74
     0
 49
0.0
 74
     0
 49
-3.0
 74
     0
 49
0.0
 74
     0
 49
-3.0
 74
     0
 49
0.0
 74
     0
 49
-3.0
 74
     0
  0
LTYPE
  5
A1
330
5
100
AcDbSymbolTableRecord
100
AcDbLinetypeTableRecord
  2
ACAD_ISO07W100
 70
     0
  3
ISO dot . . . . . . . . . . . . . . . . . . . .
 72
    65
 73
     2
 40
3.0
 49
0.0
 74
     0
 49
-3.0
 74
     0
  0
LTYPE
  5
A2
330
5
100
AcDbSymbolTableRecord
100
AcDbLinetypeTableRecord
  2
ACAD_ISO08W100
 70
     0
  3
ISO long-dash short-dash ____ __ ____ __ ____ _
 72
    65
 73
     4
 40
36.0
 49
24.0
 74
     0
 49
-3.0
 74
     0
 49
6.0
 74
     0
 49
-3.0
 74
     0
  0
LTYPE
  5
A3
330
5
100
AcDbSymbolTableRecord
100
AcDbLinetypeTableRecord
  2
ACAD_ISO09W100
 70
     0
  3
ISO long-dash double-short-dash ____ __ __ ____
 72
    65
 73
     6
 40
45.0
 49
24.0
 74
     0
 49
-3.0
 74
     0
 49
6.0
 74
     0
 49
-3.0
 74
     0
 49
6.0
 74
     0
 49
-3.0
 74
     0
  0
LTYPE
  5
A4
330
5
100
AcDbSymbolTableRecord
100
AcDbLinetypeTableRecord
  2
ACAD_ISO10W100
 70
     0
  3
ISO dash dot __ . __ . __ . __ . __ . __ . __ .
 72
    65
 73
     4
 40
18.0
 49
12.0
 74
     0
 49
-3.0
 74
     0
 49
0.0
 74
     0
 49
-3.0
 74
     0
  0
LTYPE
  5
A5
330
5
100
AcDbSymbolTableRecord
100
AcDbLinetypeTableRecord
  2
ACAD_ISO11W100
 70
     0
  3
ISO double-dash dot __ __ . __ __ . __ __ . __ 
 72
    65
 73
     6
 40
33.0
 49
12.0
 74
     0
 49
-3.0
 74
     0
 49
12.0
 74
     0
 49
-3.0
 74
     0
 49
0.0
 74
     0
 49
-3.0
 74
     0
  0
LTYPE
  5
A6
330
5
100
AcDbSymbolTableRecord
100
AcDbLinetypeTableRecord
  2
ACAD_ISO12W100
 70
     0
  3
ISO dash double-dot __ . . __ . . __ . . __ . .
 72
    65
 73
     6
 40
21.0
 49
12.0
 74
     0
 49
-3.0
 74
     0
 49
0.0
 74
     0
 49
-3.0
 74
     0
 49
0.0
 74
     0
 49
-3.0
 74
     0
  0
LTYPE
  5
A7
330
5
100
AcDbSymbolTableRecord
100
AcDbLinetypeTableRecord
  2
ACAD_ISO13W100
 70
     0
  3
ISO double-dash double-dot __ __ . . __ __ . . 
 72
    65
 73
     8
 40
36.0
 49
12.0
 74
     0
 49
-3.0
 74
     0
 49
12.0
 74
     0
 49
-3.0
 74
     0
 49
0.0
 74
     0
 49
-3.0
 74
     0
 49
0.0
 74
     0
 49
-3.0
 74
     0
  0
LTYPE
  5
A8
330
5
100
AcDbSymbolTableRecord
100
AcDbLinetypeTableRecord
  2
ACAD_ISO14W100
 70
     0
  3
ISO dash triple-dot __ . . . __ . . . __ . . . 
 72
    65
 73
     8
 40
24.0
 49
12.0
 74
     0
 49
-3.0
 74
     0
 49
0.0
 74
     0
 49
-3.0
 74
     0
 49
0.0
 74
     0
 49
-3.0
 74
     0
 49
0.0
 74
     0
 49
-3.0
 74
     0
  0
LTYPE
  5
A9
330
5
100
AcDbSymbolTableRecord
100
AcDbLinetypeTableRecord
  2
ACAD_ISO15W100
 70
     0
  3
ISO double-dash triple-dot __ __ . . . __ __ . 
 72
    65
 73
    10
 40
39.0
 49
12.0
 74
     0
 49
-3.0
 74
     0
 49
12.0
 74
     0
 49
-3.0
 74
     0
 49
0.0
 74
     0
 49
-3.0
 74
     0
 49
0.0
 74
     0
 49
-3.0
 74
     0
 49
0.0
 74
     0
 49
-3.0
 74
     0
  0
LTYPE
  5
AC
330
5
100
AcDbSymbolTableRecord
100
AcDbLinetypeTableRecord
  2
FENCELINE1
 70
     0
  3
Fenceline circle ----0-----0----0-----0----0---
 72
    65
 73
     4
 40
36.83
 49
6.349999999999999
 74
     0
 49
-2.54
 74
     4
 75
   133
340
AB
 46
2.54
 50
0.0
 44
-2.54
 45
0.0
 49
-2.54
 74
     0
 49
25.4
 74
     0
  0
LTYPE
  5
AD
330
5
100
AcDbSymbolTableRecord
100
AcDbLinetypeTableRecord
  2
FENCELINE2
 70
     0
  3
Fenceline square ----[]-----[]----[]-----[]----
 72
    65
 73
     4
 40
36.83
 49
6.349999999999999
 74
     0
 49
-2.54
 74
     4
 75
   132
340
AB
 46
2.54
 50
0.0
 44
-2.54
 45
0.0
 49
-2.54
 74
     0
 49
25.4
 74
     0
  0
LTYPE
  5
AE
330
5
100
AcDbSymbolTableRecord
100
AcDbLinetypeTableRecord
  2
TRACKS
 70
     0
  3
Tracks -|-|-|-|-|-|-|-|-|-|-|-|-|-|-|-|-|-|-|-|
 72
    65
 73
     2
 40
7.62
 49
3.81
 74
     4
 75
   130
340
AB
 46
6.349999999999999
 50
0.0
 44
0.0
 45
0.0
 49
3.81
 74
     0
  0
LTYPE
  5
AF
330
5
100
AcDbSymbolTableRecord
100
AcDbLinetypeTableRecord
  2
BATTING
 70
     0
  3
Batting SSSSSSSSSSSSSSSSSSSSSSSSSSSSSSSSSSSSSSS
 72
    65
 73
     4
 40
10.16254
 49
0.00254
 74
     0
 49
-2.54
 74
     4
 75
   134
340
AB
 46
2.54
 50
0.0
 44
-2.54
 45
0.0
 49
-5.08
 74
     4
 75
   134
340
AB
 46
2.54
 50
180.0
 44
2.54
 45
0.0
 49
-2.54
 74
     0
  0
LTYPE
  5
B0
330
5
100
AcDbSymbolTableRecord
100
AcDbLinetypeTableRecord
  2
HOT_WATER_SUPPLY
 70
     0
  3
Hot water supply ---- HW ---- HW ---- HW ----
 72
    65
 73
     3
 40
22.86
 49
12.7
 74
     0
 49
-5.08
 74
     2
 75
     0
340
55
 46
2.54
 50
0.0
 44
-2.54
 45
-1.27
  9
HW
 49
-5.08
 74
     0
  0
LTYPE
  5
B1
330
5
100
AcDbSymbolTableRecord
100
AcDbLinetypeTableRecord
  2
GAS_LINE
 70
     0
  3
Gas line ----GAS----GAS----GAS----GAS----GAS---
 72
    65
 73
     3
 40
24.13
 49
12.7
 74
     0
 49
-5.08
 74
     2
 75
     0
340
55
 46
2.54
 50
0.0
 44
-2.54
 45
-1.27
  9
GAS
 49
-6.349999999999999
 74
     0
  0
LTYPE
  5
B2
330
5
100
AcDbSymbolTableRecord
100
AcDbLinetypeTableRecord
  2
ZIGZAG
 70
     0
  3
Zig zag /\/\/\/\/\/\/\/\/\/\/\/\/\/\/\/\/\/\/\/
 72
    65
 73
     4
 40
20.32254
 49
0.00254
 74
     0
 49
-5.08
 74
     4
 75
   131
340
AB
 46
5.08
 50
0.0
 44
-5.08
 45
0.0
 49
-10.16
 74
     4
 75
   131
340
AB
 46
5.08
 50
180.0
 44
5.08
 45
0.0
 49
-5.08
 74
     0
  0
ENDTAB
  0
TABLE
  2
LAYER
  5
2
330
0
100
AcDbSymbolTable
 70
    30
  0
LAYER
  5
54
330
2
100
AcDbSymbolTableRecord
100
AcDbLayerTableRecord
  2
0
 70
     0
 62
     7
  6
Continuous
370
    25
390
F
347
21
348
0
  0
LAYER
  5
B3
330
2
100
AcDbSymbolTableRecord
100
AcDbLayerTableRecord
  2
1
 70
     0
 62
     9
420
 12566463
  6
Continuous
370
    25
390
F
347
21
348
0
  0
LAYER
  5
B5
330
2
100
AcDbSymbolTableRecord
100
AcDbLayerTableRecord
  2
6
 70
     0
 62
     2
420
 16776960
  6
Continuous
370
    25
390
F
347
21
348
0
  0
LAYER
  5
B6
330
2
100
AcDbSymbolTableRecord
100
AcDbLayerTableRecord
  2
AM_6
 70
     0
 62
     2
420
 16776960
  6
Continuous
370
    35
390
F
347
21
348
0
  0
LAYER
  5
C6
330
2
100
AcDbSymbolTableRecord
100
AcDbLayerTableRecord
  2
Sketch Geometry (ISO)
 70
     0
 62
     7
  6
Continuous
370
    25
390
F
347
21
348
0
  0
LAYER
  5
C7
330
2
100
AcDbSymbolTableRecord
100
AcDbLayerTableRecord
  2
Symbol (ISO)
 70
     0
 62
     7
  6
Continuous
370
    25
390
F
347
21
348
0
  0
LAYER
  5
CA
330
2
100
AcDbSymbolTableRecord
100
AcDbLayerTableRecord
  2
Visible (ISO)
 70
     0
 62
     7
  6
Continuous
370
    35
390
F
347
21
348
0
  0
ENDTAB
  0
TABLE
  2
STYLE
  5
3
330
0
100
AcDbSymbolTable
 70
    16
  0
STYLE
  5
55
330
3
100
AcDbSymbolTableRecord
100
AcDbTextStyleTableRecord
  2
Standard
 70
     0
 40
0.0
 41
1.0
 50
0.0
 71
     0
 42
0.2
  3
tahoma.ttf
  4

1001
ACAD
1000
Tahoma
1071
      256
  0
STYLE
  5
5A
330
3
100
AcDbSymbolTableRecord
100
AcDbTextStyleTableRecord
  2
Annotative
 70
     0
 40
0.0
 41
1.0
 50
0.0
 71
     0
 42
0.2
  3
txt
  4

1001
AcadAnnotative
1000
AnnotativeData
1002
{
1070
     1
1070
     1
1002
}
  0
STYLE
  5
AB
330
3
100
AcDbSymbolTableRecord
100
AcDbTextStyleTableRecord
  2

 70
     1
 40
0.0
 41
1.0
 50
0.0
 71
     0
 42
0.2
  3
ltypeshp.shx
  4

  0
STYLE
  5
D0
330
3
100
AcDbSymbolTableRecord
100
AcDbTextStyleTableRecord
  2
Label Text (JIS)
 70
     0
 40
0.0
 41
1.0
 50
0.0
 71
     0
 42
0.2
  3

  4

1001
ACAD
1000
MS PGothic
1071
      256
  0
STYLE
  5
D1
330
3
100
AcDbSymbolTableRecord
100
AcDbTextStyleTableRecord
  2
Note Text (JIS)
 70
     0
 40
0.0
 41
1.0
 50
0.0
 71
     0
 42
0.2
  3

  4

1001
ACAD
1000
MS PGothic
1071
      256
  0
STYLE
  5
D2
330
3
100
AcDbSymbolTableRecord
100
AcDbTextStyleTableRecord
  2
ｽﾀｲﾙ1_35
 70
     0
 40
0.0
 41
1.0
 50
0.0
 71
     0
 42
0.2
  3

  4

1001
ACAD
1000
HGPSoeiKakugothicUB
1071
      256
  0
STYLE
  5
10F
330
3
100
AcDbSymbolTableRecord
100
AcDbTextStyleTableRecord
  2
文字スタイル154
 70
     0
 40
0.0
 41
1.0
 50
0.0
 71
     0
 42
0.2
  3
ISOCP.shx
  4

  0
STYLE
  5
12F
330
3
100
AcDbSymbolTableRecord
100
AcDbTextStyleTableRecord
  2
文字スタイル74
 70
     0
 40
0.0
 41
0.5
 50
0.0
 71
     0
 42
0.2
  3
ISOCP.shx
  4

  0
STYLE
  5
134
330
3
100
AcDbSymbolTableRecord
100
AcDbTextStyleTableRecord
  2
文字スタイル77
 70
     0
 40
0.0
 41
0.8000000119209289
 50
0.0
 71
     0
 42
0.2
  3
ISOCP.shx
  4

  0
STYLE
  5
136
330
3
100
AcDbSymbolTableRecord
100
AcDbTextStyleTableRecord
  2
文字スタイル153
 70
     0
 40
0.0
 41
1.0
 50
0.0
 71
     0
 42
0.2
  3
ISOCP.shx
  4

  0
STYLE
  5
142
330
3
100
AcDbSymbolTableRecord
100
AcDbTextStyleTableRecord
  2
文字スタイル69
 70
     0
 40
0.0
 41
1.0
 50
0.0
 71
     0
 42
0.2
  3
tahoma.ttf
  4

1001
ACAD
1000
Tahoma
1071
      256
  0
STYLE
  5
14D
330
3
100
AcDbSymbolTableRecord
100
AcDbTextStyleTableRecord
  2
文字スタイル144
 70
     0
 40
0.0
 41
0.7031300067901612
 50
0.0
 71
     0
 42
0.2
  3
tahoma.ttf
  4

1001
ACAD
1000
Tahoma
1071
      256
  0
STYLE
  5
170
330
3
100
AcDbSymbolTableRecord
100
AcDbTextStyleTableRecord
  2
文字スタイル124
 70
     0
 40
0.0
 41
1.0
 50
0.0
 71
     0
 42
0.2
  3

  4

1001
ACAD
1000
MS PGothic
1071
      256
  0
STYLE
  5
176
330
3
100
AcDbSymbolTableRecord
100
AcDbTextStyleTableRecord
  2
文字スタイル125
 70
     0
 40
0.0
 41
1.0
 50
0.0
 71
     0
 42
0.2
  3
ISOCP.shx
  4

  0
STYLE
  5
186
330
3
100
AcDbSymbolTableRecord
100
AcDbTextStyleTableRecord
  2
文字スタイル126
 70
     0
 40
0.0
 41
1.0
 50
0.0
 71
     0
 42
0.2
  3

  4

1001
ACAD
1000
MS PGothic
1071
      256
  0
STYLE
  5
1A7
330
3
100
AcDbSymbolTableRecord
100
AcDbTextStyleTableRecord
  2
文字スタイル133
 70
     0
 40
0.0
 41
1.0
 50
0.0
 71
     0
 42
0.2
  3
ISOCP.shx
  4

  0
ENDTAB
  0
TABLE
  2
VIEW
  5
6
330
0
100
AcDbSymbolTable
 70
     0
  0
ENDTAB
  0
TABLE
  2
UCS
  5
7
330
0
100
AcDbSymbolTable
 70
     0
  0
ENDTAB
  0
TABLE
  2
APPID
  5
9
330
0
100
AcDbSymbolTable
 70
     2
  0
APPID
  5
56
330
9
100
AcDbSymbolTableRecord
100
AcDbRegAppTableRecord
  2
ACAD
 70
     0
  0
APPID
  5
5E
330
9
100
AcDbSymbolTableRecord
100
AcDbRegAppTableRecord
  2
AcadAnnotative
 70
     0
  0
ENDTAB
  0
TABLE
  2
DIMSTYLE
  5
A
330
0
100
AcDbSymbolTable
 70
    11
100
AcDbDimStyleTable
 71
     0
  0
DIMSTYLE
105
58
330
A
100
AcDbSymbolTableRecord
100
AcDbDimStyleTableRecord
  2
Standard
 70
     0
340
55
  0
DIMSTYLE
105
59
330
A
100
AcDbSymbolTableRecord
100
AcDbDimStyleTableRecord
  2
Annotative
 70
     0
340
55
1001
AcadAnnotative
1000
AnnotativeData
1002
{
1070
     1
1070
     1
1002
}
  0
DIMSTYLE
105
D3
330
A
100
AcDbSymbolTableRecord
100
AcDbDimStyleTableRecord
  2
Default - Method 1b (JIS)
 70
     0
 41
2.5
 42
0.0
 43
5.999999999999999
 44
3.174999999999999
 45
0.00000001
 46
10.0
 73
     0
 77
     1
 78
     8
 79
     2
140
2.5
143
0.03937
146
1.799999952316284
147
0.8
171
     3
172
     1
176
   256
177
   256
178
   256
271
     2
272
     2
274
     3
284
     8
286
     8
340
D1
371
    -1
372
    -1
  0
DIMSTYLE
105
D4
330
A
100
AcDbSymbolTableRecord
100
AcDbDimStyleTableRecord
  2
Default - Method 1b (JIS)$7
 70
     0
 41
2.5
 42
0.0
 43
5.999999999999999
 44
3.174999999999999
 45
0.00000001
 46
10.0
 73
     0
 77
     1
 78
     8
 79
     2
140
2.5
143
0.03937
146
1.799999952316284
147
0.8
171
     3
172
     1
176
   256
177
   256
178
   256
271
     2
272
     2
274
     3
284
     8
286
     8
340
D1
371
    -1
372
    -1
  0
DIMSTYLE
105
D5
330
A
100
AcDbSymbolTableRecord
100
AcDbDimStyleTableRecord
  2
Default - Method 2 (JIS)
 70
     0
 41
2.5
 42
0.0
 43
5.999999999999999
 44
3.174999999999999
 45
0.00000001
 46
10.0
 77
     1
 78
     8
 79
     2
140
2.5
143
0.03937
146
1.799999952316284
147
0.8
171
     3
172
     1
176
   256
177
   256
178
   256
271
     2
272
     2
274
     3
284
     8
286
     8
340
D1
371
    -1
372
    -1
  0
DIMSTYLE
105
D6
330
A
100
AcDbSymbolTableRecord
100
AcDbDimStyleTableRecord
  2
Default - Method 2 (JIS)$7
 70
     0
 41
2.5
 42
0.0
 43
5.999999999999999
 44
3.174999999999999
 45
0.00000001
 46
10.0
 77
     1
 78
     8
 79
     2
140
2.5
143
0.03937
146
1.799999952316284
147
0.8
171
     3
172
     1
176
   256
177
   256
178
   256
271
     2
272
     2
274
     3
284
     8
286
     8
340
D1
371
    -1
372
    -1
  0
DIMSTYLE
105
D7
330
A
100
AcDbSymbolTableRecord
100
AcDbDimStyleTableRecord
  2
Default (JIS)
 70
     0
 41
2.5
 42
0.0
 43
5.999999999999999
 44
1.0
 45
0.00000001
 46
10.0
 73
     0
 74
     0
 77
     1
 78
     8
 79
     2
140
2.5
143
0.03937
147
0.8
171
     3
172
     1
176
   256
177
   256
178
   256
271
     2
272
     2
274
     3
340
D1
371
    -1
372
    -1
  0
DIMSTYLE
105
D8
330
A
100
AcDbSymbolTableRecord
100
AcDbDimStyleTableRecord
  2
Default (JIS)$7
 70
     0
 41
2.5
 42
0.0
 43
5.999999999999999
 44
1.0
 45
0.00000001
 46
10.0
 73
     0
 74
     0
 77
     1
 78
     8
 79
     2
140
2.5
143
0.03937
147
0.8
171
     3
172
     1
176
   256
177
   256
178
   256
271
     2
272
     2
274
     3
340
D1
371
    -1
372
    -1
  0
DIMSTYLE
105
D9
330
A
100
AcDbSymbolTableRecord
100
AcDbDimStyleTableRecord
  2
Alternate (ISO)
 70
     0
 41
2.5
340
55
  0
DIMSTYLE
105
E5
330
A
100
AcDbSymbolTableRecord
100
AcDbDimStyleTableRecord
  2
Datum (ISO)
 70
     0
 41
2.5
340
55
  0
DIMSTYLE
105
F4
330
A
100
AcDbSymbolTableRecord
100
AcDbDimStyleTableRecord
  2
Large (ISO)
 70
     0
 41
5.0
340
55
  0
ENDTAB
  0
TABLE
  2
BLOCK_RECORD
  5
1
330
0
100
AcDbSymbolTable
 70
    14
  0
BLOCK_RECORD
  5
70
330
1
100
AcDbSymbolTableRecord
100
AcDbBlockTableRecord
  2
*Model_Space
340
73
 70
     0
280
     1
281
     0
  0
BLOCK_RECORD
  5
6C
330
1
100
AcDbSymbolTableRecord
100
AcDbBlockTableRecord
  2
*Paper_Space
340
6F
 70
     0
280
     1
281
     0
  0
BLOCK_RECORD
  5
74
330
1
100
AcDbSymbolTableRecord
100
AcDbBlockTableRecord
  2
*Paper_Space0
340
77
 70
     0
280
     1
281
     0
  0
BLOCK_RECORD
  5
DA
330
1
100
AcDbSymbolTableRecord
100
AcDbBlockTableRecord
  2
DatumFilled45
340
0
 70
     0
280
     1
281
     0
  0
BLOCK_RECORD
  5
E6
330
1
100
AcDbSymbolTableRecord
100
AcDbBlockTableRecord
  2
Filled-1
340
0
 70
     0
280
     1
281
     0
  0
BLOCK_RECORD
  5
F5
330
1
100
AcDbSymbolTableRecord
100
AcDbBlockTableRecord
  2
許容差
340
0
 70
     0
280
     1
281
     0
  0
BLOCK_RECORD
  5
162
330
1
100
AcDbSymbolTableRecord
100
AcDbBlockTableRecord
  2
バルブ仕様表
340
0
 70
     0
280
     1
281
     0
  0
BLOCK_RECORD
  5
17E
330
1
100
AcDbSymbolTableRecord
100
AcDbBlockTableRecord
  2
バルブ開閉R1
340
0
 70
     0
280
     1
281
     0
  0
BLOCK_RECORD
  5
189
330
1
100
AcDbSymbolTableRecord
100
AcDbBlockTableRecord
  2
バルブ開閉R2
340
0
 70
     0
280
     1
281
     0
  0
BLOCK_RECORD
  5
193
330
1
100
AcDbSymbolTableRecord
100
AcDbBlockTableRecord
  2
ｴｰｽﾎﾞｰﾙｿｹｯﾄ・本体注釈①
340
0
 70
     0
280
     1
281
     0
  0
BLOCK_RECORD
  5
197
330
1
100
AcDbSymbolTableRecord
100
AcDbBlockTableRecord
  2
バルブ仕様書①
340
0
 70
     0
280
     1
281
     0
  0
BLOCK_RECORD
  5
1A9
330
1
100
AcDbSymbolTableRecord
100
AcDbBlockTableRecord
  2
ストッパー加工注釈
340
0
 70
     0
280
     1
281
     0
  0
BLOCK_RECORD
  5
1AD
330
1
100
AcDbSymbolTableRecord
100
AcDbBlockTableRecord
  2
三方弁説明A
340
0
 70
     0
280
     1
281
     0
  0
BLOCK_RECORD
  5
1B1
330
1
100
AcDbSymbolTableRecord
100
AcDbBlockTableRecord
  2
三方弁説明B
340
0
 70
     0
280
     1
281
     0
  0
BLOCK_RECORD
  5
1B5
330
1
100
AcDbSymbolTableRecord
100
AcDbBlockTableRecord
  2
三方弁説明C
340
0
 70
     0
280
     1
281
     0
  0
BLOCK_RECORD
  5
1B9
330
1
100
AcDbSymbolTableRecord
100
AcDbBlockTableRecord
  2
三方弁流れ方向
340
0
 70
     0
280
     1
281
     0
  0
ENDTAB
  0
ENDSEC
  0
SECTION
  2
BLOCKS
  0
BLOCK
  5
71
330
70
100
AcDbEntity
  8
0
100
AcDbBlockBegin
  2
*Model_Space
 70
     0
 10
0.0
 20
0.0
 30
0.0
  3
*Model_Space
  1

  0
ENDBLK
  5
72
330
70
100
AcDbEntity
  8
0
100
AcDbBlockEnd
  0
BLOCK
  5
6D
330
6C
100
AcDbEntity
 67
     1
  8
0
100
AcDbBlockBegin
  2
*Paper_Space
 70
     0
 10
0.0
 20
0.0
 30
0.0
  3
*Paper_Space
  1

  0
ENDBLK
  5
6E
330
6C
100
AcDbEntity
 67
     1
  8
0
100
AcDbBlockEnd
  0
BLOCK
  5
75
330
74
100
AcDbEntity
 67
     1
  8
0
100
AcDbBlockBegin
  2
*Paper_Space0
 70
     0
 10
0.0
 20
0.0
 30
0.0
  3
*Paper_Space0
  1

  0
ENDBLK
  5
76
330
74
100
AcDbEntity
 67
     1
  8
0
100
AcDbBlockEnd
  0
BLOCK
  5
DB
330
DA
100
AcDbEntity
  8
0
100
AcDbBlockBegin
  2
DatumFilled45
 70
     0
 10
0.0
 20
0.0
 30
0.0
  3
DatumFilled45
  1

  0
POLYLINE
  5
DD
330
DA
100
AcDbEntity
  8
0
 62
     0
100
AcDb2dPolyline
 66
     1
 10
0.0
 20
0.0
 30
0.0
 70
   128
  0
VERTEX
  5
DE
330
DD
100
AcDbEntity
  8
0
 62
     0
100
AcDbVertex
100
AcDb2dVertex
 10
0.0
 20
1.0
 30
0.0
  0
VERTEX
  5
DF
330
DD
100
AcDbEntity
  8
0
 62
     0
100
AcDbVertex
100
AcDb2dVertex
 10
0.0
 20
-1.0
 30
0.0
  0
VERTEX
  5
E1
330
DD
100
AcDbEntity
  8
0
 62
     0
100
AcDbVertex
100
AcDb2dVertex
 10
-1.0
 20
0.0
 30
0.0
  0
VERTEX
  5
E2
330
DD
100
AcDbEntity
  8
0
 62
     0
100
AcDbVertex
100
AcDb2dVertex
 10
0.0
 20
1.0
 30
0.0
  0
SEQEND
  5
E0
330
DD
100
AcDbEntity
  8
0
 62
     0
  0
SOLID
  5
E4
330
DA
100
AcDbEntity
  8
0
 62
     0
100
AcDbTrace
 10
0.0
 20
1.0
 30
0.0
 11
0.0
 21
-1.0
 31
0.0
 12
-1.0
 22
0.0
 32
0.0
 13
0.0
 23
1.0
 33
0.0
  0
ENDBLK
  5
DC
330
DA
100
AcDbEntity
  8
0
100
AcDbBlockEnd
  0
BLOCK
  5
E7
330
E6
100
AcDbEntity
  8
0
100
AcDbBlockBegin
  2
Filled-1
 70
     0
 10
0.0
 20
0.0
 30
0.0
  3
Filled-1
  1

  0
LINE
  5
E9
330
E6
100
AcDbEntity
  8
0
 62
     0
100
AcDbLine
 10
-1.0
 20
0.0
 30
0.0
 11
0.0
 21
0.0
 31
0.0
  0
POLYLINE
  5
EA
330
E6
100
AcDbEntity
  8
0
 62
     0
100
AcDb2dPolyline
 66
     1
 10
0.0
 20
0.0
 30
0.0
 70
   128
  0
VERTEX
  5
EB
330
EA
100
AcDbEntity
  8
0
 62
     0
100
AcDbVertex
100
AcDb2dVertex
 10
-1.0
 20
-0.1
 30
0.0
  0
VERTEX
  5
EC
330
EA
100
AcDbEntity
  8
0
 62
     0
100
AcDbVertex
100
AcDb2dVertex
 10
0.0
 20
0.0
 30
0.0
  0
VERTEX
  5
EE
330
EA
100
AcDbEntity
  8
0
 62
     0
100
AcDbVertex
100
AcDb2dVertex
 10
-1.0
 20
0.1
 30
0.0
  0
VERTEX
  5
EF
330
EA
100
AcDbEntity
  8
0
 62
     0
100
AcDbVertex
100
AcDb2dVertex
 10
-1.0
 20
-0.1
 30
0.0
  0
SEQEND
  5
ED
330
EA
100
AcDbEntity
  8
0
 62
     0
  0
SOLID
  5
F0
330
E6
100
AcDbEntity
  8
0
 62
     0
100
AcDbTrace
 10
-1.0
 20
-0.1
 30
0.0
 11
0.0
 21
0.0
 31
0.0
 12
-1.0
 22
0.1
 32
0.0
 13
-1.0
 23
-0.1
 33
0.0
  0
LINE
  5
F1
330
E6
100
AcDbEntity
  8
0
 62
     0
100
AcDbLine
 10
-1.0
 20
-0.1
 30
0.0
 11
0.0
 21
0.0
 31
0.0
  0
LINE
  5
F2
330
E6
100
AcDbEntity
  8
0
 62
     0
100
AcDbLine
 10
0.0
 20
0.0
 30
0.0
 11
-1.0
 21
0.1
 31
0.0
  0
LINE
  5
F3
330
E6
100
AcDbEntity
  8
0
 62
     0
100
AcDbLine
 10
-1.0
 20
0.1
 30
0.0
 11
-1.0
 21
-0.1
 31
0.0
  0
ENDBLK
  5
E8
330
E6
100
AcDbEntity
  8
0
100
AcDbBlockEnd
  0
BLOCK
  5
F6
330
F5
100
AcDbEntity
  8
0
100
AcDbBlockBegin
  2
許容差
 70
     0
 10
0.0
 20
0.0
 30
0.0
  3
許容差
  1

  0
LINE
  5
F8
330
F5
100
AcDbEntity
  8
1
  6
Continuous
 62
     7
370
    25
100
AcDbLine
 10
-51.66713443007161
 20
-23.86585254105029
 30
0.0
 11
0.0
 21
-23.86585254105029
 31
0.0
  0
LINE
  5
F9
330
F5
100
AcDbEntity
  8
1
  6
Continuous
 62
     7
370
    25
100
AcDbLine
 10
0.0
 20
-23.86585254105029
 30
0.0
 11
0.0
 21
0.0
 31
0.0
  0
LINE
  5
FA
330
F5
100
AcDbEntity
  8
1
  6
Continuous
 62
     7
370
    25
100
AcDbLine
 10
0.0
 20
0.0
 30
0.0
 11
-51.66713443007161
 21
0.0
 31
0.0
  0
LINE
  5
FB
330
F5
100
AcDbEntity
  8
1
  6
Continuous
 62
     7
370
    25
100
AcDbLine
 10
-51.66713443007161
 20
0.0
 30
0.0
 11
-51.66713443007161
 21
-23.86585254105029
 31
0.0
  0
LINE
  5
FC
330
F5
100
AcDbEntity
  8
6
  6
Continuous
 62
     7
370
    25
100
AcDbLine
 10
0.0
 20
-20.36585254104949
 30
0.0
 11
-51.66713443007298
 21
-20.36585254104985
 31
0.0
  0
LINE
  5
FD
330
F5
100
AcDbEntity
  8
6
  6
Continuous
 62
     7
370
    25
100
AcDbLine
 10
0.0
 20
-16.86585254104663
 30
0.0
 11
-51.66713443007161
 21
-16.86585254104663
 31
0.0
  0
LINE
  5
FE
330
F5
100
AcDbEntity
  8
6
  6
Continuous
 62
     7
370
    25
100
AcDbLine
 10
0.0
 20
-13.36585254105678
 30
0.0
 11
-51.66713443007298
 21
-13.36585254105802
 31
0.0
  0
LINE
  5
FF
330
F5
100
AcDbEntity
  8
6
  6
Continuous
 62
     7
370
    25
100
AcDbLine
 10
0.0
 20
-9.865852541056767
 30
0.0
 11
-51.66713443007161
 21
-9.865852541056767
 31
0.0
  0
LINE
  5
100
330
F5
100
AcDbEntity
  8
6
  6
Continuous
 62
     7
370
    25
100
AcDbLine
 10
-4.616227731726674
 20
-23.86585254105029
 30
0.0
 11
-4.616227731726212
 21
-5.464305006752354
 31
0.0
  0
LINE
  5
101
330
F5
100
AcDbEntity
  8
6
  6
Continuous
 62
     7
370
    25
100
AcDbLine
 10
-13.84868319517728
 20
-23.86585254105075
 30
0.0
 11
-13.84868319517682
 21
-5.464305006752816
 31
0.0
  0
LINE
  5
102
330
F5
100
AcDbEntity
  8
6
  6
Continuous
 62
     7
370
    25
100
AcDbLine
 10
-9.232455463451998
 20
-23.86585254105075
 30
0.0
 11
-9.232455463451536
 21
-5.464305006752816
 31
0.0
  0
LINE
  5
103
330
F5
100
AcDbEntity
  8
6
  6
Continuous
 62
     7
370
    25
100
AcDbLine
 10
-18.46491092690303
 20
-23.86585254104951
 30
0.0
 11
-18.46491092690257
 21
-5.464305006751573
 31
0.0
  0
LINE
  5
104
330
F5
100
AcDbEntity
  8
6
  6
Continuous
 62
     7
370
    25
100
AcDbLine
 10
-23.0811386586279
 20
-23.86585254105075
 30
0.0
 11
-23.08113865862744
 21
-5.464305006752816
 31
0.0
  0
LINE
  5
105
330
F5
100
AcDbEntity
  8
6
  6
Continuous
 62
     7
370
    25
100
AcDbLine
 10
-27.69736639035319
 20
-23.86585254105075
 30
0.0
 11
-27.69736639035273
 21
-5.464305006752816
 31
0.0
  0
LINE
  5
106
330
F5
100
AcDbEntity
  8
6
  6
Continuous
 62
     7
370
    25
100
AcDbLine
 10
-32.31359412207805
 20
-23.86585254104951
 30
0.0
 11
-32.31359412207766
 21
-5.464305006752354
 31
0.0
  0
LINE
  5
107
330
F5
100
AcDbEntity
  8
1
  6
Continuous
 62
     7
370
    25
100
AcDbLine
 10
-36.92982185380334
 20
-23.86585254104951
 30
0.0
 11
-36.92982185380288
 21
-3.118521831198464
 31
0.0
  0
LINE
  5
108
330
F5
100
AcDbEntity
  8
1
  6
Continuous
 62
     7
370
    25
100
AcDbLine
 10
0.0
 20
-5.464305006752354
 30
0.0
 11
-51.66713443007161
 21
-5.464305006752354
 31
0.0
  0
LINE
  5
109
330
F5
100
AcDbEntity
  8
6
  6
Continuous
 62
     7
370
    25
100
AcDbLine
 10
-45.55750842881166
 20
-23.86585254104951
 30
0.0
 11
-45.55750842881121
 21
-5.464305006752354
 31
0.0
  0
LINE
  5
10A
330
F5
100
AcDbEntity
  8
1
  6
Continuous
 62
     7
370
    25
100
AcDbLine
 10
-51.66713443007161
 20
-3.118521831198464
 30
0.0
 11
0.0
 21
-3.118521831198464
 31
0.0
  0
MTEXT
  5
10B
330
F5
100
AcDbEntity
  8
6
 62
     7
100
AcDbMText
 10
-36.81060597032285
 20
-12.59117800523402
 30
0.0
 40
1.25
 41
0.0
 46
0.0
 71
     7
 72
     1
  1
\fAIGDT|b0|i0;\W0.80;\H1.2500;`\fISOCP|b0|i0;\W0.80;\H1.2500;0.05
 73
     2
 44
1.0
  0
MTEXT
  5
10D
330
F5
100
AcDbEntity
  8
6
 62
     7
100
AcDbMText
 10
-36.44022161292199
 20
-16.07925905417527
 30
0.0
 40
1.25
 41
0.0
 46
0.0
 71
     7
 72
     1
  1
\fAIGDT|b0|i0;\H1.2500;`\fISOCP|b0|i0;\H1.2500;0.1
 73
     2
 44
1.0
  0
MTEXT
  5
10E
330
F5
100
AcDbEntity
  8
6
 62
     7
100
AcDbMText
 10
-36.44022161292199
 20
-19.57925905417529
 30
0.0
 40
1.25
 41
0.0
 46
0.0
 71
     7
 72
     1
  1
\fAIGDT|b0|i0;\H1.2500;`\fISOCP|b0|i0;\H1.2500;0.2
 73
     2
 44
1.0
  0
TEXT
  5
110
330
F5
100
AcDbEntity
  8
6
 62
     7
100
AcDbText
 10
-36.60250576079687
 20
-24.08384699406547
 30
0.0
 40
5.0
  1
-
  7
文字スタイル154
100
AcDbText
  0
MTEXT
  5
113
330
F5
100
AcDbEntity
  8
6
 62
     7
100
AcDbMText
 10
-31.82399388119666
 20
-23.07925905417527
 30
0.0
 40
1.25
 41
0.0
 46
0.0
 71
     7
 72
     1
  1
\fAIGDT|b0|i0;\H1.2500;`\fISOCP|b0|i0;\H1.2500;0.5
 73
     2
 44
1.0
  0
MTEXT
  5
114
330
F5
100
AcDbEntity
  8
6
 62
     7
100
AcDbMText
 10
-31.82399388119666
 20
-19.57925905417529
 30
0.0
 40
1.25
 41
0.0
 46
0.0
 71
     7
 72
     1
  1
\fAIGDT|b0|i0;\H1.2500;`\fISOCP|b0|i0;\H1.2500;0.3
 73
     2
 44
1.0
  0
MTEXT
  5
115
330
F5
100
AcDbEntity
  8
6
 62
     7
100
AcDbMText
 10
-31.82399388119666
 20
-16.07925905417527
 30
0.0
 40
1.25
 41
0.0
 46
0.0
 71
     7
 72
     1
  1
\fAIGDT|b0|i0;\H1.2500;`\fISOCP|b0|i0;\H1.2500;0.1
 73
     2
 44
1.0
  0
MTEXT
  5
116
330
F5
100
AcDbEntity
  8
6
 62
     7
100
AcDbMText
 10
-31.82399388119666
 20
-12.57925905417526
 30
0.0
 40
1.25
 41
0.0
 46
0.0
 71
     7
 72
     1
  1
\fAIGDT|b0|i0;\W0.80;\H1.2500;`\fISOCP|b0|i0;\W0.80;\H1.2500;0.05
 73
     2
 44
1.0
  0
MTEXT
  5
117
330
F5
100
AcDbEntity
  8
6
 62
     7
100
AcDbMText
 10
-27.20776614947137
 20
-12.57925905417526
 30
0.0
 40
1.25
 41
0.0
 46
0.0
 71
     7
 72
     1
  1
\fAIGDT|b0|i0;\H1.2500;`\fISOCP|b0|i0;\H1.2500;0.1
 73
     2
 44
1.0
  0
MTEXT
  5
118
330
F5
100
AcDbEntity
  8
6
 62
     7
100
AcDbMText
 10
-27.20776614947137
 20
-16.07925905417527
 30
0.0
 40
1.25
 41
0.0
 46
0.0
 71
     7
 72
     1
  1
\fAIGDT|b0|i0;\H1.2500;`\fISOCP|b0|i0;\H1.2500;0.2
 73
     2
 44
1.0
  0
MTEXT
  5
119
330
F5
100
AcDbEntity
  8
6
 62
     7
100
AcDbMText
 10
-27.20776614947137
 20
-19.57925905417529
 30
0.0
 40
1.25
 41
0.0
 46
0.0
 71
     7
 72
     1
  1
\fAIGDT|b0|i0;\H1.2500;`\fISOCP|b0|i0;\H1.2500;0.5
 73
     2
 44
1.0
  0
MTEXT
  5
11A
330
F5
100
AcDbEntity
  8
6
 62
     7
100
AcDbMText
 10
-26.40217881270058
 20
-23.09117800523403
 30
0.0
 40
1.25
 41
0.0
 46
0.0
 71
     7
 72
     1
  1
\fAIGDT|b0|i0;\H1.2500;`\fISOCP|b0|i0;\H1.2500;1
 73
     2
 44
1.0
  0
MTEXT
  5
11B
330
F5
100
AcDbEntity
  8
6
 62
     7
100
AcDbMText
 10
-22.59153841774605
 20
-12.57925905417526
 30
0.0
 40
1.25
 41
0.0
 46
0.0
 71
     7
 72
     1
  1
\fAIGDT|b0|i0;\W0.80;\H1.2500;`\fISOCP|b0|i0;\W0.80;\H1.2500;0.15
 73
     2
 44
1.0
  0
MTEXT
  5
11C
330
F5
100
AcDbEntity
  8
6
 62
     7
100
AcDbMText
 10
-22.59153841774605
 20
-16.07925905417527
 30
0.0
 40
1.25
 41
0.0
 46
0.0
 71
     7
 72
     1
  1
\fAIGDT|b0|i0;\H1.2500;`\fISOCP|b0|i0;\H1.2500;0.3
 73
     2
 44
1.0
  0
MTEXT
  5
11D
330
F5
100
AcDbEntity
  8
6
 62
     7
100
AcDbMText
 10
-22.59153841774605
 20
-19.57925905417529
 30
0.0
 40
1.25
 41
0.0
 46
0.0
 71
     7
 72
     1
  1
\fAIGDT|b0|i0;\H1.2500;`\fISOCP|b0|i0;\H1.2500;0.8
 73
     2
 44
1.0
  0
MTEXT
  5
11E
330
F5
100
AcDbEntity
  8
6
 62
     7
100
AcDbMText
 10
-22.59153841774605
 20
-23.07925905417527
 30
0.0
 40
1.25
 41
0.0
 46
0.0
 71
     7
 72
     1
  1
\fAIGDT|b0|i0;\H1.2500;`\fISOCP|b0|i0;\H1.2500;1.5
 73
     2
 44
1.0
  0
MTEXT
  5
11F
330
F5
100
AcDbEntity
  8
6
 62
     7
100
AcDbMText
 10
-17.97531068602076
 20
-12.57925905417526
 30
0.0
 40
1.25
 41
0.0
 46
0.0
 71
     7
 72
     1
  1
\fAIGDT|b0|i0;\H1.2500;`\fISOCP|b0|i0;\H1.2500;0.2
 73
     2
 44
1.0
  0
MTEXT
  5
120
330
F5
100
AcDbEntity
  8
6
 62
     7
100
AcDbMText
 10
-17.97531068602076
 20
-16.07925905417527
 30
0.0
 40
1.25
 41
0.0
 46
0.0
 71
     7
 72
     1
  1
\fAIGDT|b0|i0;\H1.2500;`\fISOCP|b0|i0;\H1.2500;0.5
 73
     2
 44
1.0
  0
MTEXT
  5
121
330
F5
100
AcDbEntity
  8
6
 62
     7
100
AcDbMText
 10
-17.97531068602076
 20
-19.57925905417529
 30
0.0
 40
1.25
 41
0.0
 46
0.0
 71
     7
 72
     1
  1
\fAIGDT|b0|i0;\H1.2500;`\fISOCP|b0|i0;\H1.2500;1.2
 73
     2
 44
1.0
  0
MTEXT
  5
122
330
F5
100
AcDbEntity
  8
6
 62
     7
100
AcDbMText
 10
-17.97531068602076
 20
-23.07925905417527
 30
0.0
 40
1.25
 41
0.0
 46
0.0
 71
     7
 72
     1
  1
\fAIGDT|b0|i0;\H1.2500;`\fISOCP|b0|i0;\H1.2500;2.5
 73
     2
 44
1.0
  0
MTEXT
  5
123
330
F5
100
AcDbEntity
  8
6
 62
     7
100
AcDbMText
 10
-13.35908295429547
 20
-12.57925905417526
 30
0.0
 40
1.25
 41
0.0
 46
0.0
 71
     7
 72
     1
  1
\fAIGDT|b0|i0;\H1.2500;`\fISOCP|b0|i0;\H1.2500;0.3
 73
     2
 44
1.0
  0
MTEXT
  5
124
330
F5
100
AcDbEntity
  8
6
 62
     7
100
AcDbMText
 10
-13.35908295429547
 20
-16.07925905417527
 30
0.0
 40
1.25
 41
0.0
 46
0.0
 71
     7
 72
     1
  1
\fAIGDT|b0|i0;\H1.2500;`\fISOCP|b0|i0;\H1.2500;0.8
 73
     2
 44
1.0
  0
MTEXT
  5
125
330
F5
100
AcDbEntity
  8
6
 62
     7
100
AcDbMText
 10
-12.56499245203539
 20
-19.57925905417529
 30
0.0
 40
1.25
 41
0.0
 46
0.0
 71
     7
 72
     1
  1
\fAIGDT|b0|i0;\H1.2500;`\fISOCP|b0|i0;\H1.2500;2
 73
     2
 44
1.0
  0
MTEXT
  5
126
330
F5
100
AcDbEntity
  8
6
 62
     7
100
AcDbMText
 10
-12.56499245203539
 20
-23.09117800523403
 30
0.0
 40
1.25
 41
0.0
 46
0.0
 71
     7
 72
     1
  1
\fAIGDT|b0|i0;\H1.2500;`\fISOCP|b0|i0;\H1.2500;4
 73
     2
 44
1.0
  0
MTEXT
  5
127
330
F5
100
AcDbEntity
  8
6
 62
     7
100
AcDbMText
 10
-8.742855222570149
 20
-12.57925905417526
 30
0.0
 40
1.25
 41
0.0
 46
0.0
 71
     7
 72
     1
  1
\fAIGDT|b0|i0;\H1.2500;`\fISOCP|b0|i0;\H1.2500;0.5
 73
     2
 44
1.0
  0
MTEXT
  5
128
330
F5
100
AcDbEntity
  8
6
 62
     7
100
AcDbMText
 10
-8.742855222570149
 20
-16.07925905417527
 30
0.0
 40
1.25
 41
0.0
 46
0.0
 71
     7
 72
     1
  1
\fAIGDT|b0|i0;\H1.2500;`\fISOCP|b0|i0;\H1.2500;1.2
 73
     2
 44
1.0
  0
MTEXT
  5
129
330
F5
100
AcDbEntity
  8
6
 62
     7
100
AcDbMText
 10
-7.948764720310066
 20
-19.57925905417529
 30
0.0
 40
1.25
 41
0.0
 46
0.0
 71
     7
 72
     1
  1
\fAIGDT|b0|i0;\H1.2500;`\fISOCP|b0|i0;\H1.2500;3
 73
     2
 44
1.0
  0
MTEXT
  5
12A
330
F5
100
AcDbEntity
  8
6
 62
     7
100
AcDbMText
 10
-7.948764720310066
 20
-23.07925905417527
 30
0.0
 40
1.25
 41
0.0
 46
0.0
 71
     7
 72
     1
  1
\fAIGDT|b0|i0;\H1.2500;`\fISOCP|b0|i0;\H1.2500;6
 73
     2
 44
1.0
  0
TEXT
  5
12B
330
F5
100
AcDbEntity
  8
6
 62
     7
100
AcDbText
 10
-4.369788384236166
 20
-13.62049392307749
 30
0.0
 40
5.0
  1
-
 41
1.415104540911587
  7
文字スタイル154
 72
     5
 11
-0.4782508967292998
 21
-13.62049392307749
 31
0.0
100
AcDbText
  0
MTEXT
  5
12C
330
F5
100
AcDbEntity
  8
6
 62
     7
100
AcDbMText
 10
-2.579463550682987
 20
-16.07925905417527
 30
0.0
 40
1.25
 41
0.0
 46
0.0
 71
     8
 72
     1
  1
\fAIGDT|b0|i0;\H1.2500;`\fISOCP|b0|i0;\H1.2500;2
 73
     2
 44
1.0
  0
MTEXT
  5
12D
330
F5
100
AcDbEntity
  8
6
 62
     7
100
AcDbMText
 10
-3.532372386453879
 20
-19.59117800523405
 30
0.0
 40
1.25
 41
0.0
 46
0.0
 71
     7
 72
     1
  1
\fAIGDT|b0|i0;\H1.2500;`\fISOCP|b0|i0;\H1.2500;4
 73
     2
 44
1.0
  0
MTEXT
  5
12E
330
F5
100
AcDbEntity
  8
6
 62
     7
100
AcDbMText
 10
-3.532372192238213
 20
-23.07925905417527
 30
0.0
 40
1.25
 41
0.0
 46
0.0
 71
     7
 72
     1
  1
\fAIGDT|b0|i0;\H1.2500;`\fISOCP|b0|i0;\H1.2500;8
 73
     2
 44
1.0
  0
TEXT
  5
130
330
F5
100
AcDbEntity
  8
6
 62
     7
100
AcDbText
 10
-2.130444153016632
 20
-8.822556449203879
 30
0.0
 40
1.25
  1
4000
 41
0.5
  7
文字スタイル74
100
AcDbText
  0
TEXT
  5
131
330
F5
100
AcDbEntity
  8
6
 62
     7
100
AcDbText
 10
-6.78318767850552
 20
-8.822556449203879
 30
0.0
 40
1.25
  1
2000
 41
0.5
  7
文字スタイル74
100
AcDbText
  0
TEXT
  5
132
330
F5
100
AcDbEntity
  8
6
 62
     7
100
AcDbText
 10
-11.43593120399444
 20
-8.822556449203879
 30
0.0
 40
1.25
  1
1000
 41
0.5
  7
文字スタイル74
100
AcDbText
  0
TEXT
  5
133
330
F5
100
AcDbEntity
  8
6
 62
     7
100
AcDbText
 10
-15.72517906670867
 20
-8.822556449203879
 30
0.0
 40
1.25
  1
400
 41
0.5
  7
文字スタイル74
100
AcDbText
  0
TEXT
  5
135
330
F5
100
AcDbEntity
  8
6
 62
     7
100
AcDbText
 10
-20.5233209310019
 20
-8.822556449203879
 30
0.0
 40
1.25
  1
120
 41
0.7999999523162842
  7
文字スタイル77
100
AcDbText
  0
TEXT
  5
137
330
F5
100
AcDbEntity
  8
6
 62
     7
100
AcDbText
 10
-24.95796694828435
 20
-8.822556449203879
 30
0.0
 40
1.25
  1
30
 41
1.244508053920987
  7
文字スタイル153
 72
     5
 11
-23.01219820453092
 21
-8.822556449203879
 31
0.0
100
AcDbText
  0
TEXT
  5
138
330
F5
100
AcDbEntity
  8
6
 62
     7
100
AcDbText
 10
-28.88371933245988
 20
-8.822556449203879
 30
0.0
 40
1.25
  1
6
 41
1.29803088880728
  7
文字スタイル153
 72
     5
 11
-27.91083496058317
 21
-8.822556449203879
 31
0.0
100
AcDbText
  0
TEXT
  5
139
330
F5
100
AcDbEntity
  8
6
 62
     7
100
AcDbText
 10
-33.50670450149654
 20
-8.822556449203879
 30
0.0
 40
1.25
  1
3
 41
1.315994915119492
  7
文字スタイル153
 72
     5
 11
-32.53382012961982
 21
-8.822556449203879
 31
0.0
100
AcDbText
  0
TEXT
  5
13A
330
F5
100
AcDbEntity
  8
6
 62
     7
100
AcDbText
 10
-28.95641850186202
 20
-7.084943372489576
 30
0.0
 40
1.25
  1
3
 41
1.315994915119492
  7
文字スタイル153
 72
     5
 11
-27.9835341299853
 21
-7.084943372489576
 31
0.0
100
AcDbText
  0
TEXT
  5
13B
330
F5
100
AcDbEntity
  8
6
 62
     7
100
AcDbText
 10
-24.44907313094138
 20
-7.084943372489576
 30
0.0
 40
1.25
  1
6
 41
1.29803088880728
  7
文字スタイル153
 72
     5
 11
-23.47618875906466
 21
-7.084943372489576
 31
0.0
100
AcDbText
  0
TEXT
  5
13C
330
F5
100
AcDbEntity
  8
6
 62
     7
100
AcDbText
 10
-20.15982526822718
 20
-7.084943372489576
 30
0.0
 40
1.25
  1
30
 41
0.7999999523162842
  7
文字スタイル77
100
AcDbText
  0
TEXT
  5
13D
330
F5
100
AcDbEntity
  8
6
 62
     7
100
AcDbText
 10
-15.72517906670867
 20
-7.084943372489576
 30
0.0
 40
1.25
  1
120
 41
0.5
  7
文字スタイル74
100
AcDbText
  0
TEXT
  5
13E
330
F5
100
AcDbEntity
  8
6
 62
     7
100
AcDbText
 10
-11.29053304942619
 20
-7.084943372489576
 30
0.0
 40
1.25
  1
400
 41
0.5
  7
文字スタイル74
100
AcDbText
  0
TEXT
  5
13F
330
F5
100
AcDbEntity
  8
6
 62
     7
100
AcDbText
 10
-6.78318767850552
 20
-7.084943372489576
 30
0.0
 40
1.25
  1
1000
 41
0.5
  7
文字スタイル74
100
AcDbText
  0
TEXT
  5
140
330
F5
100
AcDbEntity
  8
6
 62
     7
100
AcDbText
 10
-2.203143322418803
 20
-7.084943372489576
 30
0.0
 40
1.25
  1
2000
 41
0.5
  7
文字スタイル74
100
AcDbText
  0
TEXT
  5
141
330
F5
100
AcDbEntity
  8
6
 62
     7
100
AcDbText
 10
-33.82725935132136
 20
-7.084943372488687
 30
0.0
 40
1.25
  1
0.5
 41
0.5
  7
文字スタイル74
100
AcDbText
  0
TEXT
  5
143
330
F5
100
AcDbEntity
  8
6
 62
     7
100
AcDbText
 10
-50.33159609932706
 20
-8.822556449203879
 30
0.0
 40
1.25
  1
指示
  7
文字スタイル69
 72
     1
 11
-48.61232142944142
 21
-8.822556449203879
 31
0.0
100
AcDbText
  0
TEXT
  5
144
330
F5
100
AcDbEntity
  8
6
 62
     7
100
AcDbText
 10
-42.76649229347249
 20
-12.17900373018512
 30
0.0
 40
1.25
  1
精級
  7
文字スタイル69
 72
     1
 11
-41.04721762358686
 21
-12.32255644920389
 31
0.0
100
AcDbText
 73
     1
  0
TEXT
  5
145
330
F5
100
AcDbEntity
  8
6
 62
     7
100
AcDbText
 10
-42.76649229347249
 20
-15.6790037301851
 30
0.0
 40
1.25
  1
中級
  7
文字スタイル69
 72
     1
 11
-41.04721762358686
 21
-15.82255644920387
 31
0.0
100
AcDbText
 73
     1
  0
TEXT
  5
146
330
F5
100
AcDbEntity
  8
6
 62
     7
100
AcDbText
 10
-42.76649229347249
 20
-19.17900373018511
 30
0.0
 40
1.25
  1
粗級
  7
文字スタイル69
 72
     1
 11
-41.04721762358686
 21
-19.32255644920388
 31
0.0
100
AcDbText
 73
     1
  0
TEXT
  5
147
330
F5
100
AcDbEntity
  8
6
 62
     7
100
AcDbText
 10
-48.87287911015231
 20
-22.4475564492039
 30
0.0
 40
1.25
  1
v
  7
文字スタイル153
 72
     1
 11
-48.43537911015231
 21
-22.8225564492039
 31
0.0
100
AcDbText
 73
     1
  0
TEXT
  5
148
330
F5
100
AcDbEntity
  8
6
 62
     7
100
AcDbText
 10
-43.62612962841531
 20
-22.96998733660555
 30
0.0
 40
1.25
  1
極粗級
  7
文字スタイル69
 72
     1
 11
-41.04721762358686
 21
-23.11354005562432
 31
0.0
100
AcDbText
 73
     1
  0
TEXT
  5
149
330
F5
100
AcDbEntity
  8
6
 62
     7
100
AcDbText
 10
-48.78772680596004
 20
-18.94755644920389
 30
0.0
 40
1.25
  1
c
  7
文字スタイル153
 72
     1
 11
-48.43537911015231
 21
-19.32255644920388
 31
0.0
100
AcDbText
 73
     1
  0
TEXT
  5
14A
330
F5
100
AcDbEntity
  8
6
 62
     7
100
AcDbText
 10
-49.02053141434459
 20
-15.44755644920387
 30
0.0
 40
1.25
  1
m
  7
文字スタイル153
 72
     1
 11
-48.43537911015231
 21
-15.82255644920387
 31
0.0
100
AcDbText
 73
     1
  0
TEXT
  5
14B
330
F5
100
AcDbEntity
  8
6
 62
     7
100
AcDbText
 10
-48.81037911015231
 20
-11.94755644920389
 30
0.0
 40
1.25
  1
f
  7
文字スタイル153
 72
     1
 11
-48.43537911015231
 21
-12.32255644920389
 31
0.0
100
AcDbText
 73
     1
  0
TEXT
  5
14C
330
F5
100
AcDbEntity
  8
6
 62
     7
100
AcDbText
 10
-42.96293981119269
 20
-8.822556449203879
 30
0.0
 40
1.25
  1
説明
  7
文字スタイル69
 72
     1
 11
-41.24366514130706
 21
-8.822556449203879
 31
0.0
100
AcDbText
  0
TEXT
  5
14E
330
F5
100
AcDbEntity
  8
6
 62
     7
100
AcDbText
 10
-36.81546896341402
 20
-7.084943372489576
 30
0.0
 40
1.25
  1
以上
 41
0.7031300067901612
  7
文字スタイル144
100
AcDbText
  0
TEXT
  5
14F
330
F5
100
AcDbEntity
  8
6
 62
     7
100
AcDbText
 10
-36.81546896341402
 20
-8.822556449203879
 30
0.0
 40
1.25
  1
以下
 41
0.7031300067901612
  7
文字スタイル144
100
AcDbText
  0
TEXT
  5
150
330
F5
100
AcDbEntity
  8
6
 62
     7
100
AcDbText
 10
-32.19924123168873
 20
-7.084943372489576
 30
0.0
 40
1.25
  1
以上
 41
0.7031300067901612
  7
文字スタイル144
100
AcDbText
  0
TEXT
  5
151
330
F5
100
AcDbEntity
  8
6
 62
     7
100
AcDbText
 10
-32.19924123168873
 20
-8.822556449203879
 30
0.0
 40
1.25
  1
以下
 41
0.7031300067901612
  7
文字スタイル144
100
AcDbText
  0
TEXT
  5
152
330
F5
100
AcDbEntity
  8
6
 62
     7
100
AcDbText
 10
-27.58301349996383
 20
-7.084943372489576
 30
0.0
 40
1.25
  1
以上
 41
0.7031300067901612
  7
文字スタイル144
100
AcDbText
  0
TEXT
  5
153
330
F5
100
AcDbEntity
  8
6
 62
     7
100
AcDbText
 10
-27.58301349996383
 20
-8.822556449203879
 30
0.0
 40
1.25
  1
以下
 41
0.7031300067901612
  7
文字スタイル144
100
AcDbText
  0
TEXT
  5
154
330
F5
100
AcDbEntity
  8
6
 62
     7
100
AcDbText
 10
-22.96678576823851
 20
-7.084943372489576
 30
0.0
 40
1.25
  1
以上
 41
0.7031300067901612
  7
文字スタイル144
100
AcDbText
  0
TEXT
  5
155
330
F5
100
AcDbEntity
  8
6
 62
     7
100
AcDbText
 10
-22.96678576823851
 20
-8.822556449203879
 30
0.0
 40
1.25
  1
以下
 41
0.7031300067901612
  7
文字スタイル144
100
AcDbText
  0
TEXT
  5
156
330
F5
100
AcDbEntity
  8
6
 62
     7
100
AcDbText
 10
-18.35055803651368
 20
-7.084943372489576
 30
0.0
 40
1.25
  1
以上
 41
0.7031300067901612
  7
文字スタイル144
100
AcDbText
  0
TEXT
  5
157
330
F5
100
AcDbEntity
  8
6
 62
     7
100
AcDbText
 10
-18.35055803651368
 20
-8.822556449203879
 30
0.0
 40
1.25
  1
以下
 41
0.7031300067901612
  7
文字スタイル144
100
AcDbText
  0
TEXT
  5
158
330
F5
100
AcDbEntity
  8
6
 62
     7
100
AcDbText
 10
-13.73433030478793
 20
-7.084943372489576
 30
0.0
 40
1.25
  1
以上
 41
0.7031300067901612
  7
文字スタイル144
100
AcDbText
  0
TEXT
  5
159
330
F5
100
AcDbEntity
  8
6
 62
     7
100
AcDbText
 10
-13.73433030478793
 20
-8.822556449203879
 30
0.0
 40
1.25
  1
以下
 41
0.7031300067901612
  7
文字スタイル144
100
AcDbText
  0
TEXT
  5
15A
330
F5
100
AcDbEntity
  8
6
 62
     7
100
AcDbText
 10
-9.118102573062607
 20
-7.084943372489576
 30
0.0
 40
1.25
  1
以上
 41
0.7031300067901612
  7
文字スタイル144
100
AcDbText
  0
TEXT
  5
15B
330
F5
100
AcDbEntity
  8
6
 62
     7
100
AcDbText
 10
-9.118102573062607
 20
-8.822556449203879
 30
0.0
 40
1.25
  1
以下
 41
0.7031300067901612
  7
文字スタイル144
100
AcDbText
  0
TEXT
  5
15C
330
F5
100
AcDbEntity
  8
6
 62
     7
100
AcDbText
 10
-4.501874841337318
 20
-7.084943372489576
 30
0.0
 40
1.25
  1
以上
 41
0.7031300067901612
  7
文字スタイル144
100
AcDbText
  0
TEXT
  5
15D
330
F5
100
AcDbEntity
  8
6
 62
     7
100
AcDbText
 10
-4.501874841337318
 20
-8.822556449203879
 30
0.0
 40
1.25
  1
以下
 41
0.7031300067901612
  7
文字スタイル144
100
AcDbText
  0
MTEXT
  5
15E
330
F5
100
AcDbEntity
  8
Symbol (ISO)
100
AcDbMText
 10
-45.46950148221842
 20
-0.7004528189525417
 30
0.0
 40
1.522842645645141
 41
0.0
 46
0.0
 71
     1
 72
     1
  1
\fTahoma|b0|i0;\H1.5228;面取り部分を除く長さ寸法に対する許容差
  7
Note Text (JIS)
 73
     1
 44
1.5
  0
MTEXT
  5
160
330
F5
100
AcDbEntity
  8
Symbol (ISO)
100
AcDbMText
 10
-47.96780922760598
 20
-3.425179725575979
 30
0.0
 40
1.522842645645141
 41
0.0
 46
0.0
 71
     1
 72
     1
  1
\fTahoma|b0|i0;\H1.5228;公差等級
  7
Note Text (JIS)
 73
     1
 44
1.5
  0
MTEXT
  5
161
330
F5
100
AcDbEntity
  8
Symbol (ISO)
100
AcDbMText
 10
-30.52603614519629
 20
-3.484726718636785
 30
0.0
 40
1.522842645645141
 41
0.0
 46
0.0
 71
     1
 72
     1
  1
\fTahoma|b0|i0;\H1.5228;基準寸法の区分
  7
Note Text (JIS)
 73
     1
 44
1.5
  0
ENDBLK
  5
F7
330
F5
100
AcDbEntity
  8
0
100
AcDbBlockEnd
  0
BLOCK
  5
163
330
162
100
AcDbEntity
  8
0
100
AcDbBlockBegin
  2
バルブ仕様表
 70
     0
 10
0.0
 20
0.0
 30
0.0
  3
バルブ仕様表
  1

  0
LINE
  5
165
330
162
100
AcDbEntity
  8
AM_6
 62
     7
100
AcDbLine
 10
-109.9999999999999
 20
27.99999999999997
 30
0.0
 11
0.0
 21
27.99999999999997
 31
0.0
  0
LINE
  5
166
330
162
100
AcDbEntity
  8
AM_6
 62
     7
100
AcDbLine
 10
-109.9999999999999
 20
13.99999999999998
 30
0.0
 11
0.0
 21
13.99999999999998
 31
0.0
  0
LINE
  5
167
330
162
100
AcDbEntity
  8
AM_6
 62
     7
100
AcDbLine
 10
-109.9999999999999
 20
20.99999999999994
 30
0.0
 11
0.0
 21
20.99999999999994
 31
0.0
  0
LINE
  5
168
330
162
100
AcDbEntity
  8
AM_6
 62
     7
100
AcDbLine
 10
-109.9999999999999
 20
0.0
 30
0.0
 11
0.0
 21
0.0
 31
0.0
  0
LINE
  5
169
330
162
100
AcDbEntity
  8
AM_6
 62
     7
100
AcDbLine
 10
-109.9999999999999
 20
6.999999999999957
 30
0.0
 11
0.0
 21
6.999999999999957
 31
0.0
  0
LINE
  5
16A
330
162
100
AcDbEntity
  8
AM_6
100
AcDbLine
 10
-109.9999999999999
 20
13.99999999999998
 30
0.0
 11
0.0
 21
13.99999999999998
 31
0.0
  0
LINE
  5
16B
330
162
100
AcDbEntity
  8
AM_6
 62
     7
100
AcDbLine
 10
-79.99999999999997
 20
0.0
 30
0.0
 11
-79.99999999999997
 21
13.99999999999998
 31
0.0
  0
LINE
  5
16C
330
162
100
AcDbEntity
  8
AM_6
 62
     7
100
AcDbLine
 10
-79.99999999999983
 20
27.99999999999997
 30
0.0
 11
-79.99999999999997
 21
13.99999999999998
 31
0.0
  0
LINE
  5
16D
330
162
100
AcDbEntity
  8
AM_6
 62
     7
100
AcDbLine
 10
-109.9999999999999
 20
0.0
 30
0.0
 11
-109.9999999999999
 21
13.99999999999998
 31
0.0
  0
LINE
  5
16E
330
162
100
AcDbEntity
  8
AM_6
 62
     7
100
AcDbLine
 10
-109.9999999999999
 20
27.99999999999997
 30
0.0
 11
-109.9999999999999
 21
13.99999999999998
 31
0.0
  0
LINE
  5
16F
330
162
100
AcDbEntity
  8
AM_6
 62
     7
100
AcDbLine
 10
0.0
 20
27.99999999999997
 30
0.0
 11
0.0
 21
0.0
 31
0.0
  0
TEXT
  5
171
330
162
100
AcDbEntity
  8
AM_6
 62
     7
100
AcDbText
 10
-102.9390916948839
 20
1.453793852345341
 30
0.0
 40
3.000000119209289
  1
気密試験
  7
文字スタイル124
100
AcDbText
  0
TEXT
  5
173
330
162
100
AcDbEntity
  8
AM_6
 62
     7
100
AcDbText
 10
-102.9390916948839
 20
8.45379385234537
 30
0.0
 40
3.000000119209289
  1
耐圧試験
  7
文字スタイル124
100
AcDbText
  0
TEXT
  5
174
330
162
100
AcDbEntity
  8
AM_6
 62
     7
100
AcDbText
 10
-102.9390916948839
 20
15.45379385234532
 30
0.0
 40
3.000000119209289
  1
使用温度
  7
文字スタイル124
100
AcDbText
  0
TEXT
  5
175
330
162
100
AcDbEntity
  8
AM_6
 62
     7
100
AcDbText
 10
-102.9390916948839
 20
22.45379385234536
 30
0.0
 40
3.000000119209289
  1
使用圧力
  7
文字スタイル124
100
AcDbText
  0
TEXT
  5
177
330
162
100
AcDbEntity
  8
AM_6
 62
     7
100
AcDbText
 10
-18.76317222497654
 20
24.43990877602957
 30
0.0
 40
1.000000014901161
  1
2
  7
文字スタイル125
100
AcDbText
  0
TEXT
  5
178
330
162
100
AcDbEntity
  8
AM_6
 62
     7
100
AcDbText
 10
-65.4524935694148
 20
8.45379385234537
 30
0.0
 40
3.000000119209289
  1
1.96Mpa (20Kg/cm )
  7
文字スタイル124
100
AcDbText
  0
TEXT
  5
179
330
162
100
AcDbEntity
  8
AM_6
 62
     7
100
AcDbText
 10
-65.4524935694148
 20
1.453793852345341
 30
0.0
 40
3.000000119209289
  1
0.59Mpa (6Kg/cm )
  7
文字スタイル124
100
AcDbText
  0
TEXT
  5
17A
330
162
100
AcDbEntity
  8
AM_6
 62
     7
100
AcDbText
 10
-65.4524935694148
 20
22.45379385234536
 30
0.0
 40
3.000000119209289
  1
MAX　0.98Mpa (10Kg/cm )
  7
文字スタイル124
100
AcDbText
  0
TEXT
  5
17B
330
162
100
AcDbEntity
  8
AM_6
 62
     7
100
AcDbText
 10
-65.4524935694148
 20
15.45379385234532
 30
0.0
 40
3.000000119209289
  1
-10℃～+80℃（凍結無き事）
  7
文字スタイル124
100
AcDbText
  0
TEXT
  5
17C
330
162
100
AcDbEntity
  8
AM_6
 62
     7
100
AcDbText
 10
-30.27841636708135
 20
10.1899658992977
 30
0.0
 40
1.000000014901161
  1
2
  7
文字スタイル125
100
AcDbText
  0
TEXT
  5
17D
330
162
100
AcDbEntity
  8
AM_6
 62
     7
100
AcDbText
 10
-32.65625957956317
 20
3.592593427809589
 30
0.0
 40
1.000000014901161
  1
2
  7
文字スタイル125
100
AcDbText
  0
ENDBLK
  5
164
330
162
100
AcDbEntity
  8
0
100
AcDbBlockEnd
  0
BLOCK
  5
17F
330
17E
100
AcDbEntity
  8
0
100
AcDbBlockBegin
  2
バルブ開閉R1
 70
     0
 10
0.0
 20
0.0
 30
0.0
  3
バルブ開閉R1
  1

  0
ARC
  5
181
330
17E
100
AcDbEntity
  8
AM_6
 62
     7
100
AcDbCircle
 10
0.0
 20
0.0
 30
0.0
 40
31.60554310523806
100
AcDbArc
 50
202.1518571539441
 51
242.8481428460548
  0
LINE
  5
182
330
17E
100
AcDbEntity
  8
AM_6
 62
     7
100
AcDbLine
 10
-14.42320326968719
 20
-28.12261656422398
 30
0.0
 11
-17.42320326968716
 21
-28.12261656422381
 31
0.0
  0
LINE
  5
183
330
17E
100
AcDbEntity
  8
AM_6
 62
     7
100
AcDbLine
 10
-14.42320326968719
 20
-28.12261656422398
 30
0.0
 11
-16.54452361324683
 21
-26.00129622066435
 31
0.0
  0
LINE
  5
184
330
17E
100
AcDbEntity
  8
AM_6
 62
     7
100
AcDbLine
 10
-29.27266651151672
 20
-11.9172710920999
 30
0.0
 11
-29.27266651151651
 21
-14.91727109209995
 31
0.0
  0
LINE
  5
185
330
17E
100
AcDbEntity
  8
AM_6
 62
     7
100
AcDbLine
 10
-29.27266651151672
 20
-11.9172710920999
 30
0.0
 11
-27.15134616795709
 21
-14.03859143565954
 31
0.0
  0
TEXT
  5
187
330
17E
100
AcDbEntity
  8
AM_6
 62
     7
100
AcDbText
 10
-17.58938102507702
 20
-32.173637407816
 30
0.0
 40
2.000000029802322
  1
閉
  7
文字スタイル126
100
AcDbText
  0
TEXT
  5
188
330
17E
100
AcDbEntity
  8
AM_6
 62
     7
100
AcDbText
 10
-34.07208754498853
 20
-14.71927959924537
 30
0.0
 40
2.000000029802322
  1
開
  7
文字スタイル126
100
AcDbText
  0
ENDBLK
  5
180
330
17E
100
AcDbEntity
  8
0
100
AcDbBlockEnd
  0
BLOCK
  5
18A
330
189
100
AcDbEntity
  8
0
100
AcDbBlockBegin
  2
バルブ開閉R2
 70
     0
 10
0.0
 20
0.0
 30
0.0
  3
バルブ開閉R2
  1

  0
ARC
  5
18C
330
189
100
AcDbEntity
  8
AM_6
 62
     7
100
AcDbCircle
 10
0.0
 20
0.0
 30
0.0
 40
31.60554310523806
100
AcDbArc
 50
112.1518571539441
 51
152.8481428460544
  0
LINE
  5
18D
330
189
100
AcDbEntity
  8
AM_6
 62
     7
100
AcDbLine
 10
-28.12261656422434
 20
14.42320326968785
 30
0.0
 11
-28.12261656422432
 21
17.42320326968792
 31
0.0
  0
LINE
  5
18E
330
189
100
AcDbEntity
  8
AM_6
 62
     7
100
AcDbLine
 10
-28.12261656422434
 20
14.42320326968785
 30
0.0
 11
-26.00129622066479
 21
16.54452361324784
 31
0.0
  0
LINE
  5
18F
330
189
100
AcDbEntity
  8
AM_6
 62
     7
100
AcDbLine
 10
-11.91727109210028
 20
29.27266651151738
 30
0.0
 11
-14.91727109210039
 21
29.27266651151745
 31
0.0
  0
LINE
  5
190
330
189
100
AcDbEntity
  8
AM_6
 62
     7
100
AcDbLine
 10
-11.91727109210028
 20
29.27266651151738
 30
0.0
 11
-14.03859143566027
 21
27.1513461679576
 31
0.0
  0
TEXT
  5
191
330
189
100
AcDbEntity
  8
AM_6
 62
     7
100
AcDbText
 10
-15.08194606405059
 20
31.4147512872629
 30
0.0
 40
2.000000029802322
  1
閉
  7
文字スタイル126
100
AcDbText
  0
TEXT
  5
192
330
189
100
AcDbEntity
  8
AM_6
 62
     7
100
AcDbText
 10
-34.27398386649212
 20
14.82775972083301
 30
0.0
 40
2.000000029802322
  1
開
  7
文字スタイル126
100
AcDbText
  0
ENDBLK
  5
18B
330
189
100
AcDbEntity
  8
0
100
AcDbBlockEnd
  0
BLOCK
  5
194
330
193
100
AcDbEntity
  8
0
100
AcDbBlockBegin
  2
ｴｰｽﾎﾞｰﾙｿｹｯﾄ・本体注釈①
 70
     0
 10
0.0
 20
0.0
 30
0.0
  3
ｴｰｽﾎﾞｰﾙｿｹｯﾄ・本体注釈①
  1

  0
MTEXT
  5
196
330
193
100
AcDbEntity
  8
Symbol (ISO)
100
AcDbMText
 10
-27.82894849777225
 20
3.352206237614154
 30
0.0
 40
2.5
 41
0.0
 46
0.0
 71
     1
 72
     1
  1
※本体仮組時に　本体（φ6ｽﾄﾚｰﾄ）\P・ｿｹｯﾄの隙間を0.5㎜とする事。
  7
Note Text (JIS)
 73
     2
 44
1.058181881904602
  0
ENDBLK
  5
195
330
193
100
AcDbEntity
  8
0
100
AcDbBlockEnd
  0
BLOCK
  5
198
330
197
100
AcDbEntity
  8
0
100
AcDbBlockBegin
  2
バルブ仕様書①
 70
     0
 10
0.0
 20
0.0
 30
0.0
  3
バルブ仕様書①
  1

  0
LINE
  5
19A
330
197
100
AcDbEntity
  8
AM_6
 62
     7
100
AcDbLine
 10
-109.9999999999999
 20
27.99999999999997
 30
0.0
 11
0.0
 21
27.99999999999997
 31
0.0
  0
LINE
  5
19B
330
197
100
AcDbEntity
  8
AM_6
 62
     7
100
AcDbLine
 10
-109.9999999999999
 20
13.99999999999998
 30
0.0
 11
0.0
 21
13.99999999999998
 31
0.0
  0
LINE
  5
19C
330
197
100
AcDbEntity
  8
AM_6
 62
     7
100
AcDbLine
 10
-109.9999999999999
 20
20.99999999999994
 30
0.0
 11
0.0
 21
20.99999999999994
 31
0.0
  0
LINE
  5
19D
330
197
100
AcDbEntity
  8
AM_6
 62
     7
100
AcDbLine
 10
-109.9999999999999
 20
0.0
 30
0.0
 11
0.0
 21
0.0
 31
0.0
  0
LINE
  5
19E
330
197
100
AcDbEntity
  8
AM_6
 62
     7
100
AcDbLine
 10
-109.9999999999999
 20
6.999999999999957
 30
0.0
 11
0.0
 21
6.999999999999957
 31
0.0
  0
LINE
  5
19F
330
197
100
AcDbEntity
  8
AM_6
100
AcDbLine
 10
-109.9999999999999
 20
13.99999999999998
 30
0.0
 11
0.0
 21
13.99999999999998
 31
0.0
  0
LINE
  5
1A0
330
197
100
AcDbEntity
  8
AM_6
 62
     7
100
AcDbLine
 10
-79.99999999999997
 20
0.0
 30
0.0
 11
-79.99999999999997
 21
13.99999999999998
 31
0.0
  0
LINE
  5
1A1
330
197
100
AcDbEntity
  8
AM_6
 62
     7
100
AcDbLine
 10
-79.99999999999983
 20
27.99999999999997
 30
0.0
 11
-79.99999999999997
 21
13.99999999999998
 31
0.0
  0
LINE
  5
1A2
330
197
100
AcDbEntity
  8
AM_6
 62
     7
100
AcDbLine
 10
-109.9999999999999
 20
0.0
 30
0.0
 11
-109.9999999999999
 21
13.99999999999998
 31
0.0
  0
LINE
  5
1A3
330
197
100
AcDbEntity
  8
AM_6
 62
     7
100
AcDbLine
 10
-109.9999999999999
 20
27.99999999999997
 30
0.0
 11
-109.9999999999999
 21
13.99999999999998
 31
0.0
  0
LINE
  5
1A4
330
197
100
AcDbEntity
  8
AM_6
 62
     7
100
AcDbLine
 10
0.0
 20
27.99999999999997
 30
0.0
 11
0.0
 21
0.0
 31
0.0
  0
TEXT
  5
1A5
330
197
100
AcDbEntity
  8
AM_6
 62
     7
100
AcDbText
 10
-109.5569312552745
 20
1.35119169264982
 30
0.0
 40
3.000000119209289
  1
気密・耐圧試験
  7
文字スタイル124
100
AcDbText
  0
TEXT
  5
1A6
330
197
100
AcDbEntity
  8
AM_6
 62
     7
100
AcDbText
 10
-65.4524935694148
 20
1.453793852345341
 30
0.0
 40
3.000000119209289
  1
空圧 0.59Mpa 全数
  7
文字スタイル124
100
AcDbText
  0
TEXT
  5
1A8
330
197
100
AcDbEntity
  8
AM_6
100
AcDbText
 10
-32.65625957956317
 20
3.592593427809589
 30
0.0
 40
1.000000014901161
  1
2
  7
文字スタイル133
100
AcDbText
  0
ENDBLK
  5
199
330
197
100
AcDbEntity
  8
0
100
AcDbBlockEnd
  0
BLOCK
  5
1AA
330
1A9
100
AcDbEntity
  8
0
100
AcDbBlockBegin
  2
ストッパー加工注釈
 70
     0
 10
0.0
 20
0.0
 30
0.0
  3
ストッパー加工注釈
  1

  0
MTEXT
  5
1AC
330
1A9
100
AcDbEntity
  8
Symbol (ISO)
100
AcDbMText
 10
-19.48830366134647
 20
3.352206274867057
 30
0.0
 40
2.5
 41
0.0
 46
0.0
 71
     1
 72
     1
  1
※ハンドル開閉治具にて\P角度を確認する事。
  7
Note Text (JIS)
 73
     2
 44
1.058181881904602
  0
ENDBLK
  5
1AB
330
1A9
100
AcDbEntity
  8
0
100
AcDbBlockEnd
  0
BLOCK
  5
1AE
330
1AD
100
AcDbEntity
  8
0
100
AcDbBlockBegin
  2
三方弁説明A
 70
     0
 10
0.0
 20
0.0
 30
0.0
  3
三方弁説明A
  1

  0
MTEXT
  5
1B0
330
1AD
100
AcDbEntity
  8
Symbol (ISO)
100
AcDbMText
 10
-26.24561548233032
 20
4.643620708957314
 30
0.0
 40
1.500000059604644
 41
0.0
 46
0.0
 71
     1
 72
     1
  1
\fＭＳ Ｐゴシック|b0|i0;\H1.5000;※ハンドル位置Aの時、ポートEの圧力がポートF及び\P　ポートGより高い場合、ポートEからポートF及びポートG\P　に漏れが発生する場合が御座います。\P※流路切り替え途中は、流体が混流致します。
  7
Note Text (JIS)
 73
     2
 44
1.058181881904602
  0
ENDBLK
  5
1AF
330
1AD
100
AcDbEntity
  8
0
100
AcDbBlockEnd
  0
BLOCK
  5
1B2
330
1B1
100
AcDbEntity
  8
0
100
AcDbBlockBegin
  2
三方弁説明B
 70
     0
 10
0.0
 20
0.0
 30
0.0
  3
三方弁説明B
  1

  0
MTEXT
  5
1B4
330
1B1
100
AcDbEntity
  8
Symbol (ISO)
100
AcDbMText
 10
-26.10087871551514
 20
4.643620708957314
 30
0.0
 40
1.500000059604644
 41
0.0
 46
0.0
 71
     1
 72
     1
  1
\fＭＳ Ｐゴシック|b0|i0;\H1.5000;※ハンドル位置Bの時、ポートGの圧力がポートE及び\P　ポートFより高い場合、ポートGからポートE及びポートF\P　に漏れが発生する場合が御座います。\P※流路切り替え途中は、流体が混流致します。
  7
Note Text (JIS)
 73
     2
 44
1.058181881904602
  0
ENDBLK
  5
1B3
330
1B1
100
AcDbEntity
  8
0
100
AcDbBlockEnd
  0
BLOCK
  5
1B6
330
1B5
100
AcDbEntity
  8
0
100
AcDbBlockBegin
  2
三方弁説明C
 70
     0
 10
0.0
 20
0.0
 30
0.0
  3
三方弁説明C
  1

  0
MTEXT
  5
1B8
330
1B5
100
AcDbEntity
  8
Symbol (ISO)
100
AcDbMText
 10
-26.24561548233032
 20
8.611802766099572
 30
0.0
 40
1.500000059604644
 41
0.0
 46
0.0
 71
     1
 72
     1
  1
\fＭＳ Ｐゴシック|b0|i0;\H1.5000;※流路F→Gの時、ポートEの圧力がポートF及び\P　ポートGより高い場合、ポートEからポートF及びポートG\P　に漏れが発生する場合が御座います。\P　また、流路F→Eの時、ポートGの圧力がポートF及び\P　ポートEより高い場合、ポートGからポートF及びポートE\P　に漏れが発生する場合が御座います。 \P※流路切り替え途中は、流体が混流致します。
  7
Note Text (JIS)
 73
     2
 44
1.058181881904602
  0
ENDBLK
  5
1B7
330
1B5
100
AcDbEntity
  8
0
100
AcDbBlockEnd
  0
BLOCK
  5
1BA
330
1B9
100
AcDbEntity
  8
0
100
AcDbBlockBegin
  2
三方弁流れ方向
 70
     0
 10
0.0
 20
0.0
 30
0.0
  3
三方弁流れ方向
  1

  0
LINE
  5
1BC
330
1B9
100
AcDbEntity
  8
Sketch Geometry (ISO)
100
AcDbLine
 10
15.0
 20
5.75000000000001
 30
0.0
 11
15.0
 21
-4.249999999999989
 31
0.0
  0
LINE
  5
1BD
330
1B9
100
AcDbEntity
  8
Sketch Geometry (ISO)
100
AcDbLine
 10
15.0
 20
-4.249999999999989
 30
0.0
 11
25.0
 21
-4.249999999999989
 31
0.0
  0
LINE
  5
1BE
330
1B9
100
AcDbEntity
  8
Sketch Geometry (ISO)
100
AcDbLine
 10
25.0
 20
-4.249999999999989
 30
0.0
 11
22.40192378864668
 21
-5.75000000000001
 31
0.0
  0
LINE
  5
1BF
330
1B9
100
AcDbEntity
  8
Sketch Geometry (ISO)
100
AcDbLine
 10
25.0
 20
-4.249999999999989
 30
0.0
 11
22.4019237886467
 21
-2.749999999999985
 31
0.0
  0
LINE
  5
1C0
330
1B9
100
AcDbEntity
  8
Sketch Geometry (ISO)
100
AcDbLine
 10
-15.0
 20
5.75000000000001
 30
0.0
 11
-15.0
 21
-4.249999999999989
 31
0.0
  0
LINE
  5
1C1
330
1B9
100
AcDbEntity
  8
Sketch Geometry (ISO)
100
AcDbLine
 10
-15.0
 20
-4.249999999999989
 30
0.0
 11
-25.0
 21
-4.249999999999989
 31
0.0
  0
LINE
  5
1C2
330
1B9
100
AcDbEntity
  8
Sketch Geometry (ISO)
100
AcDbLine
 10
-25.0
 20
-4.249999999999989
 30
0.0
 11
-22.40192378864668
 21
-5.749999999999992
 31
0.0
  0
LINE
  5
1C3
330
1B9
100
AcDbEntity
  8
Sketch Geometry (ISO)
100
AcDbLine
 10
-25.0
 20
-4.249999999999989
 30
0.0
 11
-22.40192378864668
 21
-2.749999999999985
 31
0.0
  0
ENDBLK
  5
1BB
330
1B9
100
AcDbEntity
  8
0
100
AcDbBlockEnd
  0
ENDSEC
  0
SECTION
  2
ENTITIES
  0
MTEXT
  5
1C4
330
70
100
AcDbEntity
  8
Symbol (ISO)
100
AcDbMText
 10
148.9472183533245
 20
113.8745568814301
 30
0.0
 40
2.5
 41
61.43274784088136
 46
0.0
 71
     1
 72
     1
  1
{エースボールRV ストレート　BM-7911R}
  7
Note Text (JIS)
 73
     1
 44
1.5
  0
LINE
  5
1C5
330
70
100
AcDbEntity
  8
Visible (ISO)
100
AcDbLine
 10
95.35077985710723
 20
47.41786382430446
 30
0.0
 11
95.35077985710723
 21
67.41786382430446
 31
0.0
  0
LINE
  5
1C6
330
70
100
AcDbEntity
  8
Visible (ISO)
100
AcDbLine
 10
95.60077985710723
 20
67.16786382430446
 30
0.0
 11
95.60077985710723
 21
47.66786382430447
 31
0.0
  0
LINE
  5
1C7
330
70
100
AcDbEntity
  8
Visible (ISO)
100
AcDbLine
 10
95.60077985710723
 20
47.66786382430446
 30
0.0
 11
95.35077985710723
 21
47.41786382430446
 31
0.0
  0
LINE
  5
1C8
330
70
100
AcDbEntity
  8
Visible (ISO)
100
AcDbLine
 10
95.60077985710723
 20
67.16786382430448
 30
0.0
 11
95.35077985710723
 21
67.41786382430446
 31
0.0
  0
LINE
  5
1C9
330
70
100
AcDbEntity
  8
Visible (ISO)
100
AcDbLine
 10
93.48274586835733
 20
67.41786382430446
 30
0.0
 11
93.48274586835733
 21
47.41786382430446
 31
0.0
  0
ARC
  5
1CA
330
70
100
AcDbEntity
  8
Visible (ISO)
100
AcDbCircle
 10
94.60077985710723
 20
66.41786382430447
 30
0.0
 40
1.5
100
AcDbArc
 50
138.1896851042216
 51
180.0
  0
ARC
  5
1CB
330
70
100
AcDbEntity
  8
Visible (ISO)
100
AcDbCircle
 10
94.60077985710723
 20
48.41786382430446
 30
0.0
 40
1.5
100
AcDbArc
 50
180.0
 51
221.8103148957783
  0
LINE
  5
1CC
330
70
100
AcDbEntity
  8
Visible (ISO)
100
AcDbLine
 10
77.71881384585713
 20
47.41786382430446
 30
0.0
 11
77.71881384585713
 21
67.41786382430446
 31
0.0
  0
ARC
  5
1CD
330
70
100
AcDbEntity
  8
Visible (ISO)
100
AcDbCircle
 10
76.60077985710723
 20
48.41786382430446
 30
0.0
 40
1.5
100
AcDbArc
 50
318.1896851042212
 51
0.0
  0
ARC
  5
1CE
330
70
100
AcDbEntity
  8
Visible (ISO)
100
AcDbCircle
 10
76.60077985710723
 20
66.41786382430447
 30
0.0
 40
1.5
100
AcDbArc
 50
0.0
 51
41.81031489577882
  0
LINE
  5
1CF
330
70
100
AcDbEntity
  8
Visible (ISO)
100
AcDbLine
 10
75.71881384585712
 20
47.41786382430446
 30
0.0
 11
75.71881384585712
 21
67.41786382430446
 31
0.0
  0
LINE
  5
1D0
330
70
100
AcDbEntity
  8
Visible (ISO)
100
AcDbLine
 10
75.71881384585712
 20
67.41786382430446
 30
0.0
 11
77.71881384585713
 21
67.41786382430446
 31
0.0
  0
LINE
  5
1D1
330
70
100
AcDbEntity
  8
Visible (ISO)
100
AcDbLine
 10
75.71881384585712
 20
47.41786382430446
 30
0.0
 11
77.71881384585713
 21
47.41786382430446
 31
0.0
  0
LINE
  5
1D2
330
70
100
AcDbEntity
  8
Visible (ISO)
100
AcDbLine
 10
73.60077985710723
 20
63.86786382430447
 30
0.0
 11
75.71881384585712
 21
67.41786382430446
 31
0.0
  0
LINE
  5
1D3
330
70
100
AcDbEntity
  8
Visible (ISO)
100
AcDbLine
 10
73.60077985710723
 20
50.96786382430448
 30
0.0
 11
75.71881384585712
 21
47.41786382430446
 31
0.0
  0
LINE
  5
1D4
330
70
100
AcDbEntity
  8
Visible (ISO)
100
AcDbLine
 10
92.73038135760286
 20
62.4178638287659
 30
0.0
 11
78.4711783566116
 21
62.4178638287659
 31
0.0
  0
LINE
  5
1D5
330
70
100
AcDbEntity
  8
Visible (ISO)
100
AcDbLine
 10
92.73038135568873
 20
52.4178638287659
 30
0.0
 11
78.47117835852575
 21
52.4178638287659
 31
0.0
  0
LINE
  5
1D6
330
70
100
AcDbEntity
  8
Visible (ISO)
100
AcDbLine
 10
95.35077985710723
 20
47.41786382430446
 30
0.0
 11
93.48274586835733
 21
47.41786382430446
 31
0.0
  0
LINE
  5
1D7
330
70
100
AcDbEntity
  8
Visible (ISO)
100
AcDbLine
 10
95.35077985710723
 20
67.41786382430446
 30
0.0
 11
93.48274586835733
 21
67.41786382430446
 31
0.0
  0
ARC
  5
1D8
330
70
100
AcDbEntity
  8
Visible (ISO)
100
AcDbCircle
 10
79.20077985710722
 20
66.41786382430447
 30
0.0
 40
0.5
100
AcDbArc
 50
270.0
 51
0.0
  0
ARC
  5
1D9
330
70
100
AcDbEntity
  8
Visible (ISO)
100
AcDbCircle
 10
92.00077985710723
 20
66.41786382430447
 30
0.0
 40
0.5
100
AcDbArc
 50
180.0
 51
270.0
  0
LINE
  5
1DA
330
70
100
AcDbEntity
  8
Visible (ISO)
100
AcDbLine
 10
79.70077985710723
 20
66.41786382430447
 30
0.0
 11
79.70077985710723
 21
67.91786382430446
 31
0.0
  0
LINE
  5
1DB
330
70
100
AcDbEntity
  8
Visible (ISO)
100
AcDbLine
 10
91.50077985710723
 20
66.41786382430447
 30
0.0
 11
91.50077985710723
 21
67.91786382430446
 31
0.0
  0
LINE
  5
1DC
330
70
100
AcDbEntity
  8
Visible (ISO)
100
AcDbLine
 10
78.60077985710723
 20
65.91786382430448
 30
0.0
 11
79.20077985710722
 21
65.91786382430448
 31
0.0
  0
LINE
  5
1DD
330
70
100
AcDbEntity
  8
Visible (ISO)
100
AcDbLine
 10
92.00077985710723
 20
65.91786382430448
 30
0.0
 11
92.60077985710722
 21
65.91786382430448
 31
0.0
  0
LINE
  5
1DE
330
70
100
AcDbEntity
  8
Visible (ISO)
100
AcDbLine
 10
78.60077985710723
 20
48.91786382430446
 30
0.0
 11
92.60077985710722
 21
48.91786382430446
 31
0.0
  0
ARC
  5
1DF
330
70
100
AcDbEntity
  8
Visible (ISO)
100
AcDbCircle
 10
78.60077985710723
 20
48.41786382430446
 30
0.0
 40
0.5
100
AcDbArc
 50
90.00000000000103
 51
180.0
  0
ARC
  5
1E0
330
70
100
AcDbEntity
  8
Visible (ISO)
100
AcDbCircle
 10
78.60077985710723
 20
66.41786382430447
 30
0.0
 40
0.5
100
AcDbArc
 50
180.0
 51
270.0
  0
ARC
  5
1E1
330
70
100
AcDbEntity
  8
Visible (ISO)
100
AcDbCircle
 10
92.60077985710722
 20
48.41786382430446
 30
0.0
 40
0.5
100
AcDbArc
 50
0.0
 51
90.0
  0
ARC
  5
1E2
330
70
100
AcDbEntity
  8
Visible (ISO)
100
AcDbCircle
 10
92.60077985710722
 20
66.41786382430447
 30
0.0
 40
0.5
100
AcDbArc
 50
270.0
 51
0.0
  0
SPLINE
  5
1E3
330
70
100
AcDbEntity
  8
Visible (ISO)
100
AcDbSpline
210
0.0
220
0.0
230
1.0
 70
    12
 71
     2
 72
     6
 73
     3
 74
     0
 42
0.000000001
 43
0.0000000001
 40
0.0906100100638159
 40
0.0906100100638159
 40
0.0906100100638159
 40
1.118728652180966
 40
1.118728652180966
 40
1.118728652180966
 10
96.50430680295947
 20
52.51038653619264
 30
0.0
 41
1.030578586555896
 10
95.08764013629281
 20
50.05664789213675
 30
0.0
 41
1.190009648738219
 10
96.50430680295947
 20
47.60290924808083
 30
0.0
 41
1.030578586555896
  0
SPLINE
  5
1E4
330
70
100
AcDbEntity
  8
Visible (ISO)
100
AcDbSpline
210
0.0
220
0.0
230
1.0
 70
    12
 71
     2
 72
     6
 73
     3
 74
     0
 42
0.000000001
 43
0.0000000001
 40
0.0906100100638158
 40
0.0906100100638158
 40
0.0906100100638158
 40
1.118728652180967
 40
1.118728652180967
 40
1.118728652180967
 10
96.50430680295947
 20
62.32534111241628
 30
0.0
 41
1.030578586555896
 10
95.0876401362928
 20
57.41786382430446
 30
0.0
 41
1.190009648738221
 10
96.50430680295947
 20
52.51038653619264
 30
0.0
 41
1.030578586555896
  0
SPLINE
  5
1E5
330
70
100
AcDbEntity
  8
Visible (ISO)
100
AcDbSpline
210
0.0
220
0.0
230
1.0
 70
    12
 71
     2
 72
     6
 73
     3
 74
     0
 42
0.000000001
 43
0.0000000001
 40
0.0906100100638164
 40
0.0906100100638164
 40
0.0906100100638164
 40
1.118728652180967
 40
1.118728652180967
 40
1.118728652180967
 10
96.50430680295947
 20
67.23281840052809
 30
0.0
 41
1.030578586555896
 10
95.08764013629281
 20
64.77907975647219
 30
0.0
 41
1.19000964873822
 10
96.50430680295947
 20
62.32534111241628
 30
0.0
 41
1.030578586555896
  0
LINE
  5
1E6
330
70
100
AcDbEntity
  8
Visible (ISO)
100
AcDbLine
 10
95.60077985710723
 20
65.66786382430447
 30
0.0
 11
96.50430680295947
 21
67.23281840052809
 31
0.0
  0
LINE
  5
1E7
330
70
100
AcDbEntity
  8
Visible (ISO)
100
AcDbLine
 10
95.60077985710723
 20
49.16786382430446
 30
0.0
 11
96.50430680295947
 21
47.60290924808082
 31
0.0
  0
LINE
  5
1E8
330
70
100
AcDbEntity
  8
Visible (ISO)
100
AcDbLine
 10
96.50430680295947
 20
62.32534111241628
 30
0.0
 11
107.6972529112549
 21
62.32534111241628
 31
0.0
  0
LINE
  5
1E9
330
70
100
AcDbEntity
  8
Visible (ISO)
100
AcDbLine
 10
96.50430680295947
 20
67.23281840052809
 30
0.0
 11
107.6972529112549
 21
67.23281840052809
 31
0.0
  0
LINE
  5
1EA
330
70
100
AcDbEntity
  8
Visible (ISO)
100
AcDbLine
 10
96.50430680295947
 20
52.51038653619264
 30
0.0
 11
107.6972529112549
 21
52.51038653619264
 31
0.0
  0
LINE
  5
1EB
330
70
100
AcDbEntity
  8
Visible (ISO)
100
AcDbLine
 10
96.50430680295947
 20
47.60290924808083
 30
0.0
 11
107.6972529112549
 21
47.60290924808083
 31
0.0
  0
SPLINE
  5
1EC
330
70
100
AcDbEntity
  8
Visible (ISO)
100
AcDbSpline
210
0.0
220
0.0
230
1.0
 70
    12
 71
     2
 72
     6
 73
     3
 74
     0
 42
0.000000001
 43
0.0000000001
 40
0.0906100100638165
 40
0.0906100100638165
 40
0.0906100100638165
 40
1.118728652180968
 40
1.118728652180968
 40
1.118728652180968
 10
107.6972529112549
 20
62.32534111241628
 30
0.0
 41
1.030578586555896
 10
109.1139195779216
 20
64.77907975647219
 30
0.0
 41
1.19000964873822
 10
107.6972529112549
 20
67.23281840052809
 30
0.0
 41
1.030578586555896
  0
SPLINE
  5
1ED
330
70
100
AcDbEntity
  8
Visible (ISO)
100
AcDbSpline
210
0.0
220
0.0
230
1.0
 70
    12
 71
     2
 72
     6
 73
     3
 74
     0
 42
0.000000001
 43
0.0000000001
 40
0.0906100100638162
 40
0.0906100100638162
 40
0.0906100100638162
 40
1.118728652180968
 40
1.118728652180968
 40
1.118728652180968
 10
107.6972529112549
 20
52.51038653619264
 30
0.0
 41
1.030578586555896
 10
109.1139195779216
 20
57.41786382430447
 30
0.0
 41
1.19000964873822
 10
107.6972529112549
 20
62.32534111241628
 30
0.0
 41
1.030578586555896
  0
SPLINE
  5
1EE
330
70
100
AcDbEntity
  8
Visible (ISO)
100
AcDbSpline
210
0.0
220
0.0
230
1.0
 70
    12
 71
     2
 72
     6
 73
     3
 74
     0
 42
0.000000001
 43
0.0000000001
 40
0.0906100100638159
 40
0.0906100100638159
 40
0.0906100100638159
 40
1.118728652180966
 40
1.118728652180966
 40
1.118728652180966
 10
107.6972529112549
 20
47.60290924808083
 30
0.0
 41
1.030578586555896
 10
109.1139195779216
 20
50.05664789213675
 30
0.0
 41
1.190009648738221
 10
107.6972529112549
 20
52.51038653619264
 30
0.0
 41
1.030578586555896
  0
LINE
  5
1EF
330
70
100
AcDbEntity
  8
Visible (ISO)
100
AcDbLine
 10
108.6007798571072
 20
49.16786382430448
 30
0.0
 11
108.6007798571072
 21
65.66786382430446
 31
0.0
  0
LINE
  5
1F0
330
70
100
AcDbEntity
  8
Visible (ISO)
100
AcDbLine
 10
108.6007798571072
 20
49.16786382430448
 30
0.0
 11
107.6972529112549
 21
47.60290924808083
 31
0.0
  0
LINE
  5
1F1
330
70
100
AcDbEntity
  8
Visible (ISO)
100
AcDbLine
 10
108.6007798571072
 20
65.66786382430447
 30
0.0
 11
107.6972529112549
 21
67.23281840052809
 31
0.0
  0
LINE
  5
1F2
330
70
100
AcDbEntity
  8
Visible (ISO)
100
AcDbLine
 10
48.60077985710721
 20
61.41786382430449
 30
0.0
 11
48.60077985710721
 21
53.41786382430446
 31
0.0
  0
LINE
  5
1F3
330
70
100
AcDbEntity
  8
Visible (ISO)
100
AcDbLine
 10
49.9557279165506
 20
52.63558419744684
 30
0.0
 11
49.9557279165506
 21
62.20014345116211
 31
0.0
  0
LINE
  5
1F4
330
70
100
AcDbEntity
  8
Visible (ISO)
100
AcDbLine
 10
48.60077985710721
 20
61.41786382430449
 30
0.0
 11
49.95572791655061
 21
62.20014345116211
 31
0.0
  0
LINE
  5
1F5
330
70
100
AcDbEntity
  8
Visible (ISO)
100
AcDbLine
 10
48.60077985710721
 20
53.41786382430446
 30
0.0
 11
49.95572791655061
 21
52.63558419744684
 31
0.0
  0
LINE
  5
1F6
330
70
100
AcDbEntity
  8
Visible (ISO)
100
AcDbLine
 10
73.60077985710721
 20
65.1678638243045
 30
0.0
 11
73.60077985710721
 21
49.66786382430445
 31
0.0
  0
LINE
  5
1F7
330
70
100
AcDbEntity
  8
Visible (ISO)
100
AcDbLine
 10
73.10077985710721
 20
49.16786382430444
 30
0.0
 11
73.10077985710721
 21
65.6678638243045
 31
0.0
  0
LINE
  5
1F8
330
70
100
AcDbEntity
  8
Visible (ISO)
100
AcDbLine
 10
73.60077985710721
 20
49.66786382430445
 30
0.0
 11
73.10077985710721
 21
49.16786382430444
 31
0.0
  0
LINE
  5
1F9
330
70
100
AcDbEntity
  8
Visible (ISO)
100
AcDbLine
 10
73.60077985710721
 20
65.1678638243045
 30
0.0
 11
73.10077985710721
 21
65.6678638243045
 31
0.0
  0
LINE
  5
1FA
330
70
100
AcDbEntity
  8
Visible (ISO)
100
AcDbLine
 10
68.60077985710721
 20
65.6678638243045
 30
0.0
 11
68.60077985710721
 21
49.16786382430444
 31
0.0
  0
SPLINE
  5
1FB
330
70
100
AcDbEntity
  8
Visible (ISO)
100
AcDbSpline
210
0.0
220
0.0
230
1.0
 70
     8
 71
     3
 72
     8
 73
     4
 74
     0
 42
0.000000001
 43
0.0000000001
 40
4.069807177831918
 40
4.069807177831918
 40
4.069807177831918
 40
4.069807177831918
 40
4.177141633641301
 40
4.177141633641301
 40
4.177141633641301
 40
4.177141633641301
 10
68.00001578629459
 20
66.644221694071
 30
0.0
 10
67.99990716905272
 20
66.68781444559238
 30
0.0
 10
67.99985616909305
 20
66.70869418341673
 30
0.0
 10
67.99985811005088
 20
66.70869082157913
 30
0.0
  0
SPLINE
  5
1FC
330
70
100
AcDbEntity
  8
Visible (ISO)
100
AcDbSpline
210
0.0
220
0.0
230
1.0
 70
    12
 71
     2
 72
     6
 73
     3
 74
     0
 42
0.000000001
 43
0.0000000001
 40
0.3006518795303234
 40
0.3006518795303234
 40
0.3006518795303234
 40
1.116895000892569
 40
1.116895000892569
 40
1.116895000892569
 10
68.00924669643658
 20
62.99559181423939
 30
0.0
 41
1.09632949238759
 10
68.83263296870734
 20
64.81833564189044
 30
0.0
 41
1.191760651112331
 10
68.00001578629459
 20
66.644221694071
 30
0.0
 41
1.09534617560246
  0
SPLINE
  5
1FD
330
70
100
AcDbEntity
  8
Visible (ISO)
100
AcDbSpline
210
0.0
220
0.0
230
1.0
 70
     8
 71
     3
 72
     8
 73
     4
 74
     0
 42
0.000000001
 43
0.0000000001
 40
3.142730343253001
 40
3.142730343253001
 40
3.142730343253001
 40
3.142730343253001
 40
3.350046463570446
 40
3.350046463570446
 40
3.350046463570446
 40
3.350046463570446
 10
68.01404202064968
 20
61.10732070181907
 30
0.0
 10
68.01232849380622
 20
61.78154688920244
 30
0.0
 10
68.01070586187806
 20
62.42054567380911
 30
0.0
 10
68.00924669643658
 20
62.99559181423939
 30
0.0
  0
SPLINE
  5
1FE
330
70
100
AcDbEntity
  8
Visible (ISO)
100
AcDbSpline
210
0.0
220
0.0
230
1.0
 70
    12
 71
     2
 72
     6
 73
     3
 74
     0
 42
0.000000001
 43
0.0000000001
 40
0.3064726505217272
 40
0.3064726505217272
 40
0.3064726505217272
 40
1.12460892804115
 40
1.12460892804115
 40
1.12460892804115
 10
68.0326370799728
 20
53.81006094215583
 30
0.0
 41
1.099025857728922
 10
68.85424180756544
 20
57.45233884442242
 30
0.0
 41
1.194910445299147
 10
68.01404202064968
 20
61.10732070181907
 30
0.0
 41
1.097033496993508
  0
SPLINE
  5
1FF
330
70
100
AcDbEntity
  8
Visible (ISO)
100
AcDbSpline
210
0.0
220
0.0
230
1.0
 70
     8
 71
     3
 72
     8
 73
     4
 74
     0
 42
0.000000001
 43
0.0000000001
 40
2.216470488730172
 40
2.216470488730172
 40
2.216470488730172
 40
2.216470488730172
 40
2.423615995643402
 40
2.423615995643402
 40
2.423615995643402
 40
2.423615995643402
 10
68.03746532181441
 20
51.92178982973551
 30
0.0
 10
68.03599296865602
 20
52.49714190225744
 30
0.0
 10
68.0343589142972
 20
53.13615361569993
 30
0.0
 10
68.0326370799728
 20
53.81006094215583
 30
0.0
  0
SPLINE
  5
200
330
70
100
AcDbEntity
  8
Visible (ISO)
100
AcDbSpline
210
0.0
220
0.0
230
1.0
 70
    12
 71
     2
 72
     6
 73
     3
 74
     0
 42
0.000000001
 43
0.0000000001
 40
0.3080391888845127
 40
0.3080391888845127
 40
0.3080391888845127
 40
1.128103576883222
 40
1.128103576883222
 40
1.128103576883222
 10
68.04683011509935
 20
48.27315994990389
 30
0.0
 41
1.100752842583186
 10
68.8759865445413
 20
50.0958697540928
 30
0.0
 41
1.19810688667043
 10
68.03746532181441
 20
51.92178982973551
 30
0.0
 41
1.0997435627778
  0
SPLINE
  5
201
330
70
100
AcDbEntity
  8
Visible (ISO)
100
AcDbSpline
210
0.0
220
0.0
230
1.0
 70
     8
 71
     3
 72
     8
 73
     4
 74
     0
 42
0.000000001
 43
0.0000000001
 40
1.389644906812266
 40
1.389644906812266
 40
1.389644906812266
 40
1.389644906812266
 40
1.496940739665217
 40
1.496940739665217
 40
1.496940739665217
 40
1.496940739665217
 10
68.04700106578325
 20
48.20869082198992
 30
0.0
 10
68.04699911686253
 20
48.20869084260035
 30
0.0
 10
68.04694370684683
 20
48.22956124480622
 30
0.0
 10
68.04683011509935
 20
48.27315994990389
 30
0.0
  0
LINE
  5
202
330
70
100
AcDbEntity
  8
Visible (ISO)
100
AcDbLine
 10
68.60077985710721
 20
49.16786382430444
 30
0.0
 11
68.04700106625581
 21
48.20869082239576
 31
0.0
  0
LINE
  5
203
330
70
100
AcDbEntity
  8
Visible (ISO)
100
AcDbLine
 10
68.60077985710721
 20
65.6678638243045
 30
0.0
 11
67.99985811005088
 21
66.70869082157913
 31
0.0
  0
LINE
  5
204
330
70
100
AcDbEntity
  8
Visible (ISO)
100
AcDbLine
 10
59.16892263424163
 20
53.81006094215583
 30
0.0
 11
68.0326370799728
 21
53.81006094215583
 31
0.0
  0
LINE
  5
205
330
70
100
AcDbEntity
  8
Visible (ISO)
100
AcDbLine
 10
59.16409439240002
 20
51.92178982973551
 30
0.0
 11
68.03746532181441
 21
51.92178982973551
 31
0.0
  0
LINE
  5
206
330
70
100
AcDbEntity
  8
Visible (ISO)
100
AcDbLine
 10
59.18751769356475
 20
61.10732070181907
 30
0.0
 11
68.01404202064968
 21
61.10732070181907
 31
0.0
  0
LINE
  5
207
330
70
100
AcDbEntity
  8
Visible (ISO)
100
AcDbLine
 10
59.19231301777784
 20
62.99559181423939
 30
0.0
 11
68.00924669643658
 21
62.99559181423939
 31
0.0
  0
LINE
  5
208
330
70
100
AcDbEntity
  8
Visible (ISO)
100
AcDbLine
 10
59.20154392791983
 20
66.644221694071
 30
0.0
 11
68.00001578629459
 21
66.644221694071
 31
0.0
  0
LINE
  5
209
330
70
100
AcDbEntity
  8
Visible (ISO)
100
AcDbLine
 10
59.15472959911507
 20
48.27315994990389
 30
0.0
 11
68.04683011509935
 21
48.27315994990389
 31
0.0
  0
LINE
  5
20A
330
70
100
AcDbEntity
  8
Visible (ISO)
100
AcDbLine
 10
59.20170160463403
 20
66.70869082198747
 30
0.0
 11
67.9998581095804
 21
66.70869082198747
 31
0.0
  0
LINE
  5
20B
330
70
100
AcDbEntity
  8
Visible (ISO)
100
AcDbLine
 10
59.15455864843117
 20
48.20869082198741
 30
0.0
 11
68.04700106578325
 21
48.20869082198741
 31
0.0
  0
SPLINE
  5
20C
330
70
100
AcDbEntity
  8
Visible (ISO)
100
AcDbSpline
210
0.0
220
0.0
230
1.0
 70
     8
 71
     3
 72
     8
 73
     4
 74
     0
 42
0.000000001
 43
0.0000000001
 40
0.3556738930599403
 40
0.3556738930599403
 40
0.3556738930599403
 40
0.3556738930599403
 40
0.5628193999731695
 40
0.5628193999731695
 40
0.5628193999731695
 40
0.5628193999731695
 10
59.16892263424163
 20
53.81006094215583
 30
0.0
 10
59.16720091486769
 20
53.13619860470925
 30
0.0
 10
59.16556680242901
 20
52.4971641408883
 30
0.0
 10
59.16409439240002
 20
51.92178982973551
 30
0.0
  0
SPLINE
  5
20D
330
70
100
AcDbEntity
  8
Visible (ISO)
100
AcDbSpline
210
0.0
220
0.0
230
1.0
 70
    12
 71
     2
 72
     6
 73
     3
 74
     0
 42
0.000000001
 43
0.0000000001
 40
0.2980601315551571
 40
0.2980601315551571
 40
0.2980601315551571
 40
1.116196409074581
 40
1.116196409074581
 40
1.116196409074581
 10
59.18751769356475
 20
61.10732070181907
 30
0.0
 41
1.097033496993509
 10
58.34731790664889
 20
57.45233884441822
 30
0.0
 41
1.194910445299148
 10
59.16892263424164
 20
53.81006094215583
 30
0.0
 41
1.099025857728923
  0
SPLINE
  5
20E
330
70
100
AcDbEntity
  8
Visible (ISO)
100
AcDbSpline
210
0.0
220
0.0
230
1.0
 70
     8
 71
     3
 72
     8
 73
     4
 74
     0
 42
0.000000001
 43
0.0000000001
 40
5.004219356527671
 40
5.004219356527671
 40
5.004219356527671
 40
5.004219356527671
 40
5.211535476845116
 40
5.211535476845116
 40
5.211535476845116
 40
5.211535476845116
 10
59.19231301777784
 20
62.99559181423939
 30
0.0
 10
59.1908539548784
 20
62.42058605899368
 30
0.0
 10
59.1892314155281
 20
61.78162366785851
 30
0.0
 10
59.18751769356475
 20
61.10732070181907
 30
0.0
  0
SPLINE
  5
20F
330
70
100
AcDbEntity
  8
Visible (ISO)
100
AcDbSpline
210
0.0
220
0.0
230
1.0
 70
    12
 71
     2
 72
     6
 73
     3
 74
     0
 42
0.000000001
 43
0.0000000001
 40
0.2964681744114426
 40
0.2964681744114426
 40
0.2964681744114426
 40
1.112711295773689
 40
1.112711295773689
 40
1.112711295773689
 10
59.20154392791983
 20
66.644221694071
 30
0.0
 41
1.09534617560246
 10
58.36892674550707
 20
64.81833564188881
 30
0.0
 41
1.19176065111233
 10
59.19231301777784
 20
62.99559181423939
 30
0.0
 41
1.09632949238759
  0
SPLINE
  5
210
330
70
100
AcDbEntity
  8
Visible (ISO)
100
AcDbSpline
210
0.0
220
0.0
230
1.0
 70
     8
 71
     3
 72
     8
 73
     4
 74
     0
 42
0.000000001
 43
0.0000000001
 40
4.177132878058755
 40
4.177132878058755
 40
4.177132878058755
 40
4.177132878058755
 40
4.284458642266199
 40
4.284458642266199
 40
4.284458642266199
 40
4.284458642266199
 10
59.20170160463403
 20
66.70869082198501
 30
0.0
 10
59.20170353686138
 20
66.70869080171861
 30
0.0
 10
59.20165253636624
 20
66.68781091559039
 30
0.0
 10
59.20154392791983
 20
66.644221694071
 30
0.0
  0
SPLINE
  5
211
330
70
100
AcDbEntity
  8
Visible (ISO)
100
AcDbSpline
210
0.0
220
0.0
230
1.0
 70
     8
 71
     3
 72
     8
 73
     4
 74
     0
 42
0.000000001
 43
0.0000000001
 40
1.28234914903812
 40
1.28234914903812
 40
1.28234914903812
 40
1.28234914903812
 40
1.389653673492769
 40
1.389653673492769
 40
1.389653673492769
 40
1.389653673492769
 10
59.15472959911507
 20
48.27315994990389
 30
0.0
 10
59.15461599816599
 20
48.22955771305135
 30
0.0
 10
59.1545605883752
 20
48.20868746149565
 30
0.0
 10
59.15455864795861
 20
48.20869082239576
 30
0.0
  0
SPLINE
  5
212
330
70
100
AcDbEntity
  8
Visible (ISO)
100
AcDbSpline
210
0.0
220
0.0
230
1.0
 70
    12
 71
     2
 72
     6
 73
     3
 74
     0
 42
0.000000001
 43
0.0000000001
 40
0.3038102620679232
 40
0.3038102620679232
 40
0.3038102620679232
 40
1.123874650066634
 40
1.123874650066634
 40
1.123874650066634
 10
59.16409439240002
 20
51.92178982973551
 30
0.0
 41
1.099743562777801
 10
58.32557316967308
 20
50.0958697540901
 30
0.0
 41
1.19810688667043
 10
59.15472959911507
 20
48.27315994990389
 30
0.0
 41
1.100752842583186
  0
LINE
  5
213
330
70
100
AcDbEntity
  8
Visible (ISO)
100
AcDbLine
 10
58.60077985710721
 20
65.6678638243045
 30
0.0
 11
58.60077985710721
 21
49.16786382430444
 31
0.0
  0
LINE
  5
214
330
70
100
AcDbEntity
  8
Visible (ISO)
100
AcDbLine
 10
58.60077985710721
 20
65.6678638243045
 30
0.0
 11
59.20170160416354
 21
66.70869082157913
 31
0.0
  0
LINE
  5
215
330
70
100
AcDbEntity
  8
Visible (ISO)
100
AcDbLine
 10
58.60077985710721
 20
49.16786382430444
 30
0.0
 11
59.15455864795861
 21
48.20869082239576
 31
0.0
  0
LINE
  5
216
330
70
100
AcDbEntity
  8
Visible (ISO)
100
AcDbLine
 10
49.9557279165506
 20
62.20014345116211
 30
0.0
 11
58.60077985710721
 21
62.47030132430449
 31
0.0
  0
LINE
  5
217
330
70
100
AcDbEntity
  8
Visible (ISO)
100
AcDbLine
 10
49.9557279165506
 20
52.63558419744684
 30
0.0
 11
58.60077985710721
 21
52.36542632430445
 31
0.0
  0
LINE
  5
218
330
70
100
AcDbEntity
  8
Visible (ISO)
100
AcDbLine
 10
68.60077985710721
 20
65.6678638243045
 30
0.0
 11
73.10077985710721
 21
65.6678638243045
 31
0.0
  0
LINE
  5
219
330
70
100
AcDbEntity
  8
Visible (ISO)
100
AcDbLine
 10
68.60077985710721
 20
49.16786382430444
 30
0.0
 11
73.10077985710721
 21
49.16786382430444
 31
0.0
  0
ARC
  5
21A
330
70
100
AcDbEntity
  8
Visible (ISO)
100
AcDbCircle
 10
99.60077985710723
 20
83.93681934768217
 30
0.0
 40
5.999999999999998
100
AcDbArc
 50
264.4198332155256
 51
0.0
  0
LINE
  5
21B
330
70
100
AcDbEntity
  8
Visible (ISO)
100
AcDbLine
 10
105.6007798571072
 20
85.91786382430447
 30
0.0
 11
105.6007798571072
 21
83.93681934768215
 31
0.0
  0
ARC
  5
21C
330
70
100
AcDbEntity
  8
Visible (ISO)
100
AcDbCircle
 10
99.98973342137299
 20
87.91786382430448
 30
0.0
 40
10.0
100
AcDbArc
 50
203.5781784782018
 51
264.4198332155255
  0
LINE
  5
21D
330
70
100
AcDbEntity
  8
Visible (ISO)
100
AcDbLine
 10
107.7762167186439
 20
85.91786382430447
 30
0.0
 11
105.6007798571072
 21
85.91786382430447
 31
0.0
  0
LINE
  5
21E
330
70
100
AcDbEntity
  8
Visible (ISO)
100
AcDbLine
 10
125.6007798571072
 20
85.91786382430447
 30
0.0
 11
107.7762167186439
 21
85.91786382430447
 31
0.0
  0
ARC
  5
21F
330
70
100
AcDbEntity
  8
Visible (ISO)
100
AcDbCircle
 10
120.6007798571072
 20
78.91786382430447
 30
0.0
 40
4.999999999999995
100
AcDbArc
 50
270.0
 51
0.0
  0
LINE
  5
220
330
70
100
AcDbEntity
  8
Visible (ISO)
100
AcDbLine
 10
112.6007798571072
 20
73.91786382430447
 30
0.0
 11
120.6007798571072
 21
73.91786382430447
 31
0.0
  0
SPLINE
  5
221
330
70
100
AcDbEntity
  8
Visible (ISO)
100
AcDbSpline
210
0.0
220
0.0
230
1.0
 70
     8
 71
     3
 72
    14
 73
    10
 74
     0
 42
0.000000001
 43
0.0000000001
 40
0.0979815127343829
 40
0.0979815127343829
 40
0.0979815127343829
 40
0.0979815127343829
 40
0.1506624850332004
 40
0.1506624850332004
 40
0.3013249700664007
 40
0.3013249700664007
 40
0.4554237426914714
 40
0.4554237426914714
 40
0.5051911393277391
 40
0.5051911393277391
 40
0.5051911393277391
 40
0.5051911393277391
 10
92.10077985710723
 20
67.91786382430448
 30
0.0
 10
92.14697475224332
 20
68.09677588384634
 30
0.0
 10
92.20590666541211
 20
68.27347218094303
 30
0.0
 10
92.47928434852168
 20
68.93531660742711
 30
0.0
 10
92.78387457052261
 20
69.38166445764213
 30
0.0
 10
93.48972063281907
 20
70.09380010988576
 30
0.0
 10
93.94130190067903
 20
70.40445013919726
 30
0.0
 10
94.59578467831844
 20
70.67700320701056
 30
0.0
 10
94.75992069732852
 20
70.73312580508289
 30
0.0
 10
94.92606624654488
 20
70.77821757581164
 30
0.0
  0
LINE
  5
222
330
70
100
AcDbEntity
  8
Visible (ISO)
100
AcDbLine
 10
94.9260662465449
 20
70.77821757581164
 30
0.0
 11
100.7062993475432
 21
72.34696827047828
 31
0.0
  0
SPLINE
  5
223
330
70
100
AcDbEntity
  8
Visible (ISO)
100
AcDbSpline
210
0.0
220
0.0
230
1.0
 70
     8
 71
     3
 72
    10
 73
     6
 74
     0
 42
0.000000001
 43
0.0000000001
 40
5.578615183636053
 40
5.578615183636053
 40
5.578615183636053
 40
5.578615183636053
 40
6.021510703961547
 40
6.021510703961547
 40
6.267952460891863
 40
6.267952460891863
 40
6.267952460891863
 40
6.267952460891863
 10
100.7062993475432
 20
72.34696827047828
 30
0.0
 10
102.1530163696735
 20
72.73960612673724
 30
0.0
 10
103.6551284044541
 20
73.06899730143829
 30
0.0
 10
106.0430752870609
 20
73.46177039266303
 30
0.0
 10
106.9067621182101
 20
73.57848156910595
 30
0.0
 10
107.7762167186439
 20
73.67011857907541
 30
0.0
  0
ARC
  5
224
330
70
100
AcDbEntity
  8
Visible (ISO)
100
AcDbCircle
 10
112.4929239660069
 20
28.91786382430061
 30
0.0
 40
45.00012925418761
100
AcDbArc
 50
89.86267387728107
 51
96.01653196780475
  0
LINE
  5
225
330
70
100
AcDbEntity
  8
Visible (ISO)
100
AcDbLine
 10
92.10077985710723
 20
67.91786382430448
 30
0.0
 11
92.60077985710722
 21
67.91786382430448
 31
0.0
  0
LINE
  5
226
330
70
100
AcDbEntity
  8
Visible (ISO)
100
AcDbLine
 10
92.60077985710722
 20
67.91786382430448
 30
0.0
 11
92.67149855790494
 21
69.17508517181942
 31
0.0
  0
SPLINE
  5
227
330
70
100
AcDbEntity
  8
Visible (ISO)
100
AcDbSpline
210
0.0
220
0.0
230
1.0
 70
     8
 71
     3
 72
    10
 73
     6
 74
     0
 42
0.000000001
 43
0.0000000001
 40
1.741738255902264
 40
1.741738255902264
 40
1.741738255902264
 40
1.741738255902264
 40
1.747035871281402
 40
1.747035871281402
 40
1.758510453691923
 40
1.758510453691923
 40
1.758510453691923
 40
1.758510453691923
 10
87.60077985710722
 20
67.95568074810446
 30
0.0
 10
87.61652246060249
 20
67.94804357262167
 30
0.0
 10
87.63256067914326
 20
67.94141984272662
 30
0.0
 10
87.68404656120608
 20
67.92415259090694
 30
0.0
 10
87.72033580683435
 20
67.91786382430448
 30
0.0
 10
87.75672510753439
 20
67.91786382430446
 30
0.0
  0
SPLINE
  5
228
330
70
100
AcDbEntity
  8
Visible (ISO)
100
AcDbSpline
210
0.0
220
0.0
230
1.0
 70
     8
 71
     3
 72
     8
 73
     4
 74
     0
 42
0.000000001
 43
0.0000000001
 40
-0.0038487374224739
 40
-0.0038487374224739
 40
-0.0038487374224739
 40
-0.0038487374224739
 40
0.0
 40
0.0
 40
0.0
 40
0.0
 10
87.60757921502429
 20
67.91786382430448
 30
0.0
 10
87.60531232337044
 20
67.93046938579195
 30
0.0
 10
87.60304587071766
 20
67.94307502801554
 30
0.0
 10
87.60077985710722
 20
67.95568074810446
 30
0.0
  0
LINE
  5
229
330
70
100
AcDbEntity
  8
Visible (ISO)
100
AcDbLine
 10
87.75672510753441
 20
67.91786382430448
 30
0.0
 11
87.60757921502554
 21
67.91786382430448
 31
0.0
  0
SPLINE
  5
22A
330
70
100
AcDbEntity
  8
Visible (ISO)
100
AcDbSpline
210
0.0
220
0.0
230
1.0
 70
     8
 71
     3
 72
    22
 73
    18
 74
     0
 42
0.000000001
 43
0.0000000001
 40
1.758510453691923
 40
1.758510453691923
 40
1.758510453691923
 40
1.758510453691923
 40
1.769985036102444
 40
1.769985036102444
 40
1.781459618512965
 40
1.781459618512965
 40
1.804408783334006
 40
1.804408783334006
 40
1.879967807849264
 40
1.879967807849264
 40
1.955526832364522
 40
1.955526832364522
 40
2.150713591741938
 40
2.150713591741938
 40
2.345900351119354
 40
2.345900351119354
 40
2.573780108621498
 40
2.573780108621498
 40
2.573780108621498
 40
2.573780108621498
 10
87.75672510753439
 20
67.91786382430446
 30
0.0
 10
87.79311440823443
 20
67.91786382430446
 30
0.0
 10
87.82942483725319
 20
67.9241525909073
 30
0.0
 10
87.89995185462821
 20
67.94777913126806
 30
0.0
 10
87.93417129945199
 20
67.9651074382779
 30
0.0
 10
88.03163345543774
 20
68.02856013937732
 30
0.0
 10
88.08985703507268
 20
68.0862964265162
 30
0.0
 10
88.29780047503996
 20
68.33172848517666
 30
0.0
 10
88.41619257648554
 20
68.57257531854722
 30
0.0
 10
88.62862882718518
 20
69.07153119649066
 30
0.0
 10
88.71848064333912
 20
69.33159420786555
 30
0.0
 10
88.98985215435473
 20
70.18831613958784
 30
0.0
 10
89.14549569384721
 20
70.83020491579469
 30
0.0
 10
89.43237176171809
 20
72.14289324243214
 30
0.0
 10
89.56104664951936
 20
72.81430419933656
 30
0.0
 10
89.82281031356476
 20
74.2918301418646
 30
0.0
 10
89.95264260380885
 20
75.10143993431518
 30
0.0
 10
90.07532674118769
 20
75.91786382430448
 30
0.0
  0
LINE
  5
22B
330
70
100
AcDbEntity
  8
Visible (ISO)
100
AcDbLine
 10
92.10077985710723
 20
67.91786382430448
 30
0.0
 11
87.75672510753446
 21
67.91786382430448
 31
0.0
  0
LINE
  5
22C
330
70
100
AcDbEntity
  8
Visible (ISO)
100
AcDbLine
 10
89.31511598540465
 20
76.91260740229513
 30
0.0
 11
107.7762167186439
 21
76.91260740229513
 31
0.0
  0
SPLINE
  5
22D
330
70
100
AcDbEntity
  8
Visible (ISO)
100
AcDbSpline
210
0.0
220
0.0
230
1.0
 70
     8
 71
     3
 72
    10
 73
     6
 74
     0
 42
0.000000001
 43
0.0000000001
 40
1.026679612955202
 40
1.026679612955202
 40
1.026679612955202
 40
1.026679612955202
 40
1.054986950396901
 40
1.054986950396901
 40
1.150372975748469
 40
1.150372975748469
 40
1.150372975748469
 40
1.150372975748469
 10
90.07532674118769
 20
75.91786382430448
 30
0.0
 10
90.02414130450192
 20
75.99646908384947
 30
0.0
 10
89.97211304499515
 20
76.0741174096907
 30
0.0
 10
89.74050546572636
 20
76.40875063260839
 30
0.0
 10
89.53809557857697
 20
76.67340053780526
 30
0.0
 10
89.31511598540465
 20
76.91260740229513
 30
0.0
  0
LINE
  5
22E
330
70
100
AcDbEntity
  8
Visible (ISO)
100
AcDbLine
 10
125.6007798571072
 20
78.91786382430447
 30
0.0
 11
125.6007798571072
 21
85.91786382430447
 31
0.0
  0
LINE
  5
22F
330
70
100
AcDbEntity
  8
Visible (ISO)
100
AcDbLine
 10
87.60077985710722
 20
67.91786382430448
 30
0.0
 11
87.60757921502429
 21
67.91786382430448
 31
0.0
  0
SPLINE
  5
230
330
70
100
AcDbEntity
  8
Visible (ISO)
100
AcDbSpline
210
0.0
220
0.0
230
1.0
 70
    28
 71
     2
 72
     6
 73
     3
 74
     0
 42
0.000000001
 43
0.0000000001
 40
0.0
 40
0.0
 40
0.0
 40
0.0039177008118712
 40
0.0039177008118712
 40
0.0039177008118712
 10
87.60077985710722
 20
67.91786382430448
 30
0.0
 41
1.0
 10
87.60077985710722
 20
67.93676915837725
 30
0.0
 41
1.000002569573184
 10
87.60077985710722
 20
67.95568074810446
 30
0.0
 41
1.000005114022333
  0
LINE
  5
231
330
70
100
AcDbEntity
  8
Visible (ISO)
100
AcDbLine
 10
78.60077985710723
 20
67.91786382430448
 30
0.0
 11
87.60077985710722
 21
67.91786382430448
 31
0.0
  0
LINE
  5
232
330
70
100
AcDbEntity
  8
Visible (ISO)
100
AcDbLine
 10
78.15077985710724
 20
75.91786382430448
 30
0.0
 11
90.07532674118767
 21
75.91786382430448
 31
0.0
  0
LINE
  5
233
330
70
100
AcDbEntity
  8
Visible (ISO)
100
AcDbLine
 10
80.10077985710722
 20
83.91786382430447
 30
0.0
 11
78.15077985710724
 21
75.91786382430448
 31
0.0
  0
LINE
  5
234
330
70
100
AcDbEntity
  8
Visible (ISO)
100
AcDbLine
 10
78.60077985710723
 20
67.91786382430448
 30
0.0
 11
78.15077985710724
 21
75.91786382430448
 31
0.0
  0
SPLINE
  5
235
330
70
100
AcDbEntity
  8
Visible (ISO)
100
AcDbSpline
210
0.0
220
0.0
230
1.0
 70
    12
 71
     2
 72
     6
 73
     3
 74
     0
 42
0.000000001
 43
0.0000000001
 40
0.0894691240021865
 40
0.0894691240021865
 40
0.0894691240021865
 40
0.8244898720284863
 40
0.8244898720284863
 40
0.8244898720284863
 10
92.55272069542444
 20
76.91260740229513
 30
0.0
 41
1.00231088921009
 10
91.57254498844
 20
80.90262748445857
 30
0.0
 41
1.010647833933487
 10
90.8245820314613
 20
83.91786382430447
 30
0.0
 41
1.0
  0
LINE
  5
236
330
70
100
AcDbEntity
  8
Visible (ISO)
100
AcDbLine
 10
107.7762167186439
 20
76.91260740229513
 30
0.0
 11
107.7762167186439
 21
85.91786382430447
 31
0.0
  0
LINE
  5
237
330
70
100
AcDbEntity
  8
Visible (ISO)
100
AcDbLine
 10
91.10077985710724
 20
83.91786382430447
 30
0.0
 11
91.35541422010073
 21
82.8732100274081
 31
0.0
  0
SPLINE
  5
238
330
70
100
AcDbEntity
  8
Visible (ISO)
100
AcDbSpline
210
0.0
220
0.0
230
1.0
 70
     8
 71
     3
 72
    19
 73
    15
 74
     0
 42
0.000000001
 43
0.0000000001
 40
-1.019253894380656
 40
-1.019253894380656
 40
-1.019253894380656
 40
-1.019253894380656
 40
-0.8380733322482749
 40
-0.8380733322482749
 40
-0.6905008978664565
 40
-0.6905008978664565
 40
-0.5587155548321833
 40
-0.5587155548321833
 40
-0.5587155548321833
 40
-0.4269302117979099
 40
-0.4269302117979099
 40
-0.2793577774160916
 40
-0.2793577774160916
 40
-0.0981772152837096
 40
-0.0981772152837096
 40
-0.0981772152837096
 40
-0.0981772152837096
 10
80.99545159969565
 20
84.46794424796781
 30
0.0
 10
81.59853829885941
 20
84.50012412767442
 30
0.0
 10
82.20163410933432
 20
84.53223982694971
 30
0.0
 10
83.2960556168828
 20
84.58981200156763
 30
0.0
 10
83.78729630412795
 20
84.61563907987303
 30
0.0
 10
84.71796800699165
 20
84.66118403915221
 30
0.0
 10
85.1575613010628
 20
84.68528767766631
 30
0.0
 10
85.60077985710723
 20
84.68528767766631
 30
0.0
 10
86.04399841315165
 20
84.68528767766631
 30
0.0
 10
86.48359170722281
 20
84.66118403915221
 30
0.0
 10
87.41426341008651
 20
84.61563907987303
 30
0.0
 10
87.90550409733164
 20
84.58981200156763
 30
0.0
 10
88.99992560488014
 20
84.53223982694971
 30
0.0
 10
89.60302141535505
 20
84.50012412767442
 30
0.0
 10
90.20610811451881
 20
84.46794424796781
 30
0.0
  0
ARC
  5
239
330
70
100
AcDbEntity
  8
Visible (ISO)
100
AcDbCircle
 10
90.20077985710726
 20
84.37018551194583
 30
0.0
 40
0.1
100
AcDbArc
 50
86.91978986335724
 51
98.6979721621757
  0
ARC
  5
23A
330
70
100
AcDbEntity
  8
Visible (ISO)
100
AcDbCircle
 10
81.00077985710724
 20
84.37018551194583
 30
0.0
 40
0.1
100
AcDbArc
 50
81.30202783782431
 51
93.08021013664278
  0
LINE
  5
23B
330
70
100
AcDbEntity
  8
Visible (ISO)
100
AcDbLine
 10
79.70077985710723
 20
83.91786382430446
 30
0.0
 11
79.60077985710724
 21
83.91786382430446
 31
0.0
  0
LINE
  5
23C
330
70
100
AcDbEntity
  8
Visible (ISO)
100
AcDbLine
 10
79.60077985710724
 20
84.31786382430447
 30
0.0
 11
79.60077985710724
 21
83.91786382430446
 31
0.0
  0
SPLINE
  5
23D
330
70
100
AcDbEntity
  8
Visible (ISO)
100
AcDbSpline
210
0.0
220
0.0
230
1.0
 70
     8
 71
     3
 72
    20
 73
    16
 74
     0
 42
0.000000001
 43
0.0000000001
 40
-0.1167463837654997
 40
-0.1167463837654997
 40
-0.1167463837654997
 40
-0.1167463837654997
 40
-0.1163267376802986
 40
-0.1163267376802986
 40
-0.1148286972977117
 40
-0.1148286972977117
 40
-0.111636749464689
 40
-0.111636749464689
 40
-0.107278172338819
 40
-0.107278172338819
 40
-0.1040400035181946
 40
-0.1040400035181946
 40
-0.1011279500247179
 40
-0.1011279500247179
 40
-0.100530888678917
 40
-0.100530888678917
 40
-0.100530888678917
 40
-0.100530888678917
 10
80.27477397652452
 20
84.41786382430448
 30
0.0
 10
80.27505462408653
 20
84.41786382430448
 30
0.0
 10
80.27528693197163
 20
84.41784675111511
 30
0.0
 10
80.27611178498174
 20
84.41768358150808
 30
0.0
 10
80.27604537075323
 20
84.41733153899347
 30
0.0
 10
80.27426336526794
 20
84.41553735529474
 30
0.0
 10
80.27075330590939
 20
84.41323021558696
 30
0.0
 10
80.26128301072752
 20
84.40515036344189
 30
0.0
 10
80.25414483819959
 20
84.3978621874554
 30
0.0
 10
80.24291984802465
 20
84.37917130943302
 30
0.0
 10
80.23882355914809
 20
84.36984162696862
 30
0.0
 10
80.23331811863576
 20
84.34999098200202
 30
0.0
 10
80.23173978737411
 20
84.33991457471686
 30
0.0
 10
80.23131488570578
 20
84.32736190267462
 30
0.0
 10
80.2312946565722
 20
84.32522841562088
 30
0.0
 10
80.23132582757243
 20
84.32310031015653
 30
0.0
  0
LINE
  5
23E
330
70
100
AcDbEntity
  8
Visible (ISO)
100
AcDbLine
 10
80.27477397652452
 20
84.41786382430448
 30
0.0
 11
79.70077985710723
 21
84.41786382430448
 31
0.0
  0
SPLINE
  5
23F
330
70
100
AcDbEntity
  8
Visible (ISO)
100
AcDbSpline
210
0.0
220
0.0
230
1.0
 70
     8
 71
     3
 72
     8
 73
     4
 74
     0
 42
0.000000001
 43
0.0000000001
 40
0.030117303607032
 40
0.030117303607032
 40
0.030117303607032
 40
0.030117303607032
 40
0.0306368404626457
 40
0.0306368404626457
 40
0.0306368404626457
 40
0.0306368404626457
 10
80.23132582757245
 20
84.32310031015637
 30
0.0
 10
80.23135156994028
 20
84.32134282810467
 30
0.0
 10
80.23136415332716
 20
84.31959561382317
 30
0.0
 10
80.23136415332716
 20
84.31786382430447
 30
0.0
  0
ARC
  5
240
330
70
100
AcDbEntity
  8
Visible (ISO)
100
AcDbCircle
 10
79.70077985710723
 20
84.31786382430447
 30
0.0
 40
0.0999999999999998
100
AcDbArc
 50
90.0
 51
180.0
  0
LINE
  5
241
330
70
100
AcDbEntity
  8
Visible (ISO)
100
AcDbLine
 10
91.60077985710723
 20
83.91786382430446
 30
0.0
 11
91.50077985710723
 21
83.91786382430446
 31
0.0
  0
SPLINE
  5
242
330
70
100
AcDbEntity
  8
Visible (ISO)
100
AcDbSpline
210
0.0
220
0.0
230
1.0
 70
     8
 71
     3
 72
     8
 73
     4
 74
     0
 42
0.000000001
 43
0.0000000001
 40
0.0306368404626457
 40
0.0306368404626457
 40
0.0306368404626457
 40
0.0306368404626457
 40
0.0311564612047215
 40
0.0311564612047215
 40
0.0311564612047215
 40
0.0311564612047215
 10
90.9701955608873
 20
84.31786382430447
 30
0.0
 10
90.9701955608873
 20
84.31959589344472
 30
0.0
 10
90.97020814803526
 20
84.32134308487931
 30
0.0
 10
90.97023388664203
 20
84.32310031015651
 30
0.0
  0
LINE
  5
243
330
70
100
AcDbEntity
  8
Visible (ISO)
100
AcDbLine
 10
91.50077985710723
 20
84.41786382430448
 30
0.0
 11
90.92678573768994
 21
84.41786382430448
 31
0.0
  0
SPLINE
  5
244
330
70
100
AcDbEntity
  8
Visible (ISO)
100
AcDbSpline
210
0.0
220
0.0
230
1.0
 70
     8
 71
     3
 72
    18
 73
    14
 74
     0
 42
0.000000001
 43
0.0000000001
 40
-0.1028855666828686
 40
-0.1028855666828686
 40
-0.1028855666828686
 40
-0.1028855666828686
 40
-0.1004689900059198
 40
-0.1004689900059198
 40
-0.0980358109280614
 40
-0.0980358109280614
 40
-0.093790661072223
 40
-0.093790661072223
 40
-0.0887468381604296
 40
-0.0887468381604296
 40
-0.0865906319794494
 40
-0.0865906319794494
 40
-0.0854228207007943
 40
-0.0854228207007943
 40
-0.0854228207007943
 40
-0.0854228207007943
 10
90.97023388664196
 20
84.32310031015211
 30
0.0
 10
90.97035169991189
 20
84.33114365367819
 30
0.0
 10
90.96973240106994
 20
84.33905490645813
 30
0.0
 10
90.96716436549684
 20
84.35434353383525
 30
0.0
 10
90.96522918611499
 20
84.36158243238798
 30
0.0
 10
90.95854243412023
 20
84.37996732131258
 30
0.0
 10
90.95281886573191
 20
84.38979180532474
 30
0.0
 10
90.93935054067094
 20
84.40672742565672
 30
0.0
 10
90.93217961793973
 20
84.41202161043023
 30
0.0
 10
90.92684139458171
 20
84.41605458010867
 30
0.0
 10
90.92561533259738
 20
84.41698112940942
 30
0.0
 10
90.92564168977908
 20
84.4177405294998
 30
0.0
 10
90.92602503175738
 20
84.41786382430448
 30
0.0
 10
90.92678573768994
 20
84.41786382430448
 30
0.0
  0
LINE
  5
245
330
70
100
AcDbEntity
  8
Visible (ISO)
100
AcDbLine
 10
91.60077985710723
 20
83.91786382430446
 30
0.0
 11
91.60077985710723
 21
84.31786382430447
 31
0.0
  0
ARC
  5
246
330
70
100
AcDbEntity
  8
Visible (ISO)
100
AcDbCircle
 10
91.50077985710723
 20
84.31786382430447
 30
0.0
 40
0.1000000000000001
100
AcDbArc
 50
0.0
 51
90.0
  0
LINE
  5
247
330
70
100
AcDbEntity
  8
Visible (ISO)
100
AcDbLine
 10
90.9701955608873
 20
83.91786382430446
 30
0.0
 11
91.50077985710723
 21
83.91786382430446
 31
0.0
  0
LINE
  5
248
330
70
100
AcDbEntity
  8
Visible (ISO)
100
AcDbLine
 10
90.9701955608873
 20
83.91786382430446
 30
0.0
 11
80.23136415332716
 21
83.91786382430446
 31
0.0
  0
LINE
  5
249
330
70
100
AcDbEntity
  8
Visible (ISO)
100
AcDbLine
 10
79.70077985710723
 20
83.91786382430446
 30
0.0
 11
80.23136415332716
 21
83.91786382430446
 31
0.0
  0
LINE
  5
24A
330
70
100
AcDbEntity
  8
Visible (ISO)
100
AcDbLine
 10
90.9701955608873
 20
84.31786382430447
 30
0.0
 11
90.9701955608873
 21
83.91786382430446
 31
0.0
  0
LINE
  5
24B
330
70
100
AcDbEntity
  8
Visible (ISO)
100
AcDbLine
 10
80.23136415332716
 20
84.31786382430447
 30
0.0
 11
80.23136415332716
 21
83.91786382430446
 31
0.0
  0
LINE
  5
24C
330
70
100
AcDbEntity
  8
Visible (ISO)
100
AcDbLine
 10
90.20615324879956
 20
84.47004104089501
 30
0.0
 11
91.08115324879959
 21
84.4229558391013
 31
0.0
  0
LINE
  5
24D
330
70
100
AcDbEntity
  8
Visible (ISO)
100
AcDbLine
 10
80.99540646541489
 20
84.47004104089501
 30
0.0
 11
80.12040646541491
 21
84.4229558391013
 31
0.0
  0
ARC
  5
24E
330
70
100
AcDbEntity
  8
Visible (ISO)
100
AcDbCircle
 10
80.12577985710723
 20
84.32310031015211
 30
0.0
 40
0.1
100
AcDbArc
 50
93.08021013665239
 51
108.6239246438592
  0
ARC
  5
24F
330
70
100
AcDbEntity
  8
Visible (ISO)
100
AcDbCircle
 10
91.07577985710722
 20
84.32310031015211
 30
0.0
 40
0.1
100
AcDbArc
 50
71.37607535615041
 51
86.91978986335724
  0
LINE
  5
250
330
70
100
AcDbEntity
  8
Visible (ISO)
100
AcDbLine
 10
95.35077985712538
 20
131.4581034875037
 30
0.0
 11
95.35077985712538
 21
136.7594241540826
 31
0.0
  0
LINE
  5
251
330
70
100
AcDbEntity
  8
Visible (ISO)
100
AcDbLine
 10
95.35077985712538
 20
116.7594241540826
 30
0.0
 11
95.35077985712538
 21
122.0607448206668
 31
0.0
  0
LINE
  5
252
330
70
100
AcDbEntity
  8
Visible (ISO)
100
AcDbLine
 10
95.60077985712538
 20
122.1089248352239
 30
0.0
 11
95.60077985712538
 21
117.0094241540826
 31
0.0
  0
LINE
  5
253
330
70
100
AcDbEntity
  8
Visible (ISO)
100
AcDbLine
 10
95.60077985712538
 20
136.5094241540826
 30
0.0
 11
95.60077985712538
 21
131.4099234729465
 31
0.0
  0
LINE
  5
254
330
70
100
AcDbEntity
  8
Visible (ISO)
100
AcDbLine
 10
95.60077985712538
 20
117.0094241540826
 30
0.0
 11
95.35077985712538
 21
116.7594241540826
 31
0.0
  0
LINE
  5
255
330
70
100
AcDbEntity
  8
Visible (ISO)
100
AcDbLine
 10
95.60077985712538
 20
136.5094241540826
 30
0.0
 11
95.35077985712538
 21
136.7594241540826
 31
0.0
  0
LINE
  5
256
330
70
100
AcDbEntity
  8
Visible (ISO)
100
AcDbLine
 10
93.48274586837549
 20
121.6683879608847
 30
0.0
 11
93.48274586837549
 21
116.7594241540826
 31
0.0
  0
LINE
  5
257
330
70
100
AcDbEntity
  8
Visible (ISO)
100
AcDbLine
 10
93.48274586837549
 20
136.7594241540826
 30
0.0
 11
93.48274586837549
 21
131.8504603472857
 31
0.0
  0
ARC
  5
258
330
70
100
AcDbEntity
  8
Visible (ISO)
100
AcDbCircle
 10
94.60077985712539
 20
135.7594241540826
 30
0.0
 40
1.5
100
AcDbArc
 50
138.1896851042216
 51
180.0
  0
ARC
  5
259
330
70
100
AcDbEntity
  8
Visible (ISO)
100
AcDbCircle
 10
94.60077985712539
 20
117.7594241540826
 30
0.0
 40
1.5
100
AcDbArc
 50
180.0
 51
221.8103148957783
  0
LINE
  5
25A
330
70
100
AcDbEntity
  8
Visible (ISO)
100
AcDbLine
 10
77.71881384587529
 20
116.7594241540826
 30
0.0
 11
77.71881384587529
 21
136.7594241540826
 31
0.0
  0
ARC
  5
25B
330
70
100
AcDbEntity
  8
Visible (ISO)
100
AcDbCircle
 10
76.60077985712539
 20
117.7594241540826
 30
0.0
 40
1.5
100
AcDbArc
 50
318.1896851042214
 51
0.0
  0
ARC
  5
25C
330
70
100
AcDbEntity
  8
Visible (ISO)
100
AcDbCircle
 10
76.60077985712539
 20
135.7594241540826
 30
0.0
 40
1.5
100
AcDbArc
 50
0.0
 51
41.81031489577858
  0
LINE
  5
25D
330
70
100
AcDbEntity
  8
Visible (ISO)
100
AcDbLine
 10
75.71881384587527
 20
116.7594241540826
 30
0.0
 11
75.71881384587527
 21
136.7594241540826
 31
0.0
  0
LINE
  5
25E
330
70
100
AcDbEntity
  8
Visible (ISO)
100
AcDbLine
 10
75.71881384587527
 20
136.7594241540826
 30
0.0
 11
77.71881384587529
 21
136.7594241540826
 31
0.0
  0
LINE
  5
25F
330
70
100
AcDbEntity
  8
Visible (ISO)
100
AcDbLine
 10
75.71881384587527
 20
116.7594241540826
 30
0.0
 11
77.71881384587529
 21
116.7594241540826
 31
0.0
  0
LINE
  5
260
330
70
100
AcDbEntity
  8
Visible (ISO)
100
AcDbLine
 10
73.60077985712537
 20
133.2094241540826
 30
0.0
 11
75.71881384587529
 21
136.7594241540826
 31
0.0
  0
LINE
  5
261
330
70
100
AcDbEntity
  8
Visible (ISO)
100
AcDbLine
 10
73.60077985712537
 20
120.3094241540827
 30
0.0
 11
75.71881384587529
 21
116.7594241540826
 31
0.0
  0
LINE
  5
262
330
70
100
AcDbEntity
  8
Visible (ISO)
100
AcDbLine
 10
92.90622794784551
 20
135.259424154084
 30
0.0
 11
78.29533176640558
 21
135.259424154084
 31
0.0
  0
LINE
  5
263
330
70
100
AcDbEntity
  8
Visible (ISO)
100
AcDbLine
 10
92.90622794784525
 20
118.259424154084
 30
0.0
 11
78.29533176640527
 21
118.259424154084
 31
0.0
  0
LINE
  5
264
330
70
100
AcDbEntity
  8
Visible (ISO)
100
AcDbLine
 10
95.35077985712538
 20
116.7594241540826
 30
0.0
 11
93.48274586837549
 21
116.7594241540826
 31
0.0
  0
LINE
  5
265
330
70
100
AcDbEntity
  8
Visible (ISO)
100
AcDbLine
 10
95.35077985712538
 20
136.7594241540826
 30
0.0
 11
93.48274586837549
 21
136.7594241540826
 31
0.0
  0
SPLINE
  5
266
330
70
100
AcDbEntity
  8
Visible (ISO)
100
AcDbSpline
210
0.0
220
0.0
230
1.0
 70
    12
 71
     2
 72
     6
 73
     3
 74
     0
 42
0.000000001
 43
0.0000000001
 40
0.0906100100638158
 40
0.0906100100638158
 40
0.0906100100638158
 40
0.604669331122392
 40
0.604669331122392
 40
0.604669331122392
 10
96.50430680297766
 20
118.259424154084
 30
0.0
 41
1.030578586555896
 10
93.27731417866274
 20
114.8631662965869
 30
0.0
 41
1.110294117647058
 10
95.74511742442281
 20
118.2594241540826
 30
0.0
 41
1.110294117647058
  0
SPLINE
  5
267
330
70
100
AcDbEntity
  8
Visible (ISO)
100
AcDbSpline
210
0.0
220
0.0
230
1.0
 70
    12
 71
     2
 72
     6
 73
     3
 74
     0
 42
0.000000001
 43
0.0000000001
 40
0.6531096665052078
 40
0.6531096665052078
 40
0.6531096665052078
 40
1.118728652180967
 40
1.118728652180967
 40
1.118728652180967
 10
95.75137863000996
 20
122.1374584768604
 30
0.0
 41
1.10958628473846
 10
95.8119726407226
 20
120.3364266408495
 30
0.0
 41
1.102782441653471
 10
96.50430680297766
 20
118.259424154084
 30
0.0
 41
1.030578586555896
  0
SPLINE
  5
268
330
70
100
AcDbEntity
  8
Visible (ISO)
100
AcDbSpline
210
0.0
220
0.0
230
1.0
 70
    12
 71
     2
 72
     6
 73
     3
 74
     0
 42
0.000000001
 43
0.0000000001
 40
0.0906100100638158
 40
0.0906100100638158
 40
0.0906100100638158
 40
0.5562289957395579
 40
0.5562289957395579
 40
0.5562289957395579
 10
96.50430680297766
 20
135.259424154084
 30
0.0
 41
1.030578586555896
 10
95.81197264072264
 20
133.1824216673193
 30
0.0
 41
1.10278244165347
 10
95.75137863000998
 20
131.3813898313091
 30
0.0
 41
1.109586284738461
  0
SPLINE
  5
269
330
70
100
AcDbEntity
  8
Visible (ISO)
100
AcDbSpline
210
0.0
220
0.0
230
1.0
 70
    12
 71
     2
 72
     6
 73
     3
 74
     0
 42
0.000000001
 43
0.0000000001
 40
0.6046693311223913
 40
0.6046693311223913
 40
0.6046693311223913
 40
1.118728652180966
 40
1.118728652180966
 40
1.118728652180966
 10
95.74511742442282
 20
135.2594241540826
 30
0.0
 41
1.110294117647058
 10
93.27731417866278
 20
131.3749482624604
 30
0.0
 41
1.110294117647058
 10
96.50430680297766
 20
135.259424154084
 30
0.0
 41
1.030578586555896
  0
LINE
  5
26A
330
70
100
AcDbEntity
  8
Visible (ISO)
100
AcDbLine
 10
95.60077985712542
 20
135.0094241540826
 30
0.0
 11
95.74511742442282
 21
135.2594241540826
 31
0.0
  0
LINE
  5
26B
330
70
100
AcDbEntity
  8
Visible (ISO)
100
AcDbLine
 10
95.60077985712538
 20
118.5094241540826
 30
0.0
 11
95.74511742442281
 21
118.2594241540826
 31
0.0
  0
LINE
  5
26C
330
70
100
AcDbEntity
  8
Visible (ISO)
100
AcDbLine
 10
96.50430680297763
 20
118.259424154084
 30
0.0
 11
107.6972529112731
 21
118.259424154084
 31
0.0
  0
LINE
  5
26D
330
70
100
AcDbEntity
  8
Visible (ISO)
100
AcDbLine
 10
96.50430680297766
 20
135.259424154084
 30
0.0
 11
107.6972529112731
 21
135.259424154084
 31
0.0
  0
SPLINE
  5
26E
330
70
100
AcDbEntity
  8
Visible (ISO)
100
AcDbSpline
210
0.0
220
0.0
230
1.0
 70
    12
 71
     2
 72
     6
 73
     3
 74
     0
 42
0.000000001
 43
0.0000000001
 40
0.0906100100638165
 40
0.0906100100638165
 40
0.0906100100638165
 40
0.7021502909128588
 40
0.7021502909128588
 40
0.7021502909128588
 10
107.6972529112731
 20
118.259424154084
 30
0.0
 41
1.030578586555896
 10
108.58827610227
 20
120.9324937270753
 30
0.0
 41
1.125410556864562
 10
108.4310367156235
 20
123.2594241540849
 30
0.0
 41
1.1074275904912
  0
SPLINE
  5
26F
330
70
100
AcDbEntity
  8
Visible (ISO)
100
AcDbSpline
210
0.0
220
0.0
230
1.0
 70
    12
 71
     2
 72
     6
 73
     3
 74
     0
 42
0.000000001
 43
0.0000000001
 40
0.6046693311223918
 40
0.6046693311223918
 40
0.6046693311223918
 40
1.118728652180968
 40
1.118728652180968
 40
1.118728652180968
 10
108.4564422898279
 20
118.2594241540826
 30
0.0
 41
1.110294117647058
 10
105.0598405915136
 20
114.8631662965869
 30
0.0
 41
1.110294117647058
 10
107.6972529112731
 20
118.259424154084
 30
0.0
 41
1.030578586555896
  0
SPLINE
  5
270
330
70
100
AcDbEntity
  8
Visible (ISO)
100
AcDbSpline
210
0.0
220
0.0
230
1.0
 70
    12
 71
     2
 72
     6
 73
     3
 74
     0
 42
0.000000001
 43
0.0000000001
 40
0.0906100100638167
 40
0.0906100100638167
 40
0.0906100100638167
 40
0.6046693311223922
 40
0.6046693311223922
 40
0.6046693311223922
 10
107.6972529112731
 20
135.259424154084
 30
0.0
 41
1.030578586555896
 10
105.0598405915137
 20
131.3749482624604
 30
0.0
 41
1.110294117647057
 10
108.456442289828
 20
135.2594241540825
 30
0.0
 41
1.110294117647057
  0
SPLINE
  5
271
330
70
100
AcDbEntity
  8
Visible (ISO)
100
AcDbSpline
210
0.0
220
0.0
230
1.0
 70
    12
 71
     2
 72
     6
 73
     3
 74
     0
 42
0.000000001
 43
0.0000000001
 40
0.5071883713319493
 40
0.5071883713319493
 40
0.5071883713319493
 40
1.118728652180967
 40
1.118728652180967
 40
1.118728652180967
 10
108.4310367156235
 20
130.259424154085
 30
0.0
 41
1.107427590491198
 10
108.58827610227
 20
132.5863545810937
 30
0.0
 41
1.125410556864555
 10
107.6972529112731
 20
135.259424154084
 30
0.0
 41
1.030578586555895
  0
LINE
  5
272
330
70
100
AcDbEntity
  8
Visible (ISO)
100
AcDbLine
 10
108.6007798571253
 20
130.2594241540849
 30
0.0
 11
108.6007798571254
 21
135.0094241540825
 31
0.0
  0
LINE
  5
273
330
70
100
AcDbEntity
  8
Visible (ISO)
100
AcDbLine
 10
108.6007798571253
 20
118.5094241540826
 30
0.0
 11
108.6007798571253
 21
123.2594241540848
 31
0.0
  0
LINE
  5
274
330
70
100
AcDbEntity
  8
Visible (ISO)
100
AcDbLine
 10
108.6007798571253
 20
118.5094241540826
 30
0.0
 11
108.4564422898279
 21
118.2594241540826
 31
0.0
  0
LINE
  5
275
330
70
100
AcDbEntity
  8
Visible (ISO)
100
AcDbLine
 10
108.6007798571254
 20
135.0094241540825
 30
0.0
 11
108.456442289828
 21
135.2594241540825
 31
0.0
  0
LINE
  5
276
330
70
100
AcDbEntity
  8
Visible (ISO)
100
AcDbLine
 10
48.60077985712539
 20
130.7594241540827
 30
0.0
 11
48.60077985712539
 21
122.7594241540826
 31
0.0
  0
LINE
  5
277
330
70
100
AcDbEntity
  8
Visible (ISO)
100
AcDbLine
 10
49.95572791656877
 20
121.977144527225
 30
0.0
 11
49.95572791656877
 21
131.5417037809403
 31
0.0
  0
LINE
  5
278
330
70
100
AcDbEntity
  8
Visible (ISO)
100
AcDbLine
 10
48.60077985712539
 20
130.7594241540827
 30
0.0
 11
49.95572791656879
 21
131.5417037809403
 31
0.0
  0
LINE
  5
279
330
70
100
AcDbEntity
  8
Visible (ISO)
100
AcDbLine
 10
48.60077985712539
 20
122.7594241540826
 30
0.0
 11
49.95572791656877
 21
121.977144527225
 31
0.0
  0
LINE
  5
27A
330
70
100
AcDbEntity
  8
Visible (ISO)
100
AcDbLine
 10
73.60077985712539
 20
134.5094241540827
 30
0.0
 11
73.60077985712539
 21
119.0094241540826
 31
0.0
  0
LINE
  5
27B
330
70
100
AcDbEntity
  8
Visible (ISO)
100
AcDbLine
 10
73.10077985712538
 20
118.5094241540826
 30
0.0
 11
73.10077985712538
 21
135.0094241540827
 31
0.0
  0
LINE
  5
27C
330
70
100
AcDbEntity
  8
Visible (ISO)
100
AcDbLine
 10
73.60077985712539
 20
119.0094241540826
 30
0.0
 11
73.10077985712538
 21
118.5094241540826
 31
0.0
  0
LINE
  5
27D
330
70
100
AcDbEntity
  8
Visible (ISO)
100
AcDbLine
 10
73.60077985712539
 20
134.5094241540827
 30
0.0
 11
73.10077985712538
 21
135.0094241540827
 31
0.0
  0
LINE
  5
27E
330
70
100
AcDbEntity
  8
Visible (ISO)
100
AcDbLine
 10
68.60077985712539
 20
135.0094241540827
 30
0.0
 11
68.60077985712539
 21
118.5094241540826
 31
0.0
  0
SPLINE
  5
27F
330
70
100
AcDbEntity
  8
Visible (ISO)
100
AcDbSpline
210
0.0
220
0.0
230
1.0
 70
     8
 71
     3
 72
     8
 73
     4
 74
     0
 42
0.000000001
 43
0.0000000001
 40
5.004219779514528
 40
5.004219779514528
 40
5.004219779514528
 40
5.004219779514528
 40
5.211535875693249
 40
5.211535875693249
 40
5.211535875693249
 40
5.211535875693249
 10
68.00932688022131
 20
134.1691434028601
 30
0.0
 10
68.01079061231438
 20
134.5988098441566
 30
0.0
 10
68.01241719603474
 20
134.969891226217
 30
0.0
 10
68.01413408430295
 20
135.2593372379184
 30
0.0
  0
SPLINE
  5
280
330
70
100
AcDbEntity
  8
Visible (ISO)
100
AcDbSpline
210
0.0
220
0.0
230
1.0
 70
    12
 71
     2
 72
     6
 73
     3
 74
     0
 42
0.000000001
 43
0.0000000001
 40
0.2964618744956765
 40
0.2964618744956765
 40
0.2964618744956765
 40
1.112709618815163
 40
1.112709618815163
 40
1.112709618815163
 10
68.00002756325428
 20
127.8495310729788
 30
0.0
 41
1.095347893909631
 10
68.83268605303382
 20
131.0120786738486
 30
0.0
 41
1.191768356554786
 10
68.00932688022131
 20
134.1691434028601
 30
0.0
 41
1.096338511801204
  0
SPLINE
  5
281
330
70
100
AcDbEntity
  8
Visible (ISO)
100
AcDbSpline
210
0.0
220
0.0
230
1.0
 70
     8
 71
     3
 72
    10
 73
     6
 74
     0
 42
0.000000001
 43
0.0000000001
 40
4.069807177831918
 40
4.069807177831918
 40
4.069807177831918
 40
4.069807177831918
 40
4.177141633641301
 40
4.177141633641301
 40
4.284459251644188
 40
4.284459251644188
 40
4.284459251644188
 40
4.284459251644188
 10
68.00001578631277
 20
125.6691434028611
 30
0.0
 10
67.99990716907088
 20
126.0364382379828
 30
0.0
 10
67.99985616911121
 20
126.4016426347418
 30
0.0
 10
67.9998600507224
 20
127.1171495474073
 30
0.0
 10
67.99991499609571
 20
127.4822951886442
 30
0.0
 10
68.00002756325428
 20
127.8495310729788
 30
0.0
  0
SPLINE
  5
282
330
70
100
AcDbEntity
  8
Visible (ISO)
100
AcDbSpline
210
0.0
220
0.0
230
1.0
 70
    12
 71
     2
 72
     6
 73
     3
 74
     0
 42
0.000000001
 43
0.0000000001
 40
0.3006518795303234
 40
0.3006518795303234
 40
0.3006518795303234
 40
1.116895000892569
 40
1.116895000892569
 40
1.116895000892569
 10
68.00924669645475
 20
119.3495310729777
 30
0.0
 41
1.09632949238759
 10
68.8326329687255
 20
122.5066159916524
 30
0.0
 41
1.191760651112331
 10
68.00001578631277
 20
125.6691434028611
 30
0.0
 41
1.09534617560246
  0
SPLINE
  5
283
330
70
100
AcDbEntity
  8
Visible (ISO)
100
AcDbSpline
210
0.0
220
0.0
230
1.0
 70
     8
 71
     3
 72
     8
 73
     4
 74
     0
 42
0.000000001
 43
0.0000000001
 40
3.142730343253001
 40
3.142730343253001
 40
3.142730343253001
 40
3.142730343253001
 40
3.350046463570446
 40
3.350046463570446
 40
3.350046463570446
 40
3.350046463570446
 10
68.01404202066786
 20
118.2593372379183
 30
0.0
 10
68.0123284938244
 20
118.5487492159246
 30
0.0
 10
68.01070586189623
 20
118.9198396909098
 30
0.0
 10
68.00924669645475
 20
119.3495310729777
 30
0.0
  0
SPLINE
  5
284
330
70
100
AcDbEntity
  8
Visible (ISO)
100
AcDbSpline
210
0.0
220
0.0
230
1.0
 70
    12
 71
     2
 72
     6
 73
     3
 74
     0
 42
0.000000001
 43
0.0000000001
 40
0.7113345297979895
 40
0.7113345297979895
 40
0.7113345297979895
 40
1.12460892804115
 40
1.12460892804115
 40
1.12460892804115
 10
68.45639210875529
 20
118.2593372379172
 30
0.0
 41
1.1464751829624
 10
67.10621118456433
 20
116.2193659933592
 30
0.0
 41
1.14647518296242
 10
68.01404202066786
 20
118.2593372379183
 30
0.0
 41
1.097033496993508
  0
SPLINE
  5
285
330
70
100
AcDbEntity
  8
Visible (ISO)
100
AcDbSpline
210
0.0
220
0.0
230
1.0
 70
    12
 71
     2
 72
     6
 73
     3
 74
     0
 42
0.000000001
 43
0.0000000001
 40
0.2980781999859079
 40
0.2980781999859079
 40
0.2980781999859079
 40
0.7113573297694474
 40
0.7113573297694474
 40
0.7113573297694474
 10
68.01413408430295
 20
135.2593372379184
 30
0.0
 41
1.097044292848638
 10
67.10626261863072
 20
132.9260287837834
 30
0.0
 41
1.146488404072629
 10
68.45649247089834
 20
135.2593372379172
 30
0.0
 41
1.14648840407264
  0
LINE
  5
286
330
70
100
AcDbEntity
  8
Visible (ISO)
100
AcDbLine
 10
68.60077985712539
 20
118.5094241540826
 30
0.0
 11
68.45639210875617
 21
118.2593372379167
 31
0.0
  0
LINE
  5
287
330
70
100
AcDbEntity
  8
Visible (ISO)
100
AcDbLine
 10
68.60077985712539
 20
135.0094241540827
 30
0.0
 11
68.4564924708992
 21
135.2593372379178
 31
0.0
  0
LINE
  5
288
330
70
100
AcDbEntity
  8
Visible (ISO)
100
AcDbLine
 10
59.18751769358293
 20
118.2593372379183
 30
0.0
 11
68.01404202066786
 21
118.2593372379183
 31
0.0
  0
LINE
  5
289
330
70
100
AcDbEntity
  8
Visible (ISO)
100
AcDbLine
 10
59.19231301779602
 20
119.3495310729777
 30
0.0
 11
68.00924669645475
 21
119.3495310729777
 31
0.0
  0
LINE
  5
28A
330
70
100
AcDbEntity
  8
Visible (ISO)
100
AcDbLine
 10
59.20154392793801
 20
125.6691434028611
 30
0.0
 11
68.00001578631277
 21
125.6691434028611
 31
0.0
  0
LINE
  5
28B
330
70
100
AcDbEntity
  8
Visible (ISO)
100
AcDbLine
 10
59.20153215099651
 20
127.8495310729788
 30
0.0
 11
68.00002756325428
 21
127.8495310729788
 31
0.0
  0
LINE
  5
28C
330
70
100
AcDbEntity
  8
Visible (ISO)
100
AcDbLine
 10
59.19223283402946
 20
134.1691434028601
 30
0.0
 11
68.00932688022131
 21
134.1691434028601
 31
0.0
  0
LINE
  5
28D
330
70
100
AcDbEntity
  8
Visible (ISO)
100
AcDbLine
 10
59.18742562994783
 20
135.2593372379184
 30
0.0
 11
68.01413408430295
 21
135.2593372379184
 31
0.0
  0
SPLINE
  5
28E
330
70
100
AcDbEntity
  8
Visible (ISO)
100
AcDbSpline
210
0.0
220
0.0
230
1.0
 70
    12
 71
     2
 72
     6
 73
     3
 74
     0
 42
0.000000001
 43
0.0000000001
 40
0.2980601315551571
 40
0.2980601315551571
 40
0.2980601315551571
 40
0.7113345297980624
 40
0.7113345297980624
 40
0.7113345297980624
 10
59.18751769358291
 20
118.2593372379183
 30
0.0
 41
1.097033496993509
 10
57.90112412305076
 20
116.2193659933604
 30
0.0
 41
1.14647518296239
 10
58.74516760549543
 20
118.2593372379172
 30
0.0
 41
1.146475182962401
  0
SPLINE
  5
28F
330
70
100
AcDbEntity
  8
Visible (ISO)
100
AcDbSpline
210
0.0
220
0.0
230
1.0
 70
     8
 71
     3
 72
     8
 73
     4
 74
     0
 42
0.000000001
 43
0.0000000001
 40
5.004219356527671
 40
5.004219356527671
 40
5.004219356527671
 40
5.004219356527671
 40
5.211535476845116
 40
5.211535476845116
 40
5.211535476845116
 40
5.211535476845116
 10
59.19231301779602
 20
119.3495310729777
 30
0.0
 10
59.19085395489656
 20
118.919863971585
 30
0.0
 10
59.18923141554628
 20
118.5487829463349
 30
0.0
 10
59.18751769358292
 20
118.2593372379183
 30
0.0
  0
SPLINE
  5
290
330
70
100
AcDbEntity
  8
Visible (ISO)
100
AcDbSpline
210
0.0
220
0.0
230
1.0
 70
    12
 71
     2
 72
     6
 73
     3
 74
     0
 42
0.000000001
 43
0.0000000001
 40
0.2964681744114426
 40
0.2964681744114426
 40
0.2964681744114426
 40
1.112711295773689
 40
1.112711295773689
 40
1.112711295773689
 10
59.20154392793801
 20
125.6691434028611
 30
0.0
 41
1.09534617560246
 10
58.36892674552523
 20
122.5066159916496
 30
0.0
 41
1.19176065111233
 10
59.19231301779602
 20
119.3495310729777
 30
0.0
 41
1.09632949238759
  0
SPLINE
  5
291
330
70
100
AcDbEntity
  8
Visible (ISO)
100
AcDbSpline
210
0.0
220
0.0
230
1.0
 70
     8
 71
     3
 72
    10
 73
     6
 74
     0
 42
0.000000001
 43
0.0000000001
 40
4.069806568453929
 40
4.069806568453929
 40
4.069806568453929
 40
4.069806568453929
 40
4.177124186456814
 40
4.177124186456814
 40
4.284458642266199
 40
4.284458642266199
 40
4.284458642266199
 40
4.284458642266199
 10
59.2015321509965
 20
127.8495310729788
 30
0.0
 10
59.20164471815507
 20
127.4822951886442
 30
0.0
 10
59.20169966352837
 20
127.1171495474073
 30
0.0
 10
59.20170354513956
 20
126.4016426347418
 30
0.0
 10
59.20165254517989
 20
126.0364382379828
 30
0.0
 10
59.20154392793801
 20
125.6691434028611
 30
0.0
  0
SPLINE
  5
292
330
70
100
AcDbEntity
  8
Visible (ISO)
100
AcDbSpline
210
0.0
220
0.0
230
1.0
 70
    12
 71
     2
 72
     6
 73
     3
 74
     0
 42
0.000000001
 43
0.0000000001
 40
0.3006765647426856
 40
0.3006765647426856
 40
0.3006765647426856
 40
1.116924309062172
 40
1.116924309062172
 40
1.116924309062172
 10
59.19223283402946
 20
134.1691434028601
 30
0.0
 41
1.096338511801205
 10
58.36887366121699
 20
131.0120786738458
 30
0.0
 41
1.191768356554788
 10
59.20153215099649
 20
127.8495310729788
 30
0.0
 41
1.095347893909632
  0
SPLINE
  5
293
330
70
100
AcDbEntity
  8
Visible (ISO)
100
AcDbSpline
210
0.0
220
0.0
230
1.0
 70
     8
 71
     3
 72
     8
 73
     4
 74
     0
 42
0.000000001
 43
0.0000000001
 40
3.142729944404867
 40
3.142729944404867
 40
3.142729944404867
 40
3.142729944404867
 40
3.350046040583589
 40
3.350046040583589
 40
3.350046040583589
 40
3.350046040583589
 10
59.18742562994783
 20
135.2593372379184
 30
0.0
 10
59.18914232266641
 20
134.969924967479
 30
0.0
 10
59.19076899908896
 20
134.5988341352607
 30
0.0
 10
59.19223283402946
 20
134.1691434028601
 30
0.0
  0
SPLINE
  5
294
330
70
100
AcDbEntity
  8
Visible (ISO)
100
AcDbSpline
210
0.0
220
0.0
230
1.0
 70
    12
 71
     2
 72
     6
 73
     3
 74
     0
 42
0.000000001
 43
0.0000000001
 40
0.7113573297693777
 40
0.7113573297693777
 40
0.7113573297693777
 40
1.124636459553174
 40
1.124636459553174
 40
1.124636459553174
 10
58.74506724335248
 20
135.2593372379172
 30
0.0
 41
1.146488404072639
 10
57.90099036071124
 20
132.9260287837821
 30
0.0
 41
1.146488404072659
 10
59.18742562994783
 20
135.2593372379184
 30
0.0
 41
1.097044292848638
  0
LINE
  5
295
330
70
100
AcDbEntity
  8
Visible (ISO)
100
AcDbLine
 10
58.60077985712539
 20
135.0094241540827
 30
0.0
 11
58.60077985712539
 21
118.5094241540826
 31
0.0
  0
LINE
  5
296
330
70
100
AcDbEntity
  8
Visible (ISO)
100
AcDbLine
 10
58.60077985712539
 20
135.0094241540827
 30
0.0
 11
58.74506724335159
 21
135.2593372379178
 31
0.0
  0
LINE
  5
297
330
70
100
AcDbEntity
  8
Visible (ISO)
100
AcDbLine
 10
58.60077985712539
 20
118.5094241540826
 30
0.0
 11
58.74516760549457
 21
118.2593372379167
 31
0.0
  0
LINE
  5
298
330
70
100
AcDbEntity
  8
Visible (ISO)
100
AcDbLine
 10
49.95572791656877
 20
131.5417037809403
 30
0.0
 11
58.60077985712539
 21
131.8118616540827
 31
0.0
  0
LINE
  5
299
330
70
100
AcDbEntity
  8
Visible (ISO)
100
AcDbLine
 10
49.95572791656877
 20
121.977144527225
 30
0.0
 11
58.60077985712539
 21
121.7069866540826
 31
0.0
  0
LINE
  5
29A
330
70
100
AcDbEntity
  8
Visible (ISO)
100
AcDbLine
 10
68.60077985712539
 20
135.0094241540827
 30
0.0
 11
73.10077985712538
 21
135.0094241540827
 31
0.0
  0
LINE
  5
29B
330
70
100
AcDbEntity
  8
Visible (ISO)
100
AcDbLine
 10
68.60077985712539
 20
118.5094241540826
 30
0.0
 11
73.10077985712538
 21
118.5094241540826
 31
0.0
  0
LINE
  5
29C
330
70
100
AcDbEntity
  8
Visible (ISO)
100
AcDbLine
 10
105.6007798571253
 20
130.0311234181458
 30
0.0
 11
99.01734951072672
 21
129.3402267896561
 31
0.0
  0
LINE
  5
29D
330
70
100
AcDbEntity
  8
Visible (ISO)
100
AcDbLine
 10
99.01734951072672
 20
124.1786215185213
 30
0.0
 11
105.6007798571253
 21
123.4877248900352
 31
0.0
  0
LINE
  5
29E
330
70
100
AcDbEntity
  8
Visible (ISO)
100
AcDbLine
 10
105.6007798571254
 20
123.4877248900358
 30
0.0
 11
105.6007798571254
 21
130.0311234181463
 31
0.0
  0
LINE
  5
29F
330
70
100
AcDbEntity
  8
Visible (ISO)
100
AcDbLine
 10
125.6007798571254
 20
130.2594241540911
 30
0.0
 11
125.6007798571254
 21
123.2594241540911
 31
0.0
  0
LINE
  5
2A0
330
70
100
AcDbEntity
  8
Visible (ISO)
100
AcDbLine
 10
107.776216718662
 20
130.2594241540911
 30
0.0
 11
125.6007798571254
 21
130.2594241540911
 31
0.0
  0
LINE
  5
2A1
330
70
100
AcDbEntity
  8
Visible (ISO)
100
AcDbLine
 10
105.6007798571254
 20
130.0311234181463
 30
0.0
 11
107.776216718662
 21
130.2594241540911
 31
0.0
  0
LINE
  5
2A2
330
70
100
AcDbEntity
  8
Visible (ISO)
100
AcDbLine
 10
107.776216718662
 20
123.2594241540911
 30
0.0
 11
105.6007798571254
 21
123.4877248900358
 31
0.0
  0
LINE
  5
2A3
330
70
100
AcDbEntity
  8
Visible (ISO)
100
AcDbLine
 10
125.6007798571254
 20
123.2594241540911
 30
0.0
 11
107.776216718662
 21
123.2594241540911
 31
0.0
  0
ARC
  5
2A4
330
70
100
AcDbEntity
  8
Visible (ISO)
100
AcDbCircle
 10
107.776216718662
 20
58.25942415408812
 30
0.0
 40
65.0000000000003
100
AcDbArc
 50
90.00000000000005
 51
106.5000949922716
  0
ARC
  5
2A5
330
70
100
AcDbEntity
  8
Visible (ISO)
100
AcDbCircle
 10
107.7762167186621
 20
195.2594241540888
 30
0.0
 40
65.00000000000034
100
AcDbArc
 50
253.4999050077283
 51
270.0
  0
SPLINE
  5
2A6
330
70
100
AcDbEntity
  8
Visible (ISO)
100
AcDbSpline
210
0.0
220
0.0
230
1.0
 70
     8
 71
     3
 72
     8
 73
     4
 74
     0
 42
0.000000001
 43
0.0000000001
 40
0.9230683158927151
 40
0.9230683158927151
 40
0.9230683158927151
 40
0.9230683158927151
 40
0.925972547537049
 40
0.925972547537049
 40
0.925972547537049
 40
0.925972547537049
 10
90.96500612511638
 20
128.2767979679395
 30
0.0
 10
90.96858050144914
 20
128.2707803457407
 30
0.0
 10
90.97216130326607
 20
128.2646840292577
 30
0.0
 10
90.97574612303708
 20
128.2585125109708
 30
0.0
  0
SPLINE
  5
2A7
330
70
100
AcDbEntity
  8
Visible (ISO)
100
AcDbSpline
210
0.0
220
0.0
230
1.0
 70
     8
 71
     3
 72
     8
 73
     4
 74
     0
 42
0.000000001
 43
0.0000000001
 40
1.26072965346429
 40
1.26072965346429
 40
1.26072965346429
 40
1.26072965346429
 40
1.263633885108629
 40
1.263633885108629
 40
1.263633885108629
 40
1.263633885108629
 10
90.97574612303709
 20
125.2603357972101
 30
0.0
 10
90.97216130326609
 20
125.2541642789231
 30
0.0
 10
90.96858050144914
 20
125.2480679624401
 30
0.0
 10
90.96500612511638
 20
125.2420503402413
 30
0.0
  0
LINE
  5
2A8
330
70
100
AcDbEntity
  8
Visible (ISO)
100
AcDbLine
 10
90.90088437293315
 20
128.4884461671123
 30
0.0
 11
99.0173495107267
 21
129.3402267896561
 31
0.0
  0
LINE
  5
2A9
330
70
100
AcDbEntity
  8
Visible (ISO)
100
AcDbLine
 10
99.0173495107267
 20
124.1786215185213
 30
0.0
 11
90.90088437293315
 21
125.0304021410686
 31
0.0
  0
ARC
  5
2AA
330
70
100
AcDbEntity
  8
Visible (ISO)
100
AcDbCircle
 10
85.60077985712538
 20
126.7594241540884
 30
0.0
 40
7.207531252864777
100
AcDbArc
 50
15.30412371510662
 51
58.97975155669005
  0
ARC
  5
2AB
330
70
100
AcDbEntity
  8
Visible (ISO)
100
AcDbCircle
 10
85.60077985712538
 20
126.7594241540884
 30
0.0
 40
7.207531252864783
100
AcDbArc
 50
301.0202484433098
 51
344.6958762848932
  0
ARC
  5
2AC
330
70
100
AcDbEntity
  8
Visible (ISO)
100
AcDbCircle
 10
85.60077985712538
 20
126.7594241540881
 30
0.0
 40
7.450000000000001
100
AcDbArc
 50
53.08637888662943
 51
306.9136211133706
  0
SPLINE
  5
2AD
330
70
100
AcDbEntity
  8
Visible (ISO)
100
AcDbSpline
210
0.0
220
0.0
230
1.0
 70
    24
 71
     3
 72
    11
 73
     7
 74
     0
 42
0.000000001
 43
0.0000000001
 40
0.5082556132472948
 40
0.5082556132472948
 40
0.5082556132472948
 40
0.5082556132472948
 40
0.5582558142562709
 40
0.5582558142562709
 40
0.5582558142562709
 40
0.6082560152652471
 40
0.6082560152652471
 40
0.6082560152652471
 40
0.6082560152652471
 10
90.10077985712539
 20
127.2594241540906
 30
0.0
 10
90.10077985712539
 20
127.0927605608523
 30
0.0
 10
90.10077985712539
 20
126.9260914907872
 30
0.0
 10
90.10077985712539
 20
126.7594241540906
 30
0.0
 10
90.10077985712539
 20
126.5927568173941
 30
0.0
 10
90.10077985712539
 20
126.426087747329
 30
0.0
 10
90.10077985712539
 20
126.2594241540907
 30
0.0
  0
SPLINE
  5
2AE
330
70
100
AcDbEntity
  8
Visible (ISO)
100
AcDbSpline
210
0.0
220
0.0
230
1.0
 70
     8
 71
     3
 72
    18
 73
    14
 74
     0
 42
0.000000001
 43
0.0000000001
 40
-0.0001066313518541
 40
-0.0001066313518541
 40
-0.0001066313518541
 40
-0.0001066313518541
 40
0.0
 40
0.0
 40
0.0045172709872586
 40
0.0045172709872586
 40
0.0088134160853533
 40
0.0088134160853533
 40
0.0130973002062933
 40
0.0130973002062933
 40
0.0163175638624273
 40
0.0163175638624273
 40
0.0191481319215035
 40
0.0191481319215035
 40
0.0191481319215035
 40
0.0191481319215035
 10
90.20610811453696
 20
126.1587291639935
 30
0.0
 10
90.2058572558492
 20
126.1589805141569
 30
0.0
 10
90.2056063458064
 20
126.1592318718267
 30
0.0
 10
90.1947240274258
 20
126.1701316984154
 30
0.0
 10
90.18393975733344
 20
126.1808544509498
 30
0.0
 10
90.16343607067204
 20
126.2010754386929
 30
0.0
 10
90.15355512990877
 20
126.2107412061538
 30
0.0
 10
90.13512842305344
 20
126.2285674841594
 30
0.0
 10
90.12645611167192
 20
126.2368507015614
 30
0.0
 10
90.11377933658753
 20
126.2486805858125
 30
0.0
 10
90.10918370299783
 20
126.2528611694918
 30
0.0
 10
90.10306480936968
 20
126.2581149453549
 30
0.0
 10
90.10132828790695
 20
126.2594241540907
 30
0.0
 10
90.10088990813279
 20
126.2594241540907
 30
0.0
  0
SPLINE
  5
2AF
330
70
100
AcDbEntity
  8
Visible (ISO)
100
AcDbSpline
210
0.0
220
0.0
230
1.0
 70
     8
 71
     3
 72
    18
 73
    14
 74
     0
 42
0.000000001
 43
0.0000000001
 40
-0.0190744129494767
 40
-0.0190744129494767
 40
-0.0190744129494767
 40
-0.0190744129494767
 40
-0.0189687803634125
 40
-0.0189687803634125
 40
-0.0144938205317899
 40
-0.0144938205317899
 40
-0.0102379154069879
 40
-0.0102379154069879
 40
-0.0059941564165262
 40
-0.0059941564165262
 40
-0.0028040554575467
 40
-0.0028040554575467
 40
0.0
 40
0.0
 40
0.0
 40
0.0
 10
90.20610811453696
 20
127.3601191441878
 30
0.0
 10
90.2058572558492
 20
127.3598677940244
 30
0.0
 10
90.2056063458064
 20
127.3596164363546
 30
0.0
 10
90.1947240274258
 20
127.3487166097659
 30
0.0
 10
90.18393975733344
 20
127.3379938572316
 30
0.0
 10
90.16343607067204
 20
127.3177728694884
 30
0.0
 10
90.15355512990877
 20
127.3081071020275
 30
0.0
 10
90.13512842305344
 20
127.290280824022
 30
0.0
 10
90.12645611167192
 20
127.2819976066199
 30
0.0
 10
90.11377933658753
 20
127.2701677223688
 30
0.0
 10
90.10918370299783
 20
127.2659871386895
 30
0.0
 10
90.10306480936966
 20
127.2607333628264
 30
0.0
 10
90.10132828790695
 20
127.2594241540906
 30
0.0
 10
90.10088990813279
 20
127.2594241540906
 30
0.0
  0
SPLINE
  5
2B0
330
70
100
AcDbEntity
  8
Visible (ISO)
100
AcDbSpline
210
0.0
220
0.0
230
1.0
 70
    24
 71
     3
 72
    11
 73
     7
 74
     0
 42
0.000000001
 43
0.0000000001
 40
0.5082556132472948
 40
0.5082556132472948
 40
0.5082556132472948
 40
0.5082556132472948
 40
0.5582558142562709
 40
0.5582558142562709
 40
0.5582558142562709
 40
0.608256015265247
 40
0.608256015265247
 40
0.608256015265247
 40
0.608256015265247
 10
81.10077985712539
 20
126.2594241540907
 30
0.0
 10
81.10077985712539
 20
126.426087747329
 30
0.0
 10
81.10077985712539
 20
126.5927568173941
 30
0.0
 10
81.10077985712539
 20
126.7594241540906
 30
0.0
 10
81.10077985712539
 20
126.9260914907872
 30
0.0
 10
81.10077985712539
 20
127.0927605608523
 30
0.0
 10
81.10077985712539
 20
127.2594241540906
 30
0.0
  0
SPLINE
  5
2B1
330
70
100
AcDbEntity
  8
Visible (ISO)
100
AcDbSpline
210
0.0
220
0.0
230
1.0
 70
     8
 71
     3
 72
    18
 73
    14
 74
     0
 42
0.000000001
 43
0.0000000001
 40
-0.0191481319214909
 40
-0.0191481319214909
 40
-0.0191481319214909
 40
-0.0191481319214909
 40
-0.0163175638624168
 40
-0.0163175638624168
 40
-0.013097300206286
 40
-0.013097300206286
 40
-0.0088134160853484
 40
-0.0088134160853484
 40
-0.0045172709872565
 40
-0.0045172709872565
 40
0.0
 40
0.0
 40
0.0001066313518546
 40
0.0001066313518546
 40
0.0001066313518546
 40
0.0001066313518546
 10
81.10066980611797
 20
127.2594241540906
 30
0.0
 10
81.10023142634382
 20
127.2594241540906
 30
0.0
 10
81.09849490488109
 20
127.2607333628264
 30
0.0
 10
81.09237601125293
 20
127.2659871386895
 30
0.0
 10
81.08778037766326
 20
127.2701677223688
 30
0.0
 10
81.07510360257885
 20
127.2819976066199
 30
0.0
 10
81.06643129119735
 20
127.290280824022
 30
0.0
 10
81.04800458434199
 20
127.3081071020275
 30
0.0
 10
81.03812364357873
 20
127.3177728694884
 30
0.0
 10
81.01761995691735
 20
127.3379938572316
 30
0.0
 10
81.00683568682496
 20
127.3487166097659
 30
0.0
 10
80.99595336844437
 20
127.3596164363546
 30
0.0
 10
80.99570245840157
 20
127.3598677940244
 30
0.0
 10
80.99545159971382
 20
127.3601191441878
 30
0.0
  0
SPLINE
  5
2B2
330
70
100
AcDbEntity
  8
Visible (ISO)
100
AcDbSpline
210
0.0
220
0.0
230
1.0
 70
     8
 71
     3
 72
    18
 73
    14
 74
     0
 42
0.000000001
 43
0.0000000001
 40
-0.0190744129494811
 40
-0.0190744129494811
 40
-0.0190744129494811
 40
-0.0190744129494811
 40
-0.018968780363416
 40
-0.018968780363416
 40
-0.0144938205317931
 40
-0.0144938205317931
 40
-0.0102379154069898
 40
-0.0102379154069898
 40
-0.0059941564165267
 40
-0.0059941564165267
 40
-0.0028040554575468
 40
-0.0028040554575468
 40
0.0
 40
0.0
 40
0.0
 40
0.0
 10
80.99545159971382
 20
126.1587291639935
 30
0.0
 10
80.99570245840157
 20
126.1589805141569
 30
0.0
 10
80.99595336844437
 20
126.1592318718267
 30
0.0
 10
81.00683568682498
 20
126.1701316984154
 30
0.0
 10
81.01761995691735
 20
126.1808544509498
 30
0.0
 10
81.03812364357873
 20
126.2010754386929
 30
0.0
 10
81.04800458434199
 20
126.2107412061538
 30
0.0
 10
81.06643129119735
 20
126.2285674841594
 30
0.0
 10
81.07510360257885
 20
126.2368507015614
 30
0.0
 10
81.08778037766326
 20
126.2486805858125
 30
0.0
 10
81.09237601125293
 20
126.2528611694918
 30
0.0
 10
81.09849490488111
 20
126.2581149453549
 30
0.0
 10
81.10023142634382
 20
126.2594241540907
 30
0.0
 10
81.10066980611797
 20
126.2594241540907
 30
0.0
  0
SPLINE
  5
2B3
330
70
100
AcDbEntity
  8
Visible (ISO)
100
AcDbSpline
210
0.0
220
0.0
230
1.0
 70
    24
 71
     3
 72
    19
 73
    15
 74
     0
 42
0.000000001
 43
0.0000000001
 40
0.1081914355857267
 40
0.1081914355857267
 40
0.1081914355857267
 40
0.1081914355857267
 40
0.2793577774160916
 40
0.2793577774160916
 40
0.4269302117979099
 40
0.4269302117979099
 40
0.5587155548321833
 40
0.5587155548321833
 40
0.5587155548321833
 40
0.6905008978664565
 40
0.6905008978664565
 40
0.8380733322482749
 40
0.8380733322482749
 40
1.009239674078639
 40
1.009239674078639
 40
1.009239674078639
 40
1.009239674078639
 10
90.10077985712539
 20
126.2594241540907
 30
0.0
 10
89.53103535040098
 20
126.2594241540907
 30
0.0
 10
88.96128744550741
 20
126.2594241540907
 30
0.0
 10
87.90029160289241
 20
126.2594241540907
 30
0.0
 10
87.40906002188379
 20
126.2594241540907
 30
0.0
 10
86.47898190745562
 20
126.2594241540907
 30
0.0
 10
86.0400643339063
 20
126.2594241540907
 30
0.0
 10
85.60077985712538
 20
126.2594241540907
 30
0.0
 10
85.16149538034447
 20
126.2594241540907
 30
0.0
 10
84.72257780679516
 20
126.2594241540907
 30
0.0
 10
83.79249969236699
 20
126.2594241540907
 30
0.0
 10
83.30126811135835
 20
126.2594241540907
 30
0.0
 10
82.24027226874335
 20
126.2594241540907
 30
0.0
 10
81.67052436384979
 20
126.2594241540907
 30
0.0
 10
81.10077985712539
 20
126.2594241540907
 30
0.0
  0
SPLINE
  5
2B4
330
70
100
AcDbEntity
  8
Visible (ISO)
100
AcDbSpline
210
0.0
220
0.0
230
1.0
 70
    24
 71
     3
 72
     8
 73
     4
 74
     0
 42
0.000000001
 43
0.0000000001
 40
-1.009250694823054
 40
-1.009250694823054
 40
-1.009250694823054
 40
-1.009250694823054
 40
-1.009239674078639
 40
-1.009239674078639
 40
-1.009239674078639
 40
-1.009239674078639
 10
81.10066980611797
 20
126.2594241540907
 30
0.0
 10
81.10070490472418
 20
126.2594241540907
 30
0.0
 10
81.1007415883399
 20
126.2594241540907
 30
0.0
 10
81.10077985712539
 20
126.2594241540907
 30
0.0
  0
SPLINE
  5
2B5
330
70
100
AcDbEntity
  8
Visible (ISO)
100
AcDbSpline
210
0.0
220
0.0
230
1.0
 70
    24
 71
     3
 72
     8
 73
     4
 74
     0
 42
0.000000001
 43
0.0000000001
 40
0.1081804148413112
 40
0.1081804148413112
 40
0.1081804148413112
 40
0.1081804148413112
 40
0.1081914355857267
 40
0.1081914355857267
 40
0.1081914355857267
 40
0.1081914355857267
 10
90.10088990813279
 20
126.2594241540907
 30
0.0
 10
90.10085480952659
 20
126.2594241540907
 30
0.0
 10
90.10081812591087
 20
126.2594241540907
 30
0.0
 10
90.10077985712539
 20
126.2594241540907
 30
0.0
  0
SPLINE
  5
2B6
330
70
100
AcDbEntity
  8
Visible (ISO)
100
AcDbSpline
210
0.0
220
0.0
230
1.0
 70
    24
 71
     3
 72
    19
 73
    15
 74
     0
 42
0.000000001
 43
0.0000000001
 40
0.1081914355857269
 40
0.1081914355857269
 40
0.1081914355857269
 40
0.1081914355857269
 40
0.2793577774160916
 40
0.2793577774160916
 40
0.42693021179791
 40
0.42693021179791
 40
0.5587155548321833
 40
0.5587155548321833
 40
0.5587155548321833
 40
0.6905008978664564
 40
0.6905008978664564
 40
0.8380733322482749
 40
0.8380733322482749
 40
1.009239674078639
 40
1.009239674078639
 40
1.009239674078639
 40
1.009239674078639
 10
81.10077985712539
 20
127.2594241540906
 30
0.0
 10
81.67052436384979
 20
127.2594241540906
 30
0.0
 10
82.24027226874335
 20
127.2594241540907
 30
0.0
 10
83.30126811135835
 20
127.2594241540907
 30
0.0
 10
83.79249969236699
 20
127.2594241540907
 30
0.0
 10
84.72257780679516
 20
127.2594241540907
 30
0.0
 10
85.16149538034447
 20
127.2594241540907
 30
0.0
 10
85.60077985712538
 20
127.2594241540907
 30
0.0
 10
86.0400643339063
 20
127.2594241540907
 30
0.0
 10
86.47898190745562
 20
127.2594241540907
 30
0.0
 10
87.40906002188379
 20
127.2594241540907
 30
0.0
 10
87.90029160289241
 20
127.2594241540907
 30
0.0
 10
88.96128744550741
 20
127.2594241540907
 30
0.0
 10
89.53103535040098
 20
127.2594241540906
 30
0.0
 10
90.10077985712539
 20
127.2594241540906
 30
0.0
  0
SPLINE
  5
2B7
330
70
100
AcDbEntity
  8
Visible (ISO)
100
AcDbSpline
210
0.0
220
0.0
230
1.0
 70
    24
 71
     3
 72
     8
 73
     4
 74
     0
 42
0.000000001
 43
0.0000000001
 40
-1.009250694823055
 40
-1.009250694823055
 40
-1.009250694823055
 40
-1.009250694823055
 40
-1.009239674078639
 40
-1.009239674078639
 40
-1.009239674078639
 40
-1.009239674078639
 10
90.10088990813279
 20
127.2594241540906
 30
0.0
 10
90.10085480952659
 20
127.2594241540906
 30
0.0
 10
90.10081812591087
 20
127.2594241540906
 30
0.0
 10
90.10077985712539
 20
127.2594241540906
 30
0.0
  0
SPLINE
  5
2B8
330
70
100
AcDbEntity
  8
Visible (ISO)
100
AcDbSpline
210
0.0
220
0.0
230
1.0
 70
    24
 71
     3
 72
     8
 73
     4
 74
     0
 42
0.000000001
 43
0.0000000001
 40
-0.1081914355857269
 40
-0.1081914355857269
 40
-0.1081914355857269
 40
-0.1081914355857269
 40
-0.1081804148413115
 40
-0.1081804148413115
 40
-0.1081804148413115
 40
-0.1081804148413115
 10
81.10077985712539
 20
127.2594241540906
 30
0.0
 10
81.1007415883399
 20
127.2594241540906
 30
0.0
 10
81.10070490472418
 20
127.2594241540906
 30
0.0
 10
81.10066980611797
 20
127.2594241540906
 30
0.0
  0
ARC
  5
2B9
330
70
100
AcDbEntity
  8
Visible (ISO)
100
AcDbCircle
 10
79.70077985712539
 20
125.3594241540906
 30
0.0
 40
0.0999999999999998
100
AcDbArc
 50
180.0
 51
270.0
  0
SPLINE
  5
2BA
330
70
100
AcDbEntity
  8
Visible (ISO)
100
AcDbSpline
210
0.0
220
0.0
230
1.0
 70
     8
 71
     3
 72
    20
 73
    16
 74
     0
 42
0.000000001
 43
0.0000000001
 40
-0.1167463837654997
 40
-0.1167463837654997
 40
-0.1167463837654997
 40
-0.1167463837654997
 40
-0.1163267376802986
 40
-0.1163267376802986
 40
-0.1148286972977117
 40
-0.1148286972977117
 40
-0.111636749464689
 40
-0.111636749464689
 40
-0.107278172338819
 40
-0.107278172338819
 40
-0.1040400035181946
 40
-0.1040400035181946
 40
-0.1011279500247179
 40
-0.1011279500247179
 40
-0.100530888678917
 40
-0.100530888678917
 40
-0.100530888678917
 40
-0.100530888678917
 10
80.27477397654267
 20
125.3594241540906
 30
0.0
 10
80.27505462410468
 20
125.358356489401
 30
0.0
 10
80.27528693198979
 20
125.3572741625201
 30
0.0
 10
80.2761117849999
 20
125.3522539776063
 30
0.0
 10
80.27604537077138
 20
125.3484190541779
 30
0.0
 10
80.27426336528609
 20
125.3364523574434
 30
0.0
 10
80.27075330592754
 20
125.3281070146087
 30
0.0
 10
80.26128301074567
 20
125.3092060608642
 30
0.0
 10
80.25414483821775
 20
125.2976069244232
 30
0.0
 10
80.2429198480428
 20
125.2796530091398
 30
0.0
 10
80.23882355916624
 20
125.2732249293637
 30
0.0
 10
80.23331811865391
 20
125.2641634812358
 30
0.0
 10
80.23173978739226
 20
125.2613233653134
 30
0.0
 10
80.23131488572394
 20
125.2598530203623
 30
0.0
 10
80.23129465659037
 20
125.2596729431698
 30
0.0
 10
80.23132582759059
 20
125.2595613521275
 30
0.0
  0
LINE
  5
2BB
330
70
100
AcDbEntity
  8
Visible (ISO)
100
AcDbLine
 10
79.70077985712539
 20
125.2594241540906
 30
0.0
 11
80.23136415334532
 21
125.2594241540906
 31
0.0
  0
LINE
  5
2BC
330
70
100
AcDbEntity
  8
Visible (ISO)
100
AcDbLine
 10
79.60077985712539
 20
128.1594241540906
 30
0.0
 11
79.60077985712539
 21
125.3594241540906
 31
0.0
  0
ARC
  5
2BD
330
70
100
AcDbEntity
  8
Visible (ISO)
100
AcDbCircle
 10
85.60077985712538
 20
126.7594241540907
 30
0.0
 40
5.506935503526576
100
AcDbArc
 50
165.2723396740592
 51
194.7276603259133
  0
ARC
  5
2BE
330
70
100
AcDbEntity
  8
Visible (ISO)
100
AcDbCircle
 10
85.60077985712538
 20
126.7594241540907
 30
0.0
 40
5.506935503526585
100
AcDbArc
 50
345.2723396740867
 51
14.7276603259133
  0
ARC
  5
2BF
330
70
100
AcDbEntity
  8
Visible (ISO)
100
AcDbCircle
 10
85.60077985712538
 20
126.7594241540906
 30
0.0
 40
5.574999999999997
100
AcDbArc
 50
195.6067736638874
 51
344.3932263361124
  0
SPLINE
  5
2C0
330
70
100
AcDbEntity
  8
Visible (ISO)
100
AcDbSpline
210
0.0
220
0.0
230
1.0
 70
     8
 71
     3
 72
    26
 73
    22
 74
     0
 42
0.000000001
 43
0.0000000001
 40
0.1202727217615084
 40
0.1202727217615084
 40
0.1202727217615084
 40
0.1202727217615084
 40
0.1202991365773451
 40
0.1202991365773451
 40
0.1203429475099263
 40
0.1203429475099263
 40
0.1204385750773929
 40
0.1204385750773929
 40
0.1218155955517658
 40
0.1218155955517658
 40
0.1232684323416687
 40
0.1232684323416687
 40
0.1257179918970292
 40
0.1257179918970292
 40
0.1298582169075374
 40
0.1298582169075374
 40
0.1338256061203832
 40
0.1338256061203832
 40
0.1358218267841507
 40
0.1358218267841507
 40
0.1377756950170718
 40
0.1377756950170718
 40
0.1377756950170718
 40
0.1377756950170718
 10
80.27477397654337
 20
128.1594241540932
 30
0.0
 10
80.2747914120813
 20
128.1594904839344
 30
0.0
 10
80.27480856700234
 20
128.1595565114404
 30
0.0
 10
80.27485344631932
 20
128.159731259262
 30
0.0
 10
80.27488074939936
 20
128.1598396855974
 30
0.0
 10
80.27496550083613
 20
128.16018293441
 30
0.0
 10
80.27502084250018
 20
128.1604173294152
 30
0.0
 10
80.27583145982527
 20
128.1640121432249
 30
0.0
 10
80.27606362300128
 20
128.1673358242565
 30
0.0
 10
80.2756321600451
 20
128.1742589196367
 30
0.0
 10
80.27492826692904
 20
128.1777209898168
 30
0.0
 10
80.27237434510928
 20
128.1866280501257
 30
0.0
 10
80.26991251288601
 20
128.1923566191736
 30
0.0
 10
80.26229069389405
 20
128.2077279591275
 30
0.0
 10
80.25611487241803
 20
128.2179896877738
 30
0.0
 10
80.24461550406677
 20
128.2365467041762
 30
0.0
 10
80.23971715888842
 20
128.2441832133038
 30
0.0
 10
80.23460851970552
 20
128.252548121135
 30
0.0
 10
80.2332990042707
 20
128.2547809369176
 30
0.0
 10
80.23161710677349
 20
128.2579720086115
 30
0.0
 10
80.23123057234478
 20
128.2589459457541
 30
0.0
 10
80.23132582759066
 20
128.259286956054
 30
0.0
  0
ARC
  5
2C1
330
70
100
AcDbEntity
  8
Visible (ISO)
100
AcDbCircle
 10
85.60077985712538
 20
126.7594241540906
 30
0.0
 40
5.575
100
AcDbArc
 50
15.60677366388743
 51
164.3932263361101
  0
LINE
  5
2C2
330
70
100
AcDbEntity
  8
Visible (ISO)
100
AcDbLine
 10
90.97019556090545
 20
125.2594241540906
 30
0.0
 11
91.5007798571254
 21
125.2594241540906
 31
0.0
  0
SPLINE
  5
2C3
330
70
100
AcDbEntity
  8
Visible (ISO)
100
AcDbSpline
210
0.0
220
0.0
230
1.0
 70
     8
 71
     3
 72
    18
 73
    14
 74
     0
 42
0.000000001
 43
0.0000000001
 40
-0.1028855666828686
 40
-0.1028855666828686
 40
-0.1028855666828686
 40
-0.1028855666828686
 40
-0.1004689900059198
 40
-0.1004689900059198
 40
-0.0980358109280614
 40
-0.0980358109280614
 40
-0.093790661072223
 40
-0.093790661072223
 40
-0.0887468381604296
 40
-0.0887468381604296
 40
-0.0865906319794494
 40
-0.0865906319794494
 40
-0.0854228207007943
 40
-0.0854228207007943
 40
-0.0854228207007943
 40
-0.0854228207007943
 10
90.97023388666011
 20
125.2595613521273
 30
0.0
 10
90.97035169993004
 20
125.259983119329
 30
0.0
 10
90.96973240108809
 20
125.2613719895842
 30
0.0
 10
90.96716436551501
 20
125.2659715333459
 30
0.0
 10
90.96522918613315
 20
125.2691532127456
 30
0.0
 10
90.95854243413839
 20
125.2798862482342
 30
0.0
 10
90.95281886575007
 20
125.2887817604509
 30
0.0
 10
90.93935054068909
 20
125.3111049096943
 30
0.0
 10
90.93217961795788
 20
125.3238064958327
 30
0.0
 10
90.92684139459988
 20
125.3398506989943
 30
0.0
 10
90.92561533261552
 20
125.3450393223969
 30
0.0
 10
90.92564168979723
 20
125.3536116555888
 30
0.0
 10
90.92602503177552
 20
125.3565302081834
 30
0.0
 10
90.92678573770809
 20
125.3594241540906
 30
0.0
  0
ARC
  5
2C4
330
70
100
AcDbEntity
  8
Visible (ISO)
100
AcDbCircle
 10
91.5007798571254
 20
125.3594241540906
 30
0.0
 40
0.1000000000000001
100
AcDbArc
 50
270.0
 51
0.0
  0
LINE
  5
2C5
330
70
100
AcDbEntity
  8
Visible (ISO)
100
AcDbLine
 10
91.60077985712538
 20
125.3594241540906
 30
0.0
 11
91.60077985712538
 21
128.1594241540906
 31
0.0
  0
ARC
  5
2C6
330
70
100
AcDbEntity
  8
Visible (ISO)
100
AcDbCircle
 10
91.5007798571254
 20
128.1594241540906
 30
0.0
 40
0.0999999999999998
100
AcDbArc
 50
0.0
 51
90.0
  0
LINE
  5
2C7
330
70
100
AcDbEntity
  8
Visible (ISO)
100
AcDbLine
 10
91.5007798571254
 20
128.2594241540906
 30
0.0
 11
90.97019556090545
 21
128.2594241540906
 31
0.0
  0
SPLINE
  5
2C8
330
70
100
AcDbEntity
  8
Visible (ISO)
100
AcDbSpline
210
0.0
220
0.0
230
1.0
 70
     8
 71
     3
 72
    20
 73
    16
 74
     0
 42
0.000000001
 43
0.0000000001
 40
-0.1167463837662684
 40
-0.1167463837662684
 40
-0.1167463837662684
 40
-0.1167463837662684
 40
-0.1163267376810644
 40
-0.1163267376810644
 40
-0.1148286972984718
 40
-0.1148286972984718
 40
-0.1116367494654422
 40
-0.1116367494654422
 40
-0.1072781723395591
 40
-0.1072781723395591
 40
-0.1040400035189335
 40
-0.1040400035189335
 40
-0.101127950025461
 40
-0.101127950025461
 40
-0.1005308886796618
 40
-0.1005308886796618
 40
-0.1005308886796618
 40
-0.1005308886796618
 10
90.92678573770809
 20
128.1594241540907
 30
0.0
 10
90.92650509014609
 20
128.1604918187803
 30
0.0
 10
90.92627278226098
 20
128.1615741456612
 30
0.0
 10
90.92544792925087
 20
128.166594330575
 30
0.0
 10
90.92551434347939
 20
128.1704292540034
 30
0.0
 10
90.92729634896469
 20
128.1823959507379
 30
0.0
 10
90.93080640832324
 20
128.1907412935726
 30
0.0
 10
90.94027670350511
 20
128.2096422473171
 30
0.0
 10
90.94741487603302
 20
128.2212413837581
 30
0.0
 10
90.95863986620797
 20
128.2391952990415
 30
0.0
 10
90.96273615508453
 20
128.2456233788176
 30
0.0
 10
90.96824159559686
 20
128.2546848269455
 30
0.0
 10
90.96981992685853
 20
128.2575249428679
 30
0.0
 10
90.97024482852683
 20
128.2589952878189
 30
0.0
 10
90.97026505766041
 20
128.2591753650115
 30
0.0
 10
90.97023388666018
 20
128.2592869560537
 30
0.0
  0
LINE
  5
2C9
330
70
100
AcDbEntity
  8
Visible (ISO)
100
AcDbLine
 10
80.23136415334532
 20
128.2594241540906
 30
0.0
 11
79.70077985712539
 21
128.2594241540906
 31
0.0
  0
ARC
  5
2CA
330
70
100
AcDbEntity
  8
Visible (ISO)
100
AcDbCircle
 10
79.70077985712539
 20
128.1594241540906
 30
0.0
 40
0.1000000000000001
100
AcDbArc
 50
90.0
 51
180.0
  0
CIRCLE
  5
2CB
330
70
100
AcDbEntity
  8
Visible (ISO)
100
AcDbCircle
 10
193.8982385170482
 20
57.41786382430446
 30
0.0
 40
10.0
  0
ARC
  5
2CC
330
70
100
AcDbEntity
  8
Visible (ISO)
100
AcDbCircle
 10
193.8982385170483
 20
57.41786382430447
 30
0.0
 40
9.750000000000005
100
AcDbArc
 50
270.667889832296
 51
329.3321101677042
  0
ARC
  5
2CD
330
70
100
AcDbEntity
  8
Visible (ISO)
100
AcDbCircle
 10
193.8982385170483
 20
57.41786382430446
 30
0.0
 40
9.749999999999998
100
AcDbArc
 50
210.6678898322968
 51
269.332110167703
  0
ARC
  5
2CE
330
70
100
AcDbEntity
  8
Visible (ISO)
100
AcDbCircle
 10
193.8982385170483
 20
57.41786382430446
 30
0.0
 40
9.75
100
AcDbArc
 50
150.6678898322975
 51
209.3321101677025
  0
ARC
  5
2CF
330
70
100
AcDbEntity
  8
Visible (ISO)
100
AcDbCircle
 10
193.8982385170483
 20
57.41786382430446
 30
0.0
 40
9.749999999999998
100
AcDbArc
 50
90.66788983229679
 51
149.3321101677033
  0
ARC
  5
2D0
330
70
100
AcDbEntity
  8
Visible (ISO)
100
AcDbCircle
 10
193.8982385170483
 20
57.41786382430446
 30
0.0
 40
9.749999999999996
100
AcDbArc
 50
30.66788983229549
 51
89.33211016770426
  0
ARC
  5
2D1
330
70
100
AcDbEntity
  8
Visible (ISO)
100
AcDbCircle
 10
193.8982385170483
 20
57.41786382430446
 30
0.0
 40
9.749999999999996
100
AcDbArc
 50
330.6678898322953
 51
29.3321101677048
  0
LINE
  5
2D2
330
70
100
AcDbEntity
  8
Visible (ISO)
100
AcDbLine
 10
200.2982385170454
 20
65.91786382430445
 30
0.0
 11
200.2982385170454
 21
65.10161290922387
 31
0.0
  0
ARC
  5
2D3
330
70
100
AcDbEntity
  8
Visible (ISO)
100
AcDbCircle
 10
199.7982385170453
 20
65.91786382430445
 30
0.0
 40
0.5
100
AcDbArc
 50
0.0
 51
90.0
  0
SPLINE
  5
2D4
330
70
100
AcDbEntity
  8
Visible (ISO)
100
AcDbSpline
210
0.0
220
0.0
230
1.0
 70
     8
 71
     3
 72
    14
 73
    10
 74
     0
 42
0.000000001
 43
0.0000000001
 40
0.3152137287149456
 40
0.3152137287149456
 40
0.3152137287149456
 40
0.3152137287149456
 40
0.339724314007867
 40
0.339724314007867
 40
0.3774719396899205
 40
0.3774719396899205
 40
0.4152184860893204
 40
0.4152184860893204
 40
0.4529650324887202
 40
0.4529650324887202
 40
0.4529650324887202
 40
0.4529650324887202
 10
199.7144981959981
 20
65.55244170343669
 30
0.0
 10
199.7164772150734
 20
65.63636010022626
 30
0.0
 10
199.7202205571557
 20
65.72091803209757
 30
0.0
 10
199.7335714352031
 20
65.92403705730609
 30
0.0
 10
199.7450107060845
 20
66.03632098527828
 30
0.0
 10
199.7664137385097
 20
66.21361769102782
 30
0.0
 10
199.7777808809548
 20
66.29053892687655
 30
0.0
 10
199.7938047339516
 20
66.39266865125661
 30
0.0
 10
199.7964650038079
 20
66.40778575508533
 30
0.0
 10
199.7982385170453
 20
66.41786382430446
 30
0.0
  0
LINE
  5
2D5
330
70
100
AcDbEntity
  8
Visible (ISO)
100
AcDbLine
 10
187.9982385170453
 20
65.49189627407824
 30
0.0
 11
187.9982385170453
 21
67.91786382430446
 31
0.0
  0
LINE
  5
2D6
330
70
100
AcDbEntity
  8
Visible (ISO)
100
AcDbLine
 10
199.7982385170453
 20
66.41786382430446
 30
0.0
 11
199.7982385170453
 21
67.91786382430446
 31
0.0
  0
CIRCLE
  5
2D7
330
70
100
AcDbEntity
  8
Visible (ISO)
100
AcDbCircle
 10
193.8982385170489
 20
57.41786382430446
 30
0.0
 40
2.899999999999998
  0
CIRCLE
  5
2D8
330
70
100
AcDbEntity
  8
Visible (ISO)
100
AcDbCircle
 10
193.8982385170491
 20
57.41786382430446
 30
0.0
 40
3.9705
  0
SPLINE
  5
2D9
330
70
100
AcDbEntity
  8
Visible (ISO)
100
AcDbSpline
210
0.0
220
0.0
230
1.0
 70
    28
 71
     2
 72
     6
 73
     3
 74
     0
 42
0.000000001
 43
0.0000000001
 40
0.0906100100638165
 40
0.0906100100638165
 40
0.0906100100638165
 40
1.118728652180968
 40
1.118728652180968
 40
1.118728652180968
 10
185.3982385170518
 20
62.32534111241626
 30
0.0
 41
1.030578586555896
 10
189.6482385170522
 20
64.77907975647219
 30
0.0
 41
1.19000964873822
 10
193.8982385170518
 20
67.23281840052809
 30
0.0
 41
1.030578586555896
  0
SPLINE
  5
2DA
330
70
100
AcDbEntity
  8
Visible (ISO)
100
AcDbSpline
210
0.0
220
0.0
230
1.0
 70
    28
 71
     2
 72
     6
 73
     3
 74
     0
 42
0.000000001
 43
0.0000000001
 40
0.0906100100638162
 40
0.0906100100638162
 40
0.0906100100638162
 40
1.118728652180968
 40
1.118728652180968
 40
1.118728652180968
 10
185.3982385170518
 20
52.51038653619264
 30
0.0
 41
1.030578586555896
 10
185.3982385170522
 20
57.41786382430447
 30
0.0
 41
1.19000964873822
 10
185.3982385170518
 20
62.32534111241626
 30
0.0
 41
1.030578586555896
  0
SPLINE
  5
2DB
330
70
100
AcDbEntity
  8
Visible (ISO)
100
AcDbSpline
210
0.0
220
0.0
230
1.0
 70
    28
 71
     2
 72
     6
 73
     3
 74
     0
 42
0.000000001
 43
0.0000000001
 40
0.0906100100638159
 40
0.0906100100638159
 40
0.0906100100638159
 40
1.118728652180966
 40
1.118728652180966
 40
1.118728652180966
 10
193.8982385170518
 20
47.60290924808082
 30
0.0
 41
1.030578586555896
 10
189.6482385170522
 20
50.05664789213674
 30
0.0
 41
1.190009648738221
 10
185.3982385170518
 20
52.51038653619264
 30
0.0
 41
1.030578586555896
  0
SPLINE
  5
2DC
330
70
100
AcDbEntity
  8
Visible (ISO)
100
AcDbSpline
210
0.0
220
0.0
230
1.0
 70
    28
 71
     2
 72
     6
 73
     3
 74
     0
 42
0.000000001
 43
0.0000000001
 40
0.0906100100638164
 40
0.0906100100638164
 40
0.0906100100638164
 40
1.118728652180967
 40
1.118728652180967
 40
1.118728652180967
 10
202.3982385170518
 20
52.51038653619264
 30
0.0
 41
1.030578586555896
 10
198.1482385170522
 20
50.05664789213674
 30
0.0
 41
1.19000964873822
 10
193.8982385170518
 20
47.60290924808082
 30
0.0
 41
1.030578586555896
  0
SPLINE
  5
2DD
330
70
100
AcDbEntity
  8
Visible (ISO)
100
AcDbSpline
210
0.0
220
0.0
230
1.0
 70
    28
 71
     2
 72
     6
 73
     3
 74
     0
 42
0.000000001
 43
0.0000000001
 40
0.0906100100638167
 40
0.0906100100638167
 40
0.0906100100638167
 40
1.118728652180967
 40
1.118728652180967
 40
1.118728652180967
 10
202.3982385170518
 20
62.32534111241628
 30
0.0
 41
1.030578586555896
 10
202.3982385170522
 20
57.41786382430446
 30
0.0
 41
1.190009648738218
 10
202.3982385170518
 20
52.51038653619264
 30
0.0
 41
1.030578586555895
  0
SPLINE
  5
2DE
330
70
100
AcDbEntity
  8
Visible (ISO)
100
AcDbSpline
210
0.0
220
0.0
230
1.0
 70
    28
 71
     2
 72
     6
 73
     3
 74
     0
 42
0.000000001
 43
0.0000000001
 40
0.090610010063817
 40
0.090610010063817
 40
0.090610010063817
 40
1.118728652180967
 40
1.118728652180967
 40
1.118728652180967
 10
193.8982385170518
 20
67.23281840052809
 30
0.0
 41
1.030578586555895
 10
198.1482385170522
 20
64.77907975647219
 30
0.0
 41
1.190009648738215
 10
202.3982385170518
 20
62.32534111241628
 30
0.0
 41
1.030578586555895
  0
CIRCLE
  5
2DF
330
70
100
AcDbEntity
  8
Visible (ISO)
100
AcDbCircle
 10
193.898238517052
 20
57.41786382430446
 30
0.0
 40
8.249999999999994
  0
CIRCLE
  5
2E0
330
70
100
AcDbEntity
  8
Visible (ISO)
100
AcDbCircle
 10
193.8982385170516
 20
57.41786382430446
 30
0.0
 40
4.24197044688652
  0
CIRCLE
  5
2E1
330
70
100
AcDbEntity
  8
Visible (ISO)
100
AcDbCircle
 10
193.898238517052
 20
57.41786382430446
 30
0.0
 40
4.999999999999996
  0
LINE
  5
2E2
330
70
100
AcDbEntity
  8
Visible (ISO)
100
AcDbLine
 10
197.3982385170572
 20
85.91786382430447
 30
0.0
 11
190.3982385170572
 21
85.91786382430447
 31
0.0
  0
LINE
  5
2E3
330
70
100
AcDbEntity
  8
Visible (ISO)
100
AcDbLine
 10
197.3982385170572
 20
78.91786382430446
 30
0.0
 11
197.3982385170557
 21
73.91786382430446
 31
0.0
  0
LINE
  5
2E4
330
70
100
AcDbEntity
  8
Visible (ISO)
100
AcDbLine
 10
190.3982385170557
 20
73.91786382430446
 30
0.0
 11
190.3982385170572
 21
78.91786382430446
 31
0.0
  0
LINE
  5
2E5
330
70
100
AcDbEntity
  8
Visible (ISO)
100
AcDbLine
 10
190.3982385170557
 20
73.91786382430446
 30
0.0
 11
197.3982385170557
 21
73.91786382430446
 31
0.0
  0
LINE
  5
2E6
330
70
100
AcDbEntity
  8
Visible (ISO)
100
AcDbLine
 10
197.3982385170533
 20
73.91786382430445
 30
0.0
 11
197.3982385170519
 21
73.67011857907542
 31
0.0
  0
SPLINE
  5
2E7
330
70
100
AcDbEntity
  8
Visible (ISO)
100
AcDbSpline
210
0.0
220
0.0
230
1.0
 70
     8
 71
     3
 72
    14
 73
    10
 74
     0
 42
0.000000001
 43
0.0000000001
 40
0.0979815127343829
 40
0.0979815127343829
 40
0.0979815127343829
 40
0.0979815127343829
 40
0.1506624850332004
 40
0.1506624850332004
 40
0.3013249700664007
 40
0.3013249700664007
 40
0.4554237426914714
 40
0.4554237426914714
 40
0.5051911393277391
 40
0.5051911393277391
 40
0.5051911393277391
 40
0.5051911393277391
 10
188.4797784411802
 20
67.91786382430446
 30
0.0
 10
188.4912576340297
 20
68.09677588384634
 30
0.0
 10
188.5058510808019
 20
68.27347218094302
 30
0.0
 10
188.5729752476014
 20
68.93531660742711
 30
0.0
 10
188.6466214902989
 20
69.38166445764212
 30
0.0
 10
188.8098322467673
 20
70.09380010988575
 30
0.0
 10
188.9108406814583
 20
70.40445013919725
 30
0.0
 10
189.0480842395336
 20
70.67700320701054
 30
0.0
 10
189.0818687918254
 20
70.73312580508288
 30
0.0
 10
189.1153761869435
 20
70.77821757581164
 30
0.0
  0
ELLIPSE
  5
2E8
330
70
100
AcDbEntity
  8
Visible (ISO)
100
AcDbEllipse
 10
125.3982385170519
 20
74.26573825662889
 30
0.0
 11
-64.99999999999999
 21
-0.0000000000000034
 31
0.0
210
0.0
220
0.0
230
1.0
 40
0.2713992095570846
 41
2.94258708611294
 42
3.032609081532716
  0
SPLINE
  5
2E9
330
70
100
AcDbEntity
  8
Visible (ISO)
100
AcDbSpline
210
0.0
220
0.0
230
1.0
 70
     8
 71
     3
 72
    10
 73
     6
 74
     0
 42
0.000000001
 43
0.0000000001
 40
5.578615183636053
 40
5.578615183636053
 40
5.578615183636053
 40
5.578615183636053
 40
6.021510703961547
 40
6.021510703961547
 40
6.267952460891863
 40
6.267952460891863
 40
6.267952460891863
 40
6.267952460891863
 10
190.0126043219218
 20
72.34696827047827
 30
0.0
 10
190.1708999219551
 20
72.73960612673723
 30
0.0
 10
190.2856353457871
 20
73.06899730143827
 30
0.0
 10
190.38074529422
 20
73.46177039266303
 30
0.0
 10
190.3982385170516
 20
73.57848156910593
 30
0.0
 10
190.3982385170519
 20
73.67011857907541
 30
0.0
  0
LINE
  5
2EA
330
70
100
AcDbEntity
  8
Visible (ISO)
100
AcDbLine
 10
199.3166985929143
 20
67.91786382430446
 30
0.0
 11
196.4963147284006
 21
67.91786382430446
 31
0.0
  0
SPLINE
  5
2EB
330
70
100
AcDbEntity
  8
Visible (ISO)
100
AcDbSpline
210
0.0
220
0.0
230
1.0
 70
     8
 71
     3
 72
    14
 73
    10
 74
     0
 42
0.000000001
 43
0.0000000001
 40
1.926793397172414
 40
1.926793397172414
 40
1.926793397172414
 40
1.926793397172414
 40
1.976560793808681
 40
1.976560793808681
 40
2.130659566433752
 40
2.130659566433752
 40
2.281322051466952
 40
2.281322051466952
 40
2.33400302376577
 40
2.33400302376577
 40
2.33400302376577
 40
2.33400302376577
 10
198.6811008471526
 20
70.77821757581164
 30
0.0
 10
198.7146082422707
 20
70.73312580508288
 30
0.0
 10
198.7483927945624
 20
70.67700320701054
 30
0.0
 10
198.8856363526373
 20
70.40445013919726
 30
0.0
 10
198.986644787328
 20
70.09380010988575
 30
0.0
 10
199.149855543796
 20
69.38166445764213
 30
0.0
 10
199.2235017864934
 20
68.93531660742711
 30
0.0
 10
199.2906259532927
 20
68.27347218094303
 30
0.0
 10
199.3052194000649
 20
68.09677588384634
 30
0.0
 10
199.3166985929143
 20
67.91786382430446
 30
0.0
  0
LINE
  5
2EC
330
70
100
AcDbEntity
  8
Visible (ISO)
100
AcDbLine
 10
191.3001623056939
 20
67.91786382430446
 30
0.0
 11
188.4797784411802
 21
67.91786382430446
 31
0.0
  0
ELLIPSE
  5
2ED
330
70
100
AcDbEntity
  8
Visible (ISO)
100
AcDbEllipse
 10
262.3982385170519
 20
74.26573825662889
 30
0.0
 11
64.99999999999999
 21
-0.0000000000000022
 31
0.0
210
0.0
220
0.0
230
1.0
 40
0.2713992095570846
 41
3.250576225654226
 42
3.340598221073768
  0
SPLINE
  5
2EE
330
70
100
AcDbEntity
  8
Visible (ISO)
100
AcDbSpline
210
0.0
220
0.0
230
1.0
 70
     8
 71
     3
 72
    10
 73
     6
 74
     0
 42
0.000000001
 43
0.0000000001
 40
4.585290746366444
 40
4.585290746366444
 40
4.585290746366444
 40
4.585290746366444
 40
4.831732503296846
 40
4.831732503296846
 40
5.274628023622252
 40
5.274628023622252
 40
5.274628023622252
 40
5.274628023622252
 10
197.3982385170519
 20
73.67011857907541
 30
0.0
 10
197.3982385170517
 20
73.5784815691059
 30
0.0
 10
197.4157317398828
 20
73.46177039266295
 30
0.0
 10
197.5108416883144
 20
73.06899730143815
 30
0.0
 10
197.6255771121454
 20
72.73960612673715
 30
0.0
 10
197.7838727121778
 20
72.34696827047827
 30
0.0
  0
LINE
  5
2EF
330
70
100
AcDbEntity
  8
Visible (ISO)
100
AcDbLine
 10
190.3982385170519
 20
73.67011857907541
 30
0.0
 11
190.3982385170532
 21
73.91786382430445
 31
0.0
  0
LINE
  5
2F0
330
70
100
AcDbEntity
  8
Visible (ISO)
100
AcDbLine
 10
197.3982385170572
 20
78.91786382430446
 30
0.0
 11
197.3982385170572
 21
85.91786382430447
 31
0.0
  0
SPLINE
  5
2F1
330
70
100
AcDbEntity
  8
Visible (ISO)
100
AcDbSpline
210
0.0
220
0.0
230
1.0
 70
     8
 71
     3
 72
    10
 73
     6
 74
     0
 42
0.000000001
 43
0.0000000001
 40
1.758510453691921
 40
1.758510453691921
 40
1.758510453691921
 40
1.758510453691921
 40
1.769985036102442
 40
1.769985036102442
 40
1.77528265148158
 40
1.77528265148158
 40
1.77528265148158
 40
1.77528265148158
 10
200.5579607392682
 20
67.9178638243045
 30
0.0
 10
200.5697410113866
 20
67.9178638243045
 30
0.0
 10
200.5815250393979
 20
67.92415259090706
 30
0.0
 10
200.5982917824112
 20
67.94141984272673
 30
0.0
 10
200.6035219008656
 20
67.94804357262167
 30
0.0
 10
200.6086621513987
 20
67.95568074810447
 30
0.0
  0
LINE
  5
2F2
330
70
100
AcDbEntity
  8
Visible (ISO)
100
AcDbLine
 10
200.6064424495453
 20
67.91786382430446
 30
0.0
 11
200.5579607392689
 21
67.91786382430446
 31
0.0
  0
SPLINE
  5
2F3
330
70
100
AcDbEntity
  8
Visible (ISO)
100
AcDbSpline
210
0.0
220
0.0
230
1.0
 70
     8
 71
     3
 72
     8
 73
     4
 74
     0
 42
0.000000001
 43
0.0000000001
 40
-0.0038487373741095
 40
-0.0038487373741095
 40
-0.0038487373741095
 40
-0.0038487373741095
 40
0.0
 40
0.0
 40
0.0
 40
0.0
 10
200.6086621513987
 20
67.95568074810443
 30
0.0
 10
200.6079222561345
 20
67.94307502790321
 30
0.0
 10
200.607182355467
 20
67.93046938573588
 30
0.0
 10
200.6064424495453
 20
67.91786382430446
 30
0.0
  0
SPLINE
  5
2F4
330
70
100
AcDbEntity
  8
Visible (ISO)
100
AcDbSpline
210
0.0
220
0.0
230
1.0
 70
     8
 71
     3
 72
    10
 73
     6
 74
     0
 42
0.000000001
 43
0.0000000001
 40
1.741738255902264
 40
1.741738255902264
 40
1.741738255902264
 40
1.741738255902264
 40
1.747035871281402
 40
1.747035871281402
 40
1.758510453691923
 40
1.758510453691923
 40
1.758510453691923
 40
1.758510453691923
 10
187.1878148826931
 20
67.95568074810446
 30
0.0
 10
187.1929551332262
 20
67.94804357262167
 30
0.0
 10
187.1981852516806
 20
67.9414198427266
 30
0.0
 10
187.214951994694
 20
67.92415259090692
 30
0.0
 10
187.2267360227053
 20
67.91786382430446
 30
0.0
 10
187.2385162948237
 20
67.91786382430446
 30
0.0
  0
SPLINE
  5
2F5
330
70
100
AcDbEntity
  8
Visible (ISO)
100
AcDbSpline
210
0.0
220
0.0
230
1.0
 70
     8
 71
     3
 72
     8
 73
     4
 74
     0
 42
0.000000001
 43
0.0000000001
 40
-0.0038487374224739
 40
-0.0038487374224739
 40
-0.0038487374224739
 40
-0.0038487374224739
 40
0.0
 40
0.0
 40
0.0
 40
0.0
 10
187.1900345845466
 20
67.91786382430446
 30
0.0
 10
187.1892946786216
 20
67.93046938579194
 30
0.0
 10
187.1885547779507
 20
67.94307502801553
 30
0.0
 10
187.1878148826931
 20
67.95568074810444
 30
0.0
  0
LINE
  5
2F6
330
70
100
AcDbEntity
  8
Visible (ISO)
100
AcDbLine
 10
187.2385162948237
 20
67.91786382430446
 30
0.0
 11
187.1900345845469
 21
67.91786382430446
 31
0.0
  0
SPLINE
  5
2F7
330
70
100
AcDbEntity
  8
Visible (ISO)
100
AcDbSpline
210
0.0
220
0.0
230
1.0
 70
     8
 71
     3
 72
    22
 73
    18
 74
     0
 42
0.000000001
 43
0.0000000001
 40
1.758510453691923
 40
1.758510453691923
 40
1.758510453691923
 40
1.758510453691923
 40
1.769985036102444
 40
1.769985036102444
 40
1.781459618512965
 40
1.781459618512965
 40
1.804408783334006
 40
1.804408783334006
 40
1.879967807849264
 40
1.879967807849264
 40
1.955526832364522
 40
1.955526832364522
 40
2.150713591741938
 40
2.150713591741938
 40
2.345900351119354
 40
2.345900351119354
 40
2.573780108621498
 40
2.573780108621498
 40
2.573780108621498
 40
2.573780108621498
 10
187.2385162948237
 20
67.91786382430446
 30
0.0
 10
187.2502965669421
 20
67.91786382430446
 30
0.0
 10
187.2620151593878
 20
67.9241525909073
 30
0.0
 10
187.2847109713183
 20
67.94777913126806
 30
0.0
 10
187.2956891682386
 20
67.9651074382779
 30
0.0
 10
187.3268755573466
 20
68.02856013937731
 30
0.0
 10
187.3453920025488
 20
68.08629642651618
 30
0.0
 10
187.4112959813851
 20
68.33172848517664
 30
0.0
 10
187.4482331844527
 20
68.57257531854722
 30
0.0
 10
187.5141160346767
 20
69.07153119649065
 30
0.0
 10
187.5416932489512
 20
69.33159420786555
 30
0.0
 10
187.624554084092
 20
70.18831613958784
 30
0.0
 10
187.6711750302009
 20
70.83020491579468
 30
0.0
 10
187.7562831861948
 20
72.14289324243212
 30
0.0
 10
187.7939389607686
 20
72.81430419933655
 30
0.0
 10
187.8698056201109
 20
74.29183014186458
 30
0.0
 10
187.9069296149437
 20
75.10143993431515
 30
0.0
 10
187.9416513916731
 20
75.91786382430446
 30
0.0
  0
LINE
  5
2F8
330
70
100
AcDbEntity
  8
Visible (ISO)
100
AcDbLine
 10
188.4797784411802
 20
67.91786382430446
 30
0.0
 11
187.2385162948238
 21
67.91786382430446
 31
0.0
  0
LINE
  5
2F9
330
70
100
AcDbEntity
  8
Visible (ISO)
100
AcDbLine
 10
187.7214906763906
 20
76.91260740229513
 30
0.0
 11
190.3982385170519
 21
76.91260740229513
 31
0.0
  0
SPLINE
  5
2FA
330
70
100
AcDbEntity
  8
Visible (ISO)
100
AcDbSpline
210
0.0
220
0.0
230
1.0
 70
     8
 71
     3
 72
    10
 73
     6
 74
     0
 42
0.000000001
 43
0.0000000001
 40
1.026679612955202
 40
1.026679612955202
 40
1.026679612955202
 40
1.026679612955202
 40
1.054986950396901
 40
1.054986950396901
 40
1.150372975748469
 40
1.150372975748469
 40
1.150372975748469
 40
1.150372975748469
 10
187.9416513916731
 20
75.91786382430446
 30
0.0
 10
187.9271650094694
 20
75.99646908384947
 30
0.0
 10
187.9123723677503
 20
76.07411740969069
 30
0.0
 10
187.8461978358791
 20
76.40875063260839
 30
0.0
 10
187.7875406431107
 20
76.67340053780525
 30
0.0
 10
187.7214906763905
 20
76.91260740229513
 30
0.0
  0
SPLINE
  5
2FB
330
70
100
AcDbEntity
  8
Visible (ISO)
100
AcDbSpline
210
0.0
220
0.0
230
1.0
 70
     8
 71
     3
 72
    22
 73
    18
 74
     0
 42
0.000000001
 43
0.0000000001
 40
0.9432407987623509
 40
0.9432407987623509
 40
0.9432407987623509
 40
0.9432407987623509
 40
1.171120556264496
 40
1.171120556264496
 40
1.366307315641912
 40
1.366307315641912
 40
1.561494075019328
 40
1.561494075019328
 40
1.637053099534583
 40
1.637053099534583
 40
1.712612124049838
 40
1.712612124049838
 40
1.73556128887088
 40
1.73556128887088
 40
1.7470358712814
 40
1.7470358712814
 40
1.758510453691921
 40
1.758510453691921
 40
1.758510453691921
 40
1.758510453691921
 10
199.8548256424202
 20
75.91786382430446
 30
0.0
 10
199.8895474191495
 20
75.10143993431515
 30
0.0
 10
199.9266714139822
 20
74.29183014186458
 30
0.0
 10
200.0025380733244
 20
72.81430419933653
 30
0.0
 10
200.0401938478981
 20
72.14289324243212
 30
0.0
 10
200.1253020038919
 20
70.83020491579467
 30
0.0
 10
200.1719229500006
 20
70.18831613958781
 30
0.0
 10
200.2547837851413
 20
69.33159420786553
 30
0.0
 10
200.2823609994158
 20
69.07153119649068
 30
0.0
 10
200.3482438496396
 20
68.57257531854725
 30
0.0
 10
200.3851810527071
 20
68.33172848517668
 30
0.0
 10
200.4510850315433
 20
68.08629642651623
 30
0.0
 10
200.4696014767455
 20
68.02856013937731
 30
0.0
 10
200.5007878658535
 20
67.9651074382779
 30
0.0
 10
200.5117660627737
 20
67.94777913126805
 30
0.0
 10
200.5344618747042
 20
67.92415259090728
 30
0.0
 10
200.5461804671498
 20
67.9178638243045
 30
0.0
 10
200.5579607392682
 20
67.9178638243045
 30
0.0
  0
SPLINE
  5
2FC
330
70
100
AcDbEntity
  8
Visible (ISO)
100
AcDbSpline
210
0.0
220
0.0
230
1.0
 70
     8
 71
     3
 72
    10
 73
     6
 74
     0
 42
0.000000001
 43
0.0000000001
 40
1.527849395011702
 40
1.527849395011702
 40
1.527849395011702
 40
1.527849395011702
 40
1.623235420363269
 40
1.623235420363269
 40
1.651542757804969
 40
1.651542757804969
 40
1.651542757804969
 40
1.651542757804969
 10
200.0749863577023
 20
76.91260740229513
 30
0.0
 10
200.0089363909824
 20
76.67340053780526
 30
0.0
 10
199.950279198214
 20
76.4087506326084
 30
0.0
 10
199.8841046663429
 20
76.07411740969071
 30
0.0
 10
199.8693120246239
 20
75.99646908384947
 30
0.0
 10
199.8548256424202
 20
75.91786382430446
 30
0.0
  0
LINE
  5
2FD
330
70
100
AcDbEntity
  8
Visible (ISO)
100
AcDbLine
 10
197.3982385170519
 20
76.91260740229513
 30
0.0
 11
200.0749863577023
 21
76.91260740229513
 31
0.0
  0
LINE
  5
2FE
330
70
100
AcDbEntity
  8
Visible (ISO)
100
AcDbLine
 10
200.5579607392682
 20
67.91786382430446
 30
0.0
 11
199.3166985929144
 21
67.91786382430446
 31
0.0
  0
LINE
  5
2FF
330
70
100
AcDbEntity
  8
Visible (ISO)
100
AcDbLine
 10
190.3982385170572
 20
78.91786382430446
 30
0.0
 11
190.3982385170572
 21
85.91786382430447
 31
0.0
  0
SPLINE
  5
300
330
70
100
AcDbEntity
  8
Visible (ISO)
100
AcDbSpline
210
0.0
220
0.0
230
1.0
 70
     8
 71
     3
 72
    22
 73
    18
 74
     0
 42
0.000000001
 43
0.0000000001
 40
0.080169667649563
 40
0.080169667649563
 40
0.080169667649563
 40
0.080169667649563
 40
0.1449225509834109
 40
0.1449225509834109
 40
0.2230755465214004
 40
0.2230755465214004
 40
0.2985369780978444
 40
0.2985369780978444
 40
0.3739984096742883
 40
0.3739984096742883
 40
0.4494598412507324
 40
0.4494598412507324
 40
0.5249212728271763
 40
0.5249212728271763
 40
0.6030742683651658
 40
0.6030742683651658
 40
0.6678271516990137
 40
0.6678271516990137
 40
0.6678271516990137
 40
0.6678271516990137
 10
191.3001623056939
 20
67.91786382430446
 30
0.0
 10
191.3985404426239
 20
68.11684037890938
 30
0.0
 10
191.5364346997796
 20
68.29395514894532
 30
0.0
 10
191.869931589598
 20
68.60862196616601
 30
0.0
 10
192.1250315993006
 20
68.76950217756939
 30
0.0
 10
192.5810605184923
 20
68.9726680503326
 30
0.0
 10
192.8395470512077
 20
69.05170966721673
 30
0.0
 10
193.3723977512365
 20
69.15270608587743
 30
0.0
 10
193.6467004117926
 20
69.1750851718194
 30
0.0
 10
194.1497766223022
 20
69.1750851718194
 30
0.0
 10
194.4240792828583
 20
69.15270608587743
 30
0.0
 10
194.9569299828871
 20
69.05170966721673
 30
0.0
 10
195.2154165156024
 20
68.9726680503326
 30
0.0
 10
195.671445434794
 20
68.76950217756939
 30
0.0
 10
195.9265454444967
 20
68.60862196616601
 30
0.0
 10
196.2600423343149
 20
68.29395514894532
 30
0.0
 10
196.3979365914707
 20
68.11684037890938
 30
0.0
 10
196.4963147284006
 20
67.91786382430446
 30
0.0
  0
LINE
  5
301
330
70
100
AcDbEntity
  8
Visible (ISO)
100
AcDbLine
 10
191.3001623056939
 20
67.91786382430446
 30
0.0
 11
196.4963147284006
 21
67.91786382430446
 31
0.0
  0
LINE
  5
302
330
70
100
AcDbEntity
  8
Visible (ISO)
100
AcDbLine
 10
186.8982385170453
 20
67.91786382430446
 30
0.0
 11
187.1900345845465
 21
67.91786382430446
 31
0.0
  0
LINE
  5
303
330
70
100
AcDbEntity
  8
Visible (ISO)
100
AcDbLine
 10
200.6064424495453
 20
67.91786382430446
 30
0.0
 11
200.8982385170453
 21
67.91786382430446
 31
0.0
  0
LINE
  5
304
330
70
100
AcDbEntity
  8
Visible (ISO)
100
AcDbLine
 10
186.4482385170453
 20
75.91786382430446
 30
0.0
 11
187.9416513916731
 21
75.91786382430446
 31
0.0
  0
LINE
  5
305
330
70
100
AcDbEntity
  8
Visible (ISO)
100
AcDbLine
 10
199.8548256424202
 20
75.91786382430446
 30
0.0
 11
201.3482385170453
 21
75.91786382430446
 31
0.0
  0
LINE
  5
306
330
70
100
AcDbEntity
  8
Visible (ISO)
100
AcDbLine
 10
199.3982385170453
 20
83.91786382430446
 30
0.0
 11
201.3482385170453
 21
75.91786382430446
 31
0.0
  0
LINE
  5
307
330
70
100
AcDbEntity
  8
Visible (ISO)
100
AcDbLine
 10
188.3982385170453
 20
83.91786382430446
 30
0.0
 11
186.4482385170453
 21
75.91786382430446
 31
0.0
  0
LINE
  5
308
330
70
100
AcDbEntity
  8
Visible (ISO)
100
AcDbLine
 10
186.8982385170453
 20
67.91786382430446
 30
0.0
 11
186.4482385170453
 21
75.91786382430448
 31
0.0
  0
LINE
  5
309
330
70
100
AcDbEntity
  8
Visible (ISO)
100
AcDbLine
 10
200.8982385170453
 20
67.91786382430446
 30
0.0
 11
201.3482385170453
 21
75.91786382430448
 31
0.0
  0
LINE
  5
30A
330
70
100
AcDbEntity
  8
Visible (ISO)
100
AcDbLine
 10
199.4732385170453
 20
83.91786382430446
 30
0.0
 11
197.3982385170466
 21
83.91786382430446
 31
0.0
  0
LINE
  5
30B
330
70
100
AcDbEntity
  8
Visible (ISO)
100
AcDbLine
 10
190.3982385170466
 20
83.91786382430446
 30
0.0
 11
188.3232385170453
 21
83.91786382430446
 31
0.0
  0
LINE
  5
30C
330
70
100
AcDbEntity
  8
Visible (ISO)
100
AcDbLine
 10
188.3232385170453
 20
84.32310031015211
 30
0.0
 11
188.3232385170453
 21
83.91786382430446
 31
0.0
  0
LINE
  5
30D
330
70
100
AcDbEntity
  8
Visible (ISO)
100
AcDbLine
 10
199.4732385170453
 20
84.32310031015211
 30
0.0
 11
199.4732385170453
 21
83.91786382430446
 31
0.0
  0
LINE
  5
30E
330
70
100
AcDbEntity
  8
Visible (ISO)
100
AcDbLine
 10
197.3982385170453
 20
84.52952301712958
 30
0.0
 11
199.3786119087377
 21
84.4229558391013
 31
0.0
  0
LINE
  5
30F
330
70
100
AcDbEntity
  8
Visible (ISO)
100
AcDbLine
 10
190.3982385170453
 20
84.52952301712958
 30
0.0
 11
188.417865125353
 21
84.4229558391013
 31
0.0
  0
ARC
  5
310
330
70
100
AcDbEntity
  8
Visible (ISO)
100
AcDbCircle
 10
188.4232385170453
 20
84.32310031015211
 30
0.0
 40
0.1
100
AcDbArc
 50
93.08021013665292
 51
180.0
  0
ARC
  5
311
330
70
100
AcDbEntity
  8
Visible (ISO)
100
AcDbCircle
 10
199.3732385170453
 20
84.32310031015211
 30
0.0
 40
0.1
100
AcDbArc
 50
0.0
 51
86.91978986334708
  0
LINE
  5
312
330
70
100
AcDbEntity
  8
Sketch Geometry (ISO)
  6
CHAIN
 48
25.57273674011231
100
AcDbLine
 10
47.18996691659466
 20
57.41786382430447
 30
0.0
 11
110.6129111507692
 21
57.41786382430447
 31
0.0
  0
LINE
  5
313
330
70
100
AcDbEntity
  8
Sketch Geometry (ISO)
  6
CHAIN
 48
27.10612106323242
100
AcDbLine
 10
85.60077985710723
 20
85.83265966331913
 30
0.0
 11
85.60077985710723
 21
47.41786382430446
 31
0.0
  0
LINE
  5
314
330
70
100
AcDbEntity
  8
Sketch Geometry (ISO)
  6
CHAIN
 48
23.03080749511719
100
AcDbLine
 10
193.8982385170572
 20
87.07347394621962
 30
0.0
 11
193.8982385170572
 21
46.27439959046331
 31
0.0
  0
LINE
  5
315
330
70
100
AcDbEntity
  8
Sketch Geometry (ISO)
  6
CHAIN
 48
31.45325660705566
100
AcDbLine
 10
182.4515296778816
 20
57.41786382430446
 30
0.0
 11
204.7393077479251
 21
57.41786382430447
 31
0.0
  0
LINE
  5
316
330
70
100
AcDbEntity
  8
Sketch Geometry (ISO)
  6
CHAIN
 48
24.91349983215332
100
AcDbLine
 10
47.34701614901758
 20
126.7594241540827
 30
0.0
 11
126.7886917804283
 21
126.7594241540827
 31
0.0
  0
LINE
  5
317
330
70
100
AcDbEntity
  8
Sketch Geometry (ISO)
  6
CHAIN
 48
27.00341987609863
100
AcDbLine
 10
85.60077985712538
 20
136.4104915287641
 30
0.0
 11
85.60077985712538
 21
117.2758681928939
 31
0.0
  0
ENDSEC
  0
SECTION
  2
OBJECTS
  0
DICTIONARY
  5
C
330
0
100
AcDbDictionary
281
     1
  3
ACAD_CIP_PREVIOUS_PRODUCT_INFO
350
318
  3
ACAD_COLOR
350
63
  3
ACAD_DETAILVIEWSTYLE
350
6A
  3
ACAD_GROUP
350
D
  3
ACAD_LAYOUT
350
62
  3
ACAD_MATERIAL
350
10
  3
ACAD_MLEADERSTYLE
350
66
  3
ACAD_MLINESTYLE
350
5F
  3
ACAD_PLOTSETTINGS
350
61
  3
ACAD_PLOTSTYLENAME
350
E
  3
ACAD_SCALELIST
350
42
  3
ACAD_SECTIONVIEWSTYLE
350
68
  3
ACAD_TABLESTYLE
350
64
  3
ACAD_VISUALSTYLE
350
29
  3
ACDB_RECOMPOSE_DATA
350
327
  3
AcDbVariableDictionary
350
319
  0
XRECORD
  5
318
102
{ACAD_REACTORS
330
C
102
}
330
C
100
AcDbXrecord
280
     1
300
INVNTOR
300
2015
300
PDSP_F_S
  0
DICTIONARY
  5
63
102
{ACAD_REACTORS
330
C
102
}
330
C
100
AcDbDictionary
281
     1
  0
DICTIONARY
  5
6A
102
{ACAD_REACTORS
330
C
102
}
330
C
100
AcDbDictionary
281
     1
  3
Imperial24
350
6B
  0
DICTIONARY
  5
D
102
{ACAD_REACTORS
330
C
102
}
330
C
100
AcDbDictionary
281
     1
  0
DICTIONARY
  5
62
102
{ACAD_REACTORS
330
C
102
}
330
C
100
AcDbDictionary
281
     1
  3
Model
350
73
  3
レイアウト1
350
6F
  3
レイアウト2
350
77
  0
DICTIONARY
  5
10
102
{ACAD_REACTORS
330
C
102
}
330
C
100
AcDbDictionary
281
     1
  3
ByBlock
350
19
  3
ByLayer
350
11
  3
Global
350
21
  0
DICTIONARY
  5
66
102
{ACAD_REACTORS
330
C
102
}
330
C
100
AcDbDictionary
281
     1
  3
Standard
350
67
  0
DICTIONARY
  5
5F
102
{ACAD_REACTORS
330
C
102
}
330
C
100
AcDbDictionary
281
     1
  3
Standard
350
60
  0
DICTIONARY
  5
61
102
{ACAD_REACTORS
330
C
102
}
330
C
100
AcDbDictionary
281
     1
  0
ACDBDICTIONARYWDFLT
  5
E
102
{ACAD_REACTORS
330
C
102
}
330
C
100
AcDbDictionary
281
     1
  3
Normal
350
F
100
AcDbDictionaryWithDefault
340
F
  0
DICTIONARY
  5
42
102
{ACAD_REACTORS
330
C
102
}
330
C
100
AcDbDictionary
281
     1
  3
A0
350
43
  3
A1
350
44
  3
A2
350
45
  3
A3
350
46
  3
A4
350
47
  3
A5
350
48
  3
A6
350
49
  3
A7
350
4A
  3
A8
350
4B
  3
A9
350
4C
  3
B0
350
4D
  3
B1
350
4E
  3
B2
350
4F
  3
B3
350
50
  3
B4
350
51
  3
B5
350
52
  3
B6
350
53
  0
DICTIONARY
  5
68
102
{ACAD_REACTORS
330
C
102
}
330
C
100
AcDbDictionary
281
     1
  3
Imperial24
350
69
  0
DICTIONARY
  5
64
102
{ACAD_REACTORS
330
C
102
}
330
C
100
AcDbDictionary
281
     1
  3
Standard
350
65
  0
DICTIONARY
  5
29
102
{ACAD_REACTORS
330
C
102
}
330
C
100
AcDbDictionary
281
     1
  3
2dWireframe
350
2F
  3
Basic
350
2E
  3
Brighten
350
35
  3
ColorChange
350
39
  3
Conceptual
350
32
  3
Dim
350
34
  3
EdgeColorOff
350
41
  3
Facepattern
350
38
  3
Flat
350
2A
  3
FlatWithEdges
350
2B
  3
Gouraud
350
2C
  3
GouraudWithEdges
350
2D
  3
Hidden
350
31
  3
JitterOff
350
3F
  3
Linepattern
350
37
  3
OverhangOff
350
40
  3
Realistic
350
33
  3
Shaded
350
3E
  3
Shaded with edges
350
3D
  3
Shades of Gray
350
3A
  3
Sketchy
350
3B
  3
Thicken
350
36
  3
Wireframe
350
30
  3
X-Ray
350
3C
  0
XRECORD
  5
327
102
{ACAD_REACTORS
330
C
102
}
330
C
100
AcDbXrecord
280
     1
 90
        1
330
65
330
69
330
6B
  0
DICTIONARY
  5
319
102
{ACAD_REACTORS
330
C
102
}
330
C
100
AcDbDictionary
281
     1
  3
CANNOSCALE
350
31E
  3
CMLEADERSTYLE
350
31B
  3
CTABLESTYLE
350
31A
  3
CVIEWDETAILSTYLE
350
31C
  3
CVIEWSECTIONSTYLE
350
31D
  0
ACDBDETAILVIEWSTYLE
  5
6B
102
{ACAD_XDICTIONARY
360
323
102
}
102
{ACAD_REACTORS
330
6A
102
}
330
6A
100
AcDbModelDocViewStyle
 70
     0
  3
Imperial24
290
     0
100
AcDbDetailViewStyle
 70
     0
 71
     0
 90
        3
 71
     1
340
55
 62
   256
 40
0.24
340
0
 62
   256
 40
0.24
300

 40
0.36
280
     3
 71
     2
340
5D
 90
       25
 62
   256
 71
     3
340
55
 62
   256
 40
0.24
 90
        1
 40
0.75
 90
        1
300
%<\AcVar ViewType \f "%tc1">% %<\AcVar ViewDetailId>%\PSCALE %<\AcVar ViewScale \f "%sn">%
 71
     4
340
5D
 90
       25
 62
   256
340
5D
 90
       25
 62
   256
280
     0
  0
LAYOUT
  5
73
102
{ACAD_REACTORS
330
62
102
}
330
62
100
AcDbPlotSettings
  1

  2

  4

  6

 40
0.0
 41
0.0
 42
0.0
 43
0.0
 44
0.0
 45
0.0
 46
0.0
 47
0.0
 48
0.0
 49
0.0
140
0.0
141
0.0
142
1.0
143
1.0
 70
  1712
 72
     0
 73
     0
 74
     0
  7

 75
     0
147
1.0
 76
     0
 77
     2
 78
   300
148
0.0
149
0.0
100
AcDbLayout
  1
Model
 70
     1
 71
     0
 10
0.0
 20
0.0
 11
12.0
 21
9.0
 12
0.0
 22
0.0
 32
0.0
 14
0.0
 24
0.0
 34
0.0
 15
0.0
 25
0.0
 35
0.0
146
0.0
 13
0.0
 23
0.0
 33
0.0
 16
1.0
 26
0.0
 36
0.0
 17
0.0
 27
1.0
 37
0.0
 76
     0
330
70
  0
LAYOUT
  5
6F
102
{ACAD_REACTORS
330
62
102
}
330
62
100
AcDbPlotSettings
  1

  2

  4

  6

 40
0.0
 41
0.0
 42
0.0
 43
0.0
 44
0.0
 45
0.0
 46
0.0
 47
0.0
 48
0.0
 49
0.0
140
0.0
141
0.0
142
1.0
143
1.0
 70
   688
 72
     0
 73
     0
 74
     5
  7

 75
    16
147
1.0
 76
     0
 77
     2
 78
   300
148
0.0
149
0.0
100
AcDbLayout
  1
レイアウト1
 70
     1
 71
     1
 10
0.0
 20
0.0
 11
12.0
 21
9.0
 12
0.0
 22
0.0
 32
0.0
 14
0.0
 24
0.0
 34
0.0
 15
0.0
 25
0.0
 35
0.0
146
0.0
 13
0.0
 23
0.0
 33
0.0
 16
1.0
 26
0.0
 36
0.0
 17
0.0
 27
1.0
 37
0.0
 76
     0
330
6C
  0
LAYOUT
  5
77
102
{ACAD_REACTORS
330
62
102
}
330
62
100
AcDbPlotSettings
  1

  2

  4

  6

 40
0.0
 41
0.0
 42
0.0
 43
0.0
 44
0.0
 45
0.0
 46
0.0
 47
0.0
 48
0.0
 49
0.0
140
0.0
141
0.0
142
1.0
143
1.0
 70
   688
 72
     0
 73
     0
 74
     5
  7

 75
    16
147
1.0
 76
     0
 77
     2
 78
   300
148
0.0
149
0.0
100
AcDbLayout
  1
レイアウト2
 70
     1
 71
     2
 10
0.0
 20
0.0
 11
12.0
 21
9.0
 12
0.0
 22
0.0
 32
0.0
 14
0.0
 24
0.0
 34
0.0
 15
0.0
 25
0.0
 35
0.0
146
0.0
 13
0.0
 23
0.0
 33
0.0
 16
1.0
 26
0.0
 36
0.0
 17
0.0
 27
1.0
 37
0.0
 76
     0
330
74
  0
MATERIAL
  5
19
102
{ACAD_XDICTIONARY
360
1A
102
}
102
{ACAD_REACTORS
330
10
102
}
330
10
100
AcDbMaterial
  1
ByBlock
 72
     0
 43
0.0208333333333333
 43
0.0
 43
0.0
 43
0.0
 43
0.0
 43
0.0208333333333333
 43
0.0
 43
0.0
 43
0.0
 43
0.0
 43
1.0
 43
0.0
 43
0.0
 43
0.0
 43
0.0
 43
1.0
 77
     0
 47
0.0208333333333333
 47
0.0
 47
0.0
 47
0.0
 47
0.0
 47
0.0208333333333333
 47
0.0
 47
0.0
 47
0.0
 47
0.0
 47
1.0
 47
0.0
 47
0.0
 47
0.0
 47
0.0
 47
1.0
171
     0
 49
0.0208333333333333
 49
0.0
 49
0.0
 49
0.0
 49
0.0
 49
0.0208333333333333
 49
0.0
 49
0.0
 49
0.0
 49
0.0
 49
1.0
 49
0.0
 49
0.0
 49
0.0
 49
0.0
 49
1.0
175
     0
142
0.0208333333333333
142
0.0
142
0.0
142
0.0
142
0.0
142
0.0208333333333333
142
0.0
142
0.0
142
0.0
142
0.0
142
1.0
142
0.0
142
0.0
142
0.0
142
0.0
142
1.0
179
     0
144
0.0208333333333333
144
0.0
144
0.0
144
0.0
144
0.0
144
0.0208333333333333
144
0.0
144
0.0
144
0.0
144
0.0
144
1.0
144
0.0
144
0.0
144
0.0
144
0.0
144
1.0
147
0.0208333333333333
147
0.0
147
0.0
147
0.0
147
0.0
147
0.0208333333333333
147
0.0
147
0.0
147
0.0
147
0.0
147
1.0
147
0.0
147
0.0
147
0.0
147
0.0
147
1.0
  0
MATERIAL
  5
11
102
{ACAD_XDICTIONARY
360
12
102
}
102
{ACAD_REACTORS
330
10
102
}
330
10
100
AcDbMaterial
  1
ByLayer
 72
     0
 43
0.0208333333333333
 43
0.0
 43
0.0
 43
0.0
 43
0.0
 43
0.0208333333333333
 43
0.0
 43
0.0
 43
0.0
 43
0.0
 43
1.0
 43
0.0
 43
0.0
 43
0.0
 43
0.0
 43
1.0
 77
     0
 47
0.0208333333333333
 47
0.0
 47
0.0
 47
0.0
 47
0.0
 47
0.0208333333333333
 47
0.0
 47
0.0
 47
0.0
 47
0.0
 47
1.0
 47
0.0
 47
0.0
 47
0.0
 47
0.0
 47
1.0
171
     0
 49
0.0208333333333333
 49
0.0
 49
0.0
 49
0.0
 49
0.0
 49
0.0208333333333333
 49
0.0
 49
0.0
 49
0.0
 49
0.0
 49
1.0
 49
0.0
 49
0.0
 49
0.0
 49
0.0
 49
1.0
175
     0
142
0.0208333333333333
142
0.0
142
0.0
142
0.0
142
0.0
142
0.0208333333333333
142
0.0
142
0.0
142
0.0
142
0.0
142
1.0
142
0.0
142
0.0
142
0.0
142
0.0
142
1.0
179
     0
144
0.0208333333333333
144
0.0
144
0.0
144
0.0
144
0.0
144
0.0208333333333333
144
0.0
144
0.0
144
0.0
144
0.0
144
1.0
144
0.0
144
0.0
144
0.0
144
0.0
144
1.0
147
0.0208333333333333
147
0.0
147
0.0
147
0.0
147
0.0
147
0.0208333333333333
147
0.0
147
0.0
147
0.0
147
0.0
147
1.0
147
0.0
147
0.0
147
0.0
147
0.0
147
1.0
  0
MATERIAL
  5
21
102
{ACAD_XDICTIONARY
360
22
102
}
102
{ACAD_REACTORS
330
10
102
}
330
10
100
AcDbMaterial
  1
Global
 72
     0
 43
0.0208333333333333
 43
0.0
 43
0.0
 43
0.0
 43
0.0
 43
0.0208333333333333
 43
0.0
 43
0.0
 43
0.0
 43
0.0
 43
1.0
 43
0.0
 43
0.0
 43
0.0
 43
0.0
 43
1.0
 77
     0
 47
0.0208333333333333
 47
0.0
 47
0.0
 47
0.0
 47
0.0
 47
0.0208333333333333
 47
0.0
 47
0.0
 47
0.0
 47
0.0
 47
1.0
 47
0.0
 47
0.0
 47
0.0
 47
0.0
 47
1.0
171
     0
 49
0.0208333333333333
 49
0.0
 49
0.0
 49
0.0
 49
0.0
 49
0.0208333333333333
 49
0.0
 49
0.0
 49
0.0
 49
0.0
 49
1.0
 49
0.0
 49
0.0
 49
0.0
 49
0.0
 49
1.0
175
     0
142
0.0208333333333333
142
0.0
142
0.0
142
0.0
142
0.0
142
0.0208333333333333
142
0.0
142
0.0
142
0.0
142
0.0
142
1.0
142
0.0
142
0.0
142
0.0
142
0.0
142
1.0
179
     0
144
0.0208333333333333
144
0.0
144
0.0
144
0.0
144
0.0
144
0.0208333333333333
144
0.0
144
0.0
144
0.0
144
0.0
144
1.0
144
0.0
144
0.0
144
0.0
144
0.0
144
1.0
147
0.0208333333333333
147
0.0
147
0.0
147
0.0
147
0.0
147
0.0208333333333333
147
0.0
147
0.0
147
0.0
147
0.0
147
1.0
147
0.0
147
0.0
147
0.0
147
0.0
147
1.0
  0
MLEADERSTYLE
  5
67
102
{ACAD_REACTORS
330
66
102
}
330
66
100
AcDbMLeaderStyle
179
     2
170
     2
171
     1
172
     0
 90
        2
 40
0.0
 41
0.0
173
     1
 91
-1056964608
340
5B
 92
       -2
290
     1
 42
0.09
291
     1
 43
0.36
  3
Standard
 44
0.18
300

342
55
174
     1
178
     6
175
     1
176
     0
 93
-1056964608
 45
0.18
292
     0
297
     0
 46
0.18
 94
-1056964608
 47
1.0
 49
1.0
140
1.0
293
     1
141
0.0
294
     1
177
     0
142
1.0
295
     1
296
     0
143
0.125
271
     0
272
     9
273
     9
298
     1
  0
MLINESTYLE
  5
60
102
{ACAD_REACTORS
330
5F
102
}
330
5F
100
AcDbMlineStyle
  2
STANDARD
 70
     0
  3

 62
   256
 51
90.0
 52
90.0
 71
     2
 49
0.5
 62
   256
  6
BYLAYER
 49
-0.5
 62
   256
  6
BYLAYER
  0
ACDBPLACEHOLDER
  5
F
102
{ACAD_REACTORS
330
E
102
}
330
E
  0
SCALE
  5
43
102
{ACAD_REACTORS
330
42
102
}
330
42
100
AcDbScale
 70
     0
300
1:1
140
1.0
141
1.0
290
     1
  0
SCALE
  5
44
102
{ACAD_REACTORS
330
42
102
}
330
42
100
AcDbScale
 70
     0
300
1/128" = 1'-0"
140
0.0078125
141
12.0
290
     0
  0
SCALE
  5
45
102
{ACAD_REACTORS
330
42
102
}
330
42
100
AcDbScale
 70
     0
300
1/64" = 1'-0"
140
0.015625
141
12.0
290
     0
  0
SCALE
  5
46
102
{ACAD_REACTORS
330
42
102
}
330
42
100
AcDbScale
 70
     0
300
1/32" = 1'-0"
140
0.03125
141
12.0
290
     0
  0
SCALE
  5
47
102
{ACAD_REACTORS
330
42
102
}
330
42
100
AcDbScale
 70
     0
300
1/16" = 1'-0"
140
0.0625
141
12.0
290
     0
  0
SCALE
  5
48
102
{ACAD_REACTORS
330
42
102
}
330
42
100
AcDbScale
 70
     0
300
3/32" = 1'-0"
140
0.09375
141
12.0
290
     0
  0
SCALE
  5
49
102
{ACAD_REACTORS
330
42
102
}
330
42
100
AcDbScale
 70
     0
300
1/8" = 1'-0"
140
0.125
141
12.0
290
     0
  0
SCALE
  5
4A
102
{ACAD_REACTORS
330
42
102
}
330
42
100
AcDbScale
 70
     0
300
3/16" = 1'-0"
140
0.1875
141
12.0
290
     0
  0
SCALE
  5
4B
102
{ACAD_REACTORS
330
42
102
}
330
42
100
AcDbScale
 70
     0
300
1/4" = 1'-0"
140
0.25
141
12.0
290
     0
  0
SCALE
  5
4C
102
{ACAD_REACTORS
330
42
102
}
330
42
100
AcDbScale
 70
     0
300
3/8" = 1'-0"
140
0.375
141
12.0
290
     0
  0
SCALE
  5
4D
102
{ACAD_REACTORS
330
42
102
}
330
42
100
AcDbScale
 70
     0
300
1/2" = 1'-0"
140
0.5
141
12.0
290
     0
  0
SCALE
  5
4E
102
{ACAD_REACTORS
330
42
102
}
330
42
100
AcDbScale
 70
     0
300
3/4" = 1'-0"
140
0.75
141
12.0
290
     0
  0
SCALE
  5
4F
102
{ACAD_REACTORS
330
42
102
}
330
42
100
AcDbScale
 70
     0
300
1" = 1'-0"
140
1.0
141
12.0
290
     0
  0
SCALE
  5
50
102
{ACAD_REACTORS
330
42
102
}
330
42
100
AcDbScale
 70
     0
300
1-1/2" = 1'-0"
140
1.5
141
12.0
290
     0
  0
SCALE
  5
51
102
{ACAD_REACTORS
330
42
102
}
330
42
100
AcDbScale
 70
     0
300
3" = 1'-0"
140
3.0
141
12.0
290
     0
  0
SCALE
  5
52
102
{ACAD_REACTORS
330
42
102
}
330
42
100
AcDbScale
 70
     0
300
6" = 1'-0"
140
6.0
141
12.0
290
     0
  0
SCALE
  5
53
102
{ACAD_REACTORS
330
42
102
}
330
42
100
AcDbScale
 70
     0
300
1'-0" = 1'-0"
140
12.0
141
12.0
290
     0
  0
ACDBSECTIONVIEWSTYLE
  5
69
102
{ACAD_XDICTIONARY
360
321
102
}
102
{ACAD_REACTORS
330
68
102
}
330
68
100
AcDbModelDocViewStyle
 70
     0
  3
Imperial24
290
     0
100
AcDbSectionViewStyle
 70
     0
 71
     0
 90
       78
 71
     1
340
55
 62
   256
 40
0.24
340
0
340
0
 62
   256
 40
0.24
300
I, O, Q, S, X, Z
 40
0.48
 90
        3
 40
0.18
 90
        1
 71
     2
340
5D
 90
       25
 62
   256
340
5D
 90
       50
 62
   256
 40
0.24
 40
0.0
 40
0.24
 71
     3
340
55
 62
   256
 40
0.24
 90
        1
 40
0.75
 90
        1
300
%<\AcVar ViewType \f "%tc1">% %<\AcVar ViewSectionStartId>%-%<\AcVar ViewSectionEndId>%\PSCALE %<\AcVar ViewScale \f "%sn">%
 71
     4
 62
   256
 62
   257
300
ANSI31
 40
1.0
 90
        0
290
     0
290
     0
 90
        6
 40
0.0
 40
1.570796326794896
 40
0.2617993877991494
 40
1.308996938995747
 40
-0.2617993877991494
 40
1.832595714594046
  0
TABLESTYLE
  5
65
102
{ACAD_XDICTIONARY
360
31F
102
}
102
{ACAD_REACTORS
330
64
102
}
330
64
100
AcDbTableStyle
280
     0
  3
Standard
 70
     0
 71
     0
 40
0.06
 41
0.06
280
     0
281
     0
  7
Standard
140
0.18
170
     2
 62
     0
 63
     7
283
     0
 90
      512
 91
        0
  1

274
    -2
284
     1
 64
     0
275
    -2
285
     1
 65
     0
276
    -2
286
     1
 66
     0
277
    -2
287
     1
 67
     0
278
    -2
288
     1
 68
     0
279
    -2
289
     1
 69
     0
  7
Standard
140
0.25
170
     5
 62
     0
 63
     7
283
     0
 90
      512
 91
        0
  1

274
    -2
284
     1
 64
     0
275
    -2
285
     1
 65
     0
276
    -2
286
     1
 66
     0
277
    -2
287
     1
 67
     0
278
    -2
288
     1
 68
     0
279
    -2
289
     1
 69
     0
  7
Standard
140
0.18
170
     5
 62
     0
 63
     7
283
     0
 90
      512
 91
        0
  1

274
    -2
284
     1
 64
     0
275
    -2
285
     1
 65
     0
276
    -2
286
     1
 66
     0
277
    -2
287
     1
 67
     0
278
    -2
288
     1
 68
     0
279
    -2
289
     1
 69
     0
  0
VISUALSTYLE
  5
2F
102
{ACAD_REACTORS
330
29
102
}
330
29
100
AcDbVisualStyle
  2
2dWireframe
 70
     4
177
     3
291
     0
 70
    58
 90
        0
176
     1
 90
        2
176
     1
 90
        0
176
     1
 90
        0
176
     1
 40
0.6
176
     1
 40
30.0
176
     1
 62
     7
420
 16777215
176
     1
 90
        1
176
     1
 90
        4
176
     1
 62
     7
176
     1
 62
   257
176
     1
 90
        1
176
     1
 90
        1
176
     1
 40
1.0
176
     1
 90
        0
176
     1
 62
   257
176
     1
 40
1.0
176
     1
 90
        1
176
     1
 90
        6
176
     1
 90
        2
176
     1
 62
     7
176
     1
 90
        5
176
     1
 90
        0
176
     1
 90
        0
176
     1
290
     0
176
     1
 90
        1
176
     1
 40
0.0
176
     1
 90
        0
176
     1
290
     1
176
     1
290
     1
176
     1
290
     0
176
     1
290
     0
176
     1
290
     0
176
     1
290
     0
176
     1
290
     0
176
     1
290
     0
176
     1
290
     0
176
     1
 90
       50
176
     1
 40
0.0
176
     1
 40
1.0
176
     1
 90
        0
176
     1
 62
    18
420
        0
176
     1
 90
       50
176
     1
 90
        3
176
     1
 62
     5
420
      255
176
     1
290
     0
176
     1
 90
       50
176
     1
 90
       50
176
     1
 90
       50
176
     1
290
     0
176
     1
 90
       50
176
     1
 62
   256
176
     0
 40
1.0
176
     0
 90
        2
176
     1
  1
strokes_ogs.tif
176
     1
290
     0
176
     1
 40
1.0
176
     1
 40
1.0
176
     1
  0
VISUALSTYLE
  5
2E
102
{ACAD_REACTORS
330
29
102
}
330
29
100
AcDbVisualStyle
  2
Basic
 70
     7
177
     3
291
     1
 70
    58
 90
        1
176
     1
 90
        0
176
     1
 90
        1
176
     1
 90
        0
176
     1
 40
0.6
176
     1
 40
30.0
176
     1
 62
     7
420
 16777215
176
     1
 90
        0
176
     1
 90
        4
176
     1
 62
     7
176
     1
 62
   257
176
     1
 90
        1
176
     1
 90
        1
176
     1
 40
1.0
176
     1
 90
        8
176
     1
 62
     7
176
     1
 40
1.0
176
     1
 90
        1
176
     1
 90
        6
176
     1
 90
        2
176
     1
 62
     7
176
     1
 90
        5
176
     1
 90
        0
176
     1
 90
        0
176
     1
290
     0
176
     1
 90
        1
176
     1
 40
0.0
176
     1
 90
        0
176
     1
290
     0
176
     1
290
     1
176
     1
290
     1
176
     1
290
     0
176
     1
290
     0
176
     1
290
     0
176
     1
290
     0
176
     1
290
     0
176
     1
290
     0
176
     1
 90
       50
176
     1
 40
0.0
176
     1
 40
1.0
176
     1
 90
        0
176
     1
 62
    18
420
        0
176
     1
 90
       50
176
     1
 90
        3
176
     1
 62
     5
420
      255
176
     1
290
     0
176
     1
 90
       50
176
     1
 90
       50
176
     1
 90
       50
176
     1
290
     0
176
     1
 90
       50
176
     1
 62
   256
176
     0
 40
1.0
176
     0
 90
        2
176
     1
  1
strokes_ogs.tif
176
     1
290
     0
176
     1
 40
1.0
176
     1
 40
1.0
176
     1
  0
VISUALSTYLE
  5
35
102
{ACAD_REACTORS
330
29
102
}
330
29
100
AcDbVisualStyle
  2
Brighten
 70
    12
177
     3
291
     1
 70
    58
 90
        2
176
     1
 90
        2
176
     1
 90
        0
176
     1
 90
        0
176
     1
 40
0.6
176
     1
 40
30.0
176
     1
 62
     7
420
 16777215
176
     1
 90
        1
176
     1
 90
        4
176
     1
 62
     7
176
     1
 62
   257
176
     1
 90
        1
176
     1
 90
        1
176
     1
 40
1.0
176
     1
 90
        8
176
     1
 62
     7
176
     1
 40
1.0
176
     1
 90
        1
176
     1
 90
        6
176
     1
 90
        2
176
     1
 62
     7
176
     1
 90
        5
176
     1
 90
        0
176
     1
 90
        0
176
     1
290
     0
176
     1
 90
        1
176
     1
 40
50.0
176
     1
 90
        0
176
     1
290
     0
176
     1
290
     1
176
     1
290
     1
176
     1
290
     0
176
     1
290
     0
176
     1
290
     0
176
     1
290
     0
176
     1
290
     0
176
     1
290
     0
176
     1
 90
       50
176
     1
 40
0.0
176
     1
 40
1.0
176
     1
 90
        0
176
     1
 62
    18
420
        0
176
     1
 90
       50
176
     1
 90
        3
176
     1
 62
     5
420
      255
176
     1
290
     0
176
     1
 90
       50
176
     1
 90
       50
176
     1
 90
       50
176
     1
290
     0
176
     1
 90
       50
176
     1
 62
   256
176
     0
 40
1.0
176
     0
 90
        2
176
     1
  1
strokes_ogs.tif
176
     1
290
     0
176
     1
 40
1.0
176
     1
 40
1.0
176
     1
  0
VISUALSTYLE
  5
39
102
{ACAD_REACTORS
330
29
102
}
330
29
100
AcDbVisualStyle
  2
ColorChange
 70
    16
177
     3
291
     1
 70
    58
 90
        2
176
     1
 90
        2
176
     1
 90
        3
176
     1
 90
        0
176
     1
 40
0.6
176
     1
 40
30.0
176
     1
 62
     8
420
  8421504
176
     1
 90
        1
176
     1
 90
        4
176
     1
 62
     7
176
     1
 62
   257
176
     1
 90
        1
176
     1
 90
        1
176
     1
 40
1.0
176
     1
 90
        8
176
     1
 62
     8
420
  8421504
176
     1
 40
1.0
176
     1
 90
        1
176
     1
 90
        6
176
     1
 90
        2
176
     1
 62
     7
176
     1
 90
        5
176
     1
 90
        0
176
     1
 90
        0
176
     1
290
     0
176
     1
 90
        1
176
     1
 40
0.0
176
     1
 90
        0
176
     1
290
     0
176
     1
290
     1
176
     1
290
     1
176
     1
290
     0
176
     1
290
     0
176
     1
290
     0
176
     1
290
     0
176
     1
290
     0
176
     1
290
     0
176
     1
 90
       50
176
     1
 40
0.0
176
     1
 40
1.0
176
     1
 90
        0
176
     1
 62
    18
420
        0
176
     1
 90
       50
176
     1
 90
        3
176
     1
 62
     5
420
      255
176
     1
290
     0
176
     1
 90
       50
176
     1
 90
       50
176
     1
 90
       50
176
     1
290
     0
176
     1
 90
       50
176
     1
 62
   256
176
     0
 40
1.0
176
     0
 90
        2
176
     1
  1
strokes_ogs.tif
176
     1
290
     0
176
     1
 40
1.0
176
     1
 40
1.0
176
     1
  0
VISUALSTYLE
  5
32
102
{ACAD_REACTORS
330
29
102
}
330
29
100
AcDbVisualStyle
  2
Conceptual
 70
     9
177
     3
291
     0
 70
    58
 90
        3
176
     1
 90
        2
176
     1
 90
        0
176
     1
 90
        0
176
     1
 40
0.6
176
     1
 40
30.0
176
     1
 62
     7
420
 16777215
176
     1
 90
        2
176
     1
 90
        2
176
     1
 62
     7
176
     1
 62
   257
176
     1
 90
        1
176
     1
 90
        1
176
     1
 40
179.0
176
     1
 90
        8
176
     1
 62
     7
176
     1
 40
1.0
176
     1
 90
        1
176
     1
 90
        6
176
     1
 90
        2
176
     1
 62
     7
176
     1
 90
        3
176
     1
 90
        0
176
     1
 90
        0
176
     1
290
     0
176
     1
 90
        1
176
     1
 40
0.0
176
     1
 90
        0
176
     1
290
     0
176
     1
290
     1
176
     1
290
     1
176
     1
290
     0
176
     1
290
     0
176
     1
290
     0
176
     1
290
     0
176
     1
290
     0
176
     1
290
     0
176
     1
 90
       50
176
     1
 40
0.0
176
     1
 40
1.0
176
     1
 90
        0
176
     1
 62
    18
420
        0
176
     1
 90
       50
176
     1
 90
        3
176
     1
 62
     5
420
      255
176
     1
290
     0
176
     1
 90
       50
176
     1
 90
       50
176
     1
 90
       50
176
     1
290
     0
176
     1
 90
       50
176
     1
 62
   256
176
     0
 40
1.0
176
     0
 90
        2
176
     1
  1
strokes_ogs.tif
176
     1
290
     0
176
     1
 40
1.0
176
     1
 40
1.0
176
     1
  0
VISUALSTYLE
  5
34
102
{ACAD_REACTORS
330
29
102
}
330
29
100
AcDbVisualStyle
  2
Dim
 70
    11
177
     3
291
     1
 70
    58
 90
        2
176
     1
 90
        2
176
     1
 90
        0
176
     1
 90
        0
176
     1
 40
0.6
176
     1
 40
30.0
176
     1
 62
     7
420
 16777215
176
     1
 90
        1
176
     1
 90
        4
176
     1
 62
     7
176
     1
 62
   257
176
     1
 90
        1
176
     1
 90
        1
176
     1
 40
1.0
176
     1
 90
        8
176
     1
 62
     7
176
     1
 40
1.0
176
     1
 90
        1
176
     1
 90
        6
176
     1
 90
        2
176
     1
 62
     7
176
     1
 90
        5
176
     1
 90
        0
176
     1
 90
        0
176
     1
290
     0
176
     1
 90
        1
176
     1
 40
-50.0
176
     1
 90
        0
176
     1
290
     0
176
     1
290
     1
176
     1
290
     1
176
     1
290
     0
176
     1
290
     0
176
     1
290
     0
176
     1
290
     0
176
     1
290
     0
176
     1
290
     0
176
     1
 90
       50
176
     1
 40
0.0
176
     1
 40
1.0
176
     1
 90
        0
176
     1
 62
    18
420
        0
176
     1
 90
       50
176
     1
 90
        3
176
     1
 62
     5
420
      255
176
     1
290
     0
176
     1
 90
       50
176
     1
 90
       50
176
     1
 90
       50
176
     1
290
     0
176
     1
 90
       50
176
     1
 62
   256
176
     0
 40
1.0
176
     0
 90
        2
176
     1
  1
strokes_ogs.tif
176
     1
290
     0
176
     1
 40
1.0
176
     1
 40
1.0
176
     1
  0
VISUALSTYLE
  5
41
102
{ACAD_REACTORS
330
29
102
}
330
29
100
AcDbVisualStyle
  2
EdgeColorOff
 70
    22
177
     3
291
     1
 70
    58
 90
        2
176
     0
 90
        2
176
     0
 90
        0
176
     0
 90
        0
176
     0
 40
0.6
176
     0
 40
30.0
176
     0
 62
     7
420
 16777215
176
     0
 90
        1
176
     0
 90
        4
176
     0
 62
     7
176
     0
 62
   257
176
     0
 90
        1
176
     0
 90
        1
176
     0
 40
1.0
176
     0
 90
        8
176
     2
 62
     7
176
     0
 40
1.0
176
     0
 90
        1
176
     0
 90
        6
176
     0
 90
        2
176
     0
 62
     7
176
     0
 90
        5
176
     0
 90
        0
176
     0
 90
        0
176
     0
290
     0
176
     0
 90
        1
176
     0
 40
0.0
176
     0
 90
        0
176
     0
290
     0
176
     0
290
     1
176
     0
290
     1
176
     0
290
     0
176
     0
290
     0
176
     0
290
     0
176
     0
290
     0
176
     0
290
     0
176
     0
290
     0
176
     0
 90
       50
176
     0
 40
0.0
176
     0
 40
1.0
176
     0
 90
        0
176
     0
 62
    18
420
        0
176
     0
 90
       50
176
     0
 90
        3
176
     0
 62
     5
420
      255
176
     0
290
     0
176
     0
 90
       50
176
     0
 90
       50
176
     0
 90
       50
176
     0
290
     0
176
     0
 90
       50
176
     0
 62
   256
176
     0
 40
1.0
176
     0
 90
        2
176
     0
  1
strokes_ogs.tif
176
     0
290
     0
176
     0
 40
1.0
176
     0
 40
1.0
176
     0
  0
VISUALSTYLE
  5
38
102
{ACAD_REACTORS
330
29
102
}
330
29
100
AcDbVisualStyle
  2
Facepattern
 70
    15
177
     3
291
     1
 70
    58
 90
        2
176
     1
 90
        2
176
     1
 90
        0
176
     1
 90
        0
176
     1
 40
0.6
176
     1
 40
30.0
176
     1
 62
     7
420
 16777215
176
     1
 90
        1
176
     1
 90
        4
176
     1
 62
     7
176
     1
 62
   257
176
     1
 90
        1
176
     1
 90
        1
176
     1
 40
1.0
176
     1
 90
        8
176
     1
 62
     7
176
     1
 40
1.0
176
     1
 90
        1
176
     1
 90
        6
176
     1
 90
        2
176
     1
 62
     7
176
     1
 90
        5
176
     1
 90
        0
176
     1
 90
        0
176
     1
290
     0
176
     1
 90
        1
176
     1
 40
0.0
176
     1
 90
        0
176
     1
290
     0
176
     1
290
     1
176
     1
290
     1
176
     1
290
     0
176
     1
290
     0
176
     1
290
     0
176
     1
290
     0
176
     1
290
     0
176
     1
290
     0
176
     1
 90
       50
176
     1
 40
0.0
176
     1
 40
1.0
176
     1
 90
        0
176
     1
 62
    18
420
        0
176
     1
 90
       50
176
     1
 90
        3
176
     1
 62
     5
420
      255
176
     1
290
     0
176
     1
 90
       50
176
     1
 90
       50
176
     1
 90
       50
176
     1
290
     0
176
     1
 90
       50
176
     1
 62
   256
176
     0
 40
1.0
176
     0
 90
        2
176
     1
  1
strokes_ogs.tif
176
     1
290
     0
176
     1
 40
1.0
176
     1
 40
1.0
176
     1
  0
VISUALSTYLE
  5
2A
102
{ACAD_REACTORS
330
29
102
}
330
29
100
AcDbVisualStyle
  2
Flat
 70
     0
177
     3
291
     1
 70
    58
 90
        2
176
     1
 90
        1
176
     1
 90
        1
176
     1
 90
        2
176
     1
 40
0.6
176
     1
 40
30.0
176
     1
 62
     7
420
 16777215
176
     1
 90
        0
176
     1
 90
        0
176
     1
 62
     7
176
     1
 62
   257
176
     1
 90
        1
176
     1
 90
        1
176
     1
 40
1.0
176
     1
 90
        8
176
     1
 62
     7
176
     1
 40
1.0
176
     1
 90
        1
176
     1
 90
        6
176
     1
 90
        2
176
     1
 62
     7
176
     1
 90
        5
176
     1
 90
        0
176
     1
 90
        0
176
     1
290
     0
176
     1
 90
       13
176
     1
 40
0.0
176
     1
 90
        0
176
     1
290
     0
176
     1
290
     1
176
     1
290
     1
176
     1
290
     0
176
     1
290
     0
176
     1
290
     0
176
     1
290
     0
176
     1
290
     0
176
     1
290
     0
176
     1
 90
       50
176
     1
 40
0.0
176
     1
 40
1.0
176
     1
 90
        0
176
     1
 62
    18
420
        0
176
     1
 90
       50
176
     1
 90
        3
176
     1
 62
     5
420
      255
176
     1
290
     0
176
     1
 90
       50
176
     1
 90
       50
176
     1
 90
       50
176
     1
290
     0
176
     1
 90
       50
176
     1
 62
   256
176
     0
 40
1.0
176
     0
 90
        2
176
     1
  1
strokes_ogs.tif
176
     1
290
     0
176
     1
 40
1.0
176
     1
 40
1.0
176
     1
  0
VISUALSTYLE
  5
2B
102
{ACAD_REACTORS
330
29
102
}
330
29
100
AcDbVisualStyle
  2
FlatWithEdges
 70
     1
177
     3
291
     1
 70
    58
 90
        2
176
     1
 90
        1
176
     1
 90
        1
176
     1
 90
        2
176
     1
 40
0.6
176
     1
 40
30.0
176
     1
 62
     7
420
 16777215
176
     1
 90
        1
176
     1
 90
        0
176
     1
 62
     7
176
     1
 62
   257
176
     1
 90
        1
176
     1
 90
        1
176
     1
 40
1.0
176
     1
 90
        0
176
     1
 62
   257
176
     1
 40
1.0
176
     1
 90
        1
176
     1
 90
        6
176
     1
 90
        2
176
     1
 62
     7
176
     1
 90
        5
176
     1
 90
        0
176
     1
 90
        0
176
     1
290
     0
176
     1
 90
       13
176
     1
 40
0.0
176
     1
 90
        0
176
     1
290
     0
176
     1
290
     1
176
     1
290
     1
176
     1
290
     0
176
     1
290
     0
176
     1
290
     0
176
     1
290
     0
176
     1
290
     0
176
     1
290
     0
176
     1
 90
       50
176
     1
 40
0.0
176
     1
 40
1.0
176
     1
 90
        0
176
     1
 62
    18
420
        0
176
     1
 90
       50
176
     1
 90
        3
176
     1
 62
     5
420
      255
176
     1
290
     0
176
     1
 90
       50
176
     1
 90
       50
176
     1
 90
       50
176
     1
290
     0
176
     1
 90
       50
176
     1
 62
   256
176
     0
 40
1.0
176
     0
 90
        2
176
     1
  1
strokes_ogs.tif
176
     1
290
     0
176
     1
 40
1.0
176
     1
 40
1.0
176
     1
  0
VISUALSTYLE
  5
2C
102
{ACAD_REACTORS
330
29
102
}
330
29
100
AcDbVisualStyle
  2
Gouraud
 70
     2
177
     3
291
     1
 70
    58
 90
        2
176
     1
 90
        2
176
     1
 90
        1
176
     1
 90
        2
176
     1
 40
0.6
176
     1
 40
30.0
176
     1
 62
     7
420
 16777215
176
     1
 90
        0
176
     1
 90
        0
176
     1
 62
     7
176
     1
 62
   257
176
     1
 90
        1
176
     1
 90
        1
176
     1
 40
1.0
176
     1
 90
        0
176
     1
 62
     7
176
     1
 40
1.0
176
     1
 90
        1
176
     1
 90
        6
176
     1
 90
        2
176
     1
 62
     7
176
     1
 90
        5
176
     1
 90
        0
176
     1
 90
        0
176
     1
290
     0
176
     1
 90
       13
176
     1
 40
0.0
176
     1
 90
        0
176
     1
290
     0
176
     1
290
     1
176
     1
290
     1
176
     1
290
     0
176
     1
290
     0
176
     1
290
     0
176
     1
290
     0
176
     1
290
     0
176
     1
290
     0
176
     1
 90
       50
176
     1
 40
0.0
176
     1
 40
1.0
176
     1
 90
        0
176
     1
 62
    18
420
        0
176
     1
 90
       50
176
     1
 90
        3
176
     1
 62
     5
420
      255
176
     1
290
     0
176
     1
 90
       50
176
     1
 90
       50
176
     1
 90
       50
176
     1
290
     0
176
     1
 90
       50
176
     1
 62
   256
176
     0
 40
1.0
176
     0
 90
        2
176
     1
  1
strokes_ogs.tif
176
     1
290
     0
176
     1
 40
1.0
176
     1
 40
1.0
176
     1
  0
VISUALSTYLE
  5
2D
102
{ACAD_REACTORS
330
29
102
}
330
29
100
AcDbVisualStyle
  2
GouraudWithEdges
 70
     3
177
     3
291
     1
 70
    58
 90
        2
176
     1
 90
        2
176
     1
 90
        1
176
     1
 90
        2
176
     1
 40
0.6
176
     1
 40
30.0
176
     1
 62
     7
420
 16777215
176
     1
 90
        1
176
     1
 90
        0
176
     1
 62
     7
176
     1
 62
   257
176
     1
 90
        1
176
     1
 90
        1
176
     1
 40
1.0
176
     1
 90
        0
176
     1
 62
   257
176
     1
 40
1.0
176
     1
 90
        1
176
     1
 90
        6
176
     1
 90
        2
176
     1
 62
     7
176
     1
 90
        5
176
     1
 90
        0
176
     1
 90
        0
176
     1
290
     0
176
     1
 90
       13
176
     1
 40
0.0
176
     1
 90
        0
176
     1
290
     0
176
     1
290
     1
176
     1
290
     1
176
     1
290
     0
176
     1
290
     0
176
     1
290
     0
176
     1
290
     0
176
     1
290
     0
176
     1
290
     0
176
     1
 90
       50
176
     1
 40
0.0
176
     1
 40
1.0
176
     1
 90
        0
176
     1
 62
    18
420
        0
176
     1
 90
       50
176
     1
 90
        3
176
     1
 62
     5
420
      255
176
     1
290
     0
176
     1
 90
       50
176
     1
 90
       50
176
     1
 90
       50
176
     1
290
     0
176
     1
 90
       50
176
     1
 62
   256
176
     0
 40
1.0
176
     0
 90
        2
176
     1
  1
strokes_ogs.tif
176
     1
290
     0
176
     1
 40
1.0
176
     1
 40
1.0
176
     1
  0
VISUALSTYLE
  5
31
102
{ACAD_REACTORS
330
29
102
}
330
29
100
AcDbVisualStyle
  2
Hidden
 70
     6
177
     3
291
     0
 70
    58
 90
        1
176
     1
 90
        2
176
     1
 90
        2
176
     1
 90
        0
176
     1
 40
0.6
176
     1
 40
30.0
176
     1
 62
     7
420
 16777215
176
     1
 90
        2
176
     1
 90
        2
176
     1
 62
     7
176
     1
 62
   257
176
     1
 90
        2
176
     1
 90
        1
176
     1
 40
40.0
176
     1
 90
        0
176
     1
 62
   257
176
     1
 40
1.0
176
     1
 90
        1
176
     1
 90
        6
176
     1
 90
        2
176
     1
 62
     7
176
     1
 90
        3
176
     1
 90
        0
176
     1
 90
        0
176
     1
290
     0
176
     1
 90
        1
176
     1
 40
0.0
176
     1
 90
        0
176
     1
290
     0
176
     1
290
     1
176
     1
290
     1
176
     1
290
     0
176
     1
290
     0
176
     1
290
     0
176
     1
290
     0
176
     1
290
     0
176
     1
290
     0
176
     1
 90
       50
176
     1
 40
0.0
176
     1
 40
1.0
176
     1
 90
        0
176
     1
 62
    18
420
        0
176
     1
 90
       50
176
     1
 90
        3
176
     1
 62
     5
420
      255
176
     1
290
     0
176
     1
 90
       50
176
     1
 90
       50
176
     1
 90
       50
176
     1
290
     0
176
     1
 90
       50
176
     1
 62
   256
176
     0
 40
1.0
176
     0
 90
        2
176
     1
  1
strokes_ogs.tif
176
     1
290
     0
176
     1
 40
1.0
176
     1
 40
1.0
176
     1
  0
VISUALSTYLE
  5
3F
102
{ACAD_REACTORS
330
29
102
}
330
29
100
AcDbVisualStyle
  2
JitterOff
 70
    20
177
     3
291
     1
 70
    58
 90
        2
176
     0
 90
        2
176
     0
 90
        0
176
     0
 90
        0
176
     0
 40
0.6
176
     0
 40
30.0
176
     0
 62
     7
420
 16777215
176
     0
 90
        1
176
     0
 90
        4
176
     0
 62
     7
176
     0
 62
   257
176
     0
 90
        1
176
     0
 90
        1
176
     0
 40
1.0
176
     0
 90
       10
176
     2
 62
     7
176
     0
 40
1.0
176
     0
 90
        1
176
     0
 90
        6
176
     0
 90
        2
176
     0
 62
     7
176
     0
 90
        5
176
     0
 90
        0
176
     0
 90
        0
176
     0
290
     0
176
     0
 90
        1
176
     0
 40
0.0
176
     0
 90
        0
176
     0
290
     0
176
     0
290
     1
176
     0
290
     1
176
     0
290
     0
176
     0
290
     0
176
     0
290
     0
176
     0
290
     0
176
     0
290
     0
176
     0
290
     0
176
     0
 90
       50
176
     0
 40
0.0
176
     0
 40
1.0
176
     0
 90
        0
176
     0
 62
    18
420
        0
176
     0
 90
       50
176
     0
 90
        3
176
     0
 62
     5
420
      255
176
     0
290
     0
176
     0
 90
       50
176
     0
 90
       50
176
     0
 90
       50
176
     0
290
     0
176
     0
 90
       50
176
     0
 62
   256
176
     0
 40
1.0
176
     0
 90
        2
176
     0
  1
strokes_ogs.tif
176
     0
290
     0
176
     0
 40
1.0
176
     0
 40
1.0
176
     0
  0
VISUALSTYLE
  5
37
102
{ACAD_REACTORS
330
29
102
}
330
29
100
AcDbVisualStyle
  2
Linepattern
 70
    14
177
     3
291
     1
 70
    58
 90
        2
176
     1
 90
        2
176
     1
 90
        0
176
     1
 90
        0
176
     1
 40
0.6
176
     1
 40
30.0
176
     1
 62
     7
420
 16777215
176
     1
 90
        1
176
     1
 90
        4
176
     1
 62
     7
176
     1
 62
   257
176
     1
 90
        7
176
     1
 90
        7
176
     1
 40
1.0
176
     1
 90
        8
176
     1
 62
     7
176
     1
 40
1.0
176
     1
 90
        1
176
     1
 90
        6
176
     1
 90
        2
176
     1
 62
     7
176
     1
 90
        5
176
     1
 90
        0
176
     1
 90
        0
176
     1
290
     0
176
     1
 90
        1
176
     1
 40
0.0
176
     1
 90
        0
176
     1
290
     0
176
     1
290
     1
176
     1
290
     1
176
     1
290
     0
176
     1
290
     0
176
     1
290
     0
176
     1
290
     0
176
     1
290
     0
176
     1
290
     0
176
     1
 90
       50
176
     1
 40
0.0
176
     1
 40
1.0
176
     1
 90
        0
176
     1
 62
    18
420
        0
176
     1
 90
       50
176
     1
 90
        3
176
     1
 62
     5
420
      255
176
     1
290
     0
176
     1
 90
       50
176
     1
 90
       50
176
     1
 90
       50
176
     1
290
     0
176
     1
 90
       50
176
     1
 62
   256
176
     0
 40
1.0
176
     0
 90
        2
176
     1
  1
strokes_ogs.tif
176
     1
290
     0
176
     1
 40
1.0
176
     1
 40
1.0
176
     1
  0
VISUALSTYLE
  5
40
102
{ACAD_REACTORS
330
29
102
}
330
29
100
AcDbVisualStyle
  2
OverhangOff
 70
    21
177
     3
291
     1
 70
    58
 90
        2
176
     0
 90
        2
176
     0
 90
        0
176
     0
 90
        0
176
     0
 40
0.6
176
     0
 40
30.0
176
     0
 62
     7
420
 16777215
176
     0
 90
        1
176
     0
 90
        4
176
     0
 62
     7
176
     0
 62
   257
176
     0
 90
        1
176
     0
 90
        1
176
     0
 40
1.0
176
     0
 90
        9
176
     2
 62
     7
176
     0
 40
1.0
176
     0
 90
        1
176
     0
 90
        6
176
     0
 90
        2
176
     0
 62
     7
176
     0
 90
        5
176
     0
 90
        0
176
     0
 90
        0
176
     0
290
     0
176
     0
 90
        1
176
     0
 40
0.0
176
     0
 90
        0
176
     0
290
     0
176
     0
290
     1
176
     0
290
     1
176
     0
290
     0
176
     0
290
     0
176
     0
290
     0
176
     0
290
     0
176
     0
290
     0
176
     0
290
     0
176
     0
 90
       50
176
     0
 40
0.0
176
     0
 40
1.0
176
     0
 90
        0
176
     0
 62
    18
420
        0
176
     0
 90
       50
176
     0
 90
        3
176
     0
 62
     5
420
      255
176
     0
290
     0
176
     0
 90
       50
176
     0
 90
       50
176
     0
 90
       50
176
     0
290
     0
176
     0
 90
       50
176
     0
 62
   256
176
     0
 40
1.0
176
     0
 90
        2
176
     0
  1
strokes_ogs.tif
176
     0
290
     0
176
     0
 40
1.0
176
     0
 40
1.0
176
     0
  0
VISUALSTYLE
  5
33
102
{ACAD_REACTORS
330
29
102
}
330
29
100
AcDbVisualStyle
  2
Realistic
 70
     8
177
     3
291
     0
 70
    58
 90
        2
176
     1
 90
        3
176
     1
 90
        0
176
     1
 90
        2
176
     1
 40
0.6
176
     1
 40
30.0
176
     1
 62
     7
420
 16777215
176
     1
 90
        0
176
     1
 90
        0
176
     1
 62
     7
176
     1
 62
   257
176
     1
 90
        1
176
     1
 90
        1
176
     1
 40
1.0
176
     1
 90
        8
176
     1
 62
   257
176
     1
 40
1.0
176
     1
 90
        1
176
     1
 90
        6
176
     1
 90
        2
176
     1
 62
     7
176
     1
 90
        3
176
     1
 90
        0
176
     1
 90
        0
176
     1
290
     0
176
     1
 90
       13
176
     1
 40
0.0
176
     1
 90
        0
176
     1
290
     0
176
     1
290
     1
176
     1
290
     1
176
     1
290
     0
176
     1
290
     0
176
     1
290
     0
176
     1
290
     0
176
     1
290
     0
176
     1
290
     0
176
     1
 90
       50
176
     1
 40
0.0
176
     1
 40
1.0
176
     1
 90
        0
176
     1
 62
    18
420
        0
176
     1
 90
       50
176
     1
 90
        3
176
     1
 62
     5
420
      255
176
     1
290
     0
176
     1
 90
       50
176
     1
 90
       50
176
     1
 90
       50
176
     1
290
     0
176
     1
 90
       50
176
     1
 62
   256
176
     0
 40
1.0
176
     0
 90
        2
176
     1
  1
strokes_ogs.tif
176
     1
290
     0
176
     1
 40
1.0
176
     1
 40
1.0
176
     1
  0
VISUALSTYLE
  5
3E
102
{ACAD_REACTORS
330
29
102
}
330
29
100
AcDbVisualStyle
  2
Shaded
 70
    27
177
     3
291
     0
 70
    58
 90
        2
176
     1
 90
        2
176
     1
 90
        1
176
     1
 90
        2
176
     1
 40
0.6
176
     1
 40
30.0
176
     1
 62
     7
420
 16777215
176
     1
 90
        0
176
     1
 90
        4
176
     1
 62
     7
176
     1
 62
   257
176
     1
 90
        1
176
     1
 90
        1
176
     1
 40
1.0
176
     1
 90
        8
176
     1
 62
   257
176
     1
 40
1.0
176
     1
 90
        1
176
     1
 90
        6
176
     1
 90
        2
176
     1
 62
     8
420
  7895160
176
     1
 90
        3
176
     1
 90
        0
176
     1
 90
        0
176
     1
290
     0
176
     1
 90
        5
176
     1
 40
0.0
176
     1
 90
        0
176
     1
290
     0
176
     1
290
     1
176
     1
290
     1
176
     1
290
     0
176
     1
290
     0
176
     1
290
     0
176
     1
290
     0
176
     1
290
     0
176
     1
290
     0
176
     1
 90
       50
176
     1
 40
0.0
176
     1
 40
1.0
176
     1
 90
        0
176
     1
 62
    18
420
        0
176
     1
 90
       50
176
     1
 90
        3
176
     1
 62
     5
420
      255
176
     1
290
     0
176
     1
 90
       50
176
     1
 90
       50
176
     1
 90
       50
176
     1
290
     0
176
     1
 90
       50
176
     1
 62
   256
176
     0
 40
1.0
176
     0
 90
        2
176
     1
  1
strokes_ogs.tif
176
     1
290
     0
176
     1
 40
1.0
176
     1
 40
1.0
176
     1
  0
VISUALSTYLE
  5
3D
102
{ACAD_REACTORS
330
29
102
}
330
29
100
AcDbVisualStyle
  2
Shaded with edges
 70
    26
177
     3
291
     0
 70
    58
 90
        2
176
     1
 90
        2
176
     1
 90
        1
176
     1
 90
        2
176
     1
 40
0.6
176
     1
 40
30.0
176
     1
 62
     7
420
 16777215
176
     1
 90
        1
176
     1
 90
       10
176
     1
 62
     7
176
     1
 62
   257
176
     1
 90
        2
176
     1
 90
        1
176
     1
 40
1.0
176
     1
 90
        8
176
     1
 62
   257
176
     1
 40
1.0
176
     1
 90
        1
176
     1
 90
        6
176
     1
 90
        2
176
     1
 62
     7
176
     1
 90
        3
176
     1
 90
        0
176
     1
 90
        0
176
     1
290
     0
176
     1
 90
        5
176
     1
 40
0.0
176
     1
 90
        0
176
     1
290
     0
176
     1
290
     1
176
     1
290
     1
176
     1
290
     0
176
     1
290
     0
176
     1
290
     0
176
     1
290
     0
176
     1
290
     0
176
     1
290
     0
176
     1
 90
       50
176
     1
 40
0.0
176
     1
 40
1.0
176
     1
 90
        0
176
     1
 62
    18
420
        0
176
     1
 90
       50
176
     1
 90
        3
176
     1
 62
     5
420
      255
176
     1
290
     0
176
     1
 90
       50
176
     1
 90
       50
176
     1
 90
       50
176
     1
290
     0
176
     1
 90
       50
176
     1
 62
   256
176
     0
 40
1.0
176
     0
 90
        2
176
     1
  1
strokes_ogs.tif
176
     1
290
     0
176
     1
 40
1.0
176
     1
 40
1.0
176
     1
  0
VISUALSTYLE
  5
3A
102
{ACAD_REACTORS
330
29
102
}
330
29
100
AcDbVisualStyle
  2
Shades of Gray
 70
    23
177
     3
291
     0
 70
    58
 90
        2
176
     1
 90
        2
176
     1
 90
        3
176
     1
 90
        0
176
     1
 40
0.6
176
     1
 40
30.0
176
     1
 62
     7
420
 16777215
176
     1
 90
        2
176
     1
 90
        2
176
     1
 62
     7
176
     1
 62
     7
176
     1
 90
        1
176
     1
 90
        1
176
     1
 40
40.0
176
     1
 90
        8
176
     1
 62
     7
176
     1
 40
1.0
176
     1
 90
        1
176
     1
 90
        6
176
     1
 90
        2
176
     1
 62
     7
176
     1
 90
        3
176
     1
 90
        0
176
     1
 90
        0
176
     1
290
     0
176
     1
 90
        1
176
     1
 40
0.0
176
     1
 90
        0
176
     1
290
     0
176
     1
290
     1
176
     1
290
     1
176
     1
290
     0
176
     1
290
     0
176
     1
290
     0
176
     1
290
     0
176
     1
290
     0
176
     1
290
     0
176
     1
 90
       50
176
     1
 40
0.0
176
     1
 40
1.0
176
     1
 90
        0
176
     1
 62
    18
420
        0
176
     1
 90
       50
176
     1
 90
        3
176
     1
 62
     5
420
      255
176
     1
290
     0
176
     1
 90
       50
176
     1
 90
       50
176
     1
 90
       50
176
     1
290
     0
176
     1
 90
       50
176
     1
 62
   256
176
     0
 40
1.0
176
     0
 90
        2
176
     1
  1
strokes_ogs.tif
176
     1
290
     0
176
     1
 40
1.0
176
     1
 40
1.0
176
     1
  0
VISUALSTYLE
  5
3B
102
{ACAD_REACTORS
330
29
102
}
330
29
100
AcDbVisualStyle
  2
Sketchy
 70
    24
177
     3
291
     0
 70
    58
 90
        1
176
     1
 90
        2
176
     1
 90
        2
176
     1
 90
        0
176
     1
 40
0.6
176
     1
 40
30.0
176
     1
 62
     7
420
 16777215
176
     1
 90
        2
176
     1
 90
        2
176
     1
 62
     7
176
     1
 62
     7
176
     1
 90
        1
176
     1
 90
        1
176
     1
 40
40.0
176
     1
 90
       11
176
     1
 62
     7
176
     1
 40
1.0
176
     1
 90
        1
176
     1
 90
        6
176
     1
 90
        2
176
     1
 62
     7
176
     1
 90
        6
176
     1
 90
        0
176
     1
 90
        0
176
     1
290
     0
176
     1
 90
        1
176
     1
 40
0.0
176
     1
 90
        0
176
     1
290
     0
176
     1
290
     1
176
     1
290
     1
176
     1
290
     0
176
     1
290
     0
176
     1
290
     0
176
     1
290
     0
176
     1
290
     0
176
     1
290
     0
176
     1
 90
       50
176
     1
 40
0.0
176
     1
 40
1.0
176
     1
 90
        0
176
     1
 62
    18
420
        0
176
     1
 90
       50
176
     1
 90
        3
176
     1
 62
     5
420
      255
176
     1
290
     0
176
     1
 90
       50
176
     1
 90
       50
176
     1
 90
       50
176
     1
290
     0
176
     1
 90
       50
176
     1
 62
   256
176
     0
 40
1.0
176
     0
 90
        2
176
     1
  1
strokes_ogs.tif
176
     1
290
     0
176
     1
 40
1.0
176
     1
 40
1.0
176
     1
  0
VISUALSTYLE
  5
36
102
{ACAD_REACTORS
330
29
102
}
330
29
100
AcDbVisualStyle
  2
Thicken
 70
    13
177
     3
291
     1
 70
    58
 90
        2
176
     1
 90
        2
176
     1
 90
        0
176
     1
 90
        0
176
     1
 40
0.6
176
     1
 40
30.0
176
     1
 62
     7
420
 16777215
176
     1
 90
        1
176
     1
 90
        4
176
     1
 62
     7
176
     1
 62
   257
176
     1
 90
        1
176
     1
 90
        1
176
     1
 40
1.0
176
     1
 90
       12
176
     1
 62
     7
176
     1
 40
1.0
176
     1
 90
        1
176
     1
 90
        6
176
     1
 90
        2
176
     1
 62
     7
176
     1
 90
        5
176
     1
 90
        0
176
     1
 90
        0
176
     1
290
     0
176
     1
 90
        1
176
     1
 40
0.0
176
     1
 90
        0
176
     1
290
     0
176
     1
290
     1
176
     1
290
     1
176
     1
290
     0
176
     1
290
     0
176
     1
290
     0
176
     1
290
     0
176
     1
290
     0
176
     1
290
     0
176
     1
 90
       50
176
     1
 40
0.0
176
     1
 40
1.0
176
     1
 90
        0
176
     1
 62
    18
420
        0
176
     1
 90
       50
176
     1
 90
        3
176
     1
 62
     5
420
      255
176
     1
290
     0
176
     1
 90
       50
176
     1
 90
       50
176
     1
 90
       50
176
     1
290
     0
176
     1
 90
       50
176
     1
 62
   256
176
     0
 40
1.0
176
     0
 90
        2
176
     1
  1
strokes_ogs.tif
176
     1
290
     0
176
     1
 40
1.0
176
     1
 40
1.0
176
     1
  0
VISUALSTYLE
  5
30
102
{ACAD_REACTORS
330
29
102
}
330
29
100
AcDbVisualStyle
  2
Wireframe
 70
     5
177
     3
291
     0
 70
    58
 90
        0
176
     1
 90
        2
176
     1
 90
        0
176
     1
 90
        0
176
     1
 40
0.6
176
     1
 40
30.0
176
     1
 62
     7
420
 16777215
176
     1
 90
        1
176
     1
 90
        4
176
     1
 62
     7
176
     1
 62
   257
176
     1
 90
        1
176
     1
 90
        1
176
     1
 40
1.0
176
     1
 90
        0
176
     1
 62
   257
176
     1
 40
1.0
176
     1
 90
        1
176
     1
 90
        6
176
     1
 90
        2
176
     1
 62
     7
176
     1
 90
        3
176
     1
 90
        0
176
     1
 90
        0
176
     1
290
     0
176
     1
 90
        1
176
     1
 40
0.0
176
     1
 90
        0
176
     1
290
     0
176
     1
290
     1
176
     1
290
     1
176
     1
290
     0
176
     1
290
     0
176
     1
290
     0
176
     1
290
     0
176
     1
290
     0
176
     1
290
     0
176
     1
 90
       50
176
     1
 40
0.0
176
     1
 40
1.0
176
     1
 90
        0
176
     1
 62
    18
420
        0
176
     1
 90
       50
176
     1
 90
        3
176
     1
 62
     5
420
      255
176
     1
290
     0
176
     1
 90
       50
176
     1
 90
       50
176
     1
 90
       50
176
     1
290
     0
176
     1
 90
       50
176
     1
 62
   256
176
     0
 40
1.0
176
     0
 90
        2
176
     1
  1
strokes_ogs.tif
176
     1
290
     0
176
     1
 40
1.0
176
     1
 40
1.0
176
     1
  0
VISUALSTYLE
  5
3C
102
{ACAD_REACTORS
330
29
102
}
330
29
100
AcDbVisualStyle
  2
X-Ray
 70
    25
177
     3
291
     0
 70
    58
 90
        2
176
     1
 90
        2
176
     1
 90
        1
176
     1
 90
        1
176
     1
 40
0.5
176
     1
 40
30.0
176
     1
 62
     7
420
 16777215
176
     1
 90
        1
176
     1
 90
        0
176
     1
 62
     7
176
     1
 62
   257
176
     1
 90
        1
176
     1
 90
        1
176
     1
 40
1.0
176
     1
 90
        8
176
     1
 62
     7
176
     1
 40
1.0
176
     1
 90
        1
176
     1
 90
        6
176
     1
 90
        2
176
     1
 62
     7
176
     1
 90
        3
176
     1
 90
        0
176
     1
 90
        0
176
     1
290
     0
176
     1
 90
       13
176
     1
 40
0.0
176
     1
 90
        0
176
     1
290
     0
176
     1
290
     1
176
     1
290
     1
176
     1
290
     0
176
     1
290
     0
176
     1
290
     0
176
     1
290
     0
176
     1
290
     0
176
     1
290
     0
176
     1
 90
       50
176
     1
 40
0.0
176
     1
 40
1.0
176
     1
 90
        0
176
     1
 62
    18
420
        0
176
     1
 90
       50
176
     1
 90
        3
176
     1
 62
     5
420
      255
176
     1
290
     0
176
     1
 90
       50
176
     1
 90
       50
176
     1
 90
       50
176
     1
290
     0
176
     1
 90
       50
176
     1
 62
   256
176
     0
 40
1.0
176
     0
 90
        2
176
     1
  1
strokes_ogs.tif
176
     1
290
     0
176
     1
 40
1.0
176
     1
 40
1.0
176
     1
  0
DICTIONARYVAR
  5
31E
102
{ACAD_REACTORS
330
319
102
}
330
319
100
DictionaryVariables
280
     0
  1
1:1
  0
DICTIONARYVAR
  5
31B
102
{ACAD_REACTORS
330
319
102
}
330
319
100
DictionaryVariables
280
     0
  1
STANDARD
  0
DICTIONARYVAR
  5
31A
102
{ACAD_REACTORS
330
319
102
}
330
319
100
DictionaryVariables
280
     0
  1
STANDARD
  0
DICTIONARYVAR
  5
31C
102
{ACAD_REACTORS
330
319
102
}
330
319
100
DictionaryVariables
280
     0
  1
Imperial24
  0
DICTIONARYVAR
  5
31D
102
{ACAD_REACTORS
330
319
102
}
330
319
100
DictionaryVariables
280
     0
  1
Imperial24
  0
DICTIONARY
  5
323
330
6B
100
AcDbDictionary
280
     1
281
     1
  3
ACAD_XREC_ROUNDTRIP
360
324
  0
DICTIONARY
  5
1A
330
19
100
AcDbDictionary
280
     1
281
     1
  3
BUMPTILE
360
1C
  3
DIFFUSETILE
360
1B
  3
OPACITYTILE
360
1F
  3
REFLECTIONTILE
360
1E
  3
REFRACTIONTILE
360
20
  3
SPECULARTILE
360
1D
  0
DICTIONARY
  5
12
330
11
100
AcDbDictionary
280
     1
281
     1
  3
BUMPTILE
360
14
  3
DIFFUSETILE
360
13
  3
FBXASSET
360
E3
  3
OPACITYTILE
360
17
  3
REFLECTIONTILE
360
16
  3
REFRACTIONTILE
360
18
  3
SPECULARTILE
360
15
  0
DICTIONARY
  5
22
330
21
100
AcDbDictionary
280
     1
281
     1
  3
BUMPTILE
360
24
  3
DIFFUSETILE
360
23
  3
OPACITYTILE
360
27
  3
REFLECTIONTILE
360
26
  3
REFRACTIONTILE
360
28
  3
SPECULARTILE
360
25
  0
DICTIONARY
  5
321
330
69
100
AcDbDictionary
280
     1
281
     1
  3
ACAD_XREC_ROUNDTRIP
360
322
  0
DICTIONARY
  5
31F
330
65
100
AcDbDictionary
280
     1
281
     1
  3
ACAD_ROUNDTRIP_2008_TABLESTYLE_CELLSTYLEMAP
360
320
  0
XRECORD
  5
324
102
{ACAD_REACTORS
330
323
102
}
330
323
100
AcDbXrecord
280
     1
102
DISPLAYNAME
  1
Imperial24
102
FLAGS
 90
        0
  0
XRECORD
  5
1C
102
{ACAD_REACTORS
330
1A
102
}
330
1A
100
AcDbXrecord
280
     1
270
     1
271
     1
  0
XRECORD
  5
1B
102
{ACAD_REACTORS
330
1A
102
}
330
1A
100
AcDbXrecord
280
     1
270
     1
271
     1
  0
XRECORD
  5
1F
102
{ACAD_REACTORS
330
1A
102
}
330
1A
100
AcDbXrecord
280
     1
270
     1
271
     1
  0
XRECORD
  5
1E
102
{ACAD_REACTORS
330
1A
102
}
330
1A
100
AcDbXrecord
280
     1
270
     1
271
     1
  0
XRECORD
  5
20
102
{ACAD_REACTORS
330
1A
102
}
330
1A
100
AcDbXrecord
280
     1
270
     1
271
     1
  0
XRECORD
  5
1D
102
{ACAD_REACTORS
330
1A
102
}
330
1A
100
AcDbXrecord
280
     1
270
     1
271
     1
  0
XRECORD
  5
14
102
{ACAD_REACTORS
330
12
102
}
330
12
100
AcDbXrecord
280
     1
270
     1
271
     1
  0
XRECORD
  5
13
102
{ACAD_REACTORS
330
12
102
}
330
12
100
AcDbXrecord
280
     1
270
     1
271
     1
  0
XRECORD
  5
E3
102
{ACAD_REACTORS
330
12
102
}
330
12
100
AcDbXrecord
280
     1
 70
     1
 90
1959938040
 71
     1
  1
FA36BBB7-FD63-4760-B030-DC52ABACD1E9
311
504B03041400060808006D808751D543E59BDA000000200100004F00000031413536324335362D304445352D344537442D423734362D4336433939323044414443382F4173736574446174612F446566696E6974696F6E4974657261746F7250726F706572746965732E62696E454EC94EC33010355C10070EFC01E26EEC66
311
71085285BCA45CE0423FA072CDD04672D2288E05BD71E4AF61AC0631D29B79B3BF6F42C8CF6C48C919E20BFD15C627E8616CDDDAEDA1B3E4022BEAF86C8F30263A37CF91A6D4C0BB8D7E4A6B2F6D70E0BDEDE110C3F5FFE84D6727BC67FD5D5ABA44FC1542BAB03B7D4B023E4E9A3E9112FB363C3CDA10605AB2852C45A64B
311
41B9694A5A3495A1AA2A04D542D775C68D34FA9EBD4238C4D141602B990BA554455746E4B4A804A78AE79C1A5D6652496D164DCDA67DECB6BD6D3DE36C96B019FADD10B7BE75CBDB5F504B03041400060808006D808751FE5A12F82C010000300200004500000031413536324335362D304445352D344537442D423734362D
311
4336433939323044414443382F4173736574446174612F496E7374616E636550726F706572746965732E62696E6D514B4E8440106D3F891B3573044366312E5AFE1012E4D37C3CC06CDD2010A71518C260D4DD2CDD791EB79EC103780436AEB51A10344C2555AFEAD57BDD49F70B42E8BB0F68D11EE416EA09E0555AA4158D
311
97F12ACDA33910A12B6B84101D87BE266345D7044C0459C0BEA74A2E713D5F0C8CA3D1C82CB2A8F881A41A585514B068928849487C2CEAB2E0699E67B88101B2F65E747EFDFAFEB5F8B001F781DB42FECE2DC20CD1D89D1AA19983662DD596B933F63B3B307631343B65400E82E600A62D646FFDECF118A869B0771C37C321
311
1361F2E64CB87FC4D4CA8E5EFCD134F6214CECB74E21978F511DAF30A9A2224913B6E18A284F396B7D7397C6F5E6E229CF4CFEA1A296B9A92B5ADC9EB1F525573F97208ACA32A37154D375C1B7C24E63997C468B7BCB64B537543F504B03041400060808006D80875188E57597CD3F0000904100006B000000314135363243
311
35362D304445352D344537442D423734362D4336433939323044414443382F5265736F75726365732F46413336424242372D464436332D343736302D423033302D4443353241424143443145392F7468756D626E61696C2F302F67656E657269635F706E67355B773CD4FF1FBF73E71C0E67EF7576C9DEF3EC995D46C6A1EC
311
5046649CBDF79E192942562825CE965D8A868C2842C8DE9FDFD1F7E7F138F7078FCF6B3F5FCFD7EBFDFEC41B196891913091804020321D6D7513FC77D8C5070EC3FFEE51B21F068154CC75D455CC028A3EA68992803810109FDDE5D5CEC5521B28A1B422BF80741695D5B529DA1C2D058AD2388BDA9F476F7C2CADC9393041
311
73DBF48A452BF8A700C0C70C3D121C1AA15A5270C22E2B9E28763651F7DA0D12CE11077B2ECD0D560B5E3DE2368B1E65C5E1C87384A4CC5F2D9FB8BE39E9B77C753783A37998F5CEF1B4FEE553463245C9712270880DF339E0B882A6BA713D865F6F384C842D440934EF264F4A304F8DE4EEFA1E2BF5E2D91F5ADD9613D6E3
311
1DDB33ED31DB1D7916CAF091286EA3D31B9CFECB78BB0060245B943C4C040119FF780A74DD308BA9D028678674EB5504ECF284EE814DAED07440BAF649BE4B55DA2890F4D73E2D489A59EE54FDB0A85B59F2F52C4858A02705C4815A792B0C4A996A2023ECB195073E115E3E3647F64243A8338F2000BCB58DA5692C7E7C3D
311
413F963FEDF3CF00FBB0F831A9D51360FECA43819F527B89FA260EB63C5DA676830AA3626A3693B23F1A17A0DFFCE3EE164E31B5365EDF0C89EF64D8E38AB0BA9A1117D7C3A0EC44F44F4023095E80BA610DE336D0F99593A88BFC5306E72DF98F7FD132ED95878DF2964EA7E43071359FD83B2BDF9C6B5BDF768F0F3C0FC3
311
51199526F53D9460A34511F75D1B63E488178569472C91A94497807A3FD4A390C6558F26D416365C3656DE6E769DA9D8FC73774E1709812842DD8EF96AED1960F79D21B395CDDFE6F92CB4EB962A4668C76990E2EF29798C8941D67DA50F4A5F947872460F1F6FDB794E8A29FD7AC0C0D6E0714339CE258FB17AE8535221E3
311
464A10F29A0BE5EEECEFC5675926A89F49EB14E5711894F6586DB5754EB4D5DA9C6437EBA57DB97A24F8B8A8DB295FFD73266CF57E82694DF5166DDF93573AFE9C9C5EB05F8FEF8E89E0A8917B0B3724DB7BEBB53252581EFC3E38166BA131A3A5B42FE2AD00A769BBFA4458D2DE7822F8C4F63D0B8E21B285AE13325F3410
311
A435C648C9D91FDEB109E73CEDA7BC796961AF79175E1A3CE4C5E8B0D009B0C9E29EFD98BC8E97554E3D8D838424E270F7685226E5AC268E021EDE3522D583E8F20C0BDE2959EF5BBFEEDAB32FE9A3ED0E39F211A86AA9DEBFC68182EDED132AB8BB794442D2D7EA9F4D8BFF52BC4D55BB165124EE90A42D101E67BBBB292F
311
FB4F66DE5BF2300E44546757DA7CEF8932BFC9F92A0707953491A55C5A5ACEDABD9FA1AEA01BAC3DC5A24E22E7C47213493996EFBC369D086ED9397C9BA6C7F9855C7BD5E15BFC8C53DB3D2A4C5901A57ACD2FBDF4D1676E95338B2C2BCE65FDA4C64F5FEFDC7D9CA5AA1FCF11E193F2FDABF0F4916BF13FB916A224380E64
311
62A9815F2300DC49CC4DF8D055CEF76462F4B7A7ACA7365C2707891370BC1D0AA6203C44CCAB47084FEC057F27FFCD57F89B8B9852459798A675C66BD7CE572CAF71FF7E6D7ECF7BF62CAB7B3F1107DCD04DC55A3F9961700286141C94A4F771FEB2BCDA2DDEE0CB0BAE402FF1DB0100F8E475DFFFC074DDB4498AB7D186A7
311
654DDB1CB680D703D47CEB4E72F8CB13D86A4AA68116E26387B93FD6738779B34FEDB8E517EDF2BAF28D9BE93A1D3A164320E07D42E514725C29515FF361754213EDE06B079A2E99EB1CA82A02019EADEEB87B9AF005BD04BBCECB14AACD6B24EFBE482194A97DD32400685FF1FEF1544D1B14EFB1E7F08E6D2CD2AF52DE75
311
7F35F5E62332EE88EA26417AD5C3E0E319D68F25414E6D672BD4522B278C57D18F0113921C71D96527E091F00CEB15AE23D24667369BD3CEFA10C7549D930890BA4366F4EBC55F01F746109F98ABCDD5A3EE06619C6AD78AB33E48E4C9BD21BF7478B385EC05C4F8987E2C1BFA0A60EBEDAA0AE0B015C2720ECE180FB6F2DE
311
FBEB822D96338C9B63822183BBF52FB664A7AE57003AABCE512BF77E7E31BDA2E739AC4C131657DDFE5225E900FB56CC01CDE808FA4A9C9DA16AC679656BB64796283D89812B8F91136AE18EE5EBBAF47A73BE3C153EB5D4CD491B4BFB4FE690A4CF9ABA08C0D8AA64220C438C96EA6CA80B58FE5761E697B3A292EB9FBDA5
311
02FA863E49FE694ADDFFF9D62C520BDD1A22014147A0903A05B9B729F54272EF83931FEEC057BFF8C8055C279EAC5C0011804828734024F6CFA319C9CC6867C727184465CD9BB7ED386AFFD96B294A85E3802FAE47244602D8273615952B98C4F23F7EAE4463D9D638EEE374A20959E0FE519C4CFB0FBFE5DD80C2AA3F9DB9
311
61D1BDE57E67C9BB47B77FDD74EE3094F5DBBE3EBC1FBDB7393F5116263009E2EFE1AF9A221B2AE234C902BF70E9F280ED23E73908361565964333A3F01D0B006AF32FB21AA1316744B489D5A198E85299241735BE559675130955C902A8ED761FC0DBE337A9F91919AF5CE32AF902ADF9AB2615E00E8A94586BA1A90839B6
311
1832FF1BFB76D2EFADE6DB1BA04CCAD3DA649E7E2A0219F592E22F2AD54847EEA8E42271011E9074F8F3DD9FBA6CDF88FFC9FC7E811AD1CA8F4557CE4AFC7BBEDCF0114A48689F20A584520C74DA8127124B767E2FB91A6B186246727BE63C9445BAE02088D58B8EFDC0F1072407CD9B89A13F6303B4A928F593AD489B58E6
311
869325790ADC406036C591729FE14021F94B7796BB11848D463536A092A26F077F94639F7CEEE2A724C66EC885F4A24F8B8A0AC321F8FD149BA529460FAA34E4663C02D41FDF80BCA222D42F0ABFF8490F4FA74C673807C2051D8E467B47B616072860069A9A303ABA9B319D58404461401B0A0F9BE5E1E151C14BC33B32AB
311
E03DDE91708DFAEB15E7C0D593C86BB7D7EC17BE56E57975F077BFD5525F3A1A361D584A75E08CF29FC7B44B2B3085014F3A5A14517377C3F6B8F37E59514C3B12F8AACDEDDA4DFC49BE5710101534CD6FB6DE15B50F11A09472AABA727F0C49D9CB906B158030065F48EB3625E010CEC1D511D0053474B11E6A4F01C0D6EF
311
1BED3A944FDEC70E0DDCDC756C86545910E0DAE3BE3AA9A404574C2995CD5CAF9549226BC94B4F4F0F5F9086F418F6B32346464610D8BC7391D3C3A3CCF04CFC1FB2A3A3170E369511868F14EEA4E5E438CC73DB1F3248AA94B6B2FF33B222FF3D1E7BF146CAD229770158063BCE4F5391964DF62F7E52A7BE0EEA829C9E13
311
C4C147D6F93FE59E111DAB5E4594D6F3CD1AD375EE039930EFE5AF2BB2D41C83C7DABD8C659BAFBE8FAB392CA634F3D15C1D945DB4588D2B0824A4EC928AAC565557CA2F0DAA588CA5BE30B3A8004F7BF005E96CBF891D7F18112A3619FDF530DC8AA64954258E1811789B5189B49B4EB53F5F89F7D37523894F3EB57B3737
311
63C91E502F52CC99EB7BDDF933FC324C4FFC2561DFFA7339FAFDD0A4BFBE6D3A8FF9ED1FC49898139864602458968913181918F719CCF5A68B2EE9C1FF050E34E63107003B8120FA982C21B30A874E4F5E4B38D5A8290C4B8D9BE48A0BE31EA995BDC37AC6DE90BA17D259DEF53605D55922FEB1855D915B659FBEB350EE0D
311
FB2F9F766E1C84CC8964B75D08667445EAB966015F63A18A9E0A325C1B3DC628C0D3CB60F767FA93CC65F25458BD23C3B312716E5F40E5858AC06EBA9AB14F95DB99147B832069201541D09A0D856E12C629CF32683760EE855537D1901988D5EBC156676C7DD51D7207CF3267AF1D76C2AD867315E44618015313A98B1994
311
1C696FED3461CAA9B5415F918556D7802EDACEFD6B2E45853A9735DFC9DBF7E440F9319F8B6805A973BCCDC76C069A9144E51F187EDCC12FC31B5DEAAF0A76137199B106EC84ADA6B6EE697D4E6A96E007417F4E880E8B1E89B4BCE9D81EF611E2ED8F0C1A6C25F620FAFAAB656A7C42D464880E8AFAB0E0FC8EA38CA9A8AE
311
EAEE3E4648BA4680270A89743CDD3E6C6CBF34B7B640EFA285ABC7EA0A1E28F3CC963D114A80123EE66D0AF7D5380EB41909B605AB4765B709B808590458157E69BA1378FEC4B48CAF6A730E3BE3C5EF2DD1A5EAF94B1DDE50CEB55DDFD7EE9A16747FA4B223359FB1FCC69E1194892BABB93A1D5C4E807AC0EA2E30180811
311
E77A2291F6E7F7FAA5E0F60215BC6024E48DE436C511F0628B8CA189982D4D83CCA17D305A7E923C37941CFDFDCD93ACAF735EF5F0E61BBD3E6C41A59B242790D3A3BAC7064DCD89AA2E37214EC839820949D5CAA31E240D2948E48F690298974A96BA9A8432BC90F5071D6537C9666EA4564796B7AFFFA548077BEEA75F63
311
083435074BA182F3699557397F71548383FDA8CA34D99B981E72835ECDA5DDDC151315173D05A21F651AAF8524E88209E2E7A737ED1045800CE3390050BCFB8BE588DF111617874C62575039CA588EEFDEFEFE319B739DE2EDC147092A262611E159650E787917885EF08F1F51B8F2D8A71D60B58B190FEF9541A1BE94BC19
311
FEA50784DA1419FE4B0FB51B8D36B5FF8E1286FD8AF42B91E59A5F1CC4D60174E764045FD8C57B18209B217F89A62252BD20BE0E63E12B8E8F029FE19E0E8D0870F58721A557082250D5424F7909369376E41666C0EE77CD87CB283F661D5FB6D0DA023CB67320A20DC7BE661E9E1BFE5463085C557DA1FF9BE835733766C3
311
D139F2CF9E2208873AD0EB4814DE9E6BF2CAF81614D4D43906ED1C05A3265CABBFE192770FC2F64F940CB6B17B5F166F133C9AEEAD2641807C3E69515171DD74C4A85311513D6EC9530B3B601B6BA3EBFF3B5C3D2F7D69765141E345F75433953D013ADDF8F6AA7DC3F4A7563FE5C7D367937E2900D7EAD0F9FC9A4A1A9B5B
311
DF1FEF08532660C01C5D6DE22199AA774383E306DAB87E301ABB7D213887F9869D4942D0D71E94B27EDF216A318BD488D45DF84529EF575AF3C3938C0AAA0215B01994153E2054A0B894DA5C784980633AAD48576957CF4AEAEAFADC7C587368551C73DBE1E57C58AC713303A8BFC258BD04B51724459FF9E24C03A81E0E06
311
79CEB9B348C0DC998FEB9C6D6EFA77D247CC8F92D3848599ED89A23218D0636465AD1CEEB7DC140D7426F83491C4E8E8281C2FB35240918FFECE880CA2A42D70E8B20B34DF5221C7DB0CF90ECCB9C745B37A47E9B716FF7A97B7A252C1F3814DC7B1E1A7F72B8751D524EF7CAE45B0C73B3BE7D08ED39781B380DDFC9AA4A4
311
749C9493DB5BAD07A6EA6C092FBD0E85DB004DF06B8C9D3089C5320187E4CE1846158C7EA7DDAE8AD9AFFF21AA3A1026BB06A259845E8232DEE62811A4DA9CEAB3A4887320B76E2AE5615EAB7BDF738CBDD01F1E64064BC13D9EC53576751CA8CACD58B3CEB0E6CA585BD089B2A59B9FC101403387AADBDBE70586B93D64BF
311
3AD4453EF9C3B6A93817E8346991798601344F79A83C51F3D50F7BF2683A3605F51A72449489E0EE6169C749C60B1035651103AEE24D24E51A759C840DD3FC6504DA6FE107510E447B43461C79D22970B75DE5E1BD3007D1AFC619A4A4A69B5626AF5E9B8374E20677F77E2F8E73DF868E8BEC7EBA7B6A75EEF7205E1AB948
311
6CB642741D6E03FF13FCCEDB1C4AC129886268B01CDF4B124AF797CF784F3C6DEC97A17D4B558070A0F1C04DA4FF9BDBF34159AEFE958479824B3F58EBD1E19088A2AFDE501B6F2052368A3FD0E650A179EFAB1561E1D27527077136E652676C3670F42DCB3352F48F6BC86D2C3B0051727E41A0A4DC6CE2BE9D47F5CAA293
311
5A3C0539AF080665997194ABECD723B08129CC5B6B21D2E7D54CD4D12610E7E9FB8306771A89576C7A982002775ED44F3F744CF21EEBB27A631671D921938AAEE3EB0D19CD1E083727F607823E817BF599DCED5394E37EEBC2E88782E638920CA641EF74D4CDFCDEF06F4278ECB18E31E7E9876F2D783C8BF429C75395F57E
311
98C2B495A3DA077EB3AC3C158608B6B57FE3EA48484D9A480096FCEE0DE880950E7E5A5714131C5C41AAA29FD19AE81AC145FA1B9E85C7169A5AB837B213493DF7E9AA4B5FBF9CDEB36EBD21EF1181B7CF7366AB2A951D01E37AF4EB835D1BE8C117CFBE7625D2EBCDB0B20C5A4B45CED0BCDE3EE8DA9DA78C2E21DEAAFFD1
311
197E463C33CC6A80FB785669B856EFF7A8CCCA2841B5A5369173320B1170C368B2748D81062EA0296E5E2D95D7667A4A46D98A6FF475C76AAB0A8C8D45E226FAFC9FE0133EA9F60111F99CA81ACE03A1D14C89E8B0D69079C91464FA1D99E651D0EAF606F345C42A8A1AA9BA391031582B96D5B4176A77AADB01F12FD298A7
311
5DEEBB2C82F0B8650E880722F8DDD90C56A7A058E5FDEF1AC93545BA27367C76F5D8F9690CB6F8DAE141EDD7971F0FB548A2AE435F224D6E5954CA155512F7332029D5A1230854B79F258EC5FFDB09F5F6343A8EB193229B7F7E79B3E48F8E183860B38C8269D1B53738FF1E0BACF6AADA6D4869E9DE708E79B5DADCC09B1B
311
C76F649731CFAF59A83FD8BAE4C749D66FA87A3810D4D62FFE826FA400C0F325D2BC0F3CA35F5847B82A2ACC7961745C823E4D863D54460AF792CE6F79B5C7A33B25C3AEA6CDE15A919B6367D781E9D44F61BF828672594A3E1D9EDD6DF179A81F27EAC05B936575D73E05C209DDD2115CFB705DF9BBF3C911589B3640735E
311
9E618FC9C36A7326C82B2205E244C55D56FDB9D5DC93CE958D4BF8174D2B3DA54CB3C09F2C2A6DFF73D23B2197355761AD421EC581284A7EF8DE2CE3497C0C804D49B41DFD6A7360844E5BEFFB495CFCDB97A4595911CDBA623274CE852B5E278AF0BEB1770E9D37CD977B2766A7DED0E94B840E1E95E8C77DE5CB6354AF78
311
71427C28ADBEEF7BA0A28E19DE9ACD75F379FE373EAE6DDDAE3834692F9C2B03B4FCA8FCA9ABE8EEEBEBB725B88A7C90941E850682CA04061A7DF0CE82ED49BFAFFD42C309818FAE14755CAAE78B0F73243ECCCAD7DF58FCB9CDFAE7A4D3E6671A613639130D056C8383C8F4FCF4808C331E544DD26E4755D09EA05253B304
311
9A1E32587CC25D72E073E2CD96D04A71BBCB0038FEC3F53D254199C3CDC67CD66640269431860225392B2CB3ECD0B4498AAE78BA1994246AE1EE78F2EDFB79F6C6CB6B5E279C4D373FBC21CB2698C9ACBBEB6A4BB6B39E16AB0E421CCBFC7654D81ED86022F9BB522146F9F4772E2D0E4FA70120C95A85A417BF5078B232F4
311
754363EB1750B2AC2148EB46B1EA72AD9B4D23ADCBC589D70106C3EC2ABEEED84DFE28E718C6C83502C28E9FDD3B09DA0A6F6F7B72B706A31C9E2A331EE70DA56A083D2177BFD63C55B11D8D949FAFCF90B23A1E24B9B5018B9A17E99F2890EC302F330FE7936E2C23F0D237EC8916F5166AB84B62A21BB0B950146962D754
311
F92CC2C8877BED8FC7B7B25726DD19545392570B3A2C66B58F027BEF412E552D12A588C4A3CC5C3193FCB3485EFFF700D0B9EEC077754A33DC1FB9E25AF814628F91DDFECB667D3F7690803F38D13F8AE39353523BB08FC6760144AFA2CE28236F65EDBB3D5F59A57D612B99E3D7E5F8A851666BF9B5A6658EFC96EEB37A37
311
8ABB0EB3FDDF1303AF32C41BD1C8560745D7BD81066B0D6313359CF488563D3BA3F8E2185D1FAA3EBA1397C9D0E3DD232180A4DCADB6AF25DB3AC3CC26589C8239E66E81547BC7E2F328F9884764CA37EB5DBE390DFC03A5246B456A7C3684C4377D0EEF9A350680FA9A077E8B2957B489E09AB1AD41316944C2254B598483
311
0F691C93CAA767EECF976FA5647538830B5E63236A6F0365C1E0F3E327F24FE35EDDBD7360B0F7374837409F7A6311BECC12B7026D4FA1AE204FA3F5FE904B1F420C7A9044AE58E403E7C4848E7DA25DC9EDAC79DD756FAA26B9EA83ACE8A214A2612A22AFA19DAE7DBAC5F8CDE1292A485F98DAC731A29FE01A3966E96BCB
311
9FB5A4C8830E1B9AF0C54B87FBE221A097036E5D28D1F869F810C06A9BB0AC0612F69AEBAF893C6E7AD59460208BAB3A6B09CA4F6BDDAB8CF0D1F84B72487498395A70DCD754796E271099A567A55CF242BBED64696378BB6CF25EF0FCDB589F3A82F1116D010A9AB9FA4358809EE0C973A2B4229BAA876A70B03AB49CBA7F
311
BE71DB1832FFD32F9BF2C8E98075CACAFB36921235D0F552B6A67E94E094097A5D7DF681B40623DA535ADA7A9AD8E9A62407D7C9A5AE51D62A17A83A23728DE86BB56115804D3F2675F2C6B87541A0FC497BF0CA86420F558C9859EBE9FAD62747E323E3AADC03FDCDDFE7407B09DA90B44E3185723C5381EAEF589765E2F7
311
A099BA46695BAD60CEF3491B8A171F5F56444F7CE9455312C3498C74173AEA0214EC029833B34B650CBB5A5508D5091665309642791708ECF27CF11DB3D797D6CFE474453BD4BFADB768094B2147814D81C7CBAF8228DCAF5564B5891F5EF6A860EB2E323CB82AB868D8EA048880D63B0DE5341F1B3D53297B928A11E15F25
311
E5148990F710747C3509ED14909C552EBE3973246FCE55D00564D8310BC3EBC5085D08D806799B77D6C57FDF5E55837F9E934F09C03C729271B64F12D0A9F9E938107CAF7BF1EC8CF1BB9B42363D33070F4CACB425E605DDB0A34A12BB936DE286B9887A4E2E558F0886498BFF49C311D96C277CF6A9FC0D75AD0ECC5226D7
311
E0E3572012E56D7FDE4410CEC7A6D0F997F225A2055B8B92E3956E875AE4993CB3D4C9063AF98FD45E1BAB165640A43439A2C9181A7C355B297C0A0CCFFAE19B6FA3C2BA238A885FBC98B8F6DAF4B94B97304878DF4D8BFF6A4AEDF79E90ED4E68F00CD7299F4E0D83E35601AF0CBEF18C1E870E74758FA91F5131075004DB
311
3CFCF09AE1DABC11957FD9808C92E8A678CE9DBE40DDA0E0D1D505AAFBCBA208232BFB6FB3704E8985E61ADE53DE74152F5C7DE74B1DEDCD37DC3E8FB30D7EBA8B9EFFC3606BF90B8D438279CB7709FC7C00D327F41817EEA71CD9E49FE9C8C9A81C70915D9F0F15958EC5AA4C3BBFAF46986B90F188BDB24B89DE3C6F29EC
311
3E6F66D84856EE96A35E657CA41B41EFD8DBFA16AD6E91439EA92B40B21C053249F51AE50EB0B24C770FFAF40DF12C8436366819C48E36547D4E7B72FE2BBF10828583057814A668BDF183F6B2E58DFB151103E56303E63D00F39C27C4661605DB644D19175D02E3F0241E8FC3458D17AAAADB117CE9EEA690D0DB01E63487
311
8C04C2C9310B69FCAB831151E3AD293BEF6E46B0ABCECB50F5939B39C613D41E81FAE8D34CAE3C4566B761D37185FE864AC32FCB71AEF39DAA5BAB88609BB980CD2F07A8F941653B529567726E2B2A58D079DD57E1E5E31426CF184A04D7B03B985F276D47406AF276FE32E3328BA866EB1FD39BEF57863A317634AA5FE467
311
409B3873F5069EF0D71AF00AD189D17BA1974ECDB2D623E9E14086386A6AAB5807825C37B015BFE892AFD154920EC437EB945D958E18622E1E0FE2FA06557CE4BB9BBD05A2D40E774DA2B65473791E314B7D6C886820B2FCFE4AA272B3B8B15E7344A145E8AF919B5454D89D36D413E87211186BF6F645E5EC94DCCE8E1C79
311
9022E4EC9BC86D7A0F2AFB1FC4B2CE48F84B3F49ECE65BAD24CADCC07EFF39AB06BE9E6B27A059938EA7208838455383DDBCFCD967DDE4650EF92A14FF933C975DB20BD7FEEBC4487576485963D757D16340D9599FEB362F775F38CA4185A86F74B629C81B133644A3B18FD056E997E0734F9BE26D11C0AAFC669E2AC9FC41
311
D281F8B2E1C35AE27BCE05F3DA295488096688719D974DF1B5D182DB7792288697F8763CFB43562C1CDEE11C4AABD5C22B6E33F6F389CFC3477C5919DC0D533F8A7A1846B7ADB60ABDC26C43D0CFC8910B7C15EE22675BD02702ED39DB77A87A192CA7A543E6205B979B9F5A6B512A3CA799E198B2D5797C0AF8D1D872CA45
311
5D4D431A7879D4DD76110B5FF7F4176B54477A9EB5E4A5D11214FDA585F0382751D8E2582BA5D2075053298FEB8F1537304E32CB22C2E2B693DC0A760B1DFCA751BDC445AFDCBB12820ED85F6D5298933C7EF1211E9E057684056CDA3FEF3BB6052355E162DF27C59E965A8DDB7F9437EB72CDDA3A090DE65A5B2F50326247
311
B7EC67B73ACC7047FC9B353D6EE990F772207C6EC52B39DC2F3C0754821DAB559F7C1809C7D0DD5B0499D0442E0A6E391B3D5DB46D11E731E6794EC77523FBDAA242ED67F9FA1FB684255671F63C9BCFE6E7E896D51001A6113EF2298BA494E0B0980D1FA5B9D60796554C02256B1E0345FB7C6186B6A19D2DCA2704162628
311
45FA4F42DB5D9B0A0B6F07FCA2E56C242522E001E0CEB734AF310FC8BFB57E38E03AACE93B3326A2197891E68452B26A6307FDABFEE0223D3C03C3C73D2D5BC054C8311F12004CAE488E5C29287F8156A2CAA4AD0D7BE6B97264E4139F437CE73ADF52E5134C52B819777C18B323A5924E4F67AFD13B1CDC3A61793A79FAF5
311
C0CEB718E441071E797C6DCCB9EFCF7E4A1E9F3DF3C2F9C9E8294E9586868788C972857FB0556D7A26941A7EEB9B580AD78EC40B85DC906B4120A563CA3B87797ED612D3B035962BB75F6515A393F4CB057F564CDF54F2E5A024514E6A1F901DB80C7E70B1FC05E356A7E72FABF4775B3E3FB8F70A2A8E7B6A94542BB30415
311
7978CCC999E707A29CC795E67A59CC546A5D47B368954CA7B6E75EC9E1F6FC73CE3B4F71F8CB1A6B15923D61EAAEB14626AAA9D04A26EB9C66CD1BE86CA31A5D8703DE04CD1EBCE4F5CCB62F93909AD11E55799A781A956ED27D3E738F4538CB04ADABC7DAEF20BC35BA6A90BCC1DC61BA05F20D8832FFB9BC9B15E2DB838A
311
0AFBB7E0C82A562127E0446894F427794C3037186F622BF24DE1B00AA10A23BFA47B2A180D6DA5AD6F7326FEB8C100C2D7142EB2A0B2A9D1008A09BA343D70E054AB69E2A7EDB783CBD92537FAF4A44D1296AC2792729104B3276C276C951D0CF3CF3F1E6B017720A7B8505A5FF9589365979678C36F1BAF759EAF57C60F1F
311
F5FE9DCF5F8E764FF25A2D06CF25117A8FED51884C13B2B750DB0E4F5E3D64124FCF11F0AD8F1CC3B3DA4B38ED22BF1CB2585EE6BFEBBA63FBFD44F9537B9B37BDD6B358720F98A8125AED4349CCFEB0E135F19E208A04CA7E2B10711185D72E381F448036EF57C9F874E54A971CA37A639E986AC0226DC5AA00D5B14FEA91
311
92234B3DE617814FC221C92F33F1D392F297731B567FD98FD91D989379AF567A65B8ADF177591DB90FBEA99BF4ED11B16E50A0AB1DBF1156D034BBE04D69D08F939D8E92BF525A1DDAFF80ECBC95D8F45D3FDD289FD23F7D8B452F8EBB34EC082DEEE68E18EDDF072060FAD2AB1504DD4879BF67099FC58F6E9DEFBF645D16
311
334A3E9A127C6F1AF6132CF287E433B43A0EE93812B4AA0B194E03EE3FF91EF9C6ED0074A2F6EB18A96A7C9890B1FCDA1F2095E944DB911ED54C60DF16FB74C8CE9BDC7C54C4F14078CF73C2FFF1F1BBCCD7CF64F71407EA1683DBC410D226627F66E509060D5C0AFD611DE681D509DB8DD12FB1265B03C6F5C55FF4C30BD9
311
4187FF692B4F152982502F193098A789526A038AB529A52BC0DC4FB6285CBAC10A8B8DB75DCD9BDABBB221E27D1F8DA9F5EE5926A1C8AA9BA9BC09239C6A7F12914EA3B59EFF7AAEC3FFCCE56F1C5C2980AD072793527565E774F4631DB178CEEC691B1F367BEA0CF2907E1D6B854D527065979DDEF002D8B2ACEA7CE21AE2
311
97737EDE1D45B31233B73FEA35BCFDD0B09721FDBAF6432681F2FD10C3E9EFB246FD6E854B344ACC9D8A0EEF876A7314B49B6A499FC650B099D650DBFEC7638ADFD245E2B7839DA5AC5F7D5623FC0ECEEC8653FC9B2BDD1AD4D00A566FBA7186DD3C9CD26512551637498CADB950FEC71ADB9A5524285DE328B8EC7EC75D23
311
45AEC6A27C42AF6D9B92155315C80DBFCABBB7DA0FAE425C4FB896B15C9BFAC4FE67DF5A23D30C93DA4D8F36FB15D100050DA6062E22AEC5F4DAC4F6FEEF97AE05DE63C6D38F9E068A20BC5E3B6BCD75320C5090924E7F93640A7735B1A43451C2D91EE62C6238B797349E59890AF3A520DF4A87095F3ABEC2E61F0593416C
311
E46CDCBE0E00E2523FCCD04408588B5B6C9DB6459C786CE378770B54F51DA3A5E1DF2A3349BEAAC234A6CF8993B598B3B25B4B113E353A4D750FA7534749430F3EBF2512E7EA3FD43C6AB9A1F765A58463B306721A15D224FAFE8C6F5E3432D57EE697DA0DD5A9D4866A8BCCAAA9DFF1F06047851408FEC060471D0E3EB86B
311
FAF46E4B5E60311DC3E3CEA147C75CF971BE74689507154FF2D2E92F15CDB2B9182B11459FD8ACAC5A85F174BC94A7F4EE4C4F5CAFA7C02E37BF0BC77B7DCD0C047BC316F562A01A441AFA7931CC84A28CB9F4AA367EB515778F29BFE61195FA671F4352E5E46E3A64773F1F76EE5EB36D7BCE9BCEAD837A4D77F8DB8C92AE
311
EF6711920D7C7D0F76B0FD0EB7AB83724CD35BCA7D36DDDF5FBB7FF6F04A91F3E2BB3B8F1A43CD659639507FF6331C5F697BCC782AE57D757A27D97F1AB9E0AEDB43F92F1B2AACDF5FEC8ADBAF9F814E2027003BA2F9E144B1938A7A04050AE5D953B82C45619165C813A10E76DD6906B3C16438064D14CDA713AEC4200346
311
13E1AC7241904A49FBF87409AFB1FCB9B72FE7933A87D8FBEDACECE4EDCF6A4FE9FB94D5DEB74FAB7CFEAE17EE965DF980DCCA2D04134994F9A2E94D2265DA4FE6AA7B7AC15FACAC2B5ABBCD7DFF542C5314FDAB2E1B9D8B65220B8E2B638BE008E8DCA22678C820C5053664D15E89F2D735B51A84955E81A443545E9FF787
311
BE0FA700A76D136C27DA179A7C6E8939E01BE756E19CB292798063D8B97F44E8A27BCF3A614FEB8BE974A718E86F7EC99B53CA35FA24F61F2B07266684623A3D4CF073E511F3A10A8FDAFAF0078C577F4DF9D339FE7862E5FA47CF4344209E5BF76D783B1B48E152AD281B15FCB934DCDA49CEC5706B1EE8B460F435324A5C
311
AD154725E21AB8044B75A557A79F6C807B9340AA3D92503E866F4274412926C8C504E4D5EF8C0E68DD0B028781A6B4054F11CF18941F101C57CCC796773ABC8DED9CD91FE5788806C05E548895354AEAC96546D55B0E94A59F148D061F42AA398D822CDECA4CDE79E13469BDCC44FDC990F366BA5978C15F97ED80CBFD73B0
311
CD9B8B83A4F6845BDFBFAF034019473FB9A63BD55D3A4A7284757071574029A4D016DCCBE95DD679EF3C4880BF169422F8C89B68A988D2B13793CAED4F74DE7486C72DC94DF46B8E93D8E02EFCB1FF9B3BA10C8AE7F653DF94F4AF466CDDCEF5776687F7C4C14B63E4EED1719DC2EC482D7DBCC7AE518CDE3D5FF86D39000E
311
C3673C0044E1D308BF05F74D1B5F033A7D1BE7F74BC55BBE3E4A20F920946CA0271EB17BD2B80E5660ACB8A29A79F5E4BBA49D4D945B6EEF4A7EFEAA65E5555BBB57A7E15D2F83C69F30BBB978D2B39F1F26FC097424D39BB33CA3D87ABF64E307938B685BAD44F71556A30B7E712CA4FE600613C3E554B69ADE949A7CFE21
311
4DF1FFF05CB82151EC6FC31950239F94CF7AD39DC473F6EA356E5EC2C4EFA04383CEFE985A127484366FBEE3C0EC4FEA363E4F6632AE781392FD45D67B63FB8DF70E82734F431FD3443172A0E30A83D60982D55FA6A2CF86DBA8382502ACC6CDEF3B907982EED1160E14863FA242F9757347E1544275CCDCF71ECD5F8621CB
311
EA326B8BA884AD7F825781923E66971F04010D574C541D8427A438A37EEF8AF88240EED7362C953F5A81DE2D56109CDE2524EA0F5D2F87308C0C47BD97AD605878AB8589E17CA83930CB5E0DCCD75853D68B1AB136594926DE426C367428E9334AFAFF90ECE221BB5DC9E5BB53D2CDEF954EAA9CD814F0E5725F1965DD458E
311
5F8487683AD86B9D0076BE3EE91EB1CECC5331A67A3F79D8B27587C12EC2A6A70474749F27B4C0BBAFB94B34189E88DC18964BE4121B9137FD516C7755356E50D6714E31ACD222621EBBCD1CFF81D87479056A9DA0E0B8EA19D24CF937DA89F78E8650CCBDC110AAB6C4E46DCBFD0446BA9E2060E81F314AC2031E88135E54
311
76AC0160EF5C0DD2EEF1B8B5CB2D198BE9A554A9093B5F7D7E4B5407DDFCA1D9C152FD97F55BFFFDFE802954DFEC8995B983E28AC92F1971E28F531DC407A1280EB125F64A72E617EFB27DFBCEDCDA2D6F2BDADA36873EE46B9BE1782998C63DA7182BC383FB6FD15DA472B175D7E8B4FC88F38D6E07FEAA3FA3CBB8F6B449
311
ECF14D2175E5C5CCA3A42ABF24CA6C9395AF74535F4DDB38CB84F56614B0FD32D7E19CA5CF988DB4449C40E23DF2B16772594554579094450F56F253CD25EA7F77366FB1CFE79696C428BB64D5A41E986189427E5E4D7E2DAE3D5BB4972B3DC44EAABDDDD63A2264ECFA5C786EB0EE1FDC5BE34FA0F08376869FD1E61EA06C
311
AE15191135445EE8F0394161C3266A596AA035572BB0C8876180D8B9C77D307DF9DCDF7365ABDA6F3A2366436457A4DFC1F259666569A9E4A79C817BDD5610E5200FCE894A358EC72858D50EF67545DA81C6FACE3D457BAF70367E1E6BDD9A952FB4F56247F58F523B97E640246051A72F79BE42FFA0B3187F63097F91C48B
311
868586F714B0EBD5A00A8412C1236E1298F60C72BE6C96B82B404CADAA304AE9F303176B14BA53FBC2D5E86377E35542019E24D97B96A49B2C0E5006E7795954DEAF5DA58958839043C6C70BD3B1B33B6DC5C31316D8A6923F142E26F6711A2258AF977DDF1F970ECC4F1F2B434B96D81BEB6E89BF3BBB3C7C8CC805050707
311
23D6D7D7D3C8CA27CA164A26024FED94B12A86031867241DA53D929636DA600F050BC40CE48B8BA03D69224720DEE2ED2127390BDF5E6EA64527BBD4C4C63FA76BB801FEEC0E61218EC98A8A86CD8313781617877E66692839B9468CF4DB8E50A73986E558E309C0D6F676F921BE02F1185454DC75B111572FF9D27D85EA14
311
C05AD7271225B391C4275659CA4A43759D0BA44639BE4C30A84DB7F67A41399FB95CBF923B1B1672ABC807C1590557FB18D811983FA97F5E609516D62281D38B1281F68FC75528C35E4CD7DF0F7DBB5E5DD69C414EBEA2F4A5B241B996BA77AE6C772E367408C633EA3E438B68563EA8BE7667F3A4C4FDEEA52ABD78A2820F
311
443B7914A15F180018D231E64519C56A12F6CA7C8DAE18F06F6B769DBF92329EF6A5D18FBCE600F36BD8E8198DE5CDAA96181F3A756EBA5501CEE58F497EA4F418A2B82565B9BCC611713C0B708CCA1F398B78C5F7D03B3437CC18F13061F55C7BEDADD5ACB1DB0E36D3CE47FF6EA1A563A57E9649EA5D14D1A50EAA457463
311
381C073777EF1600607BAF6428A7DDC079D47A204EF1E1F1F0589FB054D45E02CE623B3823C317C601E589E22B1E88B448524B86A82828E32345EC18AE17214B42F8C41C6D428016D9BA31DDCB47572561E5A402E5BA4FCE55F78AF7268524AA04130F3A20BA5D1E9F9948EA48FC8F5314FDB35E21898198060034ACE5E3E2
311
BBCA34092518F275190AF65F45867FF0900AA4B81F25427414C372BF51DC29AA855C5428EE1EEDD6B849AD60F6E73475C2D2523F8A2772C840A478DED18A8C5C91B085F255DC4F54EA7AA8947354FD17ECF8FB3B4A0DE7B483CAF3A1165EE05BBA413E5C1FEF3DE1D6B8F2F3F3251C17D9FCAB48A9AAF63AC773A0E413BBC4
311
6A9ADF84A566FC920E4D8C52C9769EE3301CADEEEDD92B312E02E2A7E35B7F1E7D203FE5A7D75578B06E99D0E46FFADB8FDA17ED8880390DA29094202D6F645F76F6F96409CDA05495A96E84B04A00D1A6C6C81D7F3DE9376E828CCF144EE50E364ACCE7237EA0BFB5607ED1AC3CFE73794E5B61739D14DF1743441B1AC98F
311
00ECEDE9E7301FA29755FBEFA68C91EF2B314CF510537EF1ABFC9A762496280B546F5EDAAF8A5B387D469FC9A878A92828C88608453ACEC6094DCA54111E7AD5B2663DFE2DD151B7F123B9F4FEF8EE36AB125FD7AD52A59B1B765B3E3F73E3F73DEA93875004D2AFFE3CDE9493B87A9904DD052028949041A91DC0E1BA47BA
311
714343FD5B25E0A6A09503AFC17C790058A836A324FE31D7893512E28230332F153181C1E018E1124EBE1BA262AA428A518237D1EA7275E48C5C561BD19ED6912EDD8367DA0F31E40EEAE9683DA9257525AEA7B632B97119E17145A90231768A4F3B9120FF32E8319B015E3CBE26F1A754177D8185345817C096B0CE443A95
311
5D13AC15E1FB5DEEA0239EC32A3C92241A237B0B02FFCB4F93CF2B02570C8D192E2F2A68CEEB42F12E6F8CEEFF46C251E22B4341C56FB08CCE550E7A9D6F4D6564B9EA52A83D5BF2C6E03FA19D2775E15A8A7ACF30A13C259EE7F5EF2AC3BA354F1500E1A07FC63FB4686E2F12EC69719F9ECF5FE3F35598DF2CE944008CE7
311
8F0911BA5BE5D0A34E0098FF038669C26030BA9B300303039852A8F6F496341737CA7E0D2E3AAA36DE0A70AA7D9CA0D54D9AD84B18A44C9E625475E1C97B93BEBB38DCE7D227E67A2D00F531436136355F243D1FC0D712C5765754FA22FCFFAE97919161F46D6E61ACB37D83777B385889770B50765B127768443A5C4D3A4E
311
35A3151111F146B7CA116F918A049F1C272F2CD7976C69A0068773451659A97E0F4A08FE604C3FF6CE7385DB19F4D3ABC8A0D80DA8A42096AC377DB49382B36E270B6FA7570188B4B7D1DDDDA82ACA487CCA5D38BD3BD039ADBAFA4ACFF27809239B722081E2EB9F145320553D183F28471C388BC8814E5045676767AB58A8
311
E72D1CED2CA731379515D2E533E4CF0B39DFC625F97AC4836831A4DE330E87A8126FA17EBE583D614E71E22A8DBF2825599743E0640037303E8E1B1E8EA4E1ABFA4F62907B5E4E0E5DCFDAB417C36C6848A2B8D15F1E505434C0707E16B1CFC2A1C36A42BBF55734F8F4301DDC2A5110CEE8C0747F69519265012A2174BF4E
311
955ECD4FDE095A3ABC70536B7AD0B9D7892F81287D667C108703C9B66A221E9A0929D030008F77FF6F5D2108EF5706FC87A3069B976F7C9FC3239D13D283CDEA83597461079FEEE049B0F392889898B7D87D31F8D60ED7B56B91823A8E4EDDB36C6172ECEE42BD42B12CD67994FA0F0DFAE9389356F4CD4425A4B8AA55CBF7
311
ECD585C6A2C2316791E43D5C06841ADBB226A87FD61515FFBB0167B74E56BD7F3E90A57A97FEDCBDF483A0D6699A8C0849CAEB4947FAA90D8E332D9DEBD9F4738C37DA0CAF9CF3DAA68BCB67C420459C7A64498D6E848E5CADE92BB6901F607AA331104A67F7CD650EE169B1DAE94D2C31C2F993632259B6957E246EFE4C54
311
81107B07118607700040E5812A2A2A38DA0076875258C753F60E0F2662C748EDD5F3F3686B8FC3BD6FE631ECCAA1E8B1C1E565AD117E54893E79F4672E32F9E46B2A183DFDCF3EECB4D4D077DBEA0DA254D256045109670050129E9B9B1A9E4A11344D61497A992778095151510C4BB7EF2009B63AA4360635312E4CF668B7
311
E0D3D85A8688E2BD83B569439892ADB63461930D428E0DE42E4AC57CE48DA5CC1449530D8BD3D6A0F08DF20C8E8F570F2CFFFCEA286E30969B4654D498A58D9DA782E19FE3F002181838925592C4A1EF0B332D88B61A92C644547BED490D3A42CFFAB70E36D961F694F6307F72FF15A1C79D5B1B5CEFD353D9E2B52566DEC8
311
F8F09CB3E8359C0F68EBBB7898243E34E12A015B2685AB303C04D3A9E00671FF3DFF0A184E4A2ABEB2B666AF5B3A209C73D8EF29DCDB069C9F391EEE9DD0F74C7BCDE16F8F02E3B8816122BBEB50665775B600549D8BB33A54A6BF940C028118BC6878C79958D6784F9DEAA6E26748386FFAF8D0D0101E2847B6563F5D8DC1
311
D78F787BE00E2C941AE12148D4A81599FE8F68D4DA5CDED75530ADE138240300EE13B0FC13A1687FED6774662C05A2B7DFB186732F0D7A93545D8B0A6390AE5054D9CB582DA846D7A061B3358B45E2B52DDE63E114397EDB7E09233A579155D795BE76102CF277F4DF8B188C4F2879BEAE3C08347124BF9ED23B128259FE10
311
7D31E34A652F090B30B39E0D9AF917B76A2806135621A8A60681F16AF216514BBD02711585B5B1AE823F4B2D0369EA5B6BCB863072727FFC871CA6C9AB79A814D989057E9470A3D238BC87CBB4A0EA49AFE2B86F22E499793CAA9047080450166BDC357524561E258C77CB697F1ABB32562CF87C3B7AA12F911EF19FB3E5C0
311
2222E887D08202A60A17151F5E053A86B437771088B4FEE14D652C43E8D939995D34545E12E2FF93D4E366EAD25F10CB7DED141563C3D0C447AF06078A91135FD4B9611583CB4BF3BD167F2399CEAB0E0100F8FFC305F00F1711717173138B4B48C83022295DE657EFEDD97F238ECA80F528AFB4F8D67AD4E2594B9A3AA86D
311
7487EFC313BA95745C186F0CDD84CC12DC9CB0424B42203D351FD9C0A3AF10CC7F388E0329279087386421F194F4A29464C1DEF7EF8BE515E4A199DCD5B909342598D8FE6A231F71336248D5CEC5454455C7BE383B3BC7B260FED27F703FDC39A170F3827239102F59D4DEE7FEF82EAA1A5E4BA94DCC4CC44E7E2EDE20F242
311
44E4454369D2E87C3F823F193FD4FD27E1C23984B01898D15ABC20711A8A558054951A6AE280096BA36CBA439603B7B0B4C45F248C14B2383B4B5CD8ECECE4FF859AD4A6CA2326D020EF090F4041D28DB66E5256B56232CC52829DE8060BAE6BBF37D4B7469B822454FE93210A3E8D15E69FFCF01123222611C51C4FD0A041
311
A0CFA2471CF6BE38D2B20FA4C3525B5B8B586759475CF80ADFE67A284AC24651E52B8E683D24C2622642F27E7C3C22783BCF63648BC398BD6CD0D9C97E7E7E3EACB6126DB7A6C1FD9F1031302EE67ED96F22B77C7CA0239BB324207559B105E4693EB26EC46182A92C9C0DBD24F29B31C5C5AC1F84300E0E17CEEAC15F5736
311
FA4A98971E2F1423BFCD68D4BBD5F86E74B40A369F39507C88FCDB35D2DD8DEBEA4AF999E23CF2816D204200DF6E611781B9884C1AC8888B4DE397320472959434323A5A36B22A8E1F721A270DF3BD65E4A31C11FF048AFB0D8B7B6881423793963A23CFCE935FC189ED36FAE35C46DA3574C979E4394BE52084F3081837BE
311
033396D2EBD80F1F691B273F660D2B32FA27A33B1DE4ADA5F0FA4651511102DFA410DDA86E065272CA314D5249DF91B06BB92807B28EFD54F08F7B525252782CD276DD02E6B0319B13DF87B1F6361AD6B28FC0D711CF445429B9E5A433CD493051C49A9E03DDB1B147D880253514A5DED88009018620EE229101C041950E2D
311
8AA8E1F5F5438E0C0C0C60EEDEE9E3E0C051948C69F84BB7B2A48A1F3C8EB9E6864687F4F4F6F6E2FA87608ADAF9C5E117B7C1A737E710769DA1D15ECE6A84502AA855398712D5FB51BE92E4EF824969CE18278798AC303C2C7980DD2500ADF8FB1E6D6C2FAAFF9987178923334A244758BAA01A9A1B70FA5097D01E1CC2A5
311
8DAD0EC94CE6430AA9B0C10D75E3C6BAC670EFBADEE1607739CE0FC18A2587E3EC3058562014C64219C69BC269082D5C2F4A659278D585755912176D78A1B641719C2A394CED495A1AC5D583FD2F5EDD93308EA7EAE8A6DD396598BDBD3D4CFED62D18A5BDFDE0DD5C80D1A89BA62697B131AE7CE9A6594138582F1B37D68F
311
1749AC7CB67A70695D48A4A056AC1FBD4E82358CEAE38F54B95A9016F9000F9879C0D9D131768635CA798895F27D6F1614F11F2838A83611AA51C9A3DDB539D42979C29F10465655C17BEC3E2760B80DCBF609198C7B171A531905F3EC218D696025975E986C6B4C666666787271F202805577DD5A3EF0CAFAF91B62DC4B2D
311
B4217A7606282F31D8DDBC290593BAA93EA6353AFA9939B877978481E15CFC9F2755CDC00C538F63A4BA3E80AE009B73CA0185687D339A507D165B74290D6EE46D5C58148F020C3668ABE9EF2F7549170DC80DB41FFC1D678FF19AEB10C7133832B104B80F691B3138F97A92D26E551F1F110400D45AC71A9B9AC41A1A1B1D
311
AEED0B0810638EFFB511D46B121C6FEA0F38CD00E03CFFEB9713FE1F9C263E4DDEC160D0497FA9A132BA608584057FB15380825DE6C7FC3C667EE947D488A09898D8E939C4953BF4EC9836344D2CC6B2971B2A21A572B06096F4982D2CC7232D46E8EA69DC83722E267754D777F97F96D5DA74E1E75178084D0E70F12AD33E
311
5F71EF2AFA599B2BEBF60A5BE475F444F240CBFE8143C334E7ED9150FEEFEF7EB020C4DBED388DD1D6A167A76F3CBF119B578AE8CFA7736ACAFA4440A1C47185638A0D2F3EB5BDDEFDA958FB13CE4AA4923D5BF840392D45544329525749734866684BF7F8D9D54D892E19BCA9F829A0F8BFCBEEA6CFDFC61D74EA1A645ED7
311
A1FF241739F15694BD835B66FEC5677E40FE69BD3F91AE402F036537218A401CB0828604AD189E575015C6F3F6BBC8AC79CF6C70653847254B31551EFCBEB5978B9DB85D58D0FA41A9DFE9C624834AA04949D24B5AE6D299E072D152D12097920F14AA92C31C3B97E28B6C2E6E9C23D63043ECBBC0A60FDF5BD0C33C127EA8
311
A3308B8B6AFFEB28B4455BF6E7AF4FC6222728357EB8E46E85053E6A8843AB23295BF838ABDA94658FEF3F832F147046B4ACD6F7D48E8FCC9618582961C898D1C7A253C91BFECBDA6BA18A1FCF70755DCCEE2222F41B76D23CA98D0CB3D95F0CF66D57FFF65E2A90F5DF40FC3187621E981BD0BC1D992787212688976B94A8
311
F0C6EF646624B570B78E068826F87CE27041A95C9A4871FF65CC17FCB1639629AD6A9517000D63AC231F3D741CB8430777E7ECF80CE7A3F73C0F162F7E56AA71F4DA80A33CD6ACEE78E2C11FAC03DAFCE929B106F8F6B3ED2DC71FF994BD9CEF4E9A94896EF1B6E2B7B4978168BCF0847A3D2A4F1B0500B926E634B174548E
311
9FBAD27153FB5FC36799B1E6C7C38A94E1F9E996796D7B485E635D5287A2AE76FBD11A341DB3F8F810385BB7296391973DC6C37C452A9305AEBBE0CDB6C566DB59FE60C8E94B1FD090354BF51439FFD1B48D725228FFA88C84F686F547107A7A235665A4593B7C34D748C1AC8D56DD5DA861EEFBADDECBBD65117E65851F90
311
351AEB65F0EFCFF4BCFEF24CB7A5879699FAC437A7AF9099186CF006BB923A59E37D7A36A29FD8D2CBB914A5E9D0A8FD212FBF796AE9A67958FF1D5D8B85F78F96219D4714EB919929241B6C018AAE0C02069F8D919961EC5DDFBFB7573E3AC8E08BFB7C8534BE6DE045B3CD63DBD71F7638BA2309CAE398EA3A7D8F98BBBC
311
7AEB367EFA5CFA27A9F8F2F52FE878058E6209C026453F8E7E8A237DFC389E9590F6059B397CFD65183BBF936E86896612A5B5FEE49DAC8455D026218AFEBEC12B3523A45B57B82C9C97E02ACFA1184DB18E48CF615DBF39C3CC6F0B4AE6BBEEA2E39D944E290302FA3DE33FA7E40296E2EF7BF1CD855BBECFAD0FD622BEE9
311
746FC4FDFDE545AE6E3BC234CADF83A0FB76DFB145BF3828AE3436368AC24989454F8FF70A177672C711CAA1A76107218CF948CA01F873520E7A2B118EBB161ABAD432932029628B6761590C98AB590C8C8C79798CE9F715BA696E839E9131A4BB68BE923F1747FBFF165331FFDD4D05997ACD168F12CA75348DAC04C7F509
311
FE83898A8B421181AF492861CE81E4A2DD0A30850CFA95E05F097FF70F9E777310D584A75BA7018922E271DAB1D785671157685B7D383D3E074DDB4F1E44EF04B07BAAC75A062077C54B9752C738C9D804D402E02851F3F89605AF189738C18C021D2139EAF72513824E10DDD3047BACC8521ED7E98B257D1166903B1B08FA
311
6F918FD7E162913FEC7D0EF4787E29C35FBA8C6E2C9C20E9AB30AE42CA2A01A090E7D010C1B5BF9CEE2A304BF3A987FB40D836979B79E18D70F257DA61E808472DD85B82761825779D6B90CAEB0F23360C6F80A7D7D77545E95B3DFF0CF96A827F9B5BCECD2C9698718417EF80FEEDEE938AFF55859D0D540B7FE09435583A
311
6F04874A0C7E8CF234DF4879722000167F5872CEC6BF3EF7E5A8CC8121E6A359227C8A29C95212F9F735BC72A887D56B8F309FC525BFB4FD767AAEC4AEFF249CFBBD2DE1AB9969A6155C7D8DABC307E47324C1F916C7BCFF40ABA5644E9FFB9238D19ADADA49D9610F01ABBA57E4DFCBDCCBB2B93C8953206C91DE01B0E265
311
1A6D6C31721915B31F7B7CBCE55466F6D70402788FA91D73BE4ADCBA99A35F17D6B83383704917D6833F0FA3CD45C926ADB8BC17999A4A0AFBCE2541F7B8CF4C2F5FBA611B3E626D64407CB32C122DFF4EF8674D6EDBB86C8F7C6A16D50FA685E2CCA34F8F7D1D8265BB0042E9D7F1F666F7BE5FAA5184DF58E12122A42EF0
311
2F461B3F369AC746F96528AD208512AB56844CF75B97F352DF7995024FB02855385854F3798670D01CAC771AC3E1889EC25F61A20C1F8CAB46898817F9C47E2CDA1F286BF2F358298709FE567C91133E2638C8B53975E753EA8BFD3578B5F7186B7BF084EBA3F77BAC3132A5779902EC22AF2D2E79F42D324E083386DAEE98
311
10D1B44A5DAA54513C7A71E52A4AB9257D975B621308FE4D2141CC3DCFE946C154A3C1DFCCA7629EC69ACFA831634ADDA93C0388D2A9A2DDAFCF957C6995BCE7FBB6DC4EBAE79E63EB08E9A25F52F67076F7093CA545CA3053B5BF576DEAD4E0017143C5F759F32B2D6F145B52B67B48909B7C7FCA6586EE385A2189C16932
311
CB6DDFD9152AE317C430492A578ED27B72D85D40C7C93C097939E1B50F4D67F05334FE9DC362C30B7FF561B95259138ECFD9274C8D695C31B14D4EAA9F3D7FA8DDF652F8C5DEFA23284C799B7D94416DEE81E05A866302DC70192A5368EA65E1CED8BF107A1E2D3119A71E85DC1A7B0C1E93274CE04DD0F2ABC8AC7C987FDB
311
002B6F81757B43502EF7A0D92E416494FAEEA4C9C090CD9557AA4D532F4996A272B94355C5A0E4974EEA9627476F30809B94D8D8D860062E02204643BEC7D0438AF800FC7E2B26955D595421E83C69E1A07E0E3122285835F014AD538188CF9737CE76D464A353FA55A001AB2526B84E985083693BC76FE211CA1D000679C8
311
89E3C009832C87E1AC2EDD05C302557422DF0800E316FCAC86978A371F025A6C7DAA9F333E7BD160403A1A06EA75AA9888FF01504B03041400060808006D80875128BB58AF800100009E0500003D00000031413536324335362D304445352D344537442D423734362D4336433939323044414443382F536368656D61732F43
311
6F6D6D6F6E536368656D612E786D6CBD544D4FC23018BEFB2B96DE15493C78601010A34B880709DEDFB52FD0D8B54BD70DF6EFED3AC0B12E6442E2716BFB3CEFF3D18E26FB440405EA8C2B1992E1C323095052C5B8DC842437EBFB673219DF8DA659866649B798C078B48AE6410122242F2A4994AC7F93815DF85C049C8564
311
CA0A901499DD886B2EB9B1E02448F358701A9235880C49A0119892A20C89D1B9FD768815CAD268CB5E0355B40B1E47F3E37A2020464BED06AA57CE8FCC20C3C3446D46761A2632A8C1283D07031EFF2AE7CCB1BFEEE916E406DFAC8E36FFD99A9D60A6944090EEDC3B670C7DC13DE86B6B2C5C240D6E503BB85ACD579D513F
311
1B9F9A69DC9CC22AFA80C426D40AF0B21EA168559156B6276F0F726A6BFF04DCD513A87A62CAD41FB24FCB2858B3952E3D852084DA25B9303C15687973CC8E8AAE11DF2836C38C6A9E765E8C1BA1BFB1DC29CDFE518C8B5A7655A4ED7E77291ABEB80DBD82EC866ADE1B8D05AF9E35CF09D7A061F38A986D9EC412B8F0F65E
311
5D81534D9B231D1E5A8FE577A241F3A5FD01504B03041400060808006D8087512CCEBD668A040000E01200003E00000031413536324335362D304445352D344537442D423734362D4336433939323044414443382F536368656D61732F47656E65726963536368656D612E786D6CD5586D6FDB380CFE7EBF42F0F7A649B70E
311
1B90744856B4970F450FCD7A5F05459613EDE4174872DADCAF3F522F8ED3B88D2F1D06AC4050DBA2493EE4438AF2F8EB73AEC8466823CB62928C06C384888297A92C5693A4B6D9D9E7E4EBD51FE3A931C22EF85AE4EC6AFC38BF261BA626C9AD288496DC3F4FCEAFC63366845F7A10452AF41DB320C0D44EC26EAB20918735
311
565582695670811A6A49643A49A6E9069FA4604A64B29016DC4B48552F95E4932463CA888468C1D2B250DB4962750DF7CE273069CE8363F1FF4EDB00E0A21999574AE4A2B00C353B93F3BD4777B8A61ED8F604ABFEDD79CE56A2B7BDFBDBC50996E0ADDE16FED26223C5D30956C29BDF4A55EA686E5E58B112DA45CE67F76F
311
4FA27EFA3FB672FD7372FC388FAECDCA5209E693CAD167BADCD272F943701B3812F8A3D852008B1D2E32DB927B2F833C6EA95879925356D254582695095A3CE982924720BE5774A3CB9CDCDB350427D2DF20DA1B5532EBE2D5D6288D75D4F7E4FD9890A0EF8E3D93EBB8F8BA4758158EF6FB90A6F9520281C93DE7AAC6D246
311
07DA296BB96018123F821A7D6A5C5884050C475DA4865442732C8B95684A50165CBB3A32F25F783A4A480ED59AD7F924B968AEA50131F46303223E6A397B0E52976030DC1DCA81D7E7C1EDEEA42C19FF27635C505E2BD5198A599020DF50A2330FCB3AAF28CB0124108429553EF1B228802E2265D8F7CC2401042B155BCC70
311
70F1E5C55F13B4A9577362CCCE46C32174E010C3C378C44841A4BDA00FE3A12006CE11EE6AEC59894D3526DDE1CD59D503ECC324017F8061B7F162162FA62EDD81AE3308617770796DCBDAD2B2625C5AE8A63DE20B2C8AA5E95E76E5730823955956E33E705425A2187C185D36489A1B44D3DCEC2172F6BA2105C3546287A7
311
194B2331768EBBE64F6E70A9930ABE0ADEA89E9E2C38523B810287AD67A54A039C1606EAFE68F8304610BB9093DBDDABC0B2AE4E290DCDA15376D7E39F72B556F0B32EAB5D3D498B4C41ABADEC3A1434C422D87E8025A84BDCB2B1417ED750FAE4DA8976863974C577C7F902D3F156AD354DEA3540DE6BEAE2BEA52F7A2EB4
311
CA43802ECE5BF2CE2EDC9347179FFB023CE412E60BE16DA0BE29B374988A553F561DC04615DD35F7D2C8979F60E5955CE93DF29DED8AFA1EE6642D53418086C03C47C377910F75F7E8F5EF665F70B60FFB22AEDF897D119E8423C773E819A3C1E55E550599EE6EDCA34D0C86FD72057DF2CD46F16A470682471C164E4346D5
311
306BF12D7D12D82CFF673D41636C347443FEB51B50D72EA171A8E4A58623A4A16E0FA2B8B10A0D23268D87C33896EE8FB73305A74BF224EDBADFA0BD674AB354D63DB7BD5D83426761C077DE767728235446A552754EB93B755891C3C4CC6CADE37CF0E912A7BB38DBA010F9DE1282EDF470CA69A9CDA482E334C4A6EA4107
311
987980B17E72F31730EBF88BBD39E7C629F56797A3C0009C2C5AE7951D9A05A02773440F02EEB4DE396A3B6A570C72CCFBCD823B0B8ED3F1D5CEDDFED772FA70236C83FB7D86C385D570B87107535572A60A96035F8F7C6A7192F13007246BBE0521855E6AC46F3E27689CEE7D186A6FD679D98CDCAD13333E04EBE7ED6F55
311
FF01504B03041400060808006D8087516180134D5F0100006B0300004500000031413536324335362D304445352D344537442D423734362D4336433939323044414443382F536368656D61732F52656E6465724D6174657269616C536368656D612E786D6CA5934D6FC2300C86EFFB1551EEE343DBA41D1A103009551ADAD4
311
0EAE28A4A68D9426284961FCFBE5A340113B2071746D3F765EBF4DC6BFB5407BD0862B49F0B037C0082453059725C18DDD3EBFE3F1E829991803366715D474942CD30FB4A782E00C64017A412D684E454CE3FE28995203B162A6EA5AC94B66997D225E109CD63B0135484BAD1B3C07E9080CA35DB3119C11BCA5C200461A68
311
A1A438126C75E3E230D40FF81FB3F03C91D1E3A3A0AF79FE28E25BC39EC3E17E4C2A2D94A0833A51AF55BCCA7D88572FCBAC529C4140B020FC3AAFA886621DCED7EAD7664CC86024E806DC297DA1BB393E4156543457A4537DB8817349A70F8ACBF09B3EEE2CB2F33E91B65D60786E4E3B39B77E3FEEEF5650424525DA657F
311
B8B46BE6BF064646F0A0F7327C0BC1BC1B4CBBC1C419FA3CCB23500007872A2580CAAE5461865565294E4EDB4617B62FF579DF9A5B2F54E834076A597573A020912FED777F9B3F504B03041400060808006D808751AEE40FB051000000570000004700000031413536324335362D304445352D344537442D423734362D4336
311
433939323044414443382F4173736574446174612F41737365745461626C654F66436F6E74656E74732E62696E536160607073343673727232D775733133D635313733D075323036D07571363572747274763174B51402AACB4D2C492DCA4CCC492C28484D2C4ACC4B4E050A82012F90744FCD03CA26072767A4E626020050
311
4B03041400060808006D808751F865834058000000680000004500000031413536324335362D304445352D344537442D423734362D4336433939323044414443382F4173736574446174612F53747265616D56657273696F6E5461626C652E696E66558CBD0A80300C06F73E4B117FB66E451741D041DC5BF98480A492E4FD
311
D18EAEC7DD4555D89EF28DF51A0B1BD8340C4DE7DD848B988C0ACF0649566493F2408C508DDEBB99D5129FF8F1AF8CF5B9503E20FAE5A16B5AF702504B03041400060808006D808751774DBE58340100009A0400003600000031413536324335362D304445352D344537442D423734362D4336433939323044414443382F41
311
73736574446174612F636E782E786D6CCD94314FC3301085FF4AE43D7612A4822AC71582A51348540C6C57E752AC3A76645F10FC7BEC3403A888A943D7F3BBF3F327BF939BCFC1161F18A2F1AE6535AF58814EFBCEB843CB26EACB3B566C940CDED30F192B1C0CD8B25C664A1E829FC6A5D4610F93CD556BDC7129DEC788B4
311
83BDC5A7FEC13B42479115DA428C2D8BFA1D07E03091EF301E790704BCE601A39F82C63489CC80CB241D10083BA69AAAA9CABA29ABDB5DBD5A5737EB66F52645562AB9F7DE2E7A932E0B7E2CF4E956A62A29F2B19253308B26BF85A9BF3CF2BD715224A592914262B274D0D7983A601CADD140099DF09A90CA244218A43889
311
951499C12F128FD81B6772CB361903F2E139D9C34006AF8EC87F5E2F4F66EB2281D378BD3CCE1D5E9EC2CBFC835E4F819C13736D393977C88DEB2F901231AF91149ABC55D437504B03041400060808006D808751FA43904DE30000005E0100006700000031413536324335362D304445352D344537442D423734362D433643
311
3939323044414443382F5265736F75726365732F46413336424242372D464436332D343736302D423033302D4443353241424143443145392F7468756D626E61696C2F302F636E782E786D6C4D90C16E03210C447F0571DF85DD486915B1E4277AEAA5A2ACB345018CC044EDDF175A0E39D99A79B23CA3AEDFC1B307E4E230
311
6E7C992567102DEE2E1E1BAF749B5E39BB6A9511E909E32C9A001BEF32D7EAC858D39076B899EABBEA5DBC0FF18008D9D98F140FCEAC37A56CBCD82F086636957087729F7743665EE60C056BB6D00E900B300ED80C8660E77A95AB9C9675922F6FCBF9224F97F5FCAE4427B5FA44F483779120636216DB12DB3752896E6B55
311
B31B4C8FC0F5D36B4A3453AB42B9A51F10FDA4069994BCB3865A49022D014D0D021394F887B5123D6D1B7F55B4D99BD1BF504B03041400060808006D808751A233C2345D000000800000006500000031413536324335362D304445352D344537442D423734362D4336433939323044414443382F5265736F75726365732F46
311
413336424242372D464436332D343736302D423033302D4443353241424143443145392F7468756D626E61696C2F636E782E786D6C4D8B490E80201004BF42E6EE76F3C0F216234B883063108CCF170C074F95AE5473F5C4C06E932E4F28601967600677D21E9D8092EDB002539227A2FCCB80E1168D80A6417297A89C5D69
311
63B7129A0D1E8F2EE73AA7B62BBEB8B27DE50B504B03041400060808006D808751BE89762363000000880000005B00000031413536324335362D304445352D344537442D423734362D4336433939323044414443382F5265736F75726365732F46413336424242372D464436332D343736302D423033302D44433532414241
311
43443145392F636E782E786D6C4DCC3B0E80201004D0AB90EDFD75167CCE820A4A845D83603CBE602CAC26799919AEEEE0D965E2E908050C6D0FCCE04C8BC355404EB6198129C92351FAD580A10E464065907C8D948F8F166375F655BDC3FDC3B4E530A176BE7057BDC43B2A593FE403504B03041400060808006D80875128
311
10266A7F000000A30000003600000031413536324335362D304445352D344537442D423734362D4336433939323044414443382F5265736F75726365732F636E782E786D6C4D8CD10E822018465F85FDF71446616D8003C9F77089CE89D0485A8F1F342FBAFAB6B3EF1CDE7C5687DE36BEE6E005540702C8FA4718663F0948
311
DB88AF801AC96308DBDF0D90EF572BA060907C8A213D7734D8B14FAE5037FB65879DA24C6B5DE3CE308ACF352358134AB0692F27A5556BAAFB2D1BC7A2E4F9F5F296BCFC02504B03041400060808006D808751CD66EC82080100004F0300003400000031413536324335362D304445352D344537442D423734362D43364339
311
39323044414443382F536368656D61732F636E782E786D6CCD93BD4E042114855F6542BFC08CC96A360C5B5858D9A8951DC2DD952C7027FC187D7B61A4D84DECB4D80E0E5FC839878BD87F7A377C404C16C34C46CAC90041A3B1E13893920F9B3B32ECA58888F90C2343501E66D26422C5316259BA64E0A08A6BAAB3E1D4C5
311
7BF41EC3B37E07AFC8A09D4A692669DD5255321A48276A545674A4111296A8A1DE90AD877E838EA0321822273EF1CD386DF8EDCBB8DDF19BDDB47D15AC9152BC21BACEDB9021E23268AC8B50ED70C1DAB11425DACEB40C449E7BA3B50DC12A2145CAB176D0C9FCB554522D8BB35AE55A155BC11F460AD6A25E047E8000D1EA
311
EB4C7C61EEDF223F4130101FEB2B45ABDC7526FFCDE3DF0A60EBECD711685F417E03504B03041400060808006D808751E3603EBE7A000000C20000002C00000031413536324335362D304445352D344537442D423734362D4336433939323044414443382F636E782E786D6C6DCD410EC2201085E1AB90D9DBEACE05D09878
311
023D01A1D34A8419C380F1F82DA68B9AB8FDFEC93C3D7C52546FCC12980C9CBA232824CF63A0D9402DD3E10C6AB03A3397DD192872090D3406ABE7CCF5B5D18893ABB1690CF4DCF02282E5EA8A5BB96FFE536F285CB347F95BEFFE81C9ED5AFF9D5B1FB575BB00504B03041400060808006D8087514E4743D27E000000A300
311
000007000000636E782E786D6C4D8CD10A832018465F45FE7B378BB402359AF620B12C64A6C3E5D8E34F4717BBFAE0F09DC387CFEED0DBC4970D5E407521808CBF87C5FA4D403A56DC011A248F211C7F37407EDE8D808241F22D86F43CD162D639B9429DF58F13562365B5A20C133D51DC4CADC6B7B6615831D5F735D1A356
311
5D36AE45C9F3EBE52D79F905504B03041400060808006D808751CA1DF9C9A900000073010000130000005B436F6E74656E745F54797065735D2E786D6CA590410EC2300C04BF12E5DEBA70400835E500FC800F84E0B411AD13252E2ABF27A55740421CEDDDD9B55CEFA7A117778CC979527255565220197F75D42A39B22DB6
311
52EC9BFAFC089844F65252B2630E3B80643A1C742A7D40CA8AF571D09CC7D842D0E6A65B8475556DC07862242E78CE904D7D44ABC79EC569CAEBA537E3521C16DF5CA5A40EA17746733E0B6615DE7217475F386F18B9481C510F1F021CD9FF027EA0E1F5C4E609504B03041400060808006D8087513DEE336E640000007900
311
00001B0000006175746F6465736B2D64657369676E2D7061636B6167652E786D6C35CBC10E83200C00D05F21DCA56CA76D41FC96062B120735B69A7DBE268BB7777961F8D5AF396893C2ADB70FE7ADA196782C2DF776D7A97B5933C430F15651E5469C55D70F80A4992A3ADC954792C525AE70A1E4D6AD9816CC044FEFDF01
311
FE3FDE907802504B03041400060808006D808751AABEA772F9000000960100003700000031413536324335362D304445352D344537442D423734362D4336433939323044414443382F4173736574446174612F636F72652E786D6C8550CB6E833010FC15B477830D0468641C05917E414FBD59B643AD041BF951F5F36B2754
311
6A4F3DED6A76667677E8E96BBD179FCA796DCD08A4C4502823ACD4661921862B1AA03831EAAC0DBF685018BEAA11320C8C2ECEC66D87843541998C1A2BD50E72EF558042DC533382171F6AE5258F2131FCADDCB8B8F14595A47CF2188D51CB5DAA6572D357AD1CB0EED074C38C5F109EA7036AA73341C32B6E514F7A32F743
311
DB5EA60BADB298D1A0D79FEDC2291E940456E31A235223DCBF91EE889B63DDBDD32A3319F5C1A59FF7A5F93B60E77CF5CC03A7D573FAC7356EF27FD7A84D68EADDF5A9F0C0483AF23160B4CA29A5F28830D59C28FB06504B03041400060808006D808751F833097DF40000008E0100006800000031413536324335362D3044
311
45352D344537442D423734362D4336433939323044414443382F5265736F75726365732F46413336424242372D464436332D343736302D423033302D4443353241424143443145392F7468756D626E61696C2F302F636F72652E786D6C8550CB6E833010FC15B477830D0468641C15917E414FBD59B643AC041BF951F5F36B
311
27546A4F3DED6A76667677E8E96BBD179FCA796DCD08A4C4502823ACD4661921860B1AA03831EAAC0DBF685018BEAA11320C8C2ECEC66D87843541998C1A2BD50E72EF558042DC5333821757B5F292C79018FE566E5CDCF8A24A523E798CC6A8E52ED532B9E98B560E587768BA61C62F08CFD301B5D32B41C31B6E514F7A32
311
F743DB9EA733ADB298D1A0D79FEDC2291E940456E31A235223DCBF93EE889B63DD7DD02A3319F5C1A59FF7A5F93B6098564FF48F5BDCE4FF6E519BD0D4BBDB53E1819174DC63C06895D349E5115DAA3949F60D504B03041400060808006D808751CA709670FA000000960100006600000031413536324335362D304445352D
311
344537442D423734362D4336433939323044414443382F5265736F75726365732F46413336424242372D464436332D343736302D423033302D4443353241424143443145392F7468756D626E61696C2F636F72652E786D6C8550CB6E833010FC15B477830D0468641C05917E414FBDB9C62156C0467E54FDFCDA0995DA534F
311
BB9A9D99DD1D7AFA5A97EC535AA78CEE81E41832A98599949E7B08FE8A3AC84E8C5A63FC2F1A649AAFB2870403A3B33561DB2161B4973AA1DA4C7207B973D2432696D8F4E0C44DAE3CE7C14786BBE71B17773ECB9CE44F1EA321A86997AA29BAA9AB92165873A89A6EC42F088FC301D5C399A0EE15D7A8252D19DBAEAE2FC3
311
851649CCA857EBCF766125F7720256E212235222DCBE91E688AB63D9BCD322311975DEC69FF7A5E93B60FE16D60FCDD5428BE7F48F6BD8A6FF5D83D2BE2A77D7A7C20123F1C8C780D122A514CB23C25853A2EC1B504B03041400060808006D8087513321E2F70E010000B10100005C00000031413536324335362D30444535
311
2D344537442D423734362D4336433939323044414443382F5265736F75726365732F46413336424242372D464436332D343736302D423033302D4443353241424143443145392F636F72652E786D6C8590516F83201485FF8AB9EF28A845DB208DD4F617EC696F44A923ADD0082CFBF983D625DBD39E2E399CC3C73DECF8B5
311
DCB34FB53A6D4D0724C7902933DA499BB983E0AFA885ECC8D96AADFF6583CCC845759064E06C5E6D786CD2688D5726A9C64E6A13A573CA4336DEE3A103377EA845E632F8E870B7FC21C79B9C554EF2978FB310F4B445F5145FD357AD56E07457D176C07B8407B143B5E8096A2FB8460D69C8D0B4757D166756A430675E2F3F
311
F47155D2AB0978894B8C488970F346E801578792BEB3223939737E8D3B6FD0B41DF04B5F512144832E03AD50DD508C04AE301A4EBBB217FD6920E73D2B5EC13FC0F098FE07066D7C556EC057C20127F1FFCF0BCE8A54601CCF76E34C65F36F504B03041400060808006D8087513EE2C02FFA00000096010000370000003141
311
3536324335362D304445352D344537442D423734362D4336433939323044414443382F5265736F75726365732F636F72652E786D6C8550CB6E833010FC15B477834D08D0C8382A22FD80AAA7DE2CB3A156821DF951F5F36B27546A4F3DED6A76667677F8F16BBD169FE8BCB66600565228D0283B6BB30C10C399F4501C0577
311
D6865F34288C5C71800C83E08BB3F1B641CA9A8026A3C6CEB881D27B0C50A86B6A06F0EA035759CA1812C35FCA9B5417B960C9CA074FF018F5BC49F59CDCF459A303D1EE776D3FD12742A7714F9AF19991FE8536A4631D9BBABE694EE38957592C78D0EBCF76E550069C41D4B4A684D584766FAC3DD0DDA16EDF79959982FB
311
E0D2CFDBD2FC1D8857F4363A859E578FE91FD7789BFF778DDA845DBDB93E141E044B47DE07825739A554EE11A69A1315DF504B03041400060808006D808751ABD7F175F7000000940100003500000031413536324335362D304445352D344537442D423734362D4336433939323044414443382F536368656D61732F636F72
311
652E786D6C8550CB6E833010FC15B477830D0468641C1591FE407BEACD320EB5126CE447D5CFAF0D546A4F3DED6A76667677E8E56B79649FD23A65740F24C790492DCCA4F4DC43F037D4417661D41AE37FD120D37C913D2418189DAD09EB0109A3BDD409D5669207C89D931E32F1884D0F4E7CC885E73CF8C870F77CE5E2CE
311
6799937CE7311A829A0EA99AA29BBA29698135A7AAE946FC84F0389C503D3C13D4BDE01AB5A42563DBD5F575B8D2228919F56AF9D92EACE45E4EC04A5C62444A84DB37D29C71752E9B775A2426A3CEDBF8F3B1347D07EC75BBD3D1629FFDF10CEBF4BF6750DA57E5E1B92B1C30124FDC068C1629A358B600634D79B26F504B
311
03041400060808006D8087512344490D01010000D70100002D00000031413536324335362D304445352D344537442D423734362D4336433939323044414443382F636F72652E786D6C95914D6EC3201085AF82D8636312931F61A2D4CE0DBAEA8E9A8983128305B8EAF10BB5ABB6BB76057A7C6F8637234EEFE303BD810FC6
311
D9065705C5086CEFB4B14383E778257B8C4E5278E7E20F0C23AB46687096B1148377F3B44ABDB3116C56ADD3B08A2A048818F58F746970E86F30AA42CD3111E15E4CAABFAB018AAA583829A219BFACBD07154163C928A3A46284EE9E2B7EA49B23E32FA2CCA414B3B171C3D66630BE82466E8A291296B52897D744CD46AF8C
311
D1E98FE66AC063599D6BCEDA9A13DA5D6AB2BDEC3AF2B4DB72D2F2F67060B43B77ED3E1549662942F469326B913C83BFDA17E3AF64F3A4FF996C7184D4F33B5499C72C45F9B98374E695C80F504B03041400060808006D808751C9DE58C907010000B201000008000000636F72652E786D6C8D50C16E842014FC15F2EE28A8
311
AB76836C6ADC7E414FBD51612D590523B869FFBEB04B93F6D6D32333F3DE0CC34E9FCB8C6E6A73DA9A0E68460029335AA9CDD4C1EE2FB80574E26CB3D6FF92013262511D4418389B36BBAF091AADF1CA44D458A912289C531ED0388747076EFC508BC8C4EE83C25DB3558C5731A98C660F1D675E2F3FABE3A684571278410A
311
82698149F34AEB23298F45FDC6F2A8E46CDFB54C565A06777DD16A035E1FCABA1DC81326437FC055FF4C71FB422ADCD0860E4D5B55E7FECCF2B8CC99F35BF8733A12727AE4C42DFAB2FC4171F66EED9C04219444D6CC5FC009CB23F127F4BECA7F84D6C697453AF8D870C06908742782716C308C7BBD61C6B6F937504B0102
311
14001400060808006D808751D543E59BDA000000200100004F000000000000000000000000000000000031413536324335362D304445352D344537442D423734362D4336433939323044414443382F4173736574446174612F446566696E6974696F6E4974657261746F7250726F706572746965732E62696E504B01021400
311
1400060808006D808751FE5A12F82C0100003002000045000000000000000000000000004701000031413536324335362D304445352D344537442D423734362D4336433939323044414443382F4173736574446174612F496E7374616E636550726F706572746965732E62696E504B010214001400060808006D80875188E5
311
7597CD3F0000904100006B00000000000000000000000000D602000031413536324335362D304445352D344537442D423734362D4336433939323044414443382F5265736F75726365732F46413336424242372D464436332D343736302D423033302D4443353241424143443145392F7468756D626E61696C2F302F67656E
311
657269635F706E67504B010214001400060808006D80875128BB58AF800100009E0500003D000000000000000000000000002C43000031413536324335362D304445352D344537442D423734362D4336433939323044414443382F536368656D61732F436F6D6D6F6E536368656D612E786D6C504B01021400140006080800
311
6D8087512CCEBD668A040000E01200003E000000000000000000000000000745000031413536324335362D304445352D344537442D423734362D4336433939323044414443382F536368656D61732F47656E65726963536368656D612E786D6C504B010214001400060808006D8087516180134D5F0100006B030000450000
311
0000000000000000000000ED49000031413536324335362D304445352D344537442D423734362D4336433939323044414443382F536368656D61732F52656E6465724D6174657269616C536368656D612E786D6C504B010214001400060808006D808751AEE40FB051000000570000004700000000000000000000000000AF
311
4B000031413536324335362D304445352D344537442D423734362D4336433939323044414443382F4173736574446174612F41737365745461626C654F66436F6E74656E74732E62696E504B010214001400060808006D808751F865834058000000680000004500000000000000000000000000654C000031413536324335
311
362D304445352D344537442D423734362D4336433939323044414443382F4173736574446174612F53747265616D56657273696F6E5461626C652E696E66504B010214001400060808006D808751774DBE58340100009A0400003600000000000000000000000000204D000031413536324335362D304445352D344537442D
311
423734362D4336433939323044414443382F4173736574446174612F636E782E786D6C504B010214001400060808006D808751FA43904DE30000005E0100006700000000000000000000000000A84E000031413536324335362D304445352D344537442D423734362D4336433939323044414443382F5265736F7572636573
311
2F46413336424242372D464436332D343736302D423033302D4443353241424143443145392F7468756D626E61696C2F302F636E782E786D6C504B010214001400060808006D808751A233C2345D0000008000000065000000000000000000000000001050000031413536324335362D304445352D344537442D423734362D
311
4336433939323044414443382F5265736F75726365732F46413336424242372D464436332D343736302D423033302D4443353241424143443145392F7468756D626E61696C2F636E782E786D6C504B010214001400060808006D808751BE89762363000000880000005B00000000000000000000000000F050000031413536
311
324335362D304445352D344537442D423734362D4336433939323044414443382F5265736F75726365732F46413336424242372D464436332D343736302D423033302D4443353241424143443145392F636E782E786D6C504B010214001400060808006D8087512810266A7F000000A3000000360000000000000000000000
311
0000CC51000031413536324335362D304445352D344537442D423734362D4336433939323044414443382F5265736F75726365732F636E782E786D6C504B010214001400060808006D808751CD66EC82080100004F03000034000000000000000000000000009F52000031413536324335362D304445352D344537442D4237
311
34362D4336433939323044414443382F536368656D61732F636E782E786D6C504B010214001400060808006D808751E3603EBE7A000000C20000002C00000000000000000000000000F953000031413536324335362D304445352D344537442D423734362D4336433939323044414443382F636E782E786D6C504B01021400
311
1400060808006D8087514E4743D27E000000A30000000700000000000000000000000000BD540000636E782E786D6C504B010214001400060808006D808751CA1DF9C9A9000000730100001300000000000000000000000000605500005B436F6E74656E745F54797065735D2E786D6C504B010214001400060808006D8087
311
513DEE336E64000000790000001B000000000000000000000000003A5600006175746F6465736B2D64657369676E2D7061636B6167652E786D6C504B010214001400060808006D808751AABEA772F9000000960100003700000000000000000000000000D756000031413536324335362D304445352D344537442D42373436
311
2D4336433939323044414443382F4173736574446174612F636F72652E786D6C504B010214001400060808006D808751F833097DF40000008E01000068000000000000000000000000002558000031413536324335362D304445352D344537442D423734362D4336433939323044414443382F5265736F75726365732F4641
311
3336424242372D464436332D343736302D423033302D4443353241424143443145392F7468756D626E61696C2F302F636F72652E786D6C504B010214001400060808006D808751CA709670FA0000009601000066000000000000000000000000009F59000031413536324335362D304445352D344537442D423734362D4336
311
433939323044414443382F5265736F75726365732F46413336424242372D464436332D343736302D423033302D4443353241424143443145392F7468756D626E61696C2F636F72652E786D6C504B010214001400060808006D8087513321E2F70E010000B10100005C000000000000000000000000001D5B00003141353632
311
4335362D304445352D344537442D423734362D4336433939323044414443382F5265736F75726365732F46413336424242372D464436332D343736302D423033302D4443353241424143443145392F636F72652E786D6C504B010214001400060808006D8087513EE2C02FFA00000096010000370000000000000000000000
311
0000A55C000031413536324335362D304445352D344537442D423734362D4336433939323044414443382F5265736F75726365732F636F72652E786D6C504B010214001400060808006D808751ABD7F175F7000000940100003500000000000000000000000000F45D000031413536324335362D304445352D344537442D42
311
3734362D4336433939323044414443382F536368656D61732F636F72652E786D6C504B010214001400060808006D8087512344490D01010000D70100002D000000000000000000000000003E5F000031413536324335362D304445352D344537442D423734362D4336433939323044414443382F636F72652E786D6C504B01
311
0214001400060808006D808751C9DE58C907010000B201000008000000000000000000000000008A600000636F72652E786D6C504B0506000000001A001A00210B0000B76100000000
310
504B03041400060808006D808751000000000000000000000000370000006662782F33303034344441432D334632312D343042322D383731382D3644343832314542354231432F617474726962757465732E62696E504B03041400060808006D808751000000000000000000000000350000006662782F3330303434444143
310
2D334632312D343042322D383731382D3644343832314542354231432F76657274696365732E62696E504B03041400060808006D808751F270F1330600000004000000360000006662782F33303034344441432D334632312D343042322D383731382D3644343832314542354231432F747269616E676C65732E62696E6366
310
60600000504B03041400060808006D80875188E57597CD3F000090410000420000006662782F33303034344441432D334632312D343042322D383731382D3644343832314542354231432F7265736F75726365732F322F305F67656E657269632E706E67355B773CD4FF1FBF73E71C0E67EF7576C9DEF3EC995D46C6A1EC50
310
46649CBDF79E192942562825CE965D8A868C2842C8DE9FDFD1F7E7F138F7078FCF6B3F5FCFD7EBFDFEC41B196891913091804020321D6D7513FC77D8C5070EC3FFEE51B21F068154CC75D455CC028A3EA68992803810109FDDE5D5CEC5521B28A1B422BF80741695D5B529DA1C2D058AD2388BDA9F476F7C2CADC939304173
310
DBF48A452BF8A700C0C70C3D121C1AA15A5270C22E2B9E28763651F7DA0D12CE11077B2ECD0D560B5E3DE2368B1E65C5E1C87384A4CC5F2D9FB8BE39E9B77C753783A37998F5CEF1B4FEE553463245C9712270880DF339E0B882A6BA713D865F6F384C842D440934EF264F4A304F8DE4EEFA1E2BF5E2D91F5ADD9613D6E31D
310
DB33ED31DB1D7916CAF091286EA3D31B9CFECB78BB0060245B943C4C040119FF780A74DD308BA9D028678674EB5504ECF284EE814DAED07440BAF649BE4B55DA2890F4D73E2D489A59EE54FDB0A85B59F2F52C4858A02705C4815A792B0C4A996A2023ECB195073E115E3E3647F64243A8338F2000BCB58DA5692C7E7C3D41
310
3F963FEDF3CF00FBB0F831A9D51360FECA43819F527B89FA260EB63C5DA676830AA3626A3693B23F1A17A0DFFCE3EE164E31B5365EDF0C89EF64D8E38AB0BA9A1117D7C3A0EC44F44F4023095E80BA610DE336D0F99593A88BFC5306E72DF98F7FD132ED95878DF2964EA7E43071359FD83B2BDF9C6B5BDF768F0F3C0FC351
310
199526F53D9460A34511F75D1B63E488178569472C91A94497807A3FD4A390C6558F26D416365C3656DE6E769DA9D8FC73774E1709812842DD8EF96AED1960F79D21B395CDDFE6F92CB4EB962A4668C76990E2EF29798C8941D67DA50F4A5F947872460F1F6FDB794E8A29FD7AC0C0D6E0714339CE258FB17AE8535221E346
310
4A10F29A0BE5EEECEFC5675926A89F49EB14E5711894F6586DB5754EB4D5DA9C6437EBA57DB97A24F8B8A8DB295FFD73266CF57E82694DF5166DDF93573AFE9C9C5EB05F8FEF8E89E0A8917B0B3724DB7BEBB53252581EFC3E38166BA131A3A5B42FE2AD00A769BBFA4458D2DE7822F8C4F63D0B8E21B285AE13325F3410A4
310
35C648C9D91FDEB109E73CEDA7BC796961AF79175E1A3CE4C5E8B0D009B0C9E29EFD98BC8E97554E3D8D838424E270F7685226E5AC268E021EDE3522D583E8F20C0BDE2959EF5BBFEEDAB32FE9A3ED0E39F211A86AA9DEBFC68182EDED132AB8BB794442D2D7EA9F4D8BFF52BC4D55BB165124EE90A42D101E67BBBB292FFB
310
4F66DE5BF2300E44546757DA7CEF8932BFC9F92A0707953491A55C5A5ACEDABD9FA1AEA01BAC3DC5A24E22E7C47213493996EFBC369D086ED9397C9BA6C7F9855C7BD5E15BFC8C53DB3D2A4C5901A57ACD2FBDF4D1676E95338B2C2BCE65FDA4C64F5FEFDC7D9CA5AA1FCF11E193F2FDABF0F4916BF13FB916A224380E6462
310
A9815F2300DC49CC4DF8D055CEF76462F4B7A7ACA7365C2707891370BC1D0AA6203C44CCAB47084FEC057F27FFCD57F89B8B9852459798A675C66BD7CE572CAF71FF7E6D7ECF7BF62CAB7B3F1107DCD04DC55A3F9961700286141C94A4F771FEB2BCDA2DDEE0CB0BAE402FF1DB0100F8E475DFFFC074DDB4498AB7D186A765
310
4DDB1CB680D703D47CEB4E72F8CB13D86A4AA68116E26387B93FD6738779B34FEDB8E517EDF2BAF28D9BE93A1D3A164320E07D42E514725C29515FF361754213EDE06B079A2E99EB1CA82A02019EADEEB87B9AF005BD04BBCECB14AACD6B24EFBE482194A97DD32400685FF1FEF1544D1B14EFB1E7F08E6D2CD2AF52DE757F
310
35F5E62332EE88EA26417AD5C3E0E319D68F25414E6D672BD4522B278C57D18F0113921C71D96527E091F00CEB15AE23D24667369BD3CEFA10C7549D930890BA4366F4EBC55F01F746109F98ABCDD5A3EE06619C6AD78AB33E48E4C9BD21BF7478B385EC05C4F8987E2C1BFA0A60EBEDAA0AE0B015C2720ECE180FB6F2DEFB
310
EB822D96338C9B63822183BBF52FB664A7AE57003AABCE512BF77E7E31BDA2E739AC4C131657DDFE5225E900FB56CC01CDE808FA4A9C9DA16AC679656BB64796283D89812B8F91136AE18EE5EBBAF47A73BE3C153EB5D4CD491B4BFB4FE690A4CF9ABA08C0D8AA64220C438C96EA6CA80B58FE5761E697B3A292EB9FBDA502
310
FA863E49FE694ADDFFF9D62C520BDD1A22014147A0903A05B9B729F54272EF83931FEEC057BFF8C8055C279EAC5C0011804828734024F6CFA319C9CC6867C727184465CD9BB7ED386AFFD96B294A85E3802FAE47244602D8273615952B98C4F23F7EAE4463D9D638EEE374A20959E0FE519C4CFB0FBFE5DD80C2AA3F9DB961
310
D1BDE57E67C9BB47B77FDD74EE3094F5DBBE3EBC1FBDB7393F5116263009E2EFE1AF9A221B2AE234C902BF70E9F280ED23E73908361565964333A3F01D0B006AF32FB21AA1316744B489D5A198E85299241735BE559675130955C902A8ED761FC0DBE337A9F91919AF5CE32AF902ADF9AB2615E00E8A94586BA1A90839B618
310
32FF1BFB76D2EFADE6DB1BA04CCAD3DA649E7E2A0219F592E22F2AD54847EEA8E42271011E9074F8F3DD9FBA6CDF88FFC9FC7E811AD1CA8F4557CE4AFC7BBEDCF0114A48689F20A584520C74DA8127124B767E2FB91A6B186246727BE63C9445BAE02088D58B8EFDC0F1072407CD9B89A13F6303B4A928F593AD489B58E686
310
9325790ADC406036C591729FE14021F94B7796BB11848D463536A092A26F077F94639F7CEEE2A724C66EC885F4A24F8B8A0AC321F8FD149BA529460FAA34E4663C02D41FDF80BCA222D42F0ABFF8490F4FA74C673807C2051D8E467B47B616072860069A9A303ABA9B319D58404461401B0A0F9BE5E1E151C14BC33B32ABE0
310
3DDE91708DFAEB15E7C0D593C86BB7D7EC17BE56E57975F077BFD5525F3A1A361D584A75E08CF29FC7B44B2B3085014F3A5A14517377C3F6B8F37E59514C3B12F8AACDEDDA4DFC49BE5710101534CD6FB6DE15B50F11A09472AABA727F0C49D9CB906B158030065F48EB3625E010CEC1D511D0053474B11E6A4F01C0D6EF1B
310
ED3A944FDEC70E0DDCDC756C86545910E0DAE3BE3AA9A404574C2995CD5CAF9549226BC94B4F4F0F5F9086F418F6B32346464610D8BC7391D3C3A3CCF04CFC1FB2A3A3170E369511868F14EEA4E5E438CC73DB1F3248AA94B6B2FF33B222FF3D1E7BF146CAD229770158063BCE4F5391964DF62F7E52A7BE0EEA829C9E13C4
310
C147D6F93FE59E111DAB5E4594D6F3CD1AD375EE039930EFE5AF2BB2D41C83C7DABD8C659BAFBE8FAB392CA634F3D15C1D945DB4588D2B0824A4EC928AAC565557CA2F0DAA588CA5BE30B3A8004F7BF005E96CBF891D7F18112A3619FDF530DC8AA64954258E1811789B5189B49B4EB53F5F89F7D37523894F3EB57B373763
310
C91E502F52CC99EB7BDDF933FC324C4FFC2561DFFA7339FAFDD0A4BFBE6D3A8FF9ED1FC49898139864602458968913181918F719CCF5A68B2EE9C1FF050E34E63107003B8120FA982C21B30A874E4F5E4B38D5A8290C4B8D9BE48A0BE31EA995BDC37AC6DE90BA17D259DEF53605D55922FEB1855D915B659FBEB350EE0DFB
310
2F9F766E1C84CC8964B75D08667445EAB966015F63A18A9E0A325C1B3DC628C0D3CB60F767FA93CC65F25458BD23C3B312716E5F40E5858AC06EBA9AB14F95DB99147B832069201541D09A0D856E12C629CF32683760EE855537D1901988D5EBC156676C7DD51D7207CF3267AF1D76C2AD867315E44618015313A98B19941C
310
696FED3461CAA9B5415F918556D7802EDACEFD6B2E45853A9735DFC9DBF7E440F9319F8B6805A973BCCDC76C069A9144E51F187EDCC12FC31B5DEAAF0A76137199B106EC84ADA6B6EE697D4E6A96E007417F4E880E8B1E89B4BCE9D81EF611E2ED8F0C1A6C25F620FAFAAB656A7C42D464880E8AFAB0E0FC8EA38CA9A8AEEA
310
EE3E4648BA4680270A89743CDD3E6C6CBF34B7B640EFA285ABC7EA0A1E28F3CC963D114A80123EE66D0AF7D5380EB41909B605AB4765B709B808590458157E69BA1378FEC4B48CAF6A730E3BE3C5EF2DD1A5EAF94B1DDE50CEB55DDFD7EE9A16747FA4B223359FB1FCC69E1194892BABB93A1D5C4E807AC0EA2E30180811E7
310
7A2291F6E7F7FAA5E0F60215BC6024E48DE436C511F0628B8CA189982D4D83CCA17D305A7E923C37941CFDFDCD93ACAF735EF5F0E61BBD3E6C41A59B242790D3A3BAC7064DCD89AA2E37214EC839820949D5CAA31E240D2948E48F690298974A96BA9A8432BC90F5071D6537C9666EA4564796B7AFFFA548077BEEA75F6308
310
3435074BA182F3699557397F71548383FDA8CA34D99B981E72835ECDA5DDDC151315173D05A21F651AAF8524E88209E2E7A737ED1045800CE3390050BCFB8BE588DF111617874C62575039CA588EEFDEFEFE319B739DE2EDC147092A262611E159650E787917885EF08F1F51B8F2D8A71D60B58B190FEF9541A1BE94BC19FE
310
A50784DA1419FE4B0FB51B8D36B5FF8E1286FD8AF42B91E59A5F1CC4D60174E764045FD8C57B18209B217F89A62252BD20BE0E63E12B8E8F029FE19E0E8D0870F58721A557082250D5424F7909369376E41666C0EE77CD87CB283F661D5FB6D0DA023CB67320A20DC7BE661E9E1BFE5463085C557DA1FF9BE835733766C3D1
310
39F2CF9E2208873AD0EB4814DE9E6BF2CAF81614D4D43906ED1C05A3265CABBFE192770FC2F64F940CB6B17B5F166F133C9AEEAD2641807C3E69515171DD74C4A85311513D6EC9530B3B601B6BA3EBFF3B5C3D2F7D69765141E345F75433953D013ADDF8F6AA7DC3F4A7563FE5C7D367937E2900D7EAD0F9FC9A4A1A9B5BDF
310
1FEF08532660C01C5D6DE22199AA774383E306DAB87E301ABB7D213887F9869D4942D0D71E94B27EDF216A318BD488D45DF84529EF575AF3C3938C0AAA0215B01994153E2054A0B894DA5C784980633AAD48576957CF4AEAEAFADC7C587368551C73DBE1E57C58AC713303A8BFC258BD04B51724459FF9E24C03A81E0E0679
310
CEB9B348C0DC998FEB9C6D6EFA77D247CC8F92D3848599ED89A23218D0636465AD1CEEB7DC140D7426F83491C4E8E8281C2FB35240918FFECE880CA2A42D70E8B20B34DF5221C7DB0CF90ECCB9C745B37A47E9B716FF7A97B7A252C1F3814DC7B1E1A7F72B8751D524EF7CAE45B0C73B3BE7D08ED39781B380DDFC9AA4A474
310
9C9493DB5BAD07A6EA6C092FBD0E85DB004DF06B8C9D3089C5320187E4CE1846158C7EA7DDAE8AD9AFFF21AA3A1026BB06A259845E8232DEE62811A4DA9CEAB3A4887320B76E2AE5615EAB7BDF738CBDD01F1E64064BC13D9EC53576751CA8CACD58B3CEB0E6CA585BD089B2A59B9FC101403387AADBDBE70586B93D64BF3A
310
D4453EF9C3B6A93817E8346991798601344F79A83C51F3D50F7BF2683A3605F51A72449489E0EE6169C749C60B1035651103AEE24D24E51A759C840DD3FC6504DA6FE107510E447B43461C79D22970B75DE5E1BD3007D1AFC619A4A4A69B5626AF5E9B8374E20677F77E2F8E73DF868E8BEC7EBA7B6A75EEF7205E1AB9486C
310
B642741D6E03FF13FCCEDB1C4AC129886268B01CDF4B124AF797CF784F3C6DEC97A17D4B558070A0F1C04DA4FF9BDBF34159AEFE958479824B3F58EBD1E19088A2AFDE501B6F2052368A3FD0E650A179EFAB1561E1D27527077136E652676C3670F42DCB3352F48F6BC86D2C3B0051727E41A0A4DC6CE2BE9D47F5CAA2935A
310
3C0539AF080665997194ABECD723B08129CC5B6B21D2E7D54CD4D12610E7E9FB8306771A89576C7A982002775ED44F3F744CF21EEBB27A631671D921938AAEE3EB0D19CD1E083727F607823E817BF599DCED5394E37EEBC2E88782E638920CA641EF74D4CDFCDEF06F4278ECB18E31E7E9876F2D783C8BF429C75395F57E98
310
C2B495A3DA077EB3AC3C158608B6B57FE3EA48484D9A480096FCEE0DE880950E7E5A5714131C5C41AAA29FD19AE81AC145FA1B9E85C7169A5AB837B213493DF7E9AA4B5FBF9CDEB36EBD21EF1181B7CF7366AB2A951D01E37AF4EB835D1BE8C117CFBE7625D2EBCDB0B20C5A4B45CED0BCDE3EE8DA9DA78C2E21DEAAFFD119
310
7E463C33CC6A80FB785669B856EFF7A8CCCA2841B5A5369173320B1170C368B2748D81062EA0296E5E2D95D7667A4A46D98A6FF475C76AAB0A8C8D45E226FAFC9FE0133EA9F60111F99CA81ACE03A1D14C89E8B0D69079C91464FA1D99E651D0EAF606F345C42A8A1AA9BA391031582B96D5B4176A77AADB01F12FD298A75D
310
EEBB2C82F0B8650E880722F8DDD90C56A7A058E5FDEF1AC93545BA27367C76F5D8F9690CB6F8DAE141EDD7971F0FB548A2AE435F224D6E5954CA155512F7332029D5A1230854B79F258EC5FFDB09F5F6343A8EB193229B7F7E79B3E48F8E183860B38C8269D1B53738FF1E0BACF6AADA6D4869E9DE708E79B5DADCC09B1BC7
310
6F649731CFAF59A83FD8BAE4C749D66FA87A3810D4D62FFE826FA400C0F325D2BC0F3CA35F5847B82A2ACC7961745C823E4D863D54460AF792CE6F79B5C7A33B25C3AEA6CDE15A919B6367D781E9D44F61BF828672594A3E1D9EDD6DF179A81F27EAC05B936575D73E05C209DDD2115CFB705DF9BBF3C911589B3640735E9E
310
618FC9C36A7326C82B2205E244C55D56FDB9D5DC93CE958D4BF8174D2B3DA54CB3C09F2C2A6DFF73D23B2197355761AD421EC581284A7EF8DE2CE3497C0C804D49B41DFD6A7360844E5BEFFB495CFCDB97A4595911CDBA623274CE852B5E278AF0BEB1770E9D37CD977B2766A7DED0E94B840E1E95E8C77DE5CB6354AF7871
310
427C28ADBEEF7BA0A28E19DE9ACD75F379FE373EAE6DDDAE3834692F9C2B03B4FCA8FCA9ABE8EEEBEBB725B88A7C90941E850682CA04061A7DF0CE82ED49BFAFFD42C309818FAE14755CAAE78B0F73243ECCCAD7DF58FCB9CDFAE7A4D3E6671A613639130D056C8383C8F4FCF4808C331E544DD26E4755D09EA05253B3049A
310
1E32587CC25D72E073E2CD96D04A71BBCB0038FEC3F53D254199C3CDC67CD66640269431860225392B2CB3ECD0B4498AAE78BA1994246AE1EE78F2EDFB79F6C6CB6B5E279C4D373FBC21CB2698C9ACBBEB6A4BB6B39E16AB0E421CCBFC7654D81ED86022F9BB522146F9F4772E2D0E4FA70120C95A85A417BF5078B232F475
310
4363EB1750B2AC2148EB46B1EA72AD9B4D23ADCBC589D70106C3EC2ABEEED84DFE28E718C6C83502C28E9FDD3B09DA0A6F6F7B72B706A31C9E2A331EE70DA56A083D2177BFD63C55B11D8D949FAFCF90B23A1E24B9B5018B9A17E99F2890EC302F330FE7936E2C23F0D237EC8916F5166AB84B62A21BB0B950146962D754F9
310
2CC2C8877BED8FC7B7B25726DD19545392570B3A2C66B58F027BEF412E552D12A588C4A3CC5C3193FCB3485EFFF700D0B9EEC077754A33DC1FB9E25AF814628F91DDFECB667D3F7690803F38D13F8AE39353523BB08FC6760144AFA2CE28236F65EDBB3D5F59A57D612B99E3D7E5F8A851666BF9B5A6658EFC96EEB37A378A
310
BB0EB3FDDF1303AF32C41BD1C8560745D7BD81066B0D6313359CF488563D3BA3F8E2185D1FAA3EBA1397C9D0E3DD232180A4DCADB6AF25DB3AC3CC26589C8239E66E81547BC7E2F328F9884764CA37EB5DBE390DFC03A5246B456A7C3684C4377D0EEF9A350680FA9A077E8B2957B489E09AB1AD41316944C2254B5984830F
310
691C93CAA767EECF976FA5647538830B5E63236A6F0365C1E0F3E327F24FE35EDDBD7360B0F7374837409F7A6311BECC12B7026D4FA1AE204FA3F5FE904B1F420C7A9044AE58E403E7C4848E7DA25DC9EDAC79DD756FAA26B9EA83ACE8A214A2612A22AFA19DAE7DBAC5F8CDE1292A485F98DAC731A29FE01A3966E96BCB9F
310
B5A4C8830E1B9AF0C54B87FBE221A097036E5D28D1F869F810C06A9BB0AC0612F69AEBAF893C6E7AD59460208BAB3A6B09CA4F6BDDAB8CF0D1F84B72487498395A70DCD754796E271099A567A55CF242BBED64696378BB6CF25EF0FCDB589F3A82F1116D010A9AB9FA4358809EE0C973A2B4229BAA876A70B03AB49CBA7FBE
310
71DB1832FFD32F9BF2C8E98075CACAFB36921235D0F552B6A67E94E094097A5D7DF681B40623DA535ADA7A9AD8E9A62407D7C9A5AE51D62A17A83A23728DE86BB56115804D3F2675F2C6B87541A0FC497BF0CA86420F558C9859EBE9FAD62747E323E3AADC03FDCDDFE7407B09DA90B44E3185723C5381EAEF589765E2F7A0
310
99BA46695BAD60CEF3491B8A171F5F56444F7CE9455312C3498C74173AEA0214EC029833B34B650CBB5A5508D5091665309642791708ECF27CF11DB3D797D6CFE474453BD4BFADB768094B2147814D81C7CBAF8228DCAF5564B5891F5EF6A860EB2E323CB82AB868D8EA048880D63B0DE5341F1B3D53297B928A11E15F25E5
310
148990F710747C3509ED14909C552EBE3973246FCE55D00564D8310BC3EBC5085D08D806799B77D6C57FDF5E55837F9E934F09C03C729271B64F12D0A9F9E938107CAF7BF1EC8CF1BB9B42363D33070F4CACB425E605DDB0A34A12BB936DE286B9887A4E2E558F0886498BFF49C311D96C277CF6A9FC0D75AD0ECC5226D7E0
310
E3572012E56D7FDE4410CEC7A6D0F997F225A2055B8B92E3956E875AE4993CB3D4C9063AF98FD45E1BAB165640A43439A2C9181A7C355B297C0A0CCFFAE19B6FA3C2BA238A885FBC98B8F6DAF4B94B97304878DF4D8BFF6A4AEDF79E90ED4E68F00CD7299F4E0D83E35601AF0CBEF18C1E870E74758FA91F5131075004DB3C
310
FCF09AE1DABC11957FD9808C92E8A678CE9DBE40DDA0E0D1D505AAFBCBA208232BFB6FB3704E8985E61ADE53DE74152F5C7DE74B1DEDCD37DC3E8FB30D7EBA8B9EFFC3606BF90B8D438279CB7709FC7C00D327F41817EEA71CD9E49FE9C8C9A81C70915D9F0F15958EC5AA4C3BBFAF46986B90F188BDB24B89DE3C6F29EC3E
310
6F66D84856EE96A35E657CA41B41EFD8DBFA16AD6E91439EA92B40B21C053249F51AE50EB0B24C770FFAF40DF12C8436366819C48E36547D4E7B72FE2BBF10828583057814A668BDF183F6B2E58DFB151103E56303E63D00F39C27C4661605DB644D19175D02E3F0241E8FC3458D17AAAADB117CE9EEA690D0DB01E634878C
310
04C2C9310B69FCAB831151E3AD293BEF6E46B0ABCECB50F5939B39C613D41E81FAE8D34CAE3C4566B761D37185FE864AC32FCB71AEF39DAA5BAB88609BB980CD2F07A8F941653B529567726E2B2A58D079DD57E1E5E31426CF184A04D7B03B985F276D47406AF276FE32E3328BA866EB1FD39BEF57863A317634AA5FE46740
310
9B3873F5069EF0D71AF00AD189D17BA1974ECDB2D623E9E14086386A6AAB5807825C37B015BFE892AFD154920EC437EB945D958E18622E1E0FE2FA06557CE4BB9BBD05A2D40E774DA2B65473791E314B7D6C886820B2FCFE4AA272B3B8B15E7344A145E8AF919B5454D89D36D413E87211186BF6F645E5EC94DCCE8E1C7990
310
22E4EC9BC86D7A0F2AFB1FC4B2CE48F84B3F49ECE65BAD24CADCC07EFF39AB06BE9E6B27A059938EA7208838455383DDBCFCD967DDE4650EF92A14FF933C975DB20BD7FEEBC4487576485963D757D16340D9599FEB362F775F38CA4185A86F74B629C81B133644A3B18FD056E997E0734F9BE26D11C0AAFC669E2AC9FC41D2
310
81F8B2E1C35AE27BCE05F3DA295488096688719D974DF1B5D182DB7792288697F8763CFB43562C1CDEE11C4AABD5C22B6E33F6F389CFC3477C5919DC0D533F8A7A1846B7ADB60ABDC26C43D0CFC8910B7C15EE22675BD02702ED39DB77A87A192CA7A543E6205B979B9F5A6B512A3CA799E198B2D5797C0AF8D1D872CA455D
310
4D431A7879D4DD76110B5FF7F4176B54477A9EB5E4A5D11214FDA585F0382751D8E2582BA5D2075053298FEB8F1537304E32CB22C2E2B693DC0A760B1DFCA751BDC445AFDCBB12820ED85F6D5298933C7EF1211E9E057684056CDA3FEF3BB6052355E162DF27C59E965A8DDB7F9437EB72CDDA3A090DE65A5B2F50326247B7
310
EC67B73ACC7047FC9B353D6EE990F772207C6EC52B39DC2F3C0754821DAB559F7C1809C7D0DD5B0499D0442E0A6E391B3D5DB46D11E731E6794EC77523FBDAA242ED67F9FA1FB684255671F63C9BCFE6E7E896D51001A6113EF2298BA494E0B0980D1FA5B9D60796554C02256B1E0345FB7C6186B6A19D2DCA270416262845
310
FA4F42DB5D9B0A0B6F07FCA2E56C242522E001E0CEB734AF310FC8BFB57E38E03AACE93B3326A2197891E68452B26A6307FDABFEE0223D3C03C3C73D2D5BC054C8311F12004CAE488E5C29287F8156A2CAA4AD0D7BE6B97264E4139F437CE73ADF52E5134C52B819777C18B323A5924E4F67AFD13B1CDC3A61793A79FAF5C0
310
CEB718E441071E797C6DCCB9EFCF7E4A1E9F3DF3C2F9C9E8294E9586868788C972857FB0556D7A26941A7EEB9B580AD78EC40B85DC906B4120A563CA3B87797ED612D3B035962BB75F6515A393F4CB057F564CDF54F2E5A024514E6A1F901DB80C7E70B1FC05E356A7E72FABF4775B3E3FB8F70A2A8E7B6A94542BB3041579
310
78CCC999E707A29CC795E67A59CC546A5D47B368954CA7B6E75EC9E1F6FC73CE3B4F71F8CB1A6B15923D61EAAEB14626AAA9D04A26EB9C66CD1BE86CA31A5D8703DE04CD1EBCE4F5CCB62F93909AD11E55799A781A956ED27D3E738F4538CB04ADABC7DAEF20BC35BA6A90BCC1DC61BA05F20D8832FFB9BC9B15E2DB838A0A
310
FBB7E0C82A562127E0446894F427794C3037186F622BF24DE1B00AA10A23BFA47B2A180D6DA5AD6F7326FEB8C100C2D7142EB2A0B2A9D1008A09BA343D70E054AB69E2A7EDB783CBD92537FAF4A44D1296AC2792729104B3276C276C951D0CF3CF3F1E6B017720A7B8505A5FF9589365979678C36F1BAF759EAF57C60F1FF5
310
FE9DCF5F8E764FF25A2D06CF25117A8FED51884C13B2B750DB0E4F5E3D64124FCF11F0AD8F1CC3B3DA4B38ED22BF1CB2585EE6BFEBBA63FBFD44F9537B9B37BDD6B358720F98A8125AED4349CCFEB0E135F19E208A04CA7E2B10711185D72E381F448036EF57C9F874E54A971CA37A639E986AC0226DC5AA00D5B14FEA9192
310
234B3DE617814FC221C92F33F1D392F297731B567FD98FD91D989379AF567A65B8ADF177591DB90FBEA99BF4ED11B16E50A0AB1DBF1156D034BBE04D69D08F939D8E92BF525A1DDAFF80ECBC95D8F45D3FDD289FD23F7D8B452F8EBB34EC082DEEE68E18EDDF072060FAD2AB1504DD4879BF67099FC58F6E9DEFBF645D1633
310
4A3E9A127C6F1AF6132CF287E433B43A0EE93812B4AA0B194E03EE3FF91EF9C6ED0074A2F6EB18A96A7C9890B1FCDA1F2095E944DB911ED54C60DF16FB74C8CE9BDC7C54C4F14078CF73C2FFF1F1BBCCD7CF64F71407EA1683DBC410D226627F66E509060D5C0AFD611DE681D509DB8DD12FB1265B03C6F5C55FF4C30BD941
310
87FF692B4F152982502F193098A789526A038AB529A52BC0DC4FB6285CBAC10A8B8DB75DCD9BDABBB221E27D1F8DA9F5EE5926A1C8AA9BA9BC09239C6A7F12914EA3B59EFF7AAEC3FFCCE56F1C5C2980AD072793527565E774F4631DB178CEEC691B1F367BEA0CF2907E1D6B854D527065979DDEF002D8B2ACEA7CE21AE297
310
737EDE1D45B31233B73FEA35BCFDD0B09721FDBAF6432681F2FD10C3E9EFB246FD6E854B344ACC9D8A0EEF876A7314B49B6A499FC650B099D650DBFEC7638ADFD245E2B7839DA5AC5F7D5623FC0ECEEC8653FC9B2BDD1AD4D00A566FBA7186DD3C9CD26512551637498CADB950FEC71ADB9A5524285DE328B8EC7EC75D2345
310
AEC6A27C42AF6D9B92155315C80DBFCABBB7DA0FAE425C4FB896B15C9BFAC4FE67DF5A23D30C93DA4D8F36FB15D100050DA6062E22AEC5F4DAC4F6FEEF97AE05DE63C6D38F9E068A20BC5E3B6BCD75320C5090924E7F93640A7735B1A43451C2D91EE62C6238B797349E59890AF3A520DF4A87095F3ABEC2E61F0593416CE4
310
6CDCBE0E00E2523FCCD04408588B5B6C9DB6459C786CE378770B54F51DA3A5E1DF2A3349BEAAC234A6CF8993B598B3B25B4B113E353A4D750FA7534749430F3EBF2512E7EA3FD43C6AB9A1F765A58463B306721A15D224FAFE8C6F5E3432D57EE697DA0DD5A9D4866A8BCCAAA9DFF1F06047851408FEC060471D0E3EB86BFA
310
F46E4B5E60311DC3E3CEA147C75CF971BE74689507154FF2D2E92F15CDB2B9182B11459FD8ACAC5A85F174BC94A7F4EE4C4F5CAFA7C02E37BF0BC77B7DCD0C047BC316F562A01A441AFA7931CC84A28CB9F4AA367EB515778F29BFE61195FA671F4352E5E46E3A64773F1F76EE5EB36D7BCE9BCEAD837A4D77F8DB8C92AEEF
310
6711920D7C7D0F76B0FD0EB7AB83724CD35BCA7D36DDDF5FBB7FF6F04A91F3E2BB3B8F1A43CD659639507FF6331C5F697BCC782AE57D757A27D97F1AB9E0AEDB43F92F1B2AACDF5FEC8ADBAF9F814E2027003BA2F9E144B1938A7A04050AE5D953B82C45619165C813A10E76DD6906B3C16438064D14CDA713AEC420034613
310
E1AC7241904A49FBF87409AFB1FCB9B72FE7933A87D8FBEDACECE4EDCF6A4FE9FB94D5DEB74FAB7CFEAE17EE965DF980DCCA2D04134994F9A2E94D2265DA4FE6AA7B7AC15FACAC2B5ABBCD7DFF542C5314FDAB2E1B9D8B65220B8E2B638BE008E8DCA22678C820C5053664D15E89F2D735B51A84955E81A443545E9FF787BE
310
0FA700A76D136C27DA179A7C6E8939E01BE756E19CB292798063D8B97F44E8A27BCF3A614FEB8BE974A718E86F7EC99B53CA35FA24F61F2B07266684623A3D4CF073E511F3A10A8FDAFAF0078C577F4DF9D339FE7862E5FA47CF4344209E5BF76D783B1B48E152AD281B15FCB934DCDA49CEC5706B1EE8B460F435324A5CAD
310
154725E21AB8044B75A557A79F6C807B9340AA3D92503E866F4274412926C8C504E4D5EF8C0E68DD0B028781A6B4054F11CF18941F101C57CCC796773ABC8DED9CD91FE5788806C05E548895354AEAC96546D55B0E94A59F148D061F42AA398D822CDECA4CDE79E13469BDCC44FDC990F366BA5978C15F97ED80CBFD73B0CD
310
9B8B83A4F6845BDFBFAF034019473FB9A63BD55D3A4A7284757071574029A4D016DCCBE95DD679EF3C4880BF169422F8C89B68A988D2B13793CAED4F74DE7486C72DC94DF46B8E93D8E02EFCB1FF9B3BA10C8AE7F653DF94F4AF466CDDCEF5776687F7C4C14B63E4EED1719DC2EC482D7DBCC7AE518CDE3D5FF86D39000EC3
310
673C0044E1D308BF05F74D1B5F033A7D1BE7F74BC55BBE3E4A20F920946CA0271EB17BD2B80E5660ACB8A29A79F5E4BBA49D4D945B6EEF4A7EFEAA65E5555BBB57A7E15D2F83C69F30BBB978D2B39F1F26FC097424D39BB33CA3D87ABF64E307938B685BAD44F71556A30B7E712CA4FE600613C3E554B69ADE949A7CFE214D
310
F1FFF05CB82151EC6FC31950239F94CF7AD39DC473F6EA356E5EC2C4EFA04383CEFE985A127484366FBEE3C0EC4FEA363E4F6632AE781392FD45D67B63FB8DF70E82734F431FD3443172A0E30A83D60982D55FA6A2CF86DBA8382502ACC6CDEF3B907982EED1160E14863FA242F9757347E1544275CCDCF71ECD5F8621CBEA
310
326B8BA884AD7F825781923E66971F04010D574C541D8427A438A37EEF8AF88240EED7362C953F5A81DE2D56109CDE2524EA0F5D2F87308C0C47BD97AD605878AB8589E17CA83930CB5E0DCCD75853D68B1AB136594926DE426C367428E9334AFAFF90ECE221BB5DC9E5BB53D2CDEF954EAA9CD814F0E5725F1965DD458E5F
310
8487683AD86B9D0076BE3EE91EB1CECC5331A67A3F79D8B27587C12EC2A6A70474749F27B4C0BBAFB94B34189E88DC18964BE4121B9137FD516C7755356E50D6714E31ACD222621EBBCD1CFF81D87479056A9DA0E0B8EA19D24CF937DA89F78E8650CCBDC110AAB6C4E46DCBFD0446BA9E2060E81F314AC2031E88135E5476
310
AC0160EF5C0DD2EEF1B8B5CB2D198BE9A554A9093B5F7D7E4B5407DDFCA1D9C152FD97F55BFFFDFE802954DFEC8995B983E28AC92F1971E28F531DC407A1280EB125F64A72E617EFB27DFBCEDCDA2D6F2BDADA36873EE46B9BE1782998C63DA7182BC383FB6FD15DA472B175D7E8B4FC88F38D6E07FEAA3FA3CBB8F6B449EC
310
F14D2175E5C5CCA3A42ABF24CA6C9395AF74535F4DDB38CB84F56614B0FD32D7E19CA5CF988DB4449C40E23DF2B16772594554579094450F56F253CD25EA7F77366FB1CFE79696C428BB64D5A41E986189427E5E4D7E2DAE3D5BB4972B3DC44EAABDDDD63A2264ECFA5C786EB0EE1FDC5BE34FA0F08376869FD1E61EA06CAE
310
15191135445EE8F0394161C3266A596AA035572BB0C8876180D8B9C77D307DF9DCDF7365ABDA6F3A2366436457A4DFC1F259666569A9E4A79C817BDD5610E5200FCE894A358EC72858D50EF67545DA81C6FACE3D457BAF70367E1E6BDD9A952FB4F56247F58F523B97E640246051A72F79BE42FFA0B3187F63097F91C48B86
310
8586F714B0EBD5A00A8412C1236E1298F60C72BE6C96B82B404CADAA304AE9F303176B14BA53FBC2D5E86377E35542019E24D97B96A49B2C0E5006E7795954DEAF5DA58958839043C6C70BD3B1B33B6DC5C31316D8A6923F142E26F6711A2258AF977DDF1F970ECC4F1F2B434B96D81BEB6E89BF3BBB3C7C8CC80505070723
310
D6D7D7D3C8CA27CA164A26024FED94B12A86031867241DA53D929636DA600F050BC40CE48B8BA03D69224720DEE2ED2127390BDF5E6EA64527BBD4C4C63FA76BB801FEEC0E61218EC98A8A86CD8313781617877E66692839B9468CF4DB8E50A73986E558E309C0D6F676F921BE02F1185454DC75B111572FF9D27D85EA14C0
310
5AD7271225B391C4275659CA4A43759D0BA44639BE4C30A84DB7F67A41399FB95CBF923B1B1672ABC807C1590557FB18D811983FA97F5E609516D62281D38B1281F68FC75528C35E4CD7DF0F7DBB5E5DD69C414EBEA2F4A5B241B996BA77AE6C772E367408C633EA3E438B68563EA8BE7667F3A4C4FDEEA52ABD78A2820F44
310
3B7914A15F180018D231E64519C56A12F6CA7C8DAE18F06F6B769DBF92329EF6A5D18FBCE600F36BD8E8198DE5CDAA96181F3A756EBA5501CEE58F497EA4F418A2B82565B9BCC611713C0B708CCA1F398B78C5F7D03B3437CC18F13061F55C7BEDADD5ACB1DB0E36D3CE47FF6EA1A563A57E9649EA5D14D1A50EAA45746338
310
1C073777EF1600607BAF6428A7DDC079D47A204EF1E1F1F0589FB054D45E02CE623B3823C317C601E589E22B1E88B448524B86A82828E32345EC18AE17214B42F8C41C6D428016D9BA31DDCB47572561E5A402E5BA4FCE55F78AF7268524AA04130F3A20BA5D1E9F9948EA48FC8F5314FDB35E21898198060034ACE5E3E2BB
310
CA34092518F275190AF65F45867FF0900AA4B81F25427414C372BF51DC29AA855C5428EE1EEDD6B849AD60F6E73475C2D2523F8A2772C840A478DED18A8C5C91B085F255DC4F54EA7AA8947354FD17ECF8FB3B4A0DE7B483CAF3A1165EE05BBA413E5C1FEF3DE1D6B8F2F3F3251C17D9FCAB48A9AAF63AC773A0E413BBC46A
310
9ADF84A566FC920E4D8C52C9769EE3301CADEEEDD92B312E02E2A7E35B7F1E7D203FE5A7D75578B06E99D0E46FFADB8FDA17ED8880390DA29094202D6F645F76F6F96409CDA05495A96E84B04A00D1A6C6C81D7F3DE9376E828CCF144EE50E364ACCE7237EA0BFB5607ED1AC3CFE73794E5B61739D14DF1743441B1AC98F00
310
ECEDE9E7301FA29755FBEFA68C91EF2B314CF510537EF1ABFC9A762496280B546F5EDAAF8A5B387D469FC9A878A92828C88608453ACEC6094DCA54111E7AD5B2663DFE2DD151B7F123B9F4FEF8EE36AB125FD7AD52A59B1B765B3E3F73E3F73DEA93875004D2AFFE3CDE9493B87A9904DD052028949041A91DC0E1BA47BA71
310
4343FD5B25E0A6A09503AFC17C790058A836A324FE31D7893512E28230332F153181C1E018E1124EBE1BA262AA428A518237D1EA7275E48C5C561BD19ED6912EDD8367DA0F31E40EEAE9683DA9257525AEA7B632B97119E17145A90231768A4F3B9120FF32E8319B015E3CBE26F1A754177D8185345817C096B0CE443A955D
310
13AC15E1FB5DEEA0239EC32A3C92241A237B0B02FFCB4F93CF2B02570C8D192E2F2A68CEEB42F12E6F8CEEFF46C251E22B4341C56FB08CCE550E7A9D6F4D6564B9EA52A83D5BF2C6E03FA19D2775E15A8A7ACF30A13C259EE7F5EF2AC3BA354F1500E1A07FC63FB4686E2F12EC69719F9ECF5FE3F35598DF2CE944008CE78F
310
0911BA5BE5D0A34E0098FF038669C26030BA9B300303039852A8F6F496341737CA7E0D2E3AAA36DE0A70AA7D9CA0D54D9AD84B18A44C9E625475E1C97B93BEBB38DCE7D227E67A2D00F531436136355F243D1FC0D712C5765754FA22FCFFAE97919161F46D6E61ACB37D83777B385889770B50765B127768443A5C4D3A4E35
310
A3151111F146B7CA116F918A049F1C272F2CD7976C69A0068773451659A97E0F4A08FE604C3FF6CE7385DB19F4D3ABC8A0D80DA8A42096AC377DB49382B36E270B6FA7570188B4B7D1DDDDA82ACA487CCA5D38BD3BD039ADBAFA4ACFF27809239B722081E2EB9F145320553D183F28471C388BC8814E5045676767AB58A8E7
310
2D1CED2CA731379515D2E533E4CF0B39DFC625F97AC4836831A4DE330E87A8126FA17EBE583D614E71E22A8DBF2825599743E0640037303E8E1B1E8EA4E1ABFA4F62907B5E4E0E5DCFDAB417C36C6848A2B8D15F1E505434C0707E16B1CFC2A1C36A42BBF55734F8F4301DDC2A5110CEE8C0747F69519265012A2174BF4E95
310
5ECD4FDE095A3ABC70536B7AD0B9D7892F81287D667C108703C9B66A221E9A0929D030008F77FF6F5D2108EF5706FC87A3069B976F7C9FC3239D13D283CDEA83597461079FEEE049B0F392889898B7D87D31F8D60ED7B56B91823A8E4EDDB36C6172ECEE42BD42B12CD67994FA0F0DFAE9389356F4CD4425A4B8AA55CBF7EC
310
D585C6A2C2316791E43D5C06841ADBB226A87FD61515FFBB0167B74E56BD7F3E90A57A97FEDCBDF483A0D6699A8C0849CAEB4947FAA90D8E332D9DEBD9F4738C37DA0CAF9CF3DAA68BCB67C420459C7A64498D6E848E5CADE92BB6901F607AA331104A67F7CD650EE169B1DAE94D2C31C2F993632259B6957E246EFE4C5481
310
107B07118607700040E5812A2A2A38DA0076875258C753F60E0F2662C748EDD5F3F3686B8FC3BD6FE631ECCAA1E8B1C1E565AD117E54893E79F4672E32F9E46B2A183DFDCF3EECB4D4D077DBEA0DA254D256045109670050129E9B9B1A9E4A11344D61497A992778095151510C4BB7EF2009B63AA4360635312E4CF668B7E0
310
D3D85A8688E2BD83B569439892ADB63461930D428E0DE42E4AC57CE48DA5CC1449530D8BD3D6A0F08DF20C8E8F570F2CFFFCEA286E30969B4654D498A58D9DA782E19FE3F002181838925592C4A1EF0B332D88B61A92C644547BED490D3A42CFFAB70E36D961F694F6307F72FF15A1C79D5B1B5CEFD353D9E2B52566DEC8F8
310
F09CB3E8359C0F68EBBB7898243E34E12A015B2685AB303C04D3A9E00671FF3DFF0A184E4A2ABEB2B666AF5B3A209C73D8EF29DCDB069C9F391EEE9DD0F74C7BCDE16F8F02E3B8816122BBEB50665775B600549D8BB33A54A6BF940C028118BC6878C79958D6784F9DEAA6E26748386FFAF8D0D0101E2847B6563F5D8DC1D7
310
8F787BE00E2C941AE12148D4A81599FE8F68D4DA5CDED75530ADE138240300EE13B0FC13A1687FED6774662C05A2B7DFB186732F0D7A93545D8B0A6390AE5054D9CB582DA846D7A061B3358B45E2B52DDE63E114397EDB7E09233A579155D795BE76102CF277F4DF8B188C4F2879BEAE3C08347124BF9ED23B128259FE107D
310
31E34A652F090B30B39E0D9AF917B76A2806135621A8A60681F16AF216514BBD02711585B5B1AE823F4B2D0369EA5B6BCB863072727FFC871CA6C9AB79A814D989057E9470A3D238BC87CBB4A0EA49AFE2B86F22E499793CAA9047080450166BDC357524561E258C77CB697F1ABB32562CF87C3B7AA12F911EF19FB3E5C022
310
22E887D08202A60A17151F5E053A86B437771088B4FEE14D652C43E8D939995D34545E12E2FF93D4E366EAD25F10CB7DED141563C3D0C447AF06078A91135FD4B9611583CB4BF3BD167F2399CEAB0E0100F8FFC305F00F1711717173138B4B48C83022295DE657EFEDD97F238ECA80F528AFB4F8D67AD4E2594B9A3AA86D74
310
87EFC313BA95745C186F0CDD84CC12DC9CB0424B42203D351FD9C0A3AF10CC7F388E0329279087386421F194F4A29464C1DEF7EF8BE515E4A199DCD5B909342598D8FE6A231F71336248D5CEC5454455C7BE383B3BC7B260FED27F703FDC39A170F3827239102F59D4DEE7FEF82EAA1A5E4BA94DCC4CC44E7E2EDE20F24244
310
E4454369D2E87C3F823F193FD4FD27E1C23984B01898D15ABC20711A8A558054951A6AE280096BA36CBA439603B7B0B4C45F248C14B2383B4B5CD8ECECE4FF859AD4A6CA2326D020EF090F4041D28DB66E5256B56232CC52829DE8060BAE6BBF37D4B7469B822454FE93210A3E8D15E69FFCF01123222611C51C4FD0A041A0
310
CFA2471CF6BE38D2B20FA4C3525B5B8B586759475CF80ADFE67A284AC24651E52B8E683D24C2622642F27E7C3C22783BCF63648BC398BD6CD0D9C97E7E7E3EACB6126DB7A6C1FD9F1031302EE67ED96F22B77C7CA0239BB324207559B105E4693EB26EC46182A92C9C0DBD24F29B31C5C5AC1F84300E0E17CEEAC15F5736FA
310
4A98971E2F1423BFCD68D4BBD5F86E74B40A369F39507C88FCDB35D2DD8DEBEA4AF999E23CF2816D204200DF6E611781B9884C1AC8888B4DE397320472959434323A5A36B22A8E1F721A270DF3BD65E4A31C11FF048AFB0D8B7B6881423793963A23CFCE935FC189ED36FAE35C46DA3574C979E4394BE52084F3081837BE03
310
3396D2EBD80F1F691B273F660D2B32FA27A33B1DE4ADA5F0FA4651511102DFA410DDA86E065272CA314D5249DF91B06BB92807B28EFD54F08F7B525252782CD276DD02E6B0319B13DF87B1F6361AD6B28FC0D711CF445429B9E5A433CD493051C49A9E03DDB1B147D880253514A5DED88009018620EE229101C041950E2D8A
310
A8E1F5F5438E0C0C0C60EEDEE9E3E0C051948C69F84BB7B2A48A1F3C8EB9E6864687F4F4F6F6E2FA87608ADAF9C5E117B7C1A737E710769DA1D15ECE6A84502AA855398712D5FB51BE92E4EF824969CE18278798AC303C2C7980DD2500ADF8FB1E6D6C2FAAFF9987178923334A244758BAA01A9A1B70FA5097D01E1CC2A58D
310
AD0EC94CE6430AA9B0C10D75E3C6BAC670EFBADEE1607739CE0FC18A2587E3EC3058562014C64219C69BC269082D5C2F4A659278D585755912176D78A1B641719C2A394CED495A1AC5D583FD2F5EDD93308EA7EAE8A6DD396598BDBD3D4CFED62D18A5BDFDE0DD5C80D1A89BA62697B131AE7CE9A6594138582F1B37D68F17
310
49AC7CB67A70695D48A4A056AC1FBD4E82358CEAE38F54B95A9016F9000F9879C0D9D131768635CA798895F27D6F1614F11F2838A83611AA51C9A3DDB539D42979C29F10465655C17BEC3E2760B80DCBF609198C7B171A531905F3EC218D696025975E986C6B4C666666787271F202805577DD5A3EF0CAFAF91B62DC4B2DB4
310
217A7606282F31D8DDBC290593BAA93EA6353AFA9939B877978481E15CFC9F2755CDC00C538F63A4BA3E80AE009B73CA0185687D339A507D165B74290D6EE46D5C58148F020C3668ABE9EF2F7549170DC80DB41FFC1D678FF19AEB10C7133832B104B80F691B3138F97A92D26E551F1F110400D45AC71A9B9AC41A1A1B1DAE
310
ED0B0810638EFFB511D46B121C6FEA0F38CD00E03CFFEB9713FE1F9C263E4DDEC160D0497FA9A132BA608584057FB15380825DE6C7FC3C667EE947D488A09898D8E939C4953BF4EC9836344D2CC6B2971B2A21A572B06096F4982D2CC7232D46E8EA69DC83722E267754D777F97F96D5DA74E1E75178084D0E70F12AD33E5F
310
71EF2AFA599B2BEBF60A5BE475F444F240CBFE8143C334E7ED9150FEEFEF7EB020C4DBED388DD1D6A167A76F3CBF119B578AE8CFA7736ACAFA4440A1C47185638A0D2F3EB5BDDEFDA958FB13CE4AA4923D5BF840392D45544329525749734866684BF7F8D9D54D892E19BCA9F829A0F8BFCBEEA6CFDFC61D74EA1A645ED7A1
310
FF241739F15694BD835B66FEC5677E40FE69BD3F91AE402F036537218A401CB0828604AD189E575015C6F3F6BBC8AC79CF6C70653847254B31551EFCBEB5978B9DB85D58D0FA41A9DFE9C624834AA04949D24B5AE6D299E072D152D12097920F14AA92C31C3B97E28B6C2E6E9C23D63043ECBBC0A60FDF5BD0C33C127EA8A3
310
308B8B6AFFEB28B4455BF6E7AF4FC6222728357EB8E46E85053E6A8843AB23295BF838ABDA94658FEF3F832F147046B4ACD6F7D48E8FCC9618582961C898D1C7A253C91BFECBDA6BA18A1FCF70755DCCEE2222F41B76D23CA98D0CB3D95F0CF66D57FFF65E2A90F5DF40FC3187621E981BD0BC1D992787212688976B94A8F0
310
C6EF646624B570B78E068826F87CE27041A95C9A4871FF65CC17FCB1639629AD6A9517000D63AC231F3D741CB8430777E7ECF80CE7A3F73C0F162F7E56AA71F4DA80A33CD6ACEE78E2C11FAC03DAFCE929B106F8F6B3ED2DC71FF994BD9CEF4E9A94896EF1B6E2B7B4978168BCF0847A3D2A4F1B0500B926E634B174548E9F
310
BAD27153FB5FC36799B1E6C7C38A94E1F9E996796D7B485E635D5287A2AE76FBD11A341DB3F8F810385BB7296391973DC6C37C452A9305AEBBE0CDB6C566DB59FE60C8E94B1FD090354BF51439FFD1B48D725228FFA88C84F686F547107A7A235665A4593B7C34D748C1AC8D56DD5DA861EEFBADDECBBD65117E65851F9035
310
1AEB65F0EFCFF4BCFEF24CB7A5879699FAC437A7AF9099186CF006BB923A59E37D7A36A29FD8D2CBB914A5E9D0A8FD212FBF796AE9A67958FF1D5D8B85F78F96219D4714EB919929241B6C018AAE0C02069F8D919961EC5DDFBFB7573E3AC8E08BFB7C8534BE6DE045B3CD63DBD71F7638BA2309CAE398EA3A7D8F98BBBC7A
310
EB367EFA5CFA27A9F8F2F52FE878058E6209C026453F8E7E8A237DFC389E9590F6059B397CFD65183BBF936E86896612A5B5FEE49DAC8455D026218AFEBEC12B3523A45B57B82C9C97E02ACFA1184DB18E48CF615DBF39C3CC6F0B4AE6BBEEA2E39D944E290302FA3DE33FA7E40296E2EF7BF1CD855BBECFAD0FD622BEE974
310
6FC4FDFDE545AE6E3BC234CADF83A0FB76DFB145BF3828AE3436368AC24989454F8FF70A177672C711CAA1A76107218CF948CA01F873520E7A2B118EBB161ABAD432932029628B6761590C98AB590C8C8C79798CE9F715BA696E839E9131A4BB68BE923F1747FBFF165331FFDD4D05997ACD168F12CA75348DAC04C7F509FE
310
83898A8B421181AF492861CE81E4A2DD0A30850CFA95E05F097FF70F9E777310D584A75BA7018922E271DAB1D785671157685B7D383D3E074DDB4F1E44EF04B07BAAC75A062077C54B9752C738C9D804D402E02851F3F89605AF189738C18C021D2139EAF72513824E10DDD3047BACC8521ED7E98B257D1166903B1B08FA6F
310
918FD7E162913FEC7D0EF4787E29C35FBA8C6E2C9C20E9AB30AE42CA2A01A090E7D010C1B5BF9CEE2A304BF3A987FB40D836979B79E18D70F257DA61E808472DD85B82761825779D6B90CAEB0F23360C6F80A7D7D77545E95B3DFF0CF96A827F9B5BCECD2C9698718417EF80FEEDEE938AFF55859D0D540B7FE09435583A6F
310
04874A0C7E8CF234DF4879722000167F5872CEC6BF3EF7E5A8CC8121E6A359227C8A29C95212F9F735BC72A887D56B8F309FC525BFB4FD767AAEC4AEFF249CFBBD2DE1AB9969A6155C7D8DABC307E47324C1F916C7BCFF40ABA5644E9FFB9238D19ADADA49D9610F01ABBA57E4DFCBDCCBB2B93C8953206C91DE01B0E2651A
310
6D6C31721915B31F7B7CBCE55466F6D70402788FA91D73BE4ADCBA99A35F17D6B83383704917D6833F0FA3CD45C926ADB8BC17999A4A0AFBCE2541F7B8CF4C2F5FBA611B3E626D64407CB32C122DFF4EF8674D6EDBB86C8F7C6A16D50FA685E2CCA34F8F7D1D8265BB0042E9D7F1F666F7BE5FAA5184DF58E12122A42EF02F
310
461B3F369AC746F96528AD208512AB56844CF75B97F352DF7995024FB02855385854F3798670D01CAC771AC3E1889EC25F61A20C1F8CAB46898817F9C47E2CDA1F286BF2F358298709FE567C91133E2638C8B53975E753EA8BFD3578B5F7186B7BF084EBA3F77BAC3132A5779902EC22AF2D2E79F42D324E083386DAEE9810
310
D1B44A5DAA54513C7A71E52A4AB9257D975B621308FE4D2141CC3DCFE946C154A3C1DFCCA7629EC69ACFA831634ADDA93C0388D2A9A2DDAFCF957C6995BCE7FBB6DC4EBAE79E63EB08E9A25F52F67076F7093CA545CA3053B5BF576DEAD4E0017143C5F759F32B2D6F145B52B67B48909B7C7FCA6586EE385A2189C16932CB
310
6DDFD9152AE317C430492A578ED27B72D85D40C7C93C097939E1B50F4D67F05334FE9DC362C30B7FF561B95259138ECFD9274C8D695C31B14D4EAA9F3D7FA8DDF652F8C5DEFA23284C799B7D94416DEE81E05A866302DC70192A5368EA65E1CED8BF107A1E2D3119A71E85DC1A7B0C1E93274CE04DD0F2ABC8AC7C987FDB00
310
2B6F81757B43502EF7A0D92E416494FAEEA4C9C090CD9557AA4D532F4996A272B94355C5A0E4974EEA9627476F30809B94D8D8D860062E02204643BEC7D0438AF800FC7E2B26955D595421E83C69E1A07E0E3122285835F014AD538188CF9737CE76D464A353FA55A001AB2526B84E985083693BC76FE211CA1D000679C889
310
E3C009832C87E1AC2EDD05C302557422DF0800E316FCAC86978A371F025A6C7DAA9F333E7BD160403A1A06EA75AA9888FF01504B03041400060808006D80875151464CB48900000043010000360000006662782F33303034344441432D334632312D343042322D383731382D3644343832314542354231432F646972656374
310
6F72792E786D6C9D8F310EC2300C45AF127987122606C71DD918B841D4B851A43646695A717C52A85029031293A5A76FBF6FACEF7DA7264E43906840EF0FA03836E242F406C6DCEE4EA06AC22492573150D1F66C60C640E8938CB705396EEDD86DE9B5042FE27813D640EA63BB001C722AF6E55CB61E4863F58284D5D3F53D
310
D715CE1C3985E63FD7F1B7EBDD617E9F1E504B03041400060808006D8087510E3BB96B43070000211C0000340000006662782F33303034344441432D334632312D343042322D383731382D3644343832314542354231432F6F626A656374732E786D6CDD59596FDB3810FE2B84F665F7C13A7CC52E1C173E9AC2E8A62D6A74
310
B16F022DD30E37BA404A89BDBF7E8714298B8A6C2B3D80621DC056286A38F3CD3D9ABC3D44217A228CD324BEB53CDBB5108983644BE3FDAD9567BBCEC8426FA768C29224ABECB3508C23726B89656B3AD9B3244FD5D296EC701ED657EFE67F231E909858280831E7B7160F1E48846D9C67C996F0477B8B336CEF7707DBB38B
310
8D26D93DC3E943EDA814331267C02AACC7404571E099FF8248CE74E2880DC6B65EBB6DDD0BDB1C29B8C9288D7986E3E00557B5E3BA67B8AA1DD7F3FACB77DDC1B833E8F77B9DFEB0EB75E677F365C7BBE9B98BE162319EBD1B5B683AD92449582A2025F116B478B4A6DEC411774AF1150A4D7C07491C9340A1D9B4614B145D
310
4A781D1303584F8A565148216B65A1D752F833DB5A8162B064A0AD85D3BF55EB4D36FF0008BC8D95324E8495F38C81AE15F6853FB813A75835F442398A704618C5210AE98661060A82AD85820C32C25B04292430935AD4F4AABC82615FF7A5262E7779180AFFB5A6D2D37CF0479271C919FD97B013F7D5D380279036A77136
310
52C266C714488C278E5C2CEEF5BAEA660124DA85780FD602628A4DBD6E0DAF858805ABA535FD70B739AC457C683E3C65494A58262C4F3AB3F23BADC18A6981F1B500A5C0D5D4DD09952F00FD4740BEE4054D40738C1EFA87BE969DE198EF12168176908B3A2E7CB9485CBEB89A38E5C353848C58790E5370DB1F84A9218671
310
7605D2E9E4098C3E613D25DC3AC021D8F43D8D859F83A1A030812588F7BBCDC19AAE2098C2223C8543901EFE268EB844F053D0817853D35053F86DA128ED30753F3BE9EA3DD80CA341A92A43C673F80E7E08BEB3E5FAC33A673B1C907BE5D84BB2A331CD2099363364806EB8FCD7D547E991F3E39FF858F541635700E7EC13
310
11381AF4B2567A415231C08AC8C3856AE4CA3D05770F431C9324E76ABD2950054998307F73F40B1F6E3CEB2F6D04C561CA021A831964F780D15480624D95BACA48689F70E26062982913DC176AF5377994FA384AF258C4DA97B658E703028D3045A02AA969CBD66EABC96EE96E9773885E8D24170690CAA135E1C2C4FB10C8
310
9AF86564C73064D124F6292461F096C6138C034AF02EF3CC49B8F36918E691BFA32124123FC2E919FA2D25A8A6AE47727C4ED8B691A06959DA29B50D09C015B01A249DAE8AA0AF74CAC8131575A64C683A1D183B54216A4DFB67F28548150D806A6394667E37EB0DE7F3F94DE76E398492E966E876E66ECFED2C1783EE6C3E
310
5B2CBD7790B3949548044EE1AA9AF04095A2CE31FC2F7BC8A34D8C6908370405BC4DDFBC95E9F3D681D8E8F45CB7DF5FCE169DDE1D546A7D77DEED8C6EBC5167B8EC8FBADEBBF960EE2D1C467892B38070A7EBB8BE36C934DE9FE3AA0CA6226D81FCF0AD2085BAE67AB6D3FAAA0BF3FF0DA2EFEB49C150E2AF1A44CBD8D550
310
11B60DA2E2D17A08C5C1A3C8517E00655FA3FBD482689D8FA638F7CAB8ECDAE019E2E379E3AE3BEE8EC6C3D2D82F066A79CE77C7B9260902683CF3CC4F521CD0AC39A1D6706919A75F955BEC9E3740804EF95D1E7239CFA8437C1AE13DF17758B4090D81F19A048D396C1F269CD39870D9E6BD28FF6A345D1BAA2933E73618
310
21E57E4432FC2DF627FB869A4D436C0E7D6848333112B85A159406AD5A90731445FB0B895BCA7FF4398ED2B06875AF61E0753504BAC969B238C1B438E209ECCDC799EF6E899C5C5CA35EB2AFEB8346ADD5A98FBF99FC1978745DF313E1D147B42F9DEC8137169F110495E1C0EBDD68455CC34A1F9589462ECCA1F50C8EFE33
310
A1FB875685663B9D544AB6A2A8CE48047D2CCE72D6CA5F8703F7C5412A2ED41CA272D22B8B43D9C0E9160ED0931DDCB9F2B6720CD4A1348641572B415E48D168C2521772A8276657AFF0EB8BCAAE52FDEE78F9D32BE6AAF34550E8B5C101AAE52200ABE863D4D48D55B7510FF1679C051048D7F2B733078FD892EDA93133C8
310
3595E8BA3EBD563DAF44408D60648B459CBD1717E1170CAA86F6993BAA68738AF595486C364CA74F7C184C9BB43EBD5FD7A8C04AEBA73F0B8CC8738D825A5D886EF802A9AFAB53D35FA3A024FABABAF0F82FD1516805563A0B1807F324A43095275BB42709646F183BB4E8365844B8CCCAA72E45BF1268F1F4533154CDF026
310
D43D4EF08061321DAA5E2C0F602A0A19F3D652EBE83798838A51A49C4ED98FD086A91866A19CD15B0B2C36A3D06DD91B9867C9E9A1A45E9B578263E3782FF27DF154F9FFE9B117DD57B9A70D2E4A32C399A0B04DE58B02A8FA8A1BD3C9B78BAED9413883CB4D9E95C29C164ED22810F41B81423818FB3D2A780F50505C96CB
310
B3E51EA3216D359ABF680705D54E86D95ECED72B36395B7E76C4687CF509A561BE17EABCD4FD1A943AA2EB0EF3620A3501C35062A658D4908B37CE6796C03BA608DD513002F4FB6134FCC359245194C4C59233536FAAD0FA01DE3B6D1D3DF38336DEF5068E9C02A8B9BEBFC19CD878CB1F610154CBA8188E16101B065046D3
310
8A01688D085DC063C6FED512A9DAA83221A9865D018F1CEA237024F13247B84D7543650209BE005CC99BA70BBD3071184CC1A7FF01504B03041400060808006D8087519F52127FDD000000530100003C0000006662782F33303034344441432D334632312D343042322D383731382D3644343832314542354231432F726573
310
6F75726365732F322F636E782E786D6C4D90CD6A042110845F45BC8F3A13D884C5715F22A75C16A3BD4656EDC19F90BC7D746320A76EAA3E9AAA9697AF18C827E4E231ED746582124806AD4F6EA7ADDE96174A2E4A66C4FA0FA324E9083B1D3255D2656CC7942CDC740B430D3EDDA728AE0E12646FAE47729498A04BD96931
310
1F1035D3ADA28572675657CD5696A160CB06FA89EA23CC132683AE60A9DAC42696755BC4F3EB7A3A8BA7F3767A937C904ABE2386C9FB5421E3410CF625F53C42F2612BD9B29FCC28D18DBF70AC8793BCDB4A969AFB072656BF8F8EF9A81DF007F2EB2AC947C53E1EFDFB1CEF503F504B03041400060808006D808751FF15A4
310
A45D000000800000003A0000006662782F33303034344441432D334632312D343042322D383731382D3644343832314542354231432F7265736F75726365732F636E782E786D6C4D8B3B0E80201005AF42B6F75B59F0390B113044D83508C6E30BC6C26AF226F3B8BA6360974DA7271430F523308B2B198F9B80925DB70053
310
9227A2FCCB80A18E5640D320F996A81C9F32D6E9129A0D1EF74FCE750E6D57BC7165FBCA07504B03041400060808006D8087512FFBBCF93E01000046050000300000006662782F33303034344441432D334632312D343042322D383731382D3644343832314542354231432F636E782E786D6CCD94414EC3301045AF12791F
310
3B09524195E34A2C38010BC4CE71A6C134B1237B8CE8EDB18B5340A88845A576678DFF48FFCD7C0DDFBC4F63F106CE6B6B5A52D38A146094EDB5195A12705BDE916223B8B316BFC94861E4042D496522F8E06C9873A987AD0C63AA8EDAEC7251223ADD05044F0A354AEF5BE2D50B4C92CA80B607BFA3BD44496BEAC0DBE014
310
C47ED413E47EE54022F44434555395755356B78FF56A5DDDAC9BD5336749297867ED98F5DA20383B17CAC68789662ACED2B7E0C1E9AC4904447C39A39D369CC57FC17D746B86ACC3FD9C74F33C6A25318E895985806514819C38FB140BCE12EF0FEA87FBA7C541D16B070AADDB5F6800F5A9011C8DD19884FFF11F847F63DB
310
EE35E25E6ADB2761B3ADB3A12E69F531AEBFF71F5324CD305E5FE88FC6CE9FF9784A50ABEB435E7C9D89981D4E5E5C7ABA80E203504B03041400060808006D808751DFC4E56E7E000000A30000000B0000006662782F636E782E786D6C4D8C410EC2201405AF42FE1E058ACA0268A4D57B349636A4140C16E3F105D385AB97
310
4CDE8C6C3FAB476F9B5E2E0605F44000D9F088A30BB382BC4D58006AB54C316E7F37406158AD828A41CB39C5FCDCD168A721FB4ABD0BCB0E1B4238EFAF1D6EEE8C624E0CC3E242053EF75C307A332743BB621CAB52E6D72B5BF3FA0B504B03041400060808006D808751A6D797065F0000008200000007000000636E782E78
310
6D6C4DCB3B0E80201045D1AD90E9FD7516806B51190811670C8A61F982B1B0BAC9C97B72CA7B1037C6D3332918DA1E04D2CAC69353902EDB8C20262D23F3F59B81A079470595414B17391D1F19B4730A5583A7ED43BBE4025D9592775E5ADFFA01504B03041400060808006D808751ECFD112DA80000002601000013000000
310
5B436F6E74656E745F54797065735D2E786D6C7D4F4B0EC22010BD0A61DF525D18634ABB506FE00510A79458060253536F2FD89D5197F3FED3F68B9BD80362B21E25DFD40D6780DADF2C1AC9671AAA3D677DD75E9E0112CB5A4C928F44E12044D22338956A1F003333F8E814E5331A1194BE2B0362DB343BA13D1220555432
310
78D79E6050F344ECBC6478EDCD76CE8EABAE5449AE4298AC56946789C28AAFBEABC53F3EAF09A84A1441B91F0101CD4780756578C173A578FFDDBD00504B03041400060808006D8087513DEE336E64000000790000001B0000006175746F6465736B2D64657369676E2D7061636B6167652E786D6C35CBC10E83200C00D05F
310
21DCA56CA76D41FC96062B120735B69A7DBE268BB7777961F8D5AF396893C2ADB70FE7ADA196782C2DF776D7A97B5933C430F15651E5469C55D70F80A4992A3ADC954792C525AE70A1E4D6AD9816CC044FEFDF01FE3FDE907802504B03041400060808006D8087513A3B3823F40000008E0100003D0000006662782F333030
310
34344441432D334632312D343042322D383731382D3644343832314542354231432F7265736F75726365732F322F636F72652E786D6C8550CB6E833010FC15B477033605D2C838B24AF8829E7AB38C43AC041BF951F5F36B27546A4F3DED6A76667677E8E96BBD179FCA796DCD00B8ACA15046DA599B6580182EE800C58951
310
676DF84583C288550D9061607471366E3B24AD09CA64D4D859EDA0F05E0528E43D3503787955AB28450C89E16FE526E44D2CAAC4E593C7688C7ADEA57A4E6EFAA29503C6BBAE3D779C23DEBCB5E8A5E1233A9011A3D7099FDBA9E764EC275A6531A341AF3FDBA55322A81918A9498D304175FF8EBB63DD1C49F741ABCC64D4
310
07977EDE97E6EF129D564FF48F5BDCE6FFDDA236A121BBDB53E181E174DC63C06895D349E5115DAA3949F60D504B03041400060808006D808751704B7247FA000000960100003B0000006662782F33303034344441432D334632312D343042322D383731382D3644343832314542354231432F7265736F75726365732F636F
310
72652E786D6C8550CB6EC32010FC156BEFD806374E1A6122D4245FD0536F086F1C94182C1E553FBF90B8527BEA6957B333B3BBC30F5FF3BDFA441F8CB303D0BA850AAD76A3B1D300295EC80EAA83E0DEB9F88B069555330E5060107CF22E2D2BA49D8D680B6ADD882BA842C00895BEE76680A0AF38AB5AA59819E1562F4ADF
310
D48435AD9F3CC15332E32A3563763317831E84ECFBCDA99792C8EE6D435E3A79243B76A4E4F54C4F9BF356B2E3F6CC9B22163C9AF967BBF6A8228E2058CB5A421969B7EFB4DFB7DD9EF51FBC294CC143F4F9E77569F90E84C7E092D71878F39CFE714DCBF8BF6B3236766C757D2A02089A8F7C0C046F4A4AB93C22CCB5242A
310
BE01504B03041400060808006D8087510AE04FF0F2000000B1010000310000006662782F33303034344441432D334632312D343042322D383731382D3644343832314542354231432F636F72652E786D6C8D50CB6EC32010FC156BEFD8805DC78A30519DB45FD0536F0888831283C5A3EAE71712576A6F392D9A9D6166871D
310
BE975BF5A57D30CE8E406A0C95B6D22963E711523CA301AA0367DEB9F8870695158B1EA1C0C0D9EC5D5A37483A1BB52DA8754A6FA0084147A8E42D3F4608F2A217518B1433235CEB55C8AB98754DEA078FB368965FA9F45A44AD80534C312214E1DD07E9F7B8DDD3FE933585C9594A466D564665777336DA036F31EEBAD3EB
310
11B5EF94A00E4F140D3B32A0FED40D94BC4D2F1339B2A688390BD1E79BB74FCA75CFCA1FC27F99D3AA9EC86C6C6CE966F85004E024E7B92F386B4A8179DCDBCDB394CD7F00504B03041400060808006D808751063A56B455010000DD0200000C0000006662782F636F72652E786D6C8D52DB8E832014FC15C33B5EB0B5DD06
310
69CCB6FD827DDA378AE8922A1804D3CF5FF012D787ED6E4C90CC3967E6CC047C7EB64D3070DD0B257390843108B864AA14B2CE8135153C82E04CB056CAFC680381A42DCF818701C1B556B69B21A6A4E1D2A352957C0669DF730302D6B84B0E7AF6C55B1A526B5C47FF083BCA1EB4E661124E7D045B2BCA7954948E4D54826B
310
408A2CDB5FB3A28045FABE87BBB4B8C023BA24F0ED965CF7B743812E871B8EFC30C146B48B3AD39C1A5E02826214C304C1F8F09164A7383DA1EC1347BE93E0DE68E77916F5EE00A9EE4F1C4DF886CF76E5DF7C564893A2996F9AE80149DC7A6381E0C8E7E37E6378DB0C9DB0CBCFD07BB358783868E0CC28BD739552D9B534
310
D0C672471D07E387A3A9EA984782DF78D00B9ED71C2E282A6BB71A35EE7AB7C6AB6F77EAB88683790652E99636EB72D38AEBB90A6D2C2DE34C354AFF677AB1BA8419F98749BE01504B03041400060808006D808751310EDC9A08010000B201000008000000636F72652E786D6C8D50C16E842014FC15F2EEA86075B71B6443
310
EAFA053DF54685B564158CE0A6FDFBC26A93F6D6D32333F3DE0CC3CE9FD388EE7AF1C6D906485600D2B677CAD8A181355CF111D099B3C5B9F04B06C8CA49379060E06C58DC3AEF50EF6CD036A1D629BD83D27B1D00F5637C34E0FB0F3DC94CAE212AFC2D9B657F9383CE48B6E9380B66FA59ED172D8356C069410B4C282E0E
310
AFA43E15E589D66F2C4F4ACED6D5A8DDCAA8E86EAE462FC0455D57975A082CCA970A3F95A2C547DA12FCDC914BD51D046D0F1DCBD332673E2CF1CFFB919833202FEFC997E51BC5D9BB73E32E88A1147276FC025EB03C117F42AFB3FA4768634349F783DB86074E62A007118D5383713CEA8D33B5CDBF01504B010214001400
310
060808006D8087510000000000000000000000003700000000000000000000000000000000006662782F33303034344441432D334632312D343042322D383731382D3644343832314542354231432F617474726962757465732E62696E504B010214001400060808006D808751000000000000000000000000350000000000
310
0000000000000000550000006662782F33303034344441432D334632312D343042322D383731382D3644343832314542354231432F76657274696365732E62696E504B010214001400060808006D808751F270F13306000000040000003600000000000000000000000000A80000006662782F33303034344441432D334632
310
312D343042322D383731382D3644343832314542354231432F747269616E676C65732E62696E504B010214001400060808006D80875188E57597CD3F0000904100004200000000000000000000000000020100006662782F33303034344441432D334632312D343042322D383731382D3644343832314542354231432F7265
310
736F75726365732F322F305F67656E657269632E706E67504B010214001400060808006D80875151464CB4890000004301000036000000000000000000000000002F4100006662782F33303034344441432D334632312D343042322D383731382D3644343832314542354231432F6469726563746F72792E786D6C504B0102
310
14001400060808006D8087510E3BB96B43070000211C000034000000000000000000000000000C4200006662782F33303034344441432D334632312D343042322D383731382D3644343832314542354231432F6F626A656374732E786D6C504B010214001400060808006D8087519F52127FDD000000530100003C00000000
310
000000000000000000A14900006662782F33303034344441432D334632312D343042322D383731382D3644343832314542354231432F7265736F75726365732F322F636E782E786D6C504B010214001400060808006D808751FF15A4A45D000000800000003A00000000000000000000000000D84A00006662782F33303034
310
344441432D334632312D343042322D383731382D3644343832314542354231432F7265736F75726365732F636E782E786D6C504B010214001400060808006D8087512FFBBCF93E0100004605000030000000000000000000000000008D4B00006662782F33303034344441432D334632312D343042322D383731382D364434
310
3832314542354231432F636E782E786D6C504B010214001400060808006D808751DFC4E56E7E000000A30000000B00000000000000000000000000194D00006662782F636E782E786D6C504B010214001400060808006D808751A6D797065F000000820000000700000000000000000000000000C04D0000636E782E786D6C
310
504B010214001400060808006D808751ECFD112DA8000000260100001300000000000000000000000000444E00005B436F6E74656E745F54797065735D2E786D6C504B010214001400060808006D8087513DEE336E64000000790000001B000000000000000000000000001D4F00006175746F6465736B2D64657369676E2D
310
7061636B6167652E786D6C504B010214001400060808006D8087513A3B3823F40000008E0100003D00000000000000000000000000BA4F00006662782F33303034344441432D334632312D343042322D383731382D3644343832314542354231432F7265736F75726365732F322F636F72652E786D6C504B01021400140006
310
0808006D808751704B7247FA000000960100003B00000000000000000000000000095100006662782F33303034344441432D334632312D343042322D383731382D3644343832314542354231432F7265736F75726365732F636F72652E786D6C504B010214001400060808006D8087510AE04FF0F2000000B1010000310000
310
00000000000000000000005C5200006662782F33303034344441432D334632312D343042322D383731382D3644343832314542354231432F636F72652E786D6C504B010214001400060808006D808751063A56B455010000DD0200000C000000000000000000000000009D5300006662782F636F72652E786D6C504B010214
310
001400060808006D808751310EDC9A08010000B201000008000000000000000000000000001C550000636F72652E786D6C504B050600000000120012002D0600004A5600000000
  0
XRECORD
  5
17
102
{ACAD_REACTORS
330
12
102
}
330
12
100
AcDbXrecord
280
     1
270
     1
271
     1
  0
XRECORD
  5
16
102
{ACAD_REACTORS
330
12
102
}
330
12
100
AcDbXrecord
280
     1
270
     1
271
     1
  0
XRECORD
  5
18
102
{ACAD_REACTORS
330
12
102
}
330
12
100
AcDbXrecord
280
     1
270
     1
271
     1
  0
XRECORD
  5
15
102
{ACAD_REACTORS
330
12
102
}
330
12
100
AcDbXrecord
280
     1
270
     1
271
     1
  0
XRECORD
  5
24
102
{ACAD_REACTORS
330
22
102
}
330
22
100
AcDbXrecord
280
     1
270
     1
271
     1
  0
XRECORD
  5
23
102
{ACAD_REACTORS
330
22
102
}
330
22
100
AcDbXrecord
280
     1
270
     1
271
     1
  0
XRECORD
  5
27
102
{ACAD_REACTORS
330
22
102
}
330
22
100
AcDbXrecord
280
     1
270
     1
271
     1
  0
XRECORD
  5
26
102
{ACAD_REACTORS
330
22
102
}
330
22
100
AcDbXrecord
280
     1
270
     1
271
     1
  0
XRECORD
  5
28
102
{ACAD_REACTORS
330
22
102
}
330
22
100
AcDbXrecord
280
     1
270
     1
271
     1
  0
XRECORD
  5
25
102
{ACAD_REACTORS
330
22
102
}
330
22
100
AcDbXrecord
280
     1
270
     1
271
     1
  0
XRECORD
  5
322
102
{ACAD_REACTORS
330
321
102
}
330
321
100
AcDbXrecord
280
     1
102
DISPLAYNAME
  1
Imperial24
102
FLAGS
 90
        0
  0
CELLSTYLEMAP
  5
320
102
{ACAD_REACTORS
330
31F
102
}
330
31F
100
AcDbCellStyleMap
 90
        3
300
CELLSTYLE
  1
TABLEFORMAT_BEGIN
 90
        5
170
     1
 91
        0
 92
    32768
 62
   257
 93
        1
300
CONTENTFORMAT
  1
CONTENTFORMAT_BEGIN
 90
        0
 91
        0
 92
      512
 93
        0
300

 40
0.0
140
1.0
 94
        5
 62
     0
340
55
144
0.25
309
CONTENTFORMAT_END
171
     0
 94
        0
309
TABLEFORMAT_END
  1
CELLSTYLE_BEGIN
 90
        1
 91
        1
300
_TITLE
309
CELLSTYLE_END
300
CELLSTYLE
  1
TABLEFORMAT_BEGIN
 90
        5
170
     1
 91
        0
 92
        0
 62
   257
 93
        1
300
CONTENTFORMAT
  1
CONTENTFORMAT_BEGIN
 90
        0
 91
        0
 92
      512
 93
        0
300

 40
0.0
140
1.0
 94
        5
 62
     0
340
55
144
0.18
309
CONTENTFORMAT_END
171
     0
 94
        0
309
TABLEFORMAT_END
  1
CELLSTYLE_BEGIN
 90
        2
 91
        1
300
_HEADER
309
CELLSTYLE_END
300
CELLSTYLE
  1
TABLEFORMAT_BEGIN
 90
        5
170
     1
 91
        0
 92
        0
 62
   257
 93
        1
300
CONTENTFORMAT
  1
CONTENTFORMAT_BEGIN
 90
        0
 91
        0
 92
      512
 93
        0
300

 40
0.0
140
1.0
 94
        2
 62
     0
340
55
144
0.18
309
CONTENTFORMAT_END
171
     0
 94
        0
309
TABLEFORMAT_END
  1
CELLSTYLE_BEGIN
 90
        3
 91
        2
300
_DATA
309
CELLSTYLE_END
  0
ENDSEC
  0
EOF
