  0
SECTION
  2
HEADER
  9
$ACADVER
  1
AC1015
  9
$ACADMAINTVER
 70
     6
  9
$DWGCODEPAGE
  3
DOS932
  9
$INSBASE
 10
0.0
 20
0.0
 30
0.0
  9
$EXTMIN
 10
0.0
 20
0.0
 30
0.0
  9
$EXTMAX
 10
431.8
 20
279.4
 30
0.0
  9
$LIMMIN
 10
0.0
 20
0.0
  9
$LIMMAX
 10
431.8
 20
279.4
  9
$ORTHOMODE
 70
     0
  9
$REGENMODE
 70
     1
  9
$FILLMODE
 70
     1
  9
$QTEXTMODE
 70
     0
  9
$MIRRTEXT
 70
     1
  9
$LTSCALE
 40
1.0
  9
$ATTMODE
 70
     1
  9
$TEXTSIZE
 40
3.5
  9
$TRACEWID
 40
1.0
  9
$TEXTSTYLE
  7
Standard
  9
$CLAYER
  8
0
  9
$CELTYPE
  6
ByLayer
  9
$CECOLOR
 62
   256
  9
$CELTSCALE
 40
1.0
  9
$DISPSILH
 70
     0
  9
$DIMSCALE
 40
1.0
  9
$DIMASZ
 40
3.302
  9
$DIMEXO
 40
1.0
  9
$DIMDLI
 40
3.75
  9
$DIMRND
 40
0.0
  9
$DIMDLE
 40
0.0
  9
$DIMEXE
 40
1.0
  9
$DIMTP
 40
0.0
  9
$DIMTM
 40
0.0
  9
$DIMTXT
 40
3.5
  9
$DIMCEN
 40
2.5
  9
$DIMTSZ
 40
0.0
  9
$DIMTOL
 70
     0
  9
$DIMLIM
 70
     0
  9
$DIMTIH
 70
     1
  9
$DIMTOH
 70
     1
  9
$DIMSE1
 70
     0
  9
$DIMSE2
 70
     0
  9
$DIMTAD
 70
     1
  9
$DIMZIN
 70
     1
  9
$DIMBLK
  1

  9
$DIMASO
 70
     1
  9
$DIMSHO
 70
     1
  9
$DIMPOST
  1

  9
$DIMAPOST
  1

  9
$DIMALT
 70
     0
  9
$DIMALTD
 70
     3
  9
$DIMALTF
 40
0.0393700787
  9
$DIMLFAC
 40
1.0
  9
$DIMTOFL
 70
     1
  9
$DIMTVP
 40
0.0
  9
$DIMTIX
 70
     0
  9
$DIMSOXD
 70
     0
  9
$DIMSAH
 70
     0
  9
$DIMBLK1
  1

  9
$DIMBLK2
  1

  9
$DIMSTYLE
  2
ISO-25
  9
$DIMCLRD
 70
     0
  9
$DIMCLRE
 70
     0
  9
$DIMCLRT
 70
     0
  9
$DIMTFAC
 40
1.0
  9
$DIMGAP
 40
1.524
  9
$DIMJUST
 70
     0
  9
$DIMSD1
 70
     0
  9
$DIMSD2
 70
     0
  9
$DIMTOLJ
 70
     0
  9
$DIMTZIN
 70
     1
  9
$DIMALTZ
 70
     0
  9
$DIMALTTZ
 70
     0
  9
$DIMUPT
 70
     0
  9
$DIMDEC
 70
     2
  9
$DIMTDEC
 70
     2
  9
$DIMALTU
 70
     2
  9
$DIMALTTD
 70
     3
  9
$DIMTXSTY
  7
Standard
  9
$DIMAUNIT
 70
     0
  9
$DIMADEC
 70
     2
  9
$DIMALTRND
 40
0.0
  9
$DIMAZIN
 70
     0
  9
$DIMDSEP
 70
    44
  9
$DIMATFIT
 70
     3
  9
$DIMFRAC
 70
     0
  9
$DIMLDRBLK
  1

  9
$DIMLUNIT
 70
     2
  9
$DIMLWD
 70
    -2
  9
$DIMLWE
 70
    -2
  9
$DIMTMOVE
 70
     0
  9
$LUNITS
 70
     2
  9
$LUPREC
 70
     2
  9
$SKETCHINC
 40
1.0
  9
$FILLETRAD
 40
10.0
  9
$AUNITS
 70
     0
  9
$AUPREC
 70
     2
  9
$MENU
  1
.
  9
$ELEVATION
 40
0.0
  9
$PELEVATION
 40
0.0
  9
$THICKNESS
 40
0.0
  9
$LIMCHECK
 70
     0
  9
$CHAMFERA
 40
0.0
  9
$CHAMFERB
 40
0.0
  9
$CHAMFERC
 40
0.0
  9
$CHAMFERD
 40
0.0
  9
$SKPOLY
 70
     0
  9
$TDCREATE
 40
2459279.587757755
  9
$TDUCREATE
 40
2459279.212757755
  9
$TDUPDATE
 40
2459279.587758935
  9
$TDUUPDATE
 40
2459279.212758935
  9
$TDINDWG
 40
0.0000000116
  9
$TDUSRTIMER
 40
0.0000000116
  9
$USRTIMER
 70
     1
  9
$ANGBASE
 50
0.0
  9
$ANGDIR
 70
     0
  9
$PDMODE
 70
     0
  9
$PDSIZE
 40
-1.0
  9
$PLINEWID
 40
0.0
  9
$SPLFRAME
 70
     0
  9
$SPLINETYPE
 70
     6
  9
$SPLINESEGS
 70
     8
  9
$HANDSEED
  5
2D6
  9
$SURFTAB1
 70
     6
  9
$SURFTAB2
 70
     6
  9
$SURFTYPE
 70
     6
  9
$SURFU
 70
     6
  9
$SURFV
 70
     6
  9
$UCSBASE
  2

  9
$UCSNAME
  2

  9
$UCSORG
 10
0.0
 20
0.0
 30
0.0
  9
$UCSXDIR
 10
1.0
 20
0.0
 30
0.0
  9
$UCSYDIR
 10
0.0
 20
1.0
 30
0.0
  9
$UCSORTHOREF
  2

  9
$UCSORTHOVIEW
 70
     0
  9
$UCSORGTOP
 10
0.0
 20
0.0
 30
0.0
  9
$UCSORGBOTTOM
 10
0.0
 20
0.0
 30
0.0
  9
$UCSORGLEFT
 10
0.0
 20
0.0
 30
0.0
  9
$UCSORGRIGHT
 10
0.0
 20
0.0
 30
0.0
  9
$UCSORGFRONT
 10
0.0
 20
0.0
 30
0.0
  9
$UCSORGBACK
 10
0.0
 20
0.0
 30
0.0
  9
$PUCSBASE
  2

  9
$PUCSNAME
  2

  9
$PUCSORG
 10
0.0
 20
0.0
 30
0.0
  9
$PUCSXDIR
 10
1.0
 20
0.0
 30
0.0
  9
$PUCSYDIR
 10
0.0
 20
1.0
 30
0.0
  9
$PUCSORTHOREF
  2

  9
$PUCSORTHOVIEW
 70
     0
  9
$PUCSORGTOP
 10
0.0
 20
0.0
 30
0.0
  9
$PUCSORGBOTTOM
 10
0.0
 20
0.0
 30
0.0
  9
$PUCSORGLEFT
 10
0.0
 20
0.0
 30
0.0
  9
$PUCSORGRIGHT
 10
0.0
 20
0.0
 30
0.0
  9
$PUCSORGFRONT
 10
0.0
 20
0.0
 30
0.0
  9
$PUCSORGBACK
 10
0.0
 20
0.0
 30
0.0
  9
$USERI1
 70
     0
  9
$USERI2
 70
     0
  9
$USERI3
 70
     0
  9
$USERI4
 70
     0
  9
$USERI5
 70
     0
  9
$USERR1
 40
0.0
  9
$USERR2
 40
0.0
  9
$USERR3
 40
0.0
  9
$USERR4
 40
0.0
  9
$USERR5
 40
0.0
  9
$WORLDVIEW
 70
     1
  9
$SHADEDGE
 70
     3
  9
$SHADEDIF
 70
    70
  9
$TILEMODE
 70
     1
  9
$MAXACTVP
 70
    64
  9
$PINSBASE
 10
0.0
 20
0.0
 30
0.0
  9
$PLIMCHECK
 70
     0
  9
$PEXTMIN
 10
1.0000000000E+20
 20
1.0000000000E+20
 30
1.0000000000E+20
  9
$PEXTMAX
 10
-1.0000000000E+20
 20
-1.0000000000E+20
 30
-1.0000000000E+20
  9
$PLIMMIN
 10
0.0
 20
0.0
  9
$PLIMMAX
 10
420.0
 20
297.0
  9
$UNITMODE
 70
     0
  9
$VISRETAIN
 70
     1
  9
$PLINEGEN
 70
     0
  9
$PSLTSCALE
 70
     1
  9
$TREEDEPTH
 70
  3020
  9
$CMLSTYLE
  2
Standard
  9
$CMLJUST
 70
     0
  9
$CMLSCALE
 40
20.0
  9
$PROXYGRAPHICS
 70
     1
  9
$MEASUREMENT
 70
     1
  9
$CELWEIGHT
370
    -1
  9
$ENDCAPS
280
     0
  9
$JOINSTYLE
280
     0
  9
$LWDISPLAY
290
     1
  9
$INSUNITS
 70
     4
  9
$HYPERLINKBASE
  1

  9
$STYLESHEET
  1

  9
$XEDIT
290
     1
  9
$CEPSNTYPE
380
     0
  9
$PSTYLEMODE
290
     1
  9
$FINGERPRINTGUID
  2
{E57DB59E-DF8D-4AF3-90F6-6E1E378807AC}
  9
$VERSIONGUID
  2
{FAEB1C32-E019-11D5-929B-00C0DF256EC4}
  9
$EXTNAMES
290
     1
  9
$PSVPSCALE
 40
0.0
  9
$OLESTARTUP
290
     0
  0
ENDSEC
  0
SECTION
  2
CLASSES
  0
CLASS
  1
ACDBDICTIONARYWDFLT
  2
AcDbDictionaryWithDefault
  3
ObjectDBX Classes
 90
        0
280
     0
281
     0
  0
CLASS
  1
VISUALSTYLE
  2
AcDbVisualStyle
  3
ObjectDBX Classes
 90
     4095
280
     0
281
     0
  0
CLASS
  1
MATERIAL
  2
AcDbMaterial
  3
ObjectDBX Classes
 90
     1153
280
     0
281
     0
  0
CLASS
  1
SCALE
  2
AcDbScale
  3
ObjectDBX Classes
 90
     1153
280
     0
281
     0
  0
CLASS
  1
TABLESTYLE
  2
AcDbTableStyle
  3
ObjectDBX Classes
 90
     4095
280
     0
281
     0
  0
CLASS
  1
MLEADERSTYLE
  2
AcDbMLeaderStyle
  3
ACDB_MLEADERSTYLE_CLASS
 90
     4095
280
     0
281
     0
  0
CLASS
  1
SUN
  2
AcDbSun
  3
SCENEOE
 90
     1153
280
     0
281
     0
  0
CLASS
  1
ACDBPLACEHOLDER
  2
AcDbPlaceHolder
  3
ObjectDBX Classes
 90
        0
280
     0
281
     0
  0
CLASS
  1
LAYOUT
  2
AcDbLayout
  3
ObjectDBX Classes
 90
        0
280
     0
281
     0
  0
ENDSEC
  0
SECTION
  2
TABLES
  0
TABLE
  2
VPORT
  5
8
330
0
100
AcDbSymbolTable
 70
     1
  0
VPORT
  5
29
330
8
100
AcDbSymbolTableRecord
100
AcDbViewportTableRecord
  2
*Active
 70
     0
 10
0.0
 20
0.0
 11
1.0
 21
1.0
 12
215.9
 22
139.7
 13
0.0
 23
0.0
 14
10.0
 24
10.0
 15
10.0
 25
10.0
 16
0.0
 26
0.0
 36
1.0
 17
0.0
 27
0.0
 37
0.0
 40
279.4
 41
1.5454545455
 42
50.0
 43
0.0
 44
0.0
 50
0.0
 51
0.0
 71
     0
 72
  2000
 73
     1
 74
     3
 75
     0
 76
     0
 77
     0
 78
     0
281
     0
 65
     1
110
0.0
120
0.0
130
0.0
111
1.0
121
0.0
131
0.0
112
0.0
122
1.0
132
0.0
 79
     0
146
0.0
  0
ENDTAB
  0
TABLE
  2
LTYPE
  5
5
330
0
100
AcDbSymbolTable
 70
     6
  0
LTYPE
  5
14
330
5
100
AcDbSymbolTableRecord
100
AcDbLinetypeTableRecord
  2
ByBlock
 70
     0
  3

 72
    65
 73
     0
 40
0.0
  0
LTYPE
  5
15
330
5
100
AcDbSymbolTableRecord
100
AcDbLinetypeTableRecord
  2
ByLayer
 70
     0
  3

 72
    65
 73
     0
 40
0.0
  0
LTYPE
  5
16
330
5
100
AcDbSymbolTableRecord
100
AcDbLinetypeTableRecord
  2
Continuous
 70
     0
  3
Solid line
 72
    65
 73
     0
 40
0.0
  0
LTYPE
  5
6E
330
5
100
AcDbSymbolTableRecord
100
AcDbLinetypeTableRecord
  2
HIDDEN
 70
     0
  3
Hidden __ __ __ __ __ __ __ __ __ __ __ __ __ __
 72
    65
 73
     2
 40
1.905
 49
1.27
 74
     0
 49
-0.635
 74
     0
  0
LTYPE
  5
6F
330
5
100
AcDbSymbolTableRecord
100
AcDbLinetypeTableRecord
  2
PHANTOM
 70
     0
  3
Phantom ______  __  __  ______  __  __  ______
 72
    65
 73
     6
 40
12.7
 49
6.35
 74
     0
 49
-1.27
 74
     0
 49
1.27
 74
     0
 49
-1.27
 74
     0
 49
1.27
 74
     0
 49
-1.27
 74
     0
  0
LTYPE
  5
70
330
5
100
AcDbSymbolTableRecord
100
AcDbLinetypeTableRecord
  2
CENTER
 70
     0
  3
Center ____ _ ____ _ ____ _ ____ _ ____ _ ____
 72
    65
 73
     4
 40
10.16
 49
6.35
 74
     0
 49
-1.27
 74
     0
 49
1.27
 74
     0
 49
-1.27
 74
     0
  0
LTYPE
  5
71
330
5
100
AcDbSymbolTableRecord
100
AcDbLinetypeTableRecord
  2
CENTERX2
 70
     0
  3
Center (2x) ________  __  ________  __  _____
 72
    65
 73
     4
 40
20.32
 49
12.7
 74
     0
 49
-2.54
 74
     0
 49
2.54
 74
     0
 49
-2.54
 74
     0
  0
LTYPE
  5
72
330
5
100
AcDbSymbolTableRecord
100
AcDbLinetypeTableRecord
  2
DOT2
 70
     0
  3
Dot (.5x) ........................................
 72
    65
 73
     2
 40
0.635
 49
0.0
 74
     0
 49
-0.635
 74
     0
  0
ENDTAB
  0
TABLE
  2
LAYER
  5
2
330
0
100
AcDbSymbolTable
 70
     1
  0
LAYER
  5
10
330
2
100
AcDbSymbolTableRecord
100
AcDbLayerTableRecord
  2
0
 70
     0
 62
     7
  6
Continuous
370
    -3
390
F
  0
ENDTAB
  0
TABLE
  2
STYLE
  5
3
330
0
100
AcDbSymbolTable
 70
     2
  0
STYLE
  5
11
330
3
100
AcDbSymbolTableRecord
100
AcDbTextStyleTableRecord
  2
Standard
 70
     0
 40
0.0
 41
1.0
 50
0.0
 71
     0
 42
3.5
  3
txt
  4
bigfont
  0
STYLE
  5
73
330
3
100
AcDbSymbolTableRecord
100
AcDbTextStyleTableRecord
  2
SLDTEXTSTYLE0
 70
     0
 40
0.0
 41
0.7
 50
0.0
 71
     0
 42
3.5
  3
TXT
  4
bigfont
  0
ENDTAB
  0
TABLE
  2
VIEW
  5
6
330
0
100
AcDbSymbolTable
 70
     0
  0
ENDTAB
  0
TABLE
  2
UCS
  5
7
330
0
100
AcDbSymbolTable
 70
     0
  0
ENDTAB
  0
TABLE
  2
APPID
  5
9
330
0
100
AcDbSymbolTable
 70
     1
  0
APPID
  5
12
330
9
100
AcDbSymbolTableRecord
100
AcDbRegAppTableRecord
  2
ACAD
 70
     0
  0
ENDTAB
  0
TABLE
  2
DIMSTYLE
  5
A
330
0
100
AcDbSymbolTable
 70
     1
100
AcDbDimStyleTable
  0
DIMSTYLE
105
27
330
A
100
AcDbSymbolTableRecord
100
AcDbDimStyleTableRecord
  2
ISO-25
 70
     0
 41
2.5
 42
0.625
 43
3.75
 44
1.25
 73
     0
 74
     0
 77
     1
 78
     8
140
2.5
141
2.5
143
0.0393700787
147
0.625
171
     3
172
     1
178
     0
271
     2
272
     2
274
     3
278
    44
283
     0
284
     8
340
11
  0
ENDTAB
  0
TABLE
  2
BLOCK_RECORD
  5
1
330
0
100
AcDbSymbolTable
 70
     1
  0
BLOCK_RECORD
  5
1F
330
1
100
AcDbSymbolTableRecord
100
AcDbBlockTableRecord
  2
*Model_Space
340
22
  0
BLOCK_RECORD
  5
1B
330
1
100
AcDbSymbolTableRecord
100
AcDbBlockTableRecord
  2
*Paper_Space
340
1E
  0
BLOCK_RECORD
  5
23
330
1
100
AcDbSymbolTableRecord
100
AcDbBlockTableRecord
  2
*Paper_Space0
340
26
  0
ENDTAB
  0
ENDSEC
  0
SECTION
  2
BLOCKS
  0
BLOCK
  5
20
330
1F
100
AcDbEntity
  8
0
100
AcDbBlockBegin
  2
*Model_Space
 70
     0
 10
0.0
 20
0.0
 30
0.0
  3
*Model_Space
  1

  0
ENDBLK
  5
21
330
1F
100
AcDbEntity
  8
0
100
AcDbBlockEnd
  0
BLOCK
  5
1C
330
1B
100
AcDbEntity
 67
     1
  8
0
100
AcDbBlockBegin
  2
*Paper_Space
 70
     0
 10
0.0
 20
0.0
 30
0.0
  3
*Paper_Space
  1

  0
ENDBLK
  5
1D
330
1B
100
AcDbEntity
 67
     1
  8
0
100
AcDbBlockEnd
  0
BLOCK
  5
24
330
23
100
AcDbEntity
  8
0
100
AcDbBlockBegin
  2
*Paper_Space0
 70
     0
 10
0.0
 20
0.0
 30
0.0
  3
*Paper_Space0
  1

  0
ENDBLK
  5
25
330
23
100
AcDbEntity
  8
0
100
AcDbBlockEnd
  0
ENDSEC
  0
SECTION
  2
ENTITIES
  0
MTEXT
  5
74
330
1F
100
AcDbEntity
  8
0
  6
Continuous
 62
     7
370
     0
100
AcDbMText
 10
189.8645040757
 20
128.3724967858
 30
0.0
 40
4.2333333333
 41
0.0
 71
     1
 72
     1
  1
1R-BL2400
  7
SLDTEXTSTYLE0
 73
     1
 44
1.0
  0
LINE
  5
75
330
1F
100
AcDbEntity
  8
0
  6
Continuous
 62
     7
370
    25
100
AcDbLine
 10
142.6252532108
 20
94.6868533143
 30
0.0
 11
142.3752527041
 21
94.436853739
 31
0.0
  0
LINE
  5
76
330
1F
100
AcDbEntity
  8
0
  6
Continuous
 62
     7
370
    25
100
AcDbLine
 10
142.3752527041
 20
74.9368533367
 30
0.0
 11
142.6252532108
 21
74.6868537614
 31
0.0
  0
LINE
  5
77
330
1F
100
AcDbEntity
  8
0
  6
Continuous
 62
     7
370
    25
100
AcDbLine
 10
145.3752531959
 20
94.6868533143
 30
0.0
 11
142.6252532108
 21
94.6868533143
 31
0.0
  0
LINE
  5
78
330
1F
100
AcDbEntity
  8
0
  6
Continuous
 62
     7
370
    25
100
AcDbLine
 10
142.6252532108
 20
74.6868537614
 30
0.0
 11
145.3752531959
 21
74.6868537614
 31
0.0
  0
LINE
  5
79
330
1F
100
AcDbEntity
  8
0
  6
Continuous
 62
     7
370
    25
100
AcDbLine
 10
123.7252517892
 20
64.6868539849
 30
0.0
 11
123.7252517892
 21
66.6868543127
 31
0.0
  0
LINE
  5
7A
330
1F
100
AcDbEntity
  8
0
  6
Continuous
 62
     7
370
    25
100
AcDbLine
 10
111.025252874
 20
66.6868543127
 30
0.0
 11
111.025252874
 21
64.6868539849
 31
0.0
  0
LINE
  5
7B
330
1F
100
AcDbEntity
  8
0
  6
Continuous
 62
     7
370
    25
100
AcDbLine
 10
135.3752534194
 20
78.3368536146
 30
0.0
 11
142.3752527041
 21
78.3368536146
 31
0.0
  0
LINE
  5
7C
330
1F
100
AcDbEntity
  8
0
  6
Continuous
 62
     7
370
    25
100
AcDbLine
 10
142.3752527041
 20
91.0368534611
 30
0.0
 11
135.3752534194
 21
91.0368534611
 31
0.0
  0
ARC
  5
7D
330
1F
100
AcDbEntity
  8
0
  6
Continuous
 62
     7
370
    25
100
AcDbCircle
 10
135.3752529574
 20
66.6868535378
 30
0.0
 40
11.65000000000001
100
AcDbArc
 50
90.0
 51
180.0
  0
ARC
  5
7E
330
1F
100
AcDbEntity
  8
0
  6
Continuous
 62
     7
370
    25
100
AcDbCircle
 10
135.3752529574
 20
66.6868535378
 30
0.0
 40
24.35000000000002
100
AcDbArc
 50
90.0
 51
180.0
  0
LINE
  5
7F
330
1F
100
AcDbEntity
  8
0
  6
Continuous
 62
     7
370
    25
100
AcDbLine
 10
145.6252527712
 20
72.6868534335
 30
0.0
 11
148.3823596788
 21
72.6868534335
 31
0.0
  0
LINE
  5
80
330
1F
100
AcDbEntity
  8
0
  6
Continuous
 62
     7
370
    25
100
AcDbLine
 10
148.3823596788
 20
96.6868536421
 30
0.0
 11
145.6252527712
 21
96.6868536421
 31
0.0
  0
LINE
  5
81
330
1F
100
AcDbEntity
  8
0
  6
Continuous
 62
     7
370
    25
100
AcDbLine
 10
170.6252531437
 20
96.6868536421
 30
0.0
 11
167.868146236
 21
96.6868536421
 31
0.0
  0
LINE
  5
82
330
1F
100
AcDbEntity
  8
0
  6
Continuous
 62
     7
370
    25
100
AcDbLine
 10
167.868146236
 20
72.6868534335
 30
0.0
 11
170.6252531437
 21
72.6868534335
 31
0.0
  0
LINE
  5
83
330
1F
100
AcDbEntity
  8
0
  6
Continuous
 62
     7
370
    25
100
AcDbLine
 10
145.6252527712
 20
96.6868536421
 30
0.0
 11
145.3752531959
 21
96.4368531355
 31
0.0
  0
LINE
  5
84
330
1F
100
AcDbEntity
  8
0
  6
Continuous
 62
     7
370
    25
100
AcDbLine
 10
145.3752531959
 20
72.9368539402
 30
0.0
 11
145.6252527712
 21
72.6868534335
 31
0.0
  0
LINE
  5
85
330
1F
100
AcDbEntity
  8
0
  6
Continuous
 62
     7
370
    25
100
AcDbLine
 10
170.6252531437
 20
72.6868534335
 30
0.0
 11
170.875252719
 21
72.9368539402
 31
0.0
  0
LINE
  5
86
330
1F
100
AcDbEntity
  8
0
  6
Continuous
 62
     7
370
    25
100
AcDbLine
 10
170.875252719
 20
96.4368531355
 30
0.0
 11
170.6252531437
 21
96.6868536421
 31
0.0
  0
LINE
  5
87
330
1F
100
AcDbEntity
  8
0
  6
Continuous
 62
     7
370
    25
100
AcDbLine
 10
167.868146236
 20
96.6868536421
 30
0.0
 11
167.6252871109
 21
96.443994517
 31
0.0
  0
LINE
  5
88
330
1F
100
AcDbEntity
  8
0
  6
Continuous
 62
     7
370
    25
100
AcDbLine
 10
148.3823596788
 20
72.6868534335
 30
0.0
 11
148.625218804
 21
72.9297125587
 31
0.0
  0
LINE
  5
89
330
1F
100
AcDbEntity
  8
0
  6
Continuous
 62
     7
370
    25
100
AcDbLine
 10
148.625218804
 20
96.443994517
 30
0.0
 11
148.3823596788
 21
96.6868536421
 31
0.0
  0
LINE
  5
8A
330
1F
100
AcDbEntity
  8
0
  6
Continuous
 62
     7
370
    25
100
AcDbLine
 10
167.6252871109
 20
72.9297125587
 30
0.0
 11
167.868146236
 21
72.6868534335
 31
0.0
  0
LINE
  5
8B
330
1F
100
AcDbEntity
  8
0
  6
Continuous
 62
     7
370
    25
100
AcDbLine
 10
170.875252719
 20
74.0268533924
 30
0.0
 11
182.1788619561
 21
74.3800910064
 31
0.0
  0
LINE
  5
8C
330
1F
100
AcDbEntity
  8
0
  6
Continuous
 62
     7
370
    25
100
AcDbLine
 10
182.1788619561
 20
94.9936160692
 30
0.0
 11
170.875252719
 21
95.3468536833
 31
0.0
  0
ARC
  5
8D
330
1F
100
AcDbEntity
  8
0
  6
Continuous
 62
     7
370
    25
100
AcDbCircle
 10
147.8752529574
 20
96.4368535378
 30
0.0
 40
0.7500000000000112
100
AcDbArc
 50
0.0
 51
0.5455233255
  0
ARC
  5
8E
330
1F
100
AcDbEntity
  8
0
  6
Continuous
 62
     7
370
    25
100
AcDbCircle
 10
168.3752529574
 20
72.9368535378
 30
0.0
 40
0.7500000000000112
100
AcDbArc
 50
180.0
 51
180.5455233255
  0
ARC
  5
8F
330
1F
100
AcDbEntity
  8
0
  6
Continuous
 62
     7
370
    25
100
AcDbCircle
 10
168.3752529574
 20
96.4368535378
 30
0.0
 40
0.7500000000000112
100
AcDbArc
 50
179.4544766745
 51
180.0
  0
ARC
  5
90
330
1F
100
AcDbEntity
  8
0
  6
Continuous
 62
     7
370
    25
100
AcDbCircle
 10
147.8752529574
 20
72.9368535378
 30
0.0
 40
0.7500000000000112
100
AcDbArc
 50
359.4544766745
 51
0.0
  0
LINE
  5
91
330
1F
100
AcDbEntity
  8
0
  6
Continuous
 62
     7
370
    25
100
AcDbLine
 10
182.1788619561
 20
74.3800910064
 30
0.0
 11
184.8752531512
 21
75.9368535006
 31
0.0
  0
LINE
  5
92
330
1F
100
AcDbEntity
  8
0
  6
Continuous
 62
     7
370
    25
100
AcDbLine
 10
184.8752531512
 20
93.4368535751
 30
0.0
 11
182.1788619561
 21
94.9936160692
 31
0.0
  0
ARC
  5
93
330
1F
100
AcDbEntity
  8
0
  6
Continuous
 62
     7
370
    25
100
AcDbCircle
 10
167.2252529574
 20
96.0868535378
 30
0.0
 40
0.4000000000000057
100
AcDbArc
 50
270.0
 51
0.0
  0
ARC
  5
94
330
1F
100
AcDbEntity
  8
0
  6
Continuous
 62
     7
370
    25
100
AcDbCircle
 10
149.0252529574
 20
96.0868535378
 30
0.0
 40
0.4000000000000057
100
AcDbArc
 50
180.0
 51
270.0
  0
ARC
  5
95
330
1F
100
AcDbEntity
  8
0
  6
Continuous
 62
     7
370
    25
100
AcDbCircle
 10
167.2252529574
 20
73.2868535378
 30
0.0
 40
0.4000000000000057
100
AcDbArc
 50
0.0
 51
90.0
  0
ARC
  5
96
330
1F
100
AcDbEntity
  8
0
  6
Continuous
 62
     7
370
    25
100
AcDbCircle
 10
149.0252529574
 20
73.2868535378
 30
0.0
 40
0.4000000000000057
100
AcDbArc
 50
90.0
 51
180.0
  0
LINE
  5
97
330
1F
100
AcDbEntity
  8
0
  6
Continuous
 62
     7
370
    25
100
AcDbLine
 10
151.7496933518
 20
95.6868534782
 30
0.0
 11
149.0252525834
 21
95.6868534782
 31
0.0
  0
LINE
  5
98
330
1F
100
AcDbEntity
  8
0
  6
Continuous
 62
     7
370
    25
100
AcDbLine
 10
167.2252533315
 20
95.6868534782
 30
0.0
 11
164.5252527958
 21
95.6868534782
 31
0.0
  0
LINE
  5
99
330
1F
100
AcDbEntity
  8
0
  6
Continuous
 62
     7
370
    25
100
AcDbLine
 10
149.0252525834
 20
73.6868535974
 30
0.0
 11
167.2252533315
 21
73.6868535974
 31
0.0
  0
SPLINE
  5
9A
330
1F
100
AcDbEntity
  8
0
  6
Continuous
 62
     7
370
    25
100
AcDbSpline
210
0.0
220
0.0
230
1.0
 70
     8
 71
     3
 72
    12
 73
     8
 74
     0
 42
0.000000001
 43
0.00000001
 40
0.0
 40
0.0
 40
0.0
 40
0.0
 40
0.182241502017594
 40
0.376660578782879
 40
0.5902332551043863
 40
0.828987024315231
 40
1.0
 40
1.0
 40
1.0
 40
1.0
 10
164.4702111659408
 20
95.68976386127862
 30
0.0
 10
164.4256524236632
 20
95.6964415372047
 30
0.0
 10
164.3335574756393
 20
95.71024309860206
 30
0.0
 10
164.2059523922273
 20
95.78709710977199
 30
0.0
 10
164.0965298584518
 20
95.90457797828448
 30
0.0
 10
164.0300280898039
 20
96.04868421468782
 30
0.0
 10
164.0262990856735
 20
96.15006491998233
 30
0.0
 10
164.0247428146959
 20
96.19237537173423
 30
0.0
  0
SPLINE
  5
9B
330
1F
100
AcDbEntity
  8
0
  6
Continuous
 62
     7
370
    25
100
AcDbSpline
210
0.0
220
0.0
230
1.0
 70
     8
 71
     3
 72
    13
 73
     9
 74
     0
 42
0.000000001
 43
0.00000001
 40
0.0
 40
0.0
 40
0.0
 40
0.0
 40
0.0953897076946469
 40
0.3056051718498697
 40
0.5326554768001521
 40
0.7173912591646497
 40
0.8754881165782263
 40
1.0
 40
1.0
 40
1.0
 40
1.0
 10
152.2237179158092
 20
96.17364554343614
 30
0.0
 10
152.2243046632578
 20
96.14955037989151
 30
0.0
 10
152.2261844578312
 20
96.07235539970162
 30
0.0
 10
152.1769275768964
 20
95.94308898887124
 30
0.0
 10
152.0818560464222
 20
95.81594725141952
 30
0.0
 10
151.9618995376737
 20
95.73398889382334
 30
0.0
 10
151.8503752261159
 20
95.6920292225688
 30
0.0
 10
151.7796889520907
 20
95.68620859520611
 30
0.0
 10
151.7485459623695
 20
95.68364414064082
 30
0.0
  0
LINE
  5
9C
330
1F
100
AcDbEntity
  8
0
  6
Continuous
 62
     7
370
    25
100
AcDbLine
 10
164.0252531795
 20
96.1868535602
 30
0.0
 11
164.0252531795
 21
97.1868537241
 31
0.0
  0
LINE
  5
9D
330
1F
100
AcDbEntity
  8
0
  6
Continuous
 62
     7
370
    25
100
AcDbLine
 10
152.2252527354
 20
97.1868537241
 30
0.0
 11
152.2252527354
 21
96.1732702204
 31
0.0
  0
LINE
  5
9E
330
1F
100
AcDbEntity
  8
0
  6
Continuous
 62
     7
370
    25
100
AcDbLine
 10
165.1252531735
 20
97.1868537241
 30
0.0
 11
165.5752528747
 21
105.1868541041
 31
0.0
  0
LINE
  5
9F
330
1F
100
AcDbEntity
  8
0
  6
Continuous
 62
     7
370
    25
100
AcDbLine
 10
165.5752528747
 20
105.1868541041
 30
0.0
 11
163.6252529276
 21
113.1868535527
 31
0.0
  0
LINE
  5
A0
330
1F
100
AcDbEntity
  8
0
  6
Continuous
 62
     7
370
    25
100
AcDbLine
 10
151.0545965573
 20
98.4429713213
 30
0.0
 11
151.1252527414
 21
97.1868537241
 31
0.0
  0
LINE
  5
A1
330
1F
100
AcDbEntity
  8
0
  6
Continuous
 62
     7
370
    25
100
AcDbLine
 10
152.6252529872
 20
113.1868535527
 30
0.0
 11
152.3720212569
 21
112.1479557702
 31
0.0
  0
LINE
  5
A2
330
1F
100
AcDbEntity
  8
0
  6
Continuous
 62
     7
370
    25
100
AcDbLine
 10
142.3752527041
 20
84.6868535378
 30
0.0
 11
142.3752527041
 21
94.436853739
 31
0.0
  0
LINE
  5
A3
330
1F
100
AcDbEntity
  8
0
  6
Continuous
 62
     7
370
    25
100
AcDbLine
 10
142.3752527041
 20
74.9368533367
 30
0.0
 11
142.3752527041
 21
84.6868535378
 31
0.0
  0
LINE
  5
A4
330
1F
100
AcDbEntity
  8
0
  6
Continuous
 62
     7
370
    25
100
AcDbLine
 10
142.6252532108
 20
84.6868535378
 30
0.0
 11
142.6252532108
 21
74.6868537614
 31
0.0
  0
LINE
  5
A5
330
1F
100
AcDbEntity
  8
0
  6
Continuous
 62
     7
370
    25
100
AcDbLine
 10
142.6252532108
 20
94.6868533143
 30
0.0
 11
142.6252532108
 21
84.6868535378
 31
0.0
  0
LINE
  5
A6
330
1F
100
AcDbEntity
  8
0
  6
Continuous
 62
     7
370
    25
100
AcDbLine
 10
117.3752523316
 20
64.6868539849
 30
0.0
 11
111.025252874
 21
64.6868539849
 31
0.0
  0
LINE
  5
A7
330
1F
100
AcDbEntity
  8
0
  6
Continuous
 62
     7
370
    25
100
AcDbLine
 10
123.7252517892
 20
64.6868539849
 30
0.0
 11
117.3752523316
 21
64.6868539849
 31
0.0
  0
LINE
  5
A8
330
1F
100
AcDbEntity
  8
0
  6
Continuous
 62
     7
370
    25
100
AcDbLine
 10
148.625218804
 20
87.5772708902
 30
0.0
 11
148.625218804
 21
81.7964361855
 31
0.0
  0
LINE
  5
A9
330
1F
100
AcDbEntity
  8
0
  6
Continuous
 62
     7
370
    25
100
AcDbLine
 10
148.625218804
 20
81.7964361855
 30
0.0
 11
148.3823596788
 21
81.7367307251
 31
0.0
  0
LINE
  5
AA
330
1F
100
AcDbEntity
  8
0
  6
Continuous
 62
     7
370
    25
100
AcDbLine
 10
148.3823596788
 20
81.7367307251
 30
0.0
 11
148.3823596788
 21
87.6369763506
 31
0.0
  0
LINE
  5
AB
330
1F
100
AcDbEntity
  8
0
  6
Continuous
 62
     7
370
    25
100
AcDbLine
 10
148.3823596788
 20
87.6369763506
 30
0.0
 11
148.625218804
 21
87.5772708902
 31
0.0
  0
LINE
  5
AC
330
1F
100
AcDbEntity
  8
0
  6
Continuous
 62
     7
370
    25
100
AcDbLine
 10
145.6252527712
 20
84.6868535378
 30
0.0
 11
145.6252527712
 21
72.6868534335
 31
0.0
  0
LINE
  5
AD
330
1F
100
AcDbEntity
  8
0
  6
Continuous
 62
     7
370
    25
100
AcDbLine
 10
145.6252527712
 20
96.6868536421
 30
0.0
 11
145.6252527712
 21
84.6868535378
 31
0.0
  0
LINE
  5
AE
330
1F
100
AcDbEntity
  8
0
  6
Continuous
 62
     7
370
    25
100
AcDbLine
 10
148.3823596788
 20
90.1966128373
 30
0.0
 11
148.3823596788
 21
96.6868536421
 31
0.0
  0
SPLINE
  5
AF
330
1F
100
AcDbEntity
  8
0
  6
Continuous
 62
     7
370
    25
100
AcDbSpline
210
0.0
220
0.0
230
1.0
 70
     8
 71
     3
 72
    13
 73
     9
 74
     0
 42
0.000000001
 43
0.00000001
 40
0.0
 40
0.0
 40
0.0
 40
0.0
 40
0.123409203972734
 40
0.2495635406297123
 40
0.5004511475233475
 40
0.749483003608821
 40
0.8735723371285005
 40
1.0
 40
1.0
 40
1.0
 40
1.0
 10
148.5539597331007
 20
89.72458629054178
 30
0.0
 10
148.5394266911827
 20
89.74102514036987
 30
0.0
 10
148.5100373322013
 20
89.7742685082461
 30
0.0
 10
148.4621111156694
 20
89.8478024726874
 30
0.0
 10
148.4177168254576
 20
89.94678062810961
 30
0.0
 10
148.3935414407477
 20
90.05012969656511
 30
0.0
 10
148.3837078442249
 20
90.13357810648587
 30
0.0
 10
148.3828118947608
 20
90.17547096472616
 30
0.0
 10
148.382359738626
 20
90.1966129081257
 30
0.0
  0
SPLINE
  5
B0
330
1F
100
AcDbEntity
  8
0
  6
Continuous
 62
     7
370
    25
100
AcDbSpline
210
0.0
220
0.0
230
1.0
 70
     8
 71
     3
 72
    14
 73
    10
 74
     0
 42
0.000000001
 43
0.00000001
 40
0.0
 40
0.0
 40
0.0
 40
0.0
 40
0.0833728361874164
 40
0.1651391830231223
 40
0.2505782922901014
 40
0.3661552980483097
 40
0.5013015333863843
 40
0.7511277814203854
 40
1.0
 40
1.0
 40
1.0
 40
1.0
 10
148.6482746760235
 20
89.4284527501725
 30
0.0
 10
148.6543871538148
 20
89.43596493311915
 30
0.0
 10
148.6664943296632
 20
89.45084454872614
 30
0.0
 10
148.6762731048407
 20
89.47785479672935
 30
0.0
 10
148.6790365083551
 20
89.50955066535285
 30
0.0
 10
148.6722008124055
 20
89.54687978088543
 30
0.0
 10
148.6506854749515
 20
89.59920113654901
 30
0.0
 10
148.6113782385841
 20
89.66032713637908
 30
0.0
 10
148.5730748096148
 20
89.7031939077514
 30
0.0
 10
148.5539597331007
 20
89.72458629054178
 30
0.0
  0
SPLINE
  5
B1
330
1F
100
AcDbEntity
  8
0
  6
Continuous
 62
     7
370
    25
100
AcDbSpline
210
0.0
220
0.0
230
1.0
 70
     8
 71
     3
 72
    17
 73
    13
 74
     0
 42
0.000000001
 43
0.00000001
 40
0.0
 40
0.0
 40
0.0
 40
0.0
 40
0.1308472312971285
 40
0.2501712416478232
 40
0.5002181447817603
 40
0.5625722445347702
 40
0.6248529024619178
 40
0.7493346422976469
 40
0.8746411565565786
 40
0.9373094462329892
 40
0.9700546542881243
 40
1.0
 40
1.0
 40
1.0
 40
1.0
 10
148.382359738626
 20
87.63697627452625
 30
0.0
 10
148.3826110364441
 20
87.71872171671386
 30
0.0
 10
148.3830915012316
 20
87.87501358906295
 30
0.0
 10
148.3891911798395
 20
88.18527085723129
 30
0.0
 10
148.4010196951076
 20
88.45077508864969
 30
0.0
 10
148.4214407729412
 20
88.67844976542735
 30
0.0
 10
148.4385713087143
 20
88.82898788286545
 30
0.0
 10
148.4682406924465
 20
89.01557347375888
 30
0.0
 10
148.5162809222823
 20
89.19838361597067
 30
0.0
 10
148.5712760668146
 20
89.3201425708113
 30
0.0
 10
148.6112833033714
 20
89.38519110538226
 30
0.0
 10
148.6363168988696
 20
89.41446805399536
 30
0.0
 10
148.6482746760235
 20
89.4284527501725
 30
0.0
  0
SPLINE
  5
B2
330
1F
100
AcDbEntity
  8
0
  6
Continuous
 62
     7
370
    25
100
AcDbSpline
210
0.0
220
0.0
230
1.0
 70
     8
 71
     3
 72
    18
 73
    14
 74
     0
 42
0.000000001
 43
0.00000001
 40
0.0
 40
0.0
 40
0.0
 40
0.0
 40
0.029737591773436
 40
0.0622585994667435
 40
0.1245690829008355
 40
0.1747355398271628
 40
0.2498061834276713
 40
0.375180360281337
 40
0.4377454186259961
 40
0.5002333231924232
 40
0.7499313720644836
 40
0.8691943481471814
 40
1.0
 40
1.0
 40
1.0
 40
1.0
 10
148.6482746760173
 20
79.9452543255094
 30
0.0
 10
148.6363951989396
 20
79.95914033910756
 30
0.0
 10
148.6115243347861
 20
79.98821208659082
 30
0.0
 10
148.5716980166847
 20
80.05281407627058
 30
0.0
 10
148.5353656855241
 20
80.13273490384587
 30
0.0
 10
148.4995935258008
 20
80.24003237094269
 30
0.0
 10
148.4635225514306
 20
80.38692531737472
 30
0.0
 10
148.4386298715202
 20
80.5443321002433
 30
0.0
 10
148.4213942456086
 20
80.69565416278205
 30
0.0
 10
148.401000586819
 20
80.92340424926104
 30
0.0
 10
148.3891831696547
 20
81.18875866687317
 30
0.0
 10
148.3830907120258
 20
81.49876370470332
 30
0.0
 10
148.3826107806551
 20
81.65500451292841
 30
0.0
 10
148.382359738626
 20
81.73673080116622
 30
0.0
  0
SPLINE
  5
B3
330
1F
100
AcDbEntity
  8
0
  6
Continuous
 62
     7
370
    25
100
AcDbSpline
210
0.0
220
0.0
230
1.0
 70
     8
 71
     3
 72
    13
 73
     9
 74
     0
 42
0.000000001
 43
0.00000001
 40
0.0
 40
0.0
 40
0.0
 40
0.0
 40
0.2491824652873907
 40
0.4987738521015481
 40
0.6338602399676626
 40
0.7494868859159842
 40
0.8759187542423453
 40
1.0
 40
1.0
 40
1.0
 40
1.0
 10
148.5539597330926
 20
79.64912078513798
 30
0.0
 10
148.5730853171078
 20
79.67052627984123
 30
0.0
 10
148.6113678712273
 20
79.71337239678992
 30
0.0
 10
148.6506210425262
 20
79.774406620411
 30
0.0
 10
148.6721857799296
 20
79.8267404048584
 30
0.0
 10
148.6797388390905
 20
79.86833257673892
 30
0.0
 10
148.6746151670093
 20
79.91038553278388
 30
0.0
 10
148.6569997431515
 20
79.93370432982081
 30
0.0
 10
148.6482746760235
 20
79.94525432550265
 30
0.0
  0
SPLINE
  5
B4
330
1F
100
AcDbEntity
  8
0
  6
Continuous
 62
     7
370
    25
100
AcDbSpline
210
0.0
220
0.0
230
1.0
 70
     8
 71
     3
 72
    13
 73
     9
 74
     0
 42
0.000000001
 43
0.00000001
 40
0.0
 40
0.0
 40
0.0
 40
0.0
 40
0.126696314384486
 40
0.2513113397888735
 40
0.5007108425294119
 40
0.7510525732451946
 40
0.876867377471871
 40
1.0
 40
1.0
 40
1.0
 40
1.0
 10
148.3823597386261
 20
79.17709416756422
 30
0.0
 10
148.3828122532591
 20
79.19828120501282
 30
0.0
 10
148.3837098488937
 20
79.24030723231465
 30
0.0
 10
148.3936026225134
 20
79.32394828628067
 30
0.0
 10
148.4178568793903
 20
79.42734720278524
 30
0.0
 10
148.4622922088802
 20
79.52621492280797
 30
0.0
 10
148.5101364306808
 20
79.59956192219892
 30
0.0
 10
148.5394572673942
 20
79.63272024773718
 30
0.0
 10
148.5539597331007
 20
79.64912078513333
 30
0.0
  0
LINE
  5
B5
330
1F
100
AcDbEntity
  8
0
  6
Continuous
 62
     7
370
    25
100
AcDbLine
 10
148.3823596788
 20
72.6868534335
 30
0.0
 11
148.3823596788
 21
79.1770942384
 31
0.0
  0
LINE
  5
B6
330
1F
100
AcDbEntity
  8
0
  6
Continuous
 62
     7
370
    25
100
AcDbLine
 10
167.6252871109
 20
81.7964361855
 30
0.0
 11
167.6252871109
 21
87.5772708902
 31
0.0
  0
LINE
  5
B7
330
1F
100
AcDbEntity
  8
0
  6
Continuous
 62
     7
370
    25
100
AcDbLine
 10
167.6252871109
 20
87.5772708902
 30
0.0
 11
167.868146236
 21
87.6369763506
 31
0.0
  0
LINE
  5
B8
330
1F
100
AcDbEntity
  8
0
  6
Continuous
 62
     7
370
    25
100
AcDbLine
 10
167.868146236
 20
87.6369763506
 30
0.0
 11
167.868146236
 21
81.7367307251
 31
0.0
  0
LINE
  5
B9
330
1F
100
AcDbEntity
  8
0
  6
Continuous
 62
     7
370
    25
100
AcDbLine
 10
167.868146236
 20
81.7367307251
 30
0.0
 11
167.6252871109
 21
81.7964361855
 31
0.0
  0
SPLINE
  5
BA
330
1F
100
AcDbEntity
  8
0
  6
Continuous
 62
     7
370
    25
100
AcDbSpline
210
0.0
220
0.0
230
1.0
 70
     8
 71
     3
 72
    14
 73
    10
 74
     0
 42
0.000000001
 43
0.00000001
 40
0.0
 40
0.0
 40
0.0
 40
0.0
 40
0.0833728361793554
 40
0.1651391830151492
 40
0.2505782922889906
 40
0.366155298026219
 40
0.5013015333857042
 40
0.7511277814200346
 40
1.0
 40
1.0
 40
1.0
 40
1.0
 10
167.6022312388554
 20
79.94525432550266
 30
0.0
 10
167.5961187610648
 20
79.93774214255667
 30
0.0
 10
167.5840115852172
 20
79.92286252695025
 30
0.0
 10
167.5742328100405
 20
79.89585227894716
 30
0.0
 10
167.571469406523
 20
79.8641564103255
 30
0.0
 10
167.5783051024727
 20
79.82682729479201
 30
0.0
 10
167.599820439926
 20
79.77450593912818
 30
0.0
 10
167.6391276762948
 20
79.71337993929606
 30
0.0
 10
167.6774311052641
 20
79.67051316792374
 30
0.0
 10
167.6965461817782
 20
79.64912078513335
 30
0.0
  0
SPLINE
  5
BB
330
1F
100
AcDbEntity
  8
0
  6
Continuous
 62
     7
370
    25
100
AcDbSpline
210
0.0
220
0.0
230
1.0
 70
     8
 71
     3
 72
    17
 73
    13
 74
     0
 42
0.000000001
 43
0.00000001
 40
0.0
 40
0.0
 40
0.0
 40
0.0
 40
0.1308472312969632
 40
0.2501712416478237
 40
0.5002181447817658
 40
0.5625722445347804
 40
0.6248529024619248
 40
0.749334642297656
 40
0.8746411565565848
 40
0.9373094462329951
 40
0.9700546542885856
 40
1.0
 40
1.0
 40
1.0
 40
1.0
 10
167.8681461762529
 20
81.73673080114894
 30
0.0
 10
167.8678948784348
 20
81.65498535896143
 30
0.0
 10
167.8674144136473
 20
81.49869348661234
 30
0.0
 10
167.8613147350395
 20
81.18843621844398
 30
0.0
 10
167.8494862197713
 20
80.92293198702546
 30
0.0
 10
167.8290651419377
 20
80.69525731024783
 30
0.0
 10
167.8119346061646
 20
80.54471919280971
 30
0.0
 10
167.7822652224324
 20
80.35813360191626
 30
0.0
 10
167.7342249925966
 20
80.17532345970452
 30
0.0
 10
167.6792298480643
 20
80.05356450486357
 30
0.0
 10
167.6392226115072
 20
79.98851597029275
 30
0.0
 10
167.6141890160091
 20
79.95923902167962
 30
0.0
 10
167.6022312388554
 20
79.94525432550267
 30
0.0
  0
SPLINE
  5
BC
330
1F
100
AcDbEntity
  8
0
  6
Continuous
 62
     7
370
    25
100
AcDbSpline
210
0.0
220
0.0
230
1.0
 70
     8
 71
     3
 72
    18
 73
    14
 74
     0
 42
0.000000001
 43
0.00000001
 40
0.0
 40
0.0
 40
0.0
 40
0.0
 40
0.0297375917713133
 40
0.06225859946667
 40
0.1245690829005796
 40
0.1747355398269516
 40
0.2498061834274989
 40
0.3751803602811941
 40
0.4377454186258753
 40
0.5002333231923115
 40
0.7499313720644271
 40
0.8691943481067824
 40
0.9999999999999999
 40
0.9999999999999999
 40
0.9999999999999999
 40
0.9999999999999999
 10
167.6022312388554
 20
89.42845275017248
 30
0.0
 10
167.6141107159324
 20
89.41456673657538
 30
0.0
 10
167.6389815800864
 20
89.38549498909228
 30
0.0
 10
167.6788078981902
 20
89.32089299941354
 30
0.0
 10
167.7151402293518
 20
89.24097217183687
 30
0.0
 10
167.7509123890761
 20
89.1336747047399
 30
0.0
 10
167.786983363447
 20
88.9867817583072
 30
0.0
 10
167.811876043358
 20
88.82937497543789
 30
0.0
 10
167.8291116692698
 20
88.6780529128984
 30
0.0
 10
167.8495053280598
 20
88.45030282641828
 30
0.0
 10
167.8613227452222
 20
88.18494840882963
 30
0.0
 10
167.8674152028544
 20
87.87494337099822
 30
0.0
 10
167.8678951342241
 20
87.71870256277239
 30
0.0
 10
167.8681461762529
 20
87.63697627450897
 30
0.0
  0
SPLINE
  5
BD
330
1F
100
AcDbEntity
  8
0
  6
Continuous
 62
     7
370
    25
100
AcDbSpline
210
0.0
220
0.0
230
1.0
 70
     8
 71
     3
 72
    13
 73
     9
 74
     0
 42
0.000000001
 43
0.00000001
 40
0.0
 40
0.0
 40
0.0
 40
0.0
 40
0.2491824652873909
 40
0.4987738521015305
 40
0.6338602399633625
 40
0.749486885916647
 40
0.8759187542469947
 40
1.0
 40
1.0
 40
1.0
 40
1.0
 10
167.6965461817864
 20
89.72458629053715
 30
0.0
 10
167.677420597771
 20
89.70318079583394
 30
0.0
 10
167.6391380436513
 20
89.66033467888532
 30
0.0
 10
167.5998848723541
 20
89.59930045526418
 30
0.0
 10
167.5783201349474
 20
89.54696667081774
 30
0.0
 10
167.5707670757887
 20
89.50537449893618
 30
0.0
 10
167.5758907478706
 20
89.46332154289107
 30
0.0
 10
167.593506171728
 20
89.44000274585397
 30
0.0
 10
167.6022312388554
 20
89.42845275017248
 30
0.0
  0
SPLINE
  5
BE
330
1F
100
AcDbEntity
  8
0
  6
Continuous
 62
     7
370
    25
100
AcDbSpline
210
0.0
220
0.0
230
1.0
 70
     8
 71
     3
 72
    13
 73
     9
 74
     0
 42
0.000000001
 43
0.00000001
 40
0.0
 40
0.0
 40
0.0
 40
0.0
 40
0.1266963143628506
 40
0.2513113397887842
 40
0.5007108425293414
 40
0.7510525732451352
 40
0.8768673774688646
 40
1.0
 40
1.0
 40
1.0
 40
1.0
 10
167.8681461762528
 20
90.1966129081109
 30
0.0
 10
167.8676936616195
 20
90.17542587066593
 30
0.0
 10
167.8667960659842
 20
90.13339984336417
 30
0.0
 10
167.8569032923671
 20
90.04975878939796
 30
0.0
 10
167.8326490354884
 20
89.94635987288987
 30
0.0
 10
167.7882137059988
 20
89.8474921528677
 30
0.0
 10
167.7403694841987
 20
89.77414515347651
 30
0.0
 10
167.7110486474851
 20
89.7409868279383
 30
0.0
 10
167.6965461817782
 20
89.72458629054178
 30
0.0
  0
LINE
  5
BF
330
1F
100
AcDbEntity
  8
0
  6
Continuous
 62
     7
370
    25
100
AcDbLine
 10
167.868146236
 20
96.6868536421
 30
0.0
 11
167.868146236
 21
90.1966128373
 31
0.0
  0
LINE
  5
C0
330
1F
100
AcDbEntity
  8
0
  6
Continuous
 62
     7
370
    25
100
AcDbLine
 10
167.868146236
 20
79.1770942384
 30
0.0
 11
167.868146236
 21
72.6868534335
 31
0.0
  0
SPLINE
  5
C1
330
1F
100
AcDbEntity
  8
0
  6
Continuous
 62
     7
370
    25
100
AcDbSpline
210
0.0
220
0.0
230
1.0
 70
     8
 71
     3
 72
    13
 73
     9
 74
     0
 42
0.000000001
 43
0.00000001
 40
0.0
 40
0.0
 40
0.0
 40
0.0
 40
0.1234092039886535
 40
0.2495635406298181
 40
0.5004511475233587
 40
0.7494830036087242
 40
0.8735723370857859
 40
1.0
 40
1.0
 40
1.0
 40
1.0
 10
167.6965461817782
 20
79.64912078513335
 30
0.0
 10
167.7110792236984
 20
79.63268193530337
 30
0.0
 10
167.7404685826806
 20
79.5994385674276
 30
0.0
 10
167.7883947992097
 20
79.52590460298485
 30
0.0
 10
167.832789089422
 20
79.42692644756583
 30
0.0
 10
167.856964474128
 20
79.3235773791171
 30
0.0
 10
167.866798070656
 20
79.24012896919679
 30
0.0
 10
167.8676940201186
 20
79.1982361109564
 30
0.0
 10
167.8681461762529
 20
79.17709416754967
 30
0.0
  0
LINE
  5
C2
330
1F
100
AcDbEntity
  8
0
  6
Continuous
 62
     7
370
    25
100
AcDbLine
 10
170.6252531437
 20
72.6868534335
 30
0.0
 11
170.6252531437
 21
96.6868536421
 31
0.0
  0
LINE
  5
C3
330
1F
100
AcDbEntity
  8
0
  6
Continuous
 62
     7
370
    25
100
AcDbLine
 10
145.3752531959
 20
84.6868535378
 30
0.0
 11
145.3752531959
 21
96.4368531355
 31
0.0
  0
LINE
  5
C4
330
1F
100
AcDbEntity
  8
0
  6
Continuous
 62
     7
370
    25
100
AcDbLine
 10
145.3752531959
 20
72.9368539402
 30
0.0
 11
145.3752531959
 21
84.6868535378
 31
0.0
  0
LINE
  5
C5
330
1F
100
AcDbEntity
  8
0
  6
Continuous
 62
     7
370
    25
100
AcDbLine
 10
170.875252719
 20
96.4368531355
 30
0.0
 11
170.875252719
 21
72.9368539402
 31
0.0
  0
LINE
  5
C6
330
1F
100
AcDbEntity
  8
0
  6
Continuous
 62
     7
370
    25
100
AcDbLine
 10
148.6252532629
 20
87.5333424998
 30
0.0
 11
148.6252532629
 21
81.8403645759
 31
0.0
  0
SPLINE
  5
C7
330
1F
100
AcDbEntity
  8
0
  6
Continuous
 62
     7
370
    25
100
AcDbSpline
210
0.0
220
0.0
230
1.0
 70
     8
 71
     3
 72
     8
 73
     4
 74
     0
 42
0.000000001
 43
0.00000001
 40
0.0
 40
0.0
 40
0.0
 40
0.0
 40
1.0
 40
1.0
 40
1.0
 40
1.0
 10
148.6252189628836
 20
81.7964361777743
 30
0.0
 10
148.6252418007422
 20
81.81107705566347
 30
0.0
 10
148.6252529574394
 20
81.82571983343253
 30
0.0
 10
148.6252529574394
 20
81.84036447233956
 30
0.0
  0
SPLINE
  5
C8
330
1F
100
AcDbEntity
  8
0
  6
Continuous
 62
     7
370
    25
100
AcDbSpline
210
0.0
220
0.0
230
1.0
 70
     8
 71
     3
 72
     8
 73
     4
 74
     0
 42
0.000000001
 43
0.00000001
 40
0.0
 40
0.0
 40
0.0
 40
0.0
 40
1.0
 40
1.0
 40
1.0
 40
1.0
 10
148.6252529574394
 20
87.53334260333563
 30
0.0
 10
148.6252529574394
 20
87.54798636155358
 30
0.0
 10
148.6252418021334
 20
87.56262912817324
 30
0.0
 10
148.6252189628836
 20
87.577270897907
 30
0.0
  0
LINE
  5
C9
330
1F
100
AcDbEntity
  8
0
  6
Continuous
 62
     7
370
    25
100
AcDbLine
 10
167.625252652
 20
81.8403645759
 30
0.0
 11
167.625252652
 21
87.5333424998
 31
0.0
  0
SPLINE
  5
CA
330
1F
100
AcDbEntity
  8
0
  6
Continuous
 62
     7
370
    25
100
AcDbSpline
210
0.0
220
0.0
230
1.0
 70
     8
 71
     3
 72
     8
 73
     4
 74
     0
 42
0.000000001
 43
0.00000001
 40
0.0
 40
0.0
 40
0.0
 40
0.0
 40
1.0
 40
1.0
 40
1.0
 40
1.0
 10
167.6252869519953
 20
87.57727089790089
 30
0.0
 10
167.6252641141367
 20
87.56263002001172
 30
0.0
 10
167.6252529574395
 20
87.54798724224267
 30
0.0
 10
167.6252529574395
 20
87.53334260333563
 30
0.0
  0
SPLINE
  5
CB
330
1F
100
AcDbEntity
  8
0
  6
Continuous
 62
     7
370
    25
100
AcDbSpline
210
0.0
220
0.0
230
1.0
 70
     8
 71
     3
 72
     8
 73
     4
 74
     0
 42
0.000000001
 43
0.00000001
 40
0.0
 40
0.0
 40
0.0
 40
0.0
 40
1.0
 40
1.0
 40
1.0
 40
1.0
 10
167.6252529574395
 20
81.84036447233956
 30
0.0
 10
167.6252529574395
 20
81.82572071412159
 30
0.0
 10
167.6252641127456
 20
81.81107794750194
 30
0.0
 10
167.6252869519953
 20
81.79643617776817
 30
0.0
  0
SPLINE
  5
CC
330
1F
100
AcDbEntity
  8
0
  6
Continuous
 62
     7
370
    25
100
AcDbSpline
210
0.0
220
0.0
230
1.0
 70
     8
 71
     3
 72
    16
 73
    12
 74
     0
 42
0.000000001
 43
0.00000001
 40
0.0
 40
0.0
 40
0.0
 40
0.0
 40
0.1358424563116765
 40
0.2585567702391718
 40
0.5157338482649941
 40
0.6432966940859199
 40
0.7692102787433489
 40
0.8342664718575957
 40
0.8905766424087742
 40
0.9515952837307082
 40
1.0
 40
1.0
 40
1.0
 40
1.0
 10
148.6252189628836
 20
81.7964361777743
 30
0.0
 10
148.6251805771373
 20
81.71490893578567
 30
0.0
 10
148.6251075153356
 20
81.5597334409704
 30
0.0
 10
148.6258380669644
 20
81.25102853956791
 30
0.0
 10
148.6279034892237
 20
80.94822474289778
 30
0.0
 10
148.6353432899997
 20
80.64486073719344
 30
0.0
 10
148.6446951082919
 20
80.45637878597623
 30
0.0
 10
148.6580230198797
 20
80.31081076314106
 30
0.0
 10
148.6735393264088
 20
80.20451182508839
 30
0.0
 10
148.6929583656543
 20
80.10830068407981
 30
0.0
 10
148.7198408768188
 20
80.04960347378145
 30
0.0
 10
148.7317326735446
 20
80.02363806865371
 30
0.0
  0
LINE
  5
CD
330
1F
100
AcDbEntity
  8
0
  6
Continuous
 62
     7
370
    25
100
AcDbLine
 10
148.7317323042
 20
80.0236380534
 30
0.0
 11
148.6482746256
 21
79.9452542202
 31
0.0
  0
SPLINE
  5
CE
330
1F
100
AcDbEntity
  8
0
  6
Continuous
 62
     7
370
    25
100
AcDbSpline
210
0.0
220
0.0
230
1.0
 70
     8
 71
     3
 72
    16
 73
    12
 74
     0
 42
0.000000001
 43
0.00000001
 40
0.0
 40
0.0
 40
0.0
 40
0.0
 40
0.1358424561507865
 40
0.2585567702396487
 40
0.5157338482659685
 40
0.6432966940871401
 40
0.769210278744815
 40
0.8342664723165241
 40
0.890576642411649
 40
0.9515952839414612
 40
1.0
 40
1.0
 40
1.0
 40
1.0
 10
167.6252869519953
 20
87.57727089790089
 30
0.0
 10
167.6253253377414
 20
87.65879813979252
 30
0.0
 10
167.6253983995426
 20
87.81397363460725
 30
0.0
 10
167.6246678479165
 20
88.12267853601212
 30
0.0
 10
167.622602425649
 20
88.42548233277563
 30
0.0
 10
167.6151626248895
 20
88.72884633848513
 30
0.0
 10
167.6058108065427
 20
88.91732828996047
 30
0.0
 10
167.5924828950238
 20
89.06289631281989
 30
0.0
 10
167.5769665884134
 20
89.16919525097907
 30
0.0
 10
167.5575475490791
 20
89.26540639166846
 30
0.0
 10
167.5306650379774
 20
89.32410360199826
 30
0.0
 10
167.5187732413308
 20
89.35006900702751
 30
0.0
  0
LINE
  5
CF
330
1F
100
AcDbEntity
  8
0
  6
Continuous
 62
     7
370
    25
100
AcDbLine
 10
167.5187736107
 20
89.3500690223
 30
0.0
 11
167.6022312892
 21
89.4284528555
 31
0.0
  0
LINE
  5
D0
330
1F
100
AcDbEntity
  8
0
  6
Continuous
 62
     7
370
    25
100
AcDbLine
 10
148.6482746256
 20
89.4284528555
 30
0.0
 11
148.7317323042
 21
89.3500690223
 31
0.0
  0
SPLINE
  5
D1
330
1F
100
AcDbEntity
  8
0
  6
Continuous
 62
     7
370
    25
100
AcDbSpline
210
0.0
220
0.0
230
1.0
 70
     8
 71
     3
 72
    18
 73
    14
 74
     0
 42
0.000000001
 43
0.00000001
 40
0.0
 40
0.0
 40
0.0
 40
0.0
 40
0.0228877262659284
 40
0.0487507054349101
 40
0.0778154834700411
 40
0.1102364830155919
 40
0.1666044227654431
 40
0.231774208579201
 40
0.3567811110102737
 40
0.4838932701832798
 40
0.741382445805996
 40
0.8641064613662746
 40
1.0
 40
1.0
 40
1.0
 40
1.0
 10
148.731732673548
 20
89.35006900702729
 30
0.0
 10
148.725569207623
 20
89.33806655667068
 30
0.0
 10
148.7124410660034
 20
89.31250141686459
 30
0.0
 10
148.6975791623708
 20
89.26908602421429
 30
0.0
 10
148.6842763232951
 20
89.21943572909493
 30
0.0
 10
148.6705935686231
 20
89.15136104589627
 30
0.0
 10
148.657970534471
 20
89.06140929001354
 30
0.0
 10
148.6445794938607
 20
88.91633690723273
 30
0.0
 10
148.6353622168795
 20
88.72852990834468
 30
0.0
 10
148.6278930948615
 20
88.42577763322413
 30
0.0
 10
148.625841220356
 20
88.12301714267781
 30
0.0
 10
148.6251070598703
 20
87.81406257261465
 30
0.0
 10
148.6251804167014
 20
87.65883630678911
 30
0.0
 10
148.6252189628836
 20
87.577270897907
 30
0.0
  0
LINE
  5
D2
330
1F
100
AcDbEntity
  8
0
  6
Continuous
 62
     7
370
    25
100
AcDbLine
 10
167.6022312892
 20
79.9452542202
 30
0.0
 11
167.5187736107
 21
80.0236380534
 31
0.0
  0
SPLINE
  5
D3
330
1F
100
AcDbEntity
  8
0
  6
Continuous
 62
     7
370
    25
100
AcDbSpline
210
0.0
220
0.0
230
1.0
 70
     8
 71
     3
 72
    18
 73
    14
 74
     0
 42
0.000000001
 43
0.00000001
 40
0.0
 40
0.0
 40
0.0
 40
0.0
 40
0.0228877262623231
 40
0.0487507054304767
 40
0.0778154834678066
 40
0.110236483018699
 40
0.1666044227684945
 40
0.2317742085819108
 40
0.356781111012564
 40
0.4838932701851294
 40
0.7413824458069321
 40
0.864106461437923
 40
1.0
 40
1.0
 40
1.0
 40
1.0
 10
167.5187732413288
 20
80.02363806864611
 30
0.0
 10
167.5249367072542
 20
80.03564051900011
 30
0.0
 10
167.5380648488753
 20
80.06120565880236
 30
0.0
 10
167.5529267525077
 20
80.10462105145156
 30
0.0
 10
167.5662295915839
 20
80.15427134657506
 30
0.0
 10
167.5799123462554
 20
80.22234602977868
 30
0.0
 10
167.5925353804073
 20
80.31229778566464
 30
0.0
 10
167.6059264210189
 20
80.45737016844478
 30
0.0
 10
167.6151436979993
 20
80.64517716733266
 30
0.0
 10
167.6226128200175
 20
80.94792944245263
 30
0.0
 10
167.6246646945234
 20
81.2506899330406
 30
0.0
 10
167.6253988550083
 20
81.55964450310404
 30
0.0
 10
167.6253254981774
 20
81.71487076892905
 30
0.0
 10
167.6252869519953
 20
81.79643617776817
 30
0.0
  0
SPLINE
  5
D4
330
1F
100
AcDbEntity
  8
0
  6
Continuous
 62
     7
370
    25
100
AcDbSpline
210
0.0
220
0.0
230
1.0
 70
     8
 71
     3
 72
    10
 73
     6
 74
     0
 42
0.000000001
 43
0.00000001
 40
0.0
 40
0.0
 40
0.0
 40
0.0
 40
0.4999999999999996
 40
0.4999999999999996
 40
1.0
 40
1.0
 40
1.0
 40
1.0
 10
148.9065578228546
 20
89.194510192625
 30
0.0
 10
148.9560998872788
 20
88.92143339717771
 30
0.0
 10
148.9847060805293
 20
88.64563397542103
 30
0.0
 10
149.0194463898925
 20
88.09111272815709
 30
0.0
 10
149.0252529574394
 20
87.81212057686513
 30
0.0
 10
149.0252529574394
 20
87.53334260333563
 30
0.0
  0
LINE
  5
D5
330
1F
100
AcDbEntity
  8
0
  6
Continuous
 62
     7
370
    25
100
AcDbLine
 10
148.6252532629
 20
87.5333424998
 30
0.0
 11
149.0252525834
 21
87.5333424998
 31
0.0
  0
SPLINE
  5
D6
330
1F
100
AcDbEntity
  8
0
  6
Continuous
 62
     7
370
    25
100
AcDbSpline
210
0.0
220
0.0
230
1.0
 70
     8
 71
     3
 72
     8
 73
     4
 74
     0
 42
0.000000001
 43
0.00000001
 40
0.0
 40
0.0
 40
0.0
 40
0.0
 40
1.0
 40
1.0
 40
1.0
 40
1.0
 10
148.906557822858
 20
89.1945101926321
 30
0.0
 10
148.8341578526964
 20
89.22902013431418
 30
0.0
 10
148.7797276351062
 20
89.28853423567531
 30
0.0
 10
148.731732673545
 20
89.35006900702659
 30
0.0
  0
SPLINE
  5
D7
330
1F
100
AcDbEntity
  8
0
  6
Continuous
 62
     7
370
    25
100
AcDbSpline
210
0.0
220
0.0
230
1.0
 70
     8
 71
     3
 72
    10
 73
     6
 74
     0
 42
0.000000001
 43
0.00000001
 40
0.0
 40
0.0
 40
0.0
 40
0.0
 40
0.5000000000000004
 40
0.5000000000000004
 40
1.0
 40
1.0
 40
1.0
 40
1.0
 10
167.3439480920243
 20
80.17919688305011
 30
0.0
 10
167.2944060276001
 20
80.45227367849743
 30
0.0
 10
167.2657998343496
 20
80.7280731002541
 30
0.0
 10
167.2310595249865
 20
81.28259434751807
 30
0.0
 10
167.2252529574395
 20
81.56158649881004
 30
0.0
 10
167.2252529574395
 20
81.84036447233956
 30
0.0
  0
LINE
  5
D8
330
1F
100
AcDbEntity
  8
0
  6
Continuous
 62
     7
370
    25
100
AcDbLine
 10
167.2252533315
 20
81.8403645759
 30
0.0
 11
167.625252652
 21
81.8403645759
 31
0.0
  0
SPLINE
  5
D9
330
1F
100
AcDbEntity
  8
0
  6
Continuous
 62
     7
370
    25
100
AcDbSpline
210
0.0
220
0.0
230
1.0
 70
     8
 71
     3
 72
     8
 73
     4
 74
     0
 42
0.000000001
 43
0.00000001
 40
0.0
 40
0.0
 40
0.0
 40
0.0
 40
1.0
 40
1.0
 40
1.0
 40
1.0
 10
167.3439480920209
 20
80.17919688304302
 30
0.0
 10
167.4163480621824
 20
80.14468694136087
 30
0.0
 10
167.4707782797727
 20
80.08517283999983
 30
0.0
 10
167.5187732413339
 20
80.02363806864857
 30
0.0
  0
LINE
  5
DA
330
1F
100
AcDbEntity
  8
0
  6
Continuous
 62
     7
370
    25
100
AcDbLine
 10
167.2252533315
 20
87.5333424998
 30
0.0
 11
167.625252652
 21
87.5333424998
 31
0.0
  0
SPLINE
  5
DB
330
1F
100
AcDbEntity
  8
0
  6
Continuous
 62
     7
370
    25
100
AcDbSpline
210
0.0
220
0.0
230
1.0
 70
     8
 71
     3
 72
    10
 73
     6
 74
     0
 42
0.000000001
 43
0.00000001
 40
0.0
 40
0.0
 40
0.0
 40
0.0
 40
0.5000000000000004
 40
0.5000000000000004
 40
1.0
 40
1.0
 40
1.0
 40
1.0
 10
167.2252529574395
 20
87.53334260333563
 30
0.0
 10
167.2252529574395
 20
87.81237436408406
 30
0.0
 10
167.2310515796044
 20
88.09076991246486
 30
0.0
 10
167.2657482734057
 20
88.6450265872516
 30
0.0
 10
167.2943136510922
 20
88.92092421612305
 30
0.0
 10
167.343948092026
 20
89.19451019263452
 30
0.0
  0
SPLINE
  5
DC
330
1F
100
AcDbEntity
  8
0
  6
Continuous
 62
     7
370
    25
100
AcDbSpline
210
0.0
220
0.0
230
1.0
 70
     8
 71
     3
 72
     8
 73
     4
 74
     0
 42
0.000000001
 43
0.00000001
 40
0.0
 40
0.0
 40
0.0
 40
0.0
 40
1.0
 40
1.0
 40
1.0
 40
1.0
 10
167.343948092026
 20
89.19451019263452
 30
0.0
 10
167.4163480621851
 20
89.22902013431731
 30
0.0
 10
167.4707782797738
 20
89.2885342356767
 30
0.0
 10
167.5187732413339
 20
89.35006900702658
 30
0.0
  0
LINE
  5
DD
330
1F
100
AcDbEntity
  8
0
  6
Continuous
 62
     7
370
    25
100
AcDbLine
 10
148.6252532629
 20
81.8403645759
 30
0.0
 11
149.0252525834
 21
81.8403645759
 31
0.0
  0
SPLINE
  5
DE
330
1F
100
AcDbEntity
  8
0
  6
Continuous
 62
     7
370
    25
100
AcDbSpline
210
0.0
220
0.0
230
1.0
 70
     8
 71
     3
 72
    10
 73
     6
 74
     0
 42
0.000000001
 43
0.00000001
 40
0.0
 40
0.0
 40
0.0
 40
0.0
 40
0.5
 40
0.5
 40
1.0
 40
1.0
 40
1.0
 40
1.0
 10
149.0252529574394
 20
81.84036447233956
 30
0.0
 10
149.0252529574394
 20
81.56133271159112
 30
0.0
 10
149.0194543352745
 20
81.28293716321029
 30
0.0
 10
148.9847576414732
 20
80.72868048842354
 30
0.0
 10
148.9561922637868
 20
80.45278285955209
 30
0.0
 10
148.9065578228529
 20
80.17919688304059
 30
0.0
  0
SPLINE
  5
DF
330
1F
100
AcDbEntity
  8
0
  6
Continuous
 62
     7
370
    25
100
AcDbSpline
210
0.0
220
0.0
230
1.0
 70
     8
 71
     3
 72
     8
 73
     4
 74
     0
 42
0.000000001
 43
0.00000001
 40
0.0
 40
0.0
 40
0.0
 40
0.0
 40
1.0
 40
1.0
 40
1.0
 40
1.0
 10
148.9065578228529
 20
80.17919688304059
 30
0.0
 10
148.8341578526939
 20
80.1446869413578
 30
0.0
 10
148.7797276351049
 20
80.0851728399982
 30
0.0
 10
148.731732673545
 20
80.02363806864857
 30
0.0
  0
LINE
  5
E0
330
1F
100
AcDbEntity
  8
0
  6
Continuous
 62
     7
370
    25
100
AcDbLine
 10
149.0252525834
 20
87.5333424998
 30
0.0
 11
149.0252525834
 21
81.8403645759
 31
0.0
  0
LINE
  5
E1
330
1F
100
AcDbEntity
  8
0
  6
Continuous
 62
     7
370
    25
100
AcDbLine
 10
167.2252533315
 20
81.8403645759
 30
0.0
 11
167.2252533315
 21
87.5333424998
 31
0.0
  0
LWPOLYLINE
  5
E2
330
1F
100
AcDbEntity
  8
0
  6
Continuous
 62
     7
370
    25
100
AcDbPolyline
 90
        9
 70
   128
 43
0.0
 10
167.2789422152
 20
89.6902564788
 10
167.2802600367
 20
89.6802028516
 10
167.2840067474
 20
89.651632669
 10
167.2900379924
 20
89.605634647
 10
167.2981255976
 20
89.5439629318
 10
167.3079594327
 20
89.4689681814
 10
167.3191651059
 20
89.383510022
 10
167.3313160715
 20
89.2908466854
 10
167.3439485309
 20
89.1945102127
  0
SPLINE
  5
E3
330
1F
100
AcDbEntity
  8
0
  6
Continuous
 62
     7
370
    25
100
AcDbSpline
210
0.0
220
0.0
230
1.0
 70
     8
 71
     3
 72
    10
 73
     6
 74
     0
 42
0.000000001
 43
0.00000001
 40
0.0
 40
0.0
 40
0.0
 40
0.0
 40
0.5
 40
0.5
 40
1.0
 40
1.0
 40
1.0
 40
1.0
 10
167.2789420079477
 20
89.69025649552512
 30
0.0
 10
167.3385707375491
 20
89.69805092131827
 30
0.0
 10
167.3887450293567
 20
89.71799792228902
 30
0.0
 10
167.4688101350976
 20
89.75749616900974
 30
0.0
 10
167.5015249245129
 20
89.77784174999152
 30
0.0
 10
167.5336341642725
 20
89.79740601099677
 30
0.0
  0
SPLINE
  5
E4
330
1F
100
AcDbEntity
  8
0
  6
Continuous
 62
     7
370
    25
100
AcDbSpline
210
0.0
220
0.0
230
1.0
 70
     8
 71
     3
 72
    16
 73
    12
 74
     0
 42
0.000000001
 43
0.00000001
 40
0.0
 40
0.0
 40
0.0
 40
0.0
 40
0.0761065009119658
 40
0.1494790931191914
 40
0.2974911001276648
 40
0.43372190704806
 40
0.5582000385649448
 40
0.6744773661246064
 40
0.7859690394832595
 40
0.8939353462389478
 40
1.0
 40
1.0
 40
1.0
 40
1.0
 10
167.5187732413296
 20
89.35006900702577
 30
0.0
 10
167.5113568702929
 20
89.36212808102088
 30
0.0
 10
167.4967905401698
 20
89.38581304121543
 30
0.0
 10
167.4745717518473
 20
89.43499715503863
 30
0.0
 10
167.4572182436853
 20
89.49533520937234
 30
0.0
 10
167.4509135057565
 20
89.56250970968641
 30
0.0
 10
167.4550089207698
 20
89.62133627153109
 30
0.0
 10
167.46653687012
 20
89.67298110445729
 30
0.0
 10
167.4839597733494
 20
89.71887414184944
 30
0.0
 10
167.5059771815714
 20
89.7604382878087
 30
0.0
 10
167.5244699390738
 20
89.78515664366597
 30
0.0
 10
167.5336341642721
 20
89.79740601099684
 30
0.0
  0
LWPOLYLINE
  5
E5
330
1F
100
AcDbEntity
  8
0
  6
Continuous
 62
     7
370
    25
100
AcDbPolyline
 90
        9
 70
   128
 43
0.0
 10
148.9065573839
 20
80.179196863
 10
148.9191898433
 20
80.0828603902
 10
148.931340809
 20
79.9901970537
 10
148.9425464822
 20
79.9047388942
 10
148.9523803172
 20
79.8297441439
 10
148.9604679225
 20
79.7680724287
 10
148.9664991675
 20
79.7220744067
 10
148.9702458782
 20
79.6935042241
 10
148.9715636996
 20
79.6834505969
  0
SPLINE
  5
E6
330
1F
100
AcDbEntity
  8
0
  6
Continuous
 62
     7
370
    25
100
AcDbSpline
210
0.0
220
0.0
230
1.0
 70
     8
 71
     3
 72
    10
 73
     6
 74
     0
 42
0.000000001
 43
0.00000001
 40
0.0
 40
0.0
 40
0.0
 40
0.0
 40
0.5
 40
0.5
 40
1.0
 40
1.0
 40
1.0
 40
1.0
 10
148.9715639069313
 20
79.68345058015
 30
0.0
 10
148.9119351773305
 20
79.67565615435689
 30
0.0
 10
148.8617608855234
 20
79.65570915338655
 30
0.0
 10
148.7816957797831
 20
79.61621090666634
 30
0.0
 10
148.748980990368
 20
79.59586532568478
 30
0.0
 10
148.7168717506087
 20
79.57630106467975
 30
0.0
  0
SPLINE
  5
E7
330
1F
100
AcDbEntity
  8
0
  6
Continuous
 62
     7
370
    25
100
AcDbSpline
210
0.0
220
0.0
230
1.0
 70
     8
 71
     3
 72
    16
 73
    12
 74
     0
 42
0.000000001
 43
0.00000001
 40
0.0
 40
0.0
 40
0.0
 40
0.0
 40
0.0761065007485801
 40
0.1494790931135697
 40
0.2974911001213134
 40
0.4337219070412502
 40
0.5582000385578058
 40
0.674477366117787
 40
0.7859690394750588
 40
0.893935346230082
 40
1.0
 40
1.0
 40
1.0
 40
1.0
 10
148.7317326735471
 20
80.02363806864646
 30
0.0
 10
148.7391490445715
 20
80.01157899467962
 30
0.0
 10
148.7537153747012
 20
79.98789403449068
 30
0.0
 10
148.7759341630197
 20
79.93870992066326
 30
0.0
 10
148.7932876711943
 20
79.87837186630611
 30
0.0
 10
148.799592409122
 20
79.81119736599132
 30
0.0
 10
148.7954969941102
 20
79.75237080414706
 30
0.0
 10
148.783969044758
 20
79.70072597121997
 30
0.0
 10
148.7665461415317
 20
79.65483293382903
 30
0.0
 10
148.7445287333069
 20
79.61326878786726
 30
0.0
 10
148.7260359758065
 20
79.5885504320106
 30
0.0
 10
148.7168717506088
 20
79.57630106467951
 30
0.0
  0
LWPOLYLINE
  5
E8
330
1F
100
AcDbEntity
  8
0
  6
Continuous
 62
     7
370
    25
100
AcDbPolyline
 90
        9
 70
   128
 43
0.0
 10
148.9715636996
 20
89.6902564788
 10
148.9702458782
 20
89.6802028516
 10
148.9664991675
 20
89.651632669
 10
148.9604679225
 20
89.605634647
 10
148.9523803172
 20
89.5439629318
 10
148.9425464822
 20
89.4689681814
 10
148.931340809
 20
89.383510022
 10
148.9191898433
 20
89.2908466854
 10
148.9065573839
 20
89.1945102127
  0
SPLINE
  5
E9
330
1F
100
AcDbEntity
  8
0
  6
Continuous
 62
     7
370
    25
100
AcDbSpline
210
0.0
220
0.0
230
1.0
 70
     8
 71
     3
 72
    20
 73
    16
 74
     0
 42
0.000000001
 43
0.00000001
 40
0.0
 40
0.0
 40
0.0
 40
0.0
 40
0.1060317657589631
 40
0.2138409733617976
 40
0.268906061948247
 40
0.3251014539057976
 40
0.382786348557697
 40
0.4420118601150135
 40
0.5669442188443142
 40
0.6333957081061092
 40
0.703032338607854
 40
0.7761748201543405
 40
0.8511692721701473
 40
0.9263894086762869
 40
1.0
 40
1.0
 40
1.0
 40
1.0
 10
148.7168717506088
 20
89.79740601099562
 30
0.0
 10
148.7260379452659
 20
89.78515688487938
 30
0.0
 10
148.7445239902117
 20
89.76045329692366
 30
0.0
 10
148.7627057882681
 20
89.72608499957343
 30
0.0
 10
148.7750059394497
 20
89.69667640664822
 30
0.0
 10
148.7829646873256
 20
89.67315669172613
 30
0.0
 10
148.7894914360787
 20
89.64822216776133
 30
0.0
 10
148.7961493672319
 20
89.61223289816859
 30
0.0
 10
148.798850849428
 20
89.57306635426956
 30
0.0
 10
148.7965966581027
 20
89.5307692717831
 30
0.0
 10
148.7917205704146
 20
89.49617379564013
 30
0.0
 10
148.7831141711282
 20
89.45971845904222
 30
0.0
 10
148.7702403458508
 20
89.4223393465884
 30
0.0
 10
148.753470715674
 20
89.38529854727253
 30
0.0
 10
148.7389262567432
 20
89.36172721557904
 30
0.0
 10
148.7317326735498
 20
89.3500690070253
 30
0.0
  0
SPLINE
  5
EA
330
1F
100
AcDbEntity
  8
0
  6
Continuous
 62
     7
370
    25
100
AcDbSpline
210
0.0
220
0.0
230
1.0
 70
     8
 71
     3
 72
    10
 73
     6
 74
     0
 42
0.000000001
 43
0.00000001
 40
0.0
 40
0.0
 40
0.0
 40
0.0
 40
0.5
 40
0.5
 40
1.0
 40
1.0
 40
1.0
 40
1.0
 10
148.9715639069326
 20
89.69025649552495
 30
0.0
 10
148.9119351773309
 20
89.69805092131796
 30
0.0
 10
148.8617608855241
 20
89.71799792228825
 30
0.0
 10
148.7816957797833
 20
89.7574961690086
 30
0.0
 10
148.7489809903681
 20
89.77784174999026
 30
0.0
 10
148.7168717506087
 20
89.79740601099537
 30
0.0
  0
LWPOLYLINE
  5
EB
330
1F
100
AcDbEntity
  8
0
  6
Continuous
 62
     7
370
    25
100
AcDbPolyline
 90
        9
 70
   128
 43
0.0
 10
167.3439485309
 20
80.179196863
 10
167.3313160715
 20
80.0828603902
 10
167.3191651059
 20
79.9901970537
 10
167.3079594327
 20
79.9047388942
 10
167.2981255976
 20
79.8297441439
 10
167.2900379924
 20
79.7680724287
 10
167.2840067474
 20
79.7220744067
 10
167.2802600367
 20
79.6935042241
 10
167.2789422152
 20
79.6834505969
  0
SPLINE
  5
EC
330
1F
100
AcDbEntity
  8
0
  6
Continuous
 62
     7
370
    25
100
AcDbSpline
210
0.0
220
0.0
230
1.0
 70
     8
 71
     3
 72
    20
 73
    16
 74
     0
 42
0.000000001
 43
0.00000001
 40
0.0
 40
0.0
 40
0.0
 40
0.0
 40
0.1060317657586693
 40
0.2138409733609931
 40
0.2689060619472279
 40
0.325101453904546
 40
0.3827863485561649
 40
0.4420118601131947
 40
0.5669442188418145
 40
0.6333957081032219
 40
0.703032338604481
 40
0.7761748201505866
 40
0.8511692721659514
 40
0.9263894086719594
 40
0.9999999999999999
 40
0.9999999999999999
 40
0.9999999999999999
 40
0.9999999999999999
 10
167.5336341642701
 20
79.57630106467951
 30
0.0
 10
167.524467969613
 20
79.58855019079569
 30
0.0
 10
167.5059819246674
 20
79.61325377875129
 30
0.0
 10
167.487800126611
 20
79.64762207610133
 30
0.0
 10
167.4754999754294
 20
79.67703066902635
 30
0.0
 10
167.4675412275536
 20
79.70055038394827
 30
0.0
 10
167.4610144788004
 20
79.7254849079129
 30
0.0
 10
167.4543565476471
 20
79.76147417750538
 30
0.0
 10
167.4516550654509
 20
79.80064072140408
 30
0.0
 10
167.453909256776
 20
79.84293780389018
 30
0.0
 10
167.4587853444639
 20
79.87753328003286
 30
0.0
 10
167.4673917437499
 20
79.91398861663052
 30
0.0
 10
167.4802655690272
 20
79.95136772908401
 30
0.0
 10
167.4970351992033
 20
79.98840852840102
 30
0.0
 10
167.5115796581361
 20
80.01197986009397
 30
0.0
 10
167.5187732413307
 20
80.0236380686478
 30
0.0
  0
SPLINE
  5
ED
330
1F
100
AcDbEntity
  8
0
  6
Continuous
 62
     7
370
    25
100
AcDbSpline
210
0.0
220
0.0
230
1.0
 70
     8
 71
     3
 72
    10
 73
     6
 74
     0
 42
0.000000001
 43
0.00000001
 40
0.0
 40
0.0
 40
0.0
 40
0.0
 40
0.5
 40
0.5
 40
1.0
 40
1.0
 40
1.0
 40
1.0
 10
167.2789420079439
 20
79.68345058015049
 30
0.0
 10
167.3385707375462
 20
79.67565615435775
 30
0.0
 10
167.3887450293536
 20
79.6557091533874
 30
0.0
 10
167.4688101350951
 20
79.61621090666681
 30
0.0
 10
167.5015249245106
 20
79.59586532568501
 30
0.0
 10
167.5336341642702
 20
79.57630106467975
 30
0.0
  0
LINE
  5
EE
330
1F
100
AcDbEntity
  8
0
  6
Continuous
 62
     7
370
    25
100
AcDbLine
 10
148.7168721212
 20
79.5763010034
 30
0.0
 11
148.5539595885
 21
79.6491206498
 31
0.0
  0
LINE
  5
EF
330
1F
100
AcDbEntity
  8
0
  6
Continuous
 62
     7
370
    25
100
AcDbLine
 10
167.5336337937
 20
89.7974060723
 30
0.0
 11
167.6965463264
 21
89.7245864259
 31
0.0
  0
LINE
  5
F0
330
1F
100
AcDbEntity
  8
0
  6
Continuous
 62
     7
370
    25
100
AcDbLine
 10
148.5539595885
 20
89.7245864259
 30
0.0
 11
148.7168721212
 21
89.7974060723
 31
0.0
  0
LINE
  5
F1
330
1F
100
AcDbEntity
  8
0
  6
Continuous
 62
     7
370
    25
100
AcDbLine
 10
167.6965463264
 20
79.6491206498
 30
0.0
 11
167.5336337937
 21
79.5763010034
 31
0.0
  0
SPLINE
  5
F2
330
1F
100
AcDbEntity
  8
0
  6
Continuous
 62
     7
370
    25
100
AcDbSpline
210
0.0
220
0.0
230
1.0
 70
     8
 71
     3
 72
     8
 73
     4
 74
     0
 42
0.000000001
 43
0.00000001
 40
0.0
 40
0.0
 40
0.0
 40
0.0
 40
0.0000524698222138
 40
0.0000524698222138
 40
0.0000524698222138
 40
0.0000524698222138
 10
167.2266764368809
 20
89.68685353783759
 30
0.0
 10
167.2441398718531
 20
89.68685353783759
 30
0.0
 10
167.2616356960932
 20
89.68799428460089
 30
0.0
 10
167.2789420079478
 20
89.69025649552515
 30
0.0
  0
SPLINE
  5
F3
330
1F
100
AcDbEntity
  8
0
  6
Continuous
 62
     7
370
    25
100
AcDbSpline
210
0.0
220
0.0
230
1.0
 70
     8
 71
     3
 72
     8
 73
     4
 74
     0
 42
0.000000001
 43
0.00000001
 40
0.0
 40
0.0
 40
0.0
 40
0.0
 40
0.0001175213404591
 40
0.0001175213404591
 40
0.0001175213404591
 40
0.0001175213404591
 10
167.343948092026
 20
89.19451019263452
 30
0.0
 10
167.3051068164193
 20
89.18941702459055
 30
0.0
 10
167.2658502170333
 20
89.18685353783754
 30
0.0
 10
167.2266764368803
 20
89.18685353783759
 30
0.0
  0
LINE
  5
F4
330
1F
100
AcDbEntity
  8
0
  6
Continuous
 62
     7
370
    25
100
AcDbLine
 10
167.2266763924
 20
89.6868534261
 30
0.0
 11
167.2266763924
 21
89.1868533441
 31
0.0
  0
SPLINE
  5
F5
330
1F
100
AcDbEntity
  8
0
  6
Continuous
 62
     7
370
    25
100
AcDbSpline
210
0.0
220
0.0
230
1.0
 70
     8
 71
     3
 72
     8
 73
     4
 74
     0
 42
0.000000001
 43
0.00000001
 40
0.0
 40
0.0
 40
0.0
 40
0.0
 40
0.0001175213404538
 40
0.0001175213404538
 40
0.0001175213404538
 40
0.0001175213404538
 10
167.2266764368802
 20
80.18685353783752
 30
0.0
 10
167.2658502170315
 20
80.18685353783758
 30
0.0
 10
167.3051068164158
 20
80.1842900510848
 30
0.0
 10
167.3439480920207
 20
80.17919688304129
 30
0.0
  0
SPLINE
  5
F6
330
1F
100
AcDbEntity
  8
0
  6
Continuous
 62
     7
370
    25
100
AcDbSpline
210
0.0
220
0.0
230
1.0
 70
     8
 71
     3
 72
     8
 73
     4
 74
     0
 42
0.000000001
 43
0.00000001
 40
0.0
 40
0.0
 40
0.0
 40
0.0
 40
0.0000524698222089
 40
0.0000524698222089
 40
0.0000524698222089
 40
0.0000524698222089
 10
167.2789420079439
 20
79.68345058015049
 30
0.0
 10
167.2616356960901
 20
79.68571279107448
 30
0.0
 10
167.2441398718502
 20
79.68685353783765
 30
0.0
 10
167.2266764368788
 20
79.68685353783752
 30
0.0
  0
LINE
  5
F7
330
1F
100
AcDbEntity
  8
0
  6
Continuous
 62
     7
370
    25
100
AcDbLine
 10
167.2266763924
 20
80.1868537316
 30
0.0
 11
167.2266763924
 21
79.6868536496
 31
0.0
  0
LINE
  5
F8
330
1F
100
AcDbEntity
  8
0
  6
Continuous
 62
     7
370
    25
100
AcDbLine
 10
149.0238295225
 20
80.1868537316
 30
0.0
 11
167.2266763924
 21
80.1868537316
 31
0.0
  0
LINE
  5
F9
330
1F
100
AcDbEntity
  8
0
  6
Continuous
 62
     7
370
    25
100
AcDbLine
 10
167.2266763924
 20
79.6868536496
 30
0.0
 11
149.0238295225
 21
79.6868536496
 31
0.0
  0
LINE
  5
FA
330
1F
100
AcDbEntity
  8
0
  6
Continuous
 62
     7
370
    25
100
AcDbLine
 10
149.0238295225
 20
80.1868537316
 30
0.0
 11
149.0238295225
 21
79.6868536496
 31
0.0
  0
SPLINE
  5
FB
330
1F
100
AcDbEntity
  8
0
  6
Continuous
 62
     7
370
    25
100
AcDbSpline
210
0.0
220
0.0
230
1.0
 70
     8
 71
     3
 72
     8
 73
     4
 74
     0
 42
0.000000001
 43
0.00000001
 40
0.0
 40
0.0
 40
0.0
 40
0.0
 40
0.0001175213404591
 40
0.0001175213404591
 40
0.0001175213404591
 40
0.0001175213404591
 10
148.9065578228529
 20
80.17919688304059
 30
0.0
 10
148.9453990984596
 20
80.18429005108456
 30
0.0
 10
148.9846556978456
 20
80.18685353783758
 30
0.0
 10
149.0238294779986
 20
80.18685353783752
 30
0.0
  0
SPLINE
  5
FC
330
1F
100
AcDbEntity
  8
0
  6
Continuous
 62
     7
370
    25
100
AcDbSpline
210
0.0
220
0.0
230
1.0
 70
     8
 71
     3
 72
     8
 73
     4
 74
     0
 42
0.000000001
 43
0.00000001
 40
0.0
 40
0.0
 40
0.0
 40
0.0
 40
0.0000524698222138
 40
0.0000524698222138
 40
0.0000524698222138
 40
0.0000524698222138
 10
149.023829477998
 20
79.68685353783752
 30
0.0
 10
149.0063660430258
 20
79.68685353783752
 30
0.0
 10
148.9888702187858
 20
79.68571279107422
 30
0.0
 10
148.9715639069312
 20
79.68345058014997
 30
0.0
  0
SPLINE
  5
FD
330
1F
100
AcDbEntity
  8
0
  6
Continuous
 62
     7
370
    25
100
AcDbSpline
210
0.0
220
0.0
230
1.0
 70
     8
 71
     3
 72
     8
 73
     4
 74
     0
 42
0.000000001
 43
0.00000001
 40
0.0
 40
0.0
 40
0.0
 40
0.0
 40
0.0001175213404538
 40
0.0001175213404538
 40
0.0001175213404538
 40
0.0001175213404538
 10
149.0238294779987
 20
89.18685353783759
 30
0.0
 10
148.9846556978474
 20
89.18685353783754
 30
0.0
 10
148.9453990984632
 20
89.18941702459033
 30
0.0
 10
148.9065578228582
 20
89.19451019263383
 30
0.0
  0
LINE
  5
FE
330
1F
100
AcDbEntity
  8
0
  6
Continuous
 62
     7
370
    25
100
AcDbLine
 10
167.2266763924
 20
89.1868533441
 30
0.0
 11
149.0238295225
 21
89.1868533441
 31
0.0
  0
LINE
  5
FF
330
1F
100
AcDbEntity
  8
0
  6
Continuous
 62
     7
370
    25
100
AcDbLine
 10
160.8383574346
 20
84.2889652346
 30
0.0
 11
161.2371281078
 21
84.6877360693
 31
0.0
  0
ARC
  5
100
330
1F
100
AcDbEntity
  8
0
  6
Continuous
 62
     7
370
    25
100
AcDbCircle
 10
160.1737392849
 20
83.6243471507
 30
0.0
 40
1.503859030837022
100
AcDbArc
 50
45.0
 51
315.0
  0
LINE
  5
101
330
1F
100
AcDbEntity
  8
0
  6
Continuous
 62
     7
370
    25
100
AcDbLine
 10
161.2371281078
 20
82.5609581885
 30
0.0
 11
160.8383574346
 21
82.9597290946
 31
0.0
  0
ARC
  5
102
330
1F
100
AcDbEntity
  8
0
  6
Continuous
 62
     7
370
    25
100
AcDbCircle
 10
160.1737392849
 20
83.6243471507
 30
0.0
 40
0.9399118942731536
100
AcDbArc
 50
45.0
 51
315.0
  0
ARC
  5
103
330
1F
100
AcDbEntity
  8
0
  6
Continuous
 62
     7
370
    25
100
AcDbCircle
 10
163.2989567261
 20
83.6351857137
 30
0.0
 40
1.503859030837052
100
AcDbArc
 50
44.056556937
 51
315.943443063
  0
LINE
  5
104
330
1F
100
AcDbEntity
  8
0
  6
Continuous
 62
     7
370
    25
100
AcDbLine
 10
162.4023379115
 20
83.3532121838
 30
0.0
 11
164.3797108261
 21
83.3532121838
 31
0.0
  0
LINE
  5
105
330
1F
100
AcDbEntity
  8
0
  6
Continuous
 62
     7
370
    25
100
AcDbLine
 10
164.3797108261
 20
83.3532121838
 30
0.0
 11
164.3797108261
 21
83.9171592603
 31
0.0
  0
LINE
  5
106
330
1F
100
AcDbEntity
  8
0
  6
Continuous
 62
     7
370
    25
100
AcDbLine
 10
164.3797108261
 20
83.9171592603
 30
0.0
 11
162.4023379115
 21
83.9171592603
 31
0.0
  0
ARC
  5
107
330
1F
100
AcDbEntity
  8
0
  6
Continuous
 62
     7
370
    25
100
AcDbCircle
 10
163.2989567261
 20
83.6351857137
 30
0.0
 40
0.9399118942731616
100
AcDbArc
 50
43.4903846543
 51
162.5423968763
  0
LINE
  5
108
330
1F
100
AcDbEntity
  8
0
  6
Continuous
 62
     7
370
    25
100
AcDbLine
 10
163.980853307
 20
84.2820639306
 30
0.0
 11
164.3797108261
 21
84.6809213041
 31
0.0
  0
LINE
  5
109
330
1F
100
AcDbEntity
  8
0
  6
Continuous
 62
     7
370
    25
100
AcDbLine
 10
158.0586152192
 20
83.5555827585
 30
0.0
 11
158.0175336783
 21
83.5320958509
 31
0.0
  0
ELLIPSE
  5
10A
330
1F
100
AcDbEntity
  8
0
  6
Continuous
 62
     7
370
    25
100
AcDbEllipse
 10
157.6733007609
 20
84.0793689854
 30
0.0
 11
-0.6694471380407663
 21
-1.136868377216160E-13
 31
0.0
210
0.0
220
0.0
230
1.0
 40
0.9531667975
 41
0.3285531705512604
 42
2.11087652694708
  0
LINE
  5
10B
330
1F
100
AcDbEntity
  8
0
  6
Continuous
 62
     7
370
    25
100
AcDbLine
 10
157.0396622699
 20
83.8734724317
 30
0.0
 11
155.7966550169
 21
87.3488658914
 31
0.0
  0
ELLIPSE
  5
10C
330
1F
100
AcDbEntity
  8
0
  6
Continuous
 62
     7
370
    25
100
AcDbEllipse
 10
155.213483216
 20
87.0900297031
 30
0.0
 11
0.6432968592110626
 21
6.394884621840902E-13
 31
0.0
210
0.0
220
0.0
230
1.0
 40
0.9531667975
 41
0.4357918987542966
 42
2.705800754833631
  0
LINE
  5
10D
330
1F
100
AcDbEntity
  8
0
  6
Continuous
 62
     7
370
    25
100
AcDbLine
 10
154.630311328
 20
87.3488658914
 30
0.0
 11
153.3875940656
 21
83.8742823331
 31
0.0
  0
ELLIPSE
  5
10E
330
1F
100
AcDbEntity
  8
0
  6
Continuous
 62
     7
370
    25
100
AcDbEllipse
 10
152.7539553374
 20
84.0801788794
 30
0.0
 11
-0.6694471380407663
 21
5.684341886080801E-14
 31
0.0
210
0.0
220
0.0
230
1.0
 40
0.9531667975
 41
1.047197551196765
 42
2.813039483038464
  0
LINE
  5
10F
330
1F
100
AcDbEntity
  8
0
  6
Continuous
 62
     7
370
    25
100
AcDbLine
 10
152.4192318609
 20
83.5275725336
 30
0.0
 11
152.3683327539
 21
83.5555827585
 31
0.0
  0
LINE
  5
110
330
1F
100
AcDbEntity
  8
0
  6
Continuous
 62
     7
370
    25
100
AcDbLine
 10
164.3797108261
 20
82.5894501401
 30
0.0
 11
163.980853307
 21
82.9883075427
 31
0.0
  0
ARC
  5
111
330
1F
100
AcDbEntity
  8
0
  6
Continuous
 62
     7
370
    25
100
AcDbCircle
 10
163.2989567261
 20
83.6351857137
 30
0.0
 40
0.9399118942730735
100
AcDbArc
 50
197.4576031237
 51
316.5096153457
  0
ELLIPSE
  5
112
330
1F
100
AcDbEntity
  8
0
  6
Continuous
 62
     7
370
    25
100
AcDbEllipse
 10
157.1980234712
 20
82.0933607584
 30
0.0
 11
0.08368089225501762
 21
1.421085471520200E-14
 31
0.0
210
0.0
220
0.0
230
1.0
 40
0.9531667975
 41
3.962594650568132
 42
5.819537698167005
  0
ELLIPSE
  5
113
330
1F
100
AcDbEntity
  8
0
  6
Continuous
 62
     7
370
    25
100
AcDbEllipse
 10
155.2134740506
 20
80.0620241539
 30
0.0
 11
2.827839379124981
 21
-2.842170943040401E-13
 31
0.0
210
0.0
220
0.0
230
1.0
 40
0.9535197248
 41
0.8208171341484117
 42
2.320775519441601
  0
LINE
  5
114
330
1F
100
AcDbEntity
  8
0
  6
Continuous
 62
     7
370
    25
100
AcDbLine
 10
152.3683327539
 20
83.5555827585
 30
0.0
 11
153.1540779685
 21
82.0576900957
 31
0.0
  0
ELLIPSE
  5
115
330
1F
100
AcDbEntity
  8
0
  6
Continuous
 62
     7
370
    25
100
AcDbEllipse
 10
153.22892463
 20
82.0933607584
 30
0.0
 11
0.08368089225510289
 21
0.0
 31
0.0
210
0.0
220
0.0
230
1.0
 40
0.9531667975
 41
3.605240262590408
 42
5.462183310215675
  0
LINE
  5
116
330
1F
100
AcDbEntity
  8
0
  6
Continuous
 62
     7
370
    25
100
AcDbLine
 10
157.2728699245
 20
82.0576900957
 30
0.0
 11
158.0586152192
 21
83.5555827585
 31
0.0
  0
ELLIPSE
  5
117
330
1F
100
AcDbEntity
  8
0
  6
Continuous
 62
     7
370
    25
100
AcDbEllipse
 10
155.213483218
 20
84.7541470519
 30
0.0
 11
0.08368089225510289
 21
0.0
 31
0.0
210
0.0
220
0.0
230
1.0
 40
0.9531667975
 41
0.3430239404206989
 42
2.79856871316898
  0
LINE
  5
118
330
1F
100
AcDbEntity
  8
0
  6
Continuous
 62
     7
370
    25
100
AcDbLine
 10
154.9138224507
 20
83.8746301821
 30
0.0
 11
155.5131441271
 21
83.8746301821
 31
0.0
  0
ELLIPSE
  5
119
330
1F
100
AcDbEntity
  8
0
  6
Continuous
 62
     7
370
    25
100
AcDbEllipse
 10
154.913822352
 20
83.9543920502
 30
0.0
 11
-0.08368089225510289
 21
0.0
 31
0.0
210
0.0
220
0.0
230
1.0
 40
0.9531667975
 41
5.940161364898354
 42
7.853981633974483
  0
LINE
  5
11A
330
1F
100
AcDbEntity
  8
0
  6
Continuous
 62
     7
370
    25
100
AcDbLine
 10
155.1346774502
 20
84.7809738631
 30
0.0
 11
154.8350164955
 21
83.9812188866
 31
0.0
  0
ELLIPSE
  5
11B
330
1F
100
AcDbEntity
  8
0
  6
Continuous
 62
     7
370
    25
100
AcDbEllipse
 10
155.5131440805
 20
83.9543920502
 30
0.0
 11
0.08368089225513131
 21
0.0
 31
0.0
210
0.0
220
0.0
230
1.0
 40
0.9531667975
 41
4.712388980384703
 42
6.626209245739343
  0
LINE
  5
11C
330
1F
100
AcDbEntity
  8
0
  6
Continuous
 62
     7
370
    25
100
AcDbLine
 10
155.5919498494
 20
83.9812188866
 30
0.0
 11
155.2922891276
 21
84.7809738631
 31
0.0
  0
SPLINE
  5
11D
330
1F
100
AcDbEntity
  8
0
  6
Continuous
 62
     7
370
    25
100
AcDbSpline
210
0.0
220
0.0
230
1.0
 70
     8
 71
     3
 72
     8
 73
     4
 74
     0
 42
0.000000001
 43
0.00000001
 40
0.0
 40
0.0
 40
0.0
 40
0.0
 40
0.0000524698222113
 40
0.0000524698222113
 40
0.0000524698222113
 40
0.0000524698222113
 10
148.9715639069326
 20
89.69025649552495
 30
0.0
 10
148.9888702187872
 20
89.68799428460062
 30
0.0
 10
149.0063660430279
 20
89.68685353783746
 30
0.0
 10
149.0238294780001
 20
89.68685353783759
 30
0.0
  0
LINE
  5
11E
330
1F
100
AcDbEntity
  8
0
  6
Continuous
 62
     7
370
    25
100
AcDbLine
 10
149.0238295225
 20
89.6868534261
 30
0.0
 11
149.0238295225
 21
89.1868533441
 31
0.0
  0
LINE
  5
11F
330
1F
100
AcDbEntity
  8
0
  6
Continuous
 62
     7
370
    25
100
AcDbLine
 10
149.0238295225
 20
89.6868534261
 30
0.0
 11
167.2266763924
 21
89.6868534261
 31
0.0
  0
SPLINE
  5
120
330
1F
100
AcDbEntity
  8
0
  6
Continuous
 62
     7
370
    25
100
AcDbSpline
210
0.0
220
0.0
230
1.0
 70
     8
 71
     3
 72
    14
 73
    10
 74
     0
 42
0.000000001
 43
0.00000001
 40
0.0
 40
0.0
 40
0.0
 40
0.0
 40
0.11064147088684
 40
0.2239563677466561
 40
0.4666597346472056
 40
0.5947565812497213
 40
0.726555932925035
 40
0.8618634099899128
 40
1.0
 40
1.0
 40
1.0
 40
1.0
 10
148.7168717506087
 20
79.57630106467967
 30
0.0
 10
148.7081893527223
 20
79.56607648644321
 30
0.0
 10
148.6906147644742
 20
79.54538027384565
 30
0.0
 10
148.6633790755123
 20
79.4996132545043
 30
0.0
 10
148.6452967062302
 20
79.45148103913712
 30
0.0
 10
148.6342616616519
 20
79.40269899310425
 30
0.0
 10
148.6287651484379
 20
79.3649407184983
 30
0.0
 10
148.625623476276
 20
79.32679899739915
 30
0.0
 10
148.6253547275258
 20
79.3014219567008
 30
0.0
 10
148.6252189628836
 20
79.28860215810683
 30
0.0
  0
LINE
  5
121
330
1F
100
AcDbEntity
  8
0
  6
Continuous
 62
     7
370
    25
100
AcDbLine
 10
148.625218804
 20
79.2886019559
 30
0.0
 11
148.3823596788
 21
79.1770942384
 31
0.0
  0
LINE
  5
122
330
1F
100
AcDbEntity
  8
0
  6
Continuous
 62
     7
370
    25
100
AcDbLine
 10
148.3823596788
 20
90.1966128373
 30
0.0
 11
148.625218804
 21
90.0851051198
 31
0.0
  0
SPLINE
  5
123
330
1F
100
AcDbEntity
  8
0
  6
Continuous
 62
     7
370
    25
100
AcDbSpline
210
0.0
220
0.0
230
1.0
 70
     8
 71
     3
 72
    14
 73
    10
 74
     0
 42
0.000000001
 43
0.00000001
 40
0.0
 40
0.0
 40
0.0
 40
0.0
 40
0.1377327108983413
 40
0.2725942884998932
 40
0.4041400602171393
 40
0.5321680644070492
 40
0.7754693061725265
 40
0.8890599100113705
 40
0.9999999999999999
 40
0.9999999999999999
 40
0.9999999999999999
 40
0.9999999999999999
 10
148.6252189628837
 20
90.08510491757019
 30
0.0
 10
148.6253537963337
 20
90.07232257708068
 30
0.0
 10
148.6256206525376
 20
90.04702435279998
 30
0.0
 10
148.6287424747828
 20
90.00898995441848
 30
0.0
 10
148.6342087387418
 20
89.97130738227335
 30
0.0
 10
148.6452085954527
 20
89.92250842928304
 30
0.0
 10
148.6632762680367
 20
89.8742962801309
 30
0.0
 10
148.6905497175318
 20
89.8284098635061
 30
0.0
 10
148.7081670619768
 20
89.80765897594341
 30
0.0
 10
148.7168717506087
 20
89.79740601099546
 30
0.0
  0
SPLINE
  5
124
330
1F
100
AcDbEntity
  8
0
  6
Continuous
 62
     7
370
    25
100
AcDbSpline
210
0.0
220
0.0
230
1.0
 70
     8
 71
     3
 72
    14
 73
    10
 74
     0
 42
0.000000001
 43
0.00000001
 40
0.0
 40
0.0
 40
0.0
 40
0.0
 40
0.1106414710656435
 40
0.2239563677554478
 40
0.4666597346536896
 40
0.5947565812547271
 40
0.726555932928469
 40
0.8618634099916662
 40
1.0
 40
1.0
 40
1.0
 40
1.0
 10
167.5336341642702
 20
89.79740601099546
 30
0.0
 10
167.5423165621686
 20
89.8076305892479
 30
0.0
 10
167.559891150413
 20
89.82832680184514
 30
0.0
 10
167.5871268393769
 20
89.87409382119246
 30
0.0
 10
167.6052092086489
 20
89.92222603653994
 30
0.0
 10
167.6162442532275
 20
89.97100808257257
 30
0.0
 10
167.6217407664411
 20
90.0087663571779
 30
0.0
 10
167.6248824386029
 20
90.04690807827652
 30
0.0
 10
167.6251511873532
 20
90.0722851189745
 30
0.0
 10
167.6252869519953
 20
90.08510491756827
 30
0.0
  0
LINE
  5
125
330
1F
100
AcDbEntity
  8
0
  6
Continuous
 62
     7
370
    25
100
AcDbLine
 10
167.6252871109
 20
90.0851051198
 30
0.0
 11
167.868146236
 21
90.1966128373
 31
0.0
  0
LINE
  5
126
330
1F
100
AcDbEntity
  8
0
  6
Continuous
 62
     7
370
    25
100
AcDbLine
 10
167.868146236
 20
79.1770942384
 30
0.0
 11
167.6252871109
 21
79.2886019559
 31
0.0
  0
SPLINE
  5
127
330
1F
100
AcDbEntity
  8
0
  6
Continuous
 62
     7
370
    25
100
AcDbSpline
210
0.0
220
0.0
230
1.0
 70
     8
 71
     3
 72
    14
 73
    10
 74
     0
 42
0.000000001
 43
0.00000001
 40
0.0
 40
0.0
 40
0.0
 40
0.0
 40
0.1377327108985503
 40
0.2725942885000418
 40
0.4041400602172888
 40
0.5321680644071739
 40
0.7754693061726297
 40
0.8890599100180714
 40
1.0
 40
1.0
 40
1.0
 40
1.0
 10
167.6252869519953
 20
79.28860215810498
 30
0.0
 10
167.6251521185452
 20
79.3013844985945
 30
0.0
 10
167.6248852623413
 20
79.32668272287528
 30
0.0
 10
167.6217634400961
 20
79.36471712125673
 30
0.0
 10
167.6162971761372
 20
79.40239969340188
 30
0.0
 10
167.6052973194262
 20
79.45119864639216
 30
0.0
 10
167.5872296468422
 20
79.4994107955448
 30
0.0
 10
167.5599561973464
 20
79.54529721216987
 30
0.0
 10
167.5423388529015
 20
79.56604809973241
 30
0.0
 10
167.5336341642702
 20
79.57630106467967
 30
0.0
  0
ARC
  5
128
330
1F
100
AcDbEntity
  8
0
  6
Continuous
 62
     7
370
    25
100
AcDbCircle
 10
149.0252529574
 20
90.0868535378
 30
0.0
 40
0.4000000000000057
100
AcDbArc
 50
180.0
 51
270.0
  0
SPLINE
  5
129
330
1F
100
AcDbEntity
  8
0
  6
Continuous
 62
     7
370
    25
100
AcDbSpline
210
0.0
220
0.0
230
1.0
 70
    24
 71
     3
 72
     8
 73
     4
 74
     0
 42
0.000000001
 43
0.00000001
 40
0.0
 40
0.0
 40
0.0
 40
0.0
 40
1.0
 40
1.0
 40
1.0
 40
1.0
 10
149.0252529574394
 20
89.68685353783759
 30
0.0
 10
149.0252529574394
 20
89.68685353783759
 30
0.0
 10
149.0247761780468
 20
89.68685353783759
 30
0.0
 10
149.0238294779976
 20
89.68685353783759
 30
0.0
  0
SPLINE
  5
12A
330
1F
100
AcDbEntity
  8
0
  6
Continuous
 62
     7
370
    25
100
AcDbSpline
210
0.0
220
0.0
230
1.0
 70
     8
 71
     3
 72
     8
 73
     4
 74
     0
 42
0.000000001
 43
0.00000001
 40
0.0
 40
0.0
 40
0.0
 40
0.0
 40
1.0
 40
1.0
 40
1.0
 40
1.0
 10
148.6252189628835
 20
90.08510491756518
 30
0.0
 10
148.6252416204944
 20
90.08568709571949
 30
0.0
 10
148.6252529574394
 20
90.08626996850056
 30
0.0
 10
148.6252529574394
 20
90.08685353783758
 30
0.0
  0
ARC
  5
12B
330
1F
100
AcDbEntity
  8
0
  6
Continuous
 62
     7
370
    25
100
AcDbCircle
 10
167.2252529574
 20
79.2868535378
 30
0.0
 40
0.4000000000000057
100
AcDbArc
 50
0.0
 51
90.0
  0
SPLINE
  5
12C
330
1F
100
AcDbEntity
  8
0
  6
Continuous
 62
     7
370
    25
100
AcDbSpline
210
0.0
220
0.0
230
1.0
 70
    24
 71
     3
 72
     8
 73
     4
 74
     0
 42
0.000000001
 43
0.00000001
 40
0.0
 40
0.0
 40
0.0
 40
0.0
 40
1.0
 40
1.0
 40
1.0
 40
1.0
 10
167.2252529574395
 20
79.68685353783752
 30
0.0
 10
167.2252529574395
 20
79.68685353783752
 30
0.0
 10
167.2257297368321
 20
79.68685353783752
 30
0.0
 10
167.2266764368813
 20
79.68685353783752
 30
0.0
  0
SPLINE
  5
12D
330
1F
100
AcDbEntity
  8
0
  6
Continuous
 62
     7
370
    25
100
AcDbSpline
210
0.0
220
0.0
230
1.0
 70
     8
 71
     3
 72
     8
 73
     4
 74
     0
 42
0.000000001
 43
0.00000001
 40
0.0
 40
0.0
 40
0.0
 40
0.0
 40
1.0
 40
1.0
 40
1.0
 40
1.0
 10
167.6252869519953
 20
79.28860215810681
 30
0.0
 10
167.6252642943845
 20
79.28801997995352
 30
0.0
 10
167.6252529574395
 20
79.28743710717352
 30
0.0
 10
167.6252529574395
 20
79.28685353783753
 30
0.0
  0
SPLINE
  5
12E
330
1F
100
AcDbEntity
  8
0
  6
Continuous
 62
     7
370
    25
100
AcDbSpline
210
0.0
220
0.0
230
1.0
 70
    24
 71
     3
 72
     8
 73
     4
 74
     0
 42
0.000000001
 43
0.00000001
 40
0.0
 40
0.0
 40
0.0
 40
0.0
 40
1.0
 40
1.0
 40
1.0
 40
1.0
 10
149.023829477998
 20
79.68685353783752
 30
0.0
 10
149.024776178047
 20
79.68685353783752
 30
0.0
 10
149.0252529574394
 20
79.68685353783752
 30
0.0
 10
149.0252529574394
 20
79.68685353783752
 30
0.0
  0
ARC
  5
12F
330
1F
100
AcDbEntity
  8
0
  6
Continuous
 62
     7
370
    25
100
AcDbCircle
 10
149.0252529574
 20
79.2868535378
 30
0.0
 40
0.4000000000000057
100
AcDbArc
 50
90.0
 51
180.0
  0
SPLINE
  5
130
330
1F
100
AcDbEntity
  8
0
  6
Continuous
 62
     7
370
    25
100
AcDbSpline
210
0.0
220
0.0
230
1.0
 70
     8
 71
     3
 72
     8
 73
     4
 74
     0
 42
0.000000001
 43
0.00000001
 40
0.0
 40
0.0
 40
0.0
 40
0.0
 40
1.0
 40
1.0
 40
1.0
 40
1.0
 10
148.6252529574394
 20
79.28685353783753
 30
0.0
 10
148.6252529574394
 20
79.28743710717336
 30
0.0
 10
148.6252416204944
 20
79.2880199799532
 30
0.0
 10
148.6252189628836
 20
79.28860215810633
 30
0.0
  0
SPLINE
  5
131
330
1F
100
AcDbEntity
  8
0
  6
Continuous
 62
     7
370
    25
100
AcDbSpline
210
0.0
220
0.0
230
1.0
 70
    24
 71
     3
 72
     8
 73
     4
 74
     0
 42
0.000000001
 43
0.00000001
 40
0.0
 40
0.0
 40
0.0
 40
0.0
 40
1.0
 40
1.0
 40
1.0
 40
1.0
 10
167.2266764368809
 20
89.68685353783759
 30
0.0
 10
167.2257297368319
 20
89.68685353783759
 30
0.0
 10
167.2252529574395
 20
89.68685353783759
 30
0.0
 10
167.2252529574395
 20
89.68685353783759
 30
0.0
  0
ARC
  5
132
330
1F
100
AcDbEntity
  8
0
  6
Continuous
 62
     7
370
    25
100
AcDbCircle
 10
167.2252529574
 20
90.0868535378
 30
0.0
 40
0.4000000000000057
100
AcDbArc
 50
270.0
 51
0.0
  0
SPLINE
  5
133
330
1F
100
AcDbEntity
  8
0
  6
Continuous
 62
     7
370
    25
100
AcDbSpline
210
0.0
220
0.0
230
1.0
 70
     8
 71
     3
 72
     8
 73
     4
 74
     0
 42
0.000000001
 43
0.00000001
 40
0.0
 40
0.0
 40
0.0
 40
0.0
 40
1.0
 40
1.0
 40
1.0
 40
1.0
 10
167.6252529574395
 20
90.08685353783758
 30
0.0
 10
167.6252529574395
 20
90.0862699685016
 30
0.0
 10
167.6252642943845
 20
90.0856870957216
 30
0.0
 10
167.6252869519953
 20
90.08510491756832
 30
0.0
  0
LINE
  5
134
330
1F
100
AcDbEntity
  8
0
  6
Continuous
 62
     7
370
    25
100
AcDbLine
 10
167.6252871109
 20
90.0851051198
 30
0.0
 11
167.6252871109
 21
96.443994517
 31
0.0
  0
LINE
  5
135
330
1F
100
AcDbEntity
  8
0
  6
Continuous
 62
     7
370
    25
100
AcDbLine
 10
148.625218804
 20
79.2886019559
 30
0.0
 11
148.625218804
 21
72.9297125587
 31
0.0
  0
LINE
  5
136
330
1F
100
AcDbEntity
  8
0
  6
Continuous
 62
     7
370
    25
100
AcDbLine
 10
148.625218804
 20
96.443994517
 30
0.0
 11
148.625218804
 21
90.0851051198
 31
0.0
  0
LINE
  5
137
330
1F
100
AcDbEntity
  8
0
  6
Continuous
 62
     7
370
    25
100
AcDbLine
 10
167.6252871109
 20
72.9297125587
 30
0.0
 11
167.6252871109
 21
79.2886019559
 31
0.0
  0
LINE
  5
138
330
1F
100
AcDbEntity
  8
0
  6
Continuous
 62
     7
370
    25
100
AcDbLine
 10
182.1788619561
 20
84.6868535378
 30
0.0
 11
182.1788619561
 21
74.3800910064
 31
0.0
  0
LINE
  5
139
330
1F
100
AcDbEntity
  8
0
  6
Continuous
 62
     7
370
    25
100
AcDbLine
 10
182.1788619561
 20
94.9936160692
 30
0.0
 11
182.1788619561
 21
84.6868535378
 31
0.0
  0
LINE
  5
13A
330
1F
100
AcDbEntity
  8
0
  6
Continuous
 62
     7
370
    25
100
AcDbLine
 10
148.6252532629
 20
96.4368531355
 30
0.0
 11
148.6252532629
 21
90.0868536779
 31
0.0
  0
LINE
  5
13B
330
1F
100
AcDbEntity
  8
0
  6
Continuous
 62
     7
370
    25
100
AcDbLine
 10
167.625252652
 20
72.9368539402
 30
0.0
 11
167.625252652
 21
79.2868533978
 31
0.0
  0
LINE
  5
13C
330
1F
100
AcDbEntity
  8
0
  6
Continuous
 62
     7
370
    25
100
AcDbLine
 10
167.625252652
 20
90.0868536779
 30
0.0
 11
167.625252652
 21
96.4368531355
 31
0.0
  0
LINE
  5
13D
330
1F
100
AcDbEntity
  8
0
  6
Continuous
 62
     7
370
    25
100
AcDbLine
 10
148.6252532629
 20
79.2868533978
 30
0.0
 11
148.6252532629
 21
72.9368539402
 31
0.0
  0
LINE
  5
13E
330
1F
100
AcDbEntity
  8
0
  6
Continuous
 62
     7
370
    25
100
AcDbLine
 10
184.8752531512
 20
93.4368535751
 30
0.0
 11
184.8752531512
 21
75.9368535006
 31
0.0
  0
LINE
  5
13F
330
1F
100
AcDbEntity
  8
0
  6
Continuous
 62
     7
370
    25
100
AcDbLine
 10
149.0252525834
 20
89.6868534261
 30
0.0
 11
149.0252525834
 21
89.9477229328
 31
0.0
  0
LINE
  5
140
330
1F
100
AcDbEntity
  8
0
  6
Continuous
 62
     7
370
    25
100
AcDbLine
 10
149.0252525834
 20
89.9477229328
 30
0.0
 11
167.2252533315
 21
89.9477229328
 31
0.0
  0
LINE
  5
141
330
1F
100
AcDbEntity
  8
0
  6
Continuous
 62
     7
370
    25
100
AcDbLine
 10
167.2252533315
 20
89.6868534261
 30
0.0
 11
167.2252533315
 21
89.9477229328
 31
0.0
  0
LWPOLYLINE
  5
142
330
1F
100
AcDbEntity
  8
0
  6
Continuous
 62
     7
370
    25
100
AcDbPolyline
 90
        9
 70
   128
 43
0.0
 10
167.2252533315
 20
89.9477229328
 10
167.30328885
 20
89.951398863
 10
167.3783264411
 20
89.9622850926
 10
167.4474808676
 20
89.9799639234
 10
167.5080959974
 20
90.0037550242
 10
167.55784073
 20
90.032744302
 10
167.594804923
 20
90.0658183606
 10
167.6175673781
 20
90.1017059447
 10
167.625252652
 20
90.1390272999
  0
LWPOLYLINE
  5
143
330
1F
100
AcDbEntity
  8
0
  6
Continuous
 62
     7
370
    25
100
AcDbPolyline
 90
        9
 70
   128
 43
0.0
 10
148.6252532629
 20
90.1390272999
 10
148.6329385368
 20
90.1017059447
 10
148.6557009918
 20
90.0658183606
 10
148.6926651848
 20
90.032744302
 10
148.7424099175
 20
90.0037550242
 10
148.8030250473
 20
89.9799639234
 10
148.8721794737
 20
89.9622850926
 10
148.9472170649
 20
89.951398863
 10
149.0252525834
 20
89.9477229328
  0
LINE
  5
144
330
1F
100
AcDbEntity
  8
0
  6
Continuous
 62
     7
370
    25
100
AcDbLine
 10
149.0252525834
 20
79.4259841428
 30
0.0
 11
149.0252525834
 21
79.6868536496
 31
0.0
  0
LWPOLYLINE
  5
145
330
1F
100
AcDbEntity
  8
0
  6
Continuous
 62
     7
370
    25
100
AcDbPolyline
 90
        9
 70
   128
 43
0.0
 10
149.0252525834
 20
79.4259841428
 10
148.9472170649
 20
79.4223082126
 10
148.8721794737
 20
79.4114219831
 10
148.8030250473
 20
79.3937431523
 10
148.7424099175
 20
79.3699520515
 10
148.6926651848
 20
79.3409627737
 10
148.6557009918
 20
79.3078887151
 10
148.6329385368
 20
79.272001131
 10
148.6252532629
 20
79.2346797758
  0
LINE
  5
146
330
1F
100
AcDbEntity
  8
0
  6
Continuous
 62
     7
370
    25
100
AcDbLine
 10
167.2252533315
 20
79.4259841428
 30
0.0
 11
149.0252525834
 21
79.4259841428
 31
0.0
  0
LINE
  5
147
330
1F
100
AcDbEntity
  8
0
  6
Continuous
 62
     7
370
    25
100
AcDbLine
 10
167.2252533315
 20
79.4259841428
 30
0.0
 11
167.2252533315
 21
79.6868536496
 31
0.0
  0
LWPOLYLINE
  5
148
330
1F
100
AcDbEntity
  8
0
  6
Continuous
 62
     7
370
    25
100
AcDbPolyline
 90
        9
 70
   128
 43
0.0
 10
167.625252652
 20
79.2346797758
 10
167.6175673781
 20
79.272001131
 10
167.594804923
 20
79.3078887151
 10
167.55784073
 20
79.3409627737
 10
167.5080959974
 20
79.3699520515
 10
167.4474808676
 20
79.3937431523
 10
167.3783264411
 20
79.4114219831
 10
167.30328885
 20
79.4223082126
 10
167.2252533315
 20
79.4259841428
  0
LINE
  5
149
330
1F
100
AcDbEntity
  8
0
  6
Continuous
 62
     7
370
    25
100
AcDbLine
 10
151.7497613383
 20
95.6738242754
 30
0.0
 11
151.7496933518
 21
95.673860597
 31
0.0
  0
LINE
  5
14A
330
1F
100
AcDbEntity
  8
0
  6
Continuous
 62
     7
370
    25
100
AcDbLine
 10
152.2477837568
 20
96.1732702204
 30
0.0
 11
152.2478158874
 21
96.1732506627
 31
0.0
  0
SPLINE
  5
14B
330
1F
100
AcDbEntity
  8
0
  6
Continuous
 62
     7
370
    25
100
AcDbSpline
210
0.0
220
0.0
230
1.0
 70
    11
 71
     3
 72
    26
 73
    22
 74
     0
 42
0.000000001
 43
0.00000001
 40
0.0
 40
0.0
 40
0.0
 40
0.0
 40
0.1249999999999999
 40
0.1249999999999999
 40
0.1874999999999999
 40
0.1874999999999999
 40
0.2499999999999999
 40
0.2499999999999999
 40
0.3124999999999999
 40
0.3124999999999999
 40
0.3749999999999999
 40
0.3749999999999999
 40
0.4999999999999999
 40
0.4999999999999999
 40
0.6249999999999999
 40
0.6249999999999999
 40
0.7499999999999999
 40
0.7499999999999999
 40
0.8749999999999999
 40
0.8749999999999999
 40
1.0
 40
1.0
 40
1.0
 40
1.0
 10
158.6385719262878
 20
95.68685353783759
 30
0.0
 10
158.6385719262878
 20
95.82597256906641
 30
0.0
 10
158.5857759551389
 20
95.9617002720419
 30
0.0
 10
158.4443203652616
 20
96.11471900853768
 30
0.0
 10
158.3877664288897
 20
96.15622190955821
 30
0.0
 10
158.2622222774463
 20
96.21342180335188
 30
0.0
 10
158.1930706643383
 20
96.22870579209622
 30
0.0
 10
158.0559122895948
 20
96.22848491833257
 30
0.0
 10
157.9867977067887
 20
96.21292485704491
 30
0.0
 10
157.8620379381576
 20
96.15571902255091
 30
0.0
 10
157.8054068498231
 20
96.11396759528395
 30
0.0
 10
157.6652932233002
 20
95.96212672700051
 30
0.0
 10
157.6119726893536
 20
95.82607439973265
 30
0.0
 10
157.6118953307775
 20
95.54794170602929
 30
0.0
 10
157.6655837127992
 20
95.4111396960093
 30
0.0
 10
157.8522785271068
 20
95.20907089234423
 30
0.0
 10
157.9881597364704
 20
95.14490113265869
 30
0.0
 10
158.2637908705089
 20
95.1453221854597
 30
0.0
 10
158.3987659089225
 20
95.20959086788301
 30
0.0
 10
158.5846133859885
 20
95.41086841910715
 30
0.0
 10
158.6385719262878
 20
95.54773450660878
 30
0.0
 10
158.6385719262878
 20
95.68685353783759
 30
0.0
  0
SPLINE
  5
14C
330
1F
100
AcDbEntity
  8
0
  6
Continuous
 62
     7
370
    25
100
AcDbSpline
210
0.0
220
0.0
230
1.0
 70
    11
 71
     3
 72
    38
 73
    34
 74
     0
 42
0.000000001
 43
0.00000001
 40
0.0
 40
0.0
 40
0.0
 40
0.0
 40
0.0625
 40
0.0625
 40
0.125
 40
0.125
 40
0.1875
 40
0.1875
 40
0.25
 40
0.25
 40
0.3125
 40
0.3125
 40
0.375
 40
0.375
 40
0.4375
 40
0.4375
 40
0.5
 40
0.5
 40
0.5625
 40
0.5625
 40
0.625
 40
0.625
 40
0.6875
 40
0.6875
 40
0.75
 40
0.75
 40
0.8125
 40
0.8125
 40
0.875
 40
0.875
 40
0.9375
 40
0.9375
 40
1.0
 40
1.0
 40
1.0
 40
1.0
 10
157.1252529574394
 20
95.68685353783758
 30
0.0
 10
157.1252529574394
 20
95.55446762292728
 30
0.0
 10
157.1514015085823
 20
95.42458029644858
 30
0.0
 10
157.2518671780401
 20
95.1825013018627
 30
0.0
 10
157.3261520444366
 20
95.07171994780668
 30
0.0
 10
157.5103012241714
 20
94.88761266770092
 30
0.0
 10
157.6216768467656
 20
94.81314399640493
 30
0.0
 10
157.8622253512995
 20
94.71331682027623
 30
0.0
 10
157.9939832472869
 20
94.68692890020293
 30
0.0
 10
158.2553719394508
 20
94.6867785065161
 30
0.0
 10
158.3865440100425
 20
94.71271832692614
 30
0.0
 10
158.6289816960422
 20
94.81308595935143
 30
0.0
 10
158.7390358641918
 20
94.88647486249664
 30
0.0
 10
158.9252891816027
 20
95.07262432932619
 30
0.0
 10
158.9987155094958
 20
95.18266284672619
 30
0.0
 10
159.0990802571247
 20
95.42454556381486
 30
0.0
 10
159.1252015214209
 20
95.55582008232619
 30
0.0
 10
159.1253042389062
 20
95.8171007316987
 30
0.0
 10
159.0990606108124
 20
95.94891613521162
 30
0.0
 10
158.9993922540143
 20
96.1897040532931
 30
0.0
 10
158.9251114620457
 20
96.3010362546911
 30
0.0
 10
158.7409247216122
 20
96.4855664498861
 30
0.0
 10
158.6305011475496
 20
96.55975277915988
 30
0.0
 10
158.3881164323096
 20
96.66057403813002
 30
0.0
 10
158.2581922527432
 20
96.68674826743506
 30
0.0
 10
157.9939021432263
 20
96.68695817742197
 30
0.0
 10
157.8636683845643
 20
96.66087045505881
 30
0.0
 10
157.6217757133936
 20
96.5607220110802
 30
0.0
 10
157.510759787987
 20
96.48643571591504
 30
0.0
 10
157.3265920520069
 20
96.30254361647825
 30
0.0
 10
157.2519933805048
 20
96.19121346592422
 30
0.0
 10
157.1519425669597
 20
95.95072492611561
 30
0.0
 10
157.1252529574394
 20
95.8192394527479
 30
0.0
 10
157.1252529574394
 20
95.68685353783758
 30
0.0
  0
LINE
  5
14D
330
1F
100
AcDbEntity
  8
0
  6
Continuous
 62
     7
370
    25
100
AcDbLine
 10
163.3643382517
 20
113.1868535527
 30
0.0
 11
163.3643382517
 21
113.7868543961
 31
0.0
  0
LINE
  5
14E
330
1F
100
AcDbEntity
  8
0
  6
Continuous
 62
     7
370
    25
100
AcDbLine
 10
152.8861676631
 20
113.1868535527
 30
0.0
 11
163.3643382517
 21
113.1868535527
 31
0.0
  0
LINE
  5
14F
330
1F
100
AcDbEntity
  8
0
  6
Continuous
 62
     7
370
    25
100
AcDbLine
 10
152.8861676631
 20
113.7868543961
 30
0.0
 11
152.8861676631
 21
113.1868535527
 31
0.0
  0
LINE
  5
150
330
1F
100
AcDbEntity
  8
0
  6
Continuous
 62
     7
370
    25
100
AcDbLine
 10
163.3643382517
 20
113.7868543961
 30
0.0
 11
152.8861676631
 21
113.7868543961
 31
0.0
  0
SPLINE
  5
151
330
1F
100
AcDbEntity
  8
0
  6
Continuous
 62
     7
370
    25
100
AcDbSpline
210
0.0
220
0.0
230
1.0
 70
     8
 71
     3
 72
    15
 73
    11
 74
     0
 42
0.000000001
 43
0.00000001
 40
0.0
 40
0.0
 40
0.0
 40
0.0
 40
0.0090436724834494
 40
0.1032416751067569
 40
0.1542556056852488
 40
0.3133162322516578
 40
0.5243707672643673
 40
0.6678056085730026
 40
0.9918331394239733
 40
1.0
 40
1.0
 40
1.0
 40
1.0
 10
163.3643382517457
 20
113.7868543961445
 30
0.0
 10
163.3643324962427
 20
113.7885350766273
 30
0.0
 10
163.3642667919865
 20
113.8077215596277
 30
0.0
 10
163.3622717080862
 20
113.8364155563202
 30
0.0
 10
163.3544554772456
 20
113.887092211158
 30
0.0
 10
163.337284651575
 20
113.9449682440927
 30
0.0
 10
163.3107011864831
 20
113.9898330113867
 30
0.0
 10
163.2728715435672
 20
114.0271953831114
 30
0.0
 10
163.244592112204
 20
114.0367530140447
 30
0.0
 10
163.2247600224535
 20
114.0368506400443
 30
0.0
 10
163.2242724587977
 20
114.0368530401388
 30
0.0
  0
SPLINE
  5
152
330
1F
100
AcDbEntity
  8
0
  6
Continuous
 62
     7
370
    25
100
AcDbSpline
210
0.0
220
0.0
230
1.0
 70
     8
 71
     3
 72
    15
 73
    11
 74
     0
 42
0.000000001
 43
0.00000001
 40
0.0
 40
0.0
 40
0.0
 40
0.0
 40
0.0081668605760267
 40
0.3321943914269974
 40
0.4756292327356328
 40
0.6866837677483423
 40
0.8457443943147512
 40
0.8967583248932431
 40
0.9909563275165506
 40
1.0
 40
1.0
 40
1.0
 40
1.0
 10
153.0262334560812
 20
114.0368530401388
 30
0.0
 10
153.0257458924254
 20
114.0368506400443
 30
0.0
 10
153.0059138026749
 20
114.0367530140447
 30
0.0
 10
152.9776343713117
 20
114.0271953831114
 30
0.0
 10
152.9398047283958
 20
113.9898330113867
 30
0.0
 10
152.9132212633039
 20
113.9449682440927
 30
0.0
 10
152.8960504376333
 20
113.887092211158
 30
0.0
 10
152.8882342067928
 20
113.8364155563202
 30
0.0
 10
152.8862391228924
 20
113.8077215596277
 30
0.0
 10
152.8861734186362
 20
113.7885350766273
 30
0.0
 10
152.8861676631332
 20
113.7868543961445
 30
0.0
  0
LINE
  5
153
330
1F
100
AcDbEntity
  8
0
  6
Continuous
 62
     7
370
    25
100
AcDbLine
 10
153.0262334561
 20
114.0368530401
 30
0.0
 11
163.2242724588
 21
114.0368530401
 31
0.0
  0
SPLINE
  5
154
330
1F
100
AcDbEntity
  8
0
  6
Continuous
 62
     7
370
    25
100
AcDbSpline
210
0.0
220
0.0
230
1.0
 70
     8
 71
     3
 72
    15
 73
    11
 74
     0
 42
0.000000001
 43
0.00000001
 40
0.0
 40
0.0
 40
0.0
 40
0.0
 40
0.0089534988674381
 40
0.0998985623745415
 40
0.1531622675511333
 40
0.3125628018590214
 40
0.5249652617398926
 40
0.6689887197650001
 40
0.9919154785064853
 40
1.0
 40
1.0
 40
1.0
 40
1.0
 10
152.6480275494814
 20
113.7868543961445
 30
0.0
 10
152.6480432131616
 20
113.7885351039354
 30
0.0
 10
152.6482179804964
 20
113.807287582109
 30
0.0
 10
152.653648647211
 20
113.8360493551953
 30
0.0
 10
152.6751823592391
 20
113.8869373331378
 30
0.0
 10
152.722888955429
 20
113.9450725589467
 30
0.0
 10
152.7952799564013
 20
113.9897797048523
 30
0.0
 10
152.8971982439765
 20
114.027061554572
 30
0.0
 10
152.9725549843157
 20
114.0367522844738
 30
0.0
 10
153.0249536857139
 20
114.0368506379818
 30
0.0
 10
153.0262334560812
 20
114.0368530401388
 30
0.0
  0
LINE
  5
155
330
1F
100
AcDbEntity
  8
0
  6
Continuous
 62
     7
370
    25
100
AcDbLine
 10
152.6480275495
 20
113.7868543961
 30
0.0
 11
152.8861676631
 21
113.7868543961
 31
0.0
  0
SPLINE
  5
156
330
1F
100
AcDbEntity
  8
0
  6
Continuous
 62
     7
370
    25
100
AcDbSpline
210
0.0
220
0.0
230
1.0
 70
     8
 71
     3
 72
    15
 73
    11
 74
     0
 42
0.000000001
 43
0.00000001
 40
0.0
 40
0.0
 40
0.0
 40
0.0
 40
0.0080845214935147
 40
0.331011280235
 40
0.4750347382601076
 40
0.6874371981409787
 40
0.8468377324488667
 40
0.9001014376254585
 40
0.991046501132562
 40
1.0
 40
1.0
 40
1.0
 40
1.0
 10
163.2242724587977
 20
114.0368530401388
 30
0.0
 10
163.225552229165
 20
114.0368506379819
 30
0.0
 10
163.2779509305632
 20
114.0367522844738
 30
0.0
 10
163.3533076709025
 20
114.027061554572
 30
0.0
 10
163.4552259584776
 20
113.9897797048523
 30
0.0
 10
163.5276169594499
 20
113.9450725589467
 30
0.0
 10
163.5753235556398
 20
113.8869373331378
 30
0.0
 10
163.5968572676679
 20
113.8360493551953
 30
0.0
 10
163.6022879343825
 20
113.8072875821091
 30
0.0
 10
163.6024627017173
 20
113.7885351039354
 30
0.0
 10
163.6024783653975
 20
113.7868543961445
 30
0.0
  0
LINE
  5
157
330
1F
100
AcDbEntity
  8
0
  6
Continuous
 62
     7
370
    25
100
AcDbLine
 10
163.3643382517
 20
113.7868543961
 30
0.0
 11
163.6024783654
 21
113.7868543961
 31
0.0
  0
LINE
  5
158
330
1F
100
AcDbEntity
  8
0
  6
Continuous
 62
     7
370
    25
100
AcDbLine
 10
152.6480275495
 20
113.1868535527
 30
0.0
 11
152.6480275495
 21
113.7868543961
 31
0.0
  0
LINE
  5
159
330
1F
100
AcDbEntity
  8
0
  6
Continuous
 62
     7
370
    25
100
AcDbLine
 10
152.8861676631
 20
113.1868535527
 30
0.0
 11
152.6480275495
 21
113.1868535527
 31
0.0
  0
LINE
  5
15A
330
1F
100
AcDbEntity
  8
0
  6
Continuous
 62
     7
370
    25
100
AcDbLine
 10
163.6024783654
 20
113.7868543961
 30
0.0
 11
163.6024783654
 21
113.1868535527
 31
0.0
  0
LINE
  5
15B
330
1F
100
AcDbEntity
  8
0
  6
Continuous
 62
     7
370
    25
100
AcDbLine
 10
163.6024783654
 20
113.1868535527
 30
0.0
 11
163.3643382517
 21
113.1868535527
 31
0.0
  0
LINE
  5
15C
330
1F
100
AcDbEntity
  8
0
  6
Continuous
 62
     7
370
    25
100
AcDbLine
 10
152.1252529053
 20
113.1868535527
 30
0.0
 11
152.1252529053
 21
113.7868543961
 31
0.0
  0
LINE
  5
15D
330
1F
100
AcDbEntity
  8
0
  6
Continuous
 62
     7
370
    25
100
AcDbLine
 10
152.1252529053
 20
113.7868543961
 30
0.0
 11
152.3752529463
 21
113.7868543961
 31
0.0
  0
LINE
  5
15E
330
1F
100
AcDbEntity
  8
0
  6
Continuous
 62
     7
370
    25
100
AcDbLine
 10
152.3752529463
 20
113.7868543961
 30
0.0
 11
152.3752529463
 21
113.1868535527
 31
0.0
  0
LINE
  5
15F
330
1F
100
AcDbEntity
  8
0
  6
Continuous
 62
     7
370
    25
100
AcDbLine
 10
152.3752529463
 20
113.1868535527
 30
0.0
 11
152.1252529053
 21
113.1868535527
 31
0.0
  0
LINE
  5
160
330
1F
100
AcDbEntity
  8
0
  6
Continuous
 62
     7
370
    25
100
AcDbLine
 10
152.6480275495
 20
113.7868543961
 30
0.0
 11
152.3752529463
 21
113.7868543961
 31
0.0
  0
LINE
  5
161
330
1F
100
AcDbEntity
  8
0
  6
Continuous
 62
     7
370
    25
100
AcDbLine
 10
152.3752529463
 20
113.1868535527
 30
0.0
 11
152.6480275495
 21
113.1868535527
 31
0.0
  0
ARC
  5
162
330
1F
100
AcDbEntity
  8
0
  6
Continuous
 62
     7
370
    25
100
AcDbCircle
 10
152.3752529574
 20
113.7868535378
 30
0.0
 40
0.25
100
AcDbArc
 50
90.0
 51
180.0
  0
LINE
  5
163
330
1F
100
AcDbEntity
  8
0
  6
Continuous
 62
     7
370
    25
100
AcDbLine
 10
152.3752529463
 20
114.0368530401
 30
0.0
 11
152.3752529463
 21
113.7868543961
 31
0.0
  0
LINE
  5
164
330
1F
100
AcDbEntity
  8
0
  6
Continuous
 62
     7
370
    25
100
AcDbLine
 10
152.3752529463
 20
114.0368530401
 30
0.0
 11
153.0262334561
 21
114.0368530401
 31
0.0
  0
LINE
  5
165
330
1F
100
AcDbEntity
  8
0
  6
Continuous
 62
     7
370
    25
100
AcDbLine
 10
163.8752529686
 20
113.1868535527
 30
0.0
 11
163.8752529686
 21
113.7868543961
 31
0.0
  0
LINE
  5
166
330
1F
100
AcDbEntity
  8
0
  6
Continuous
 62
     7
370
    25
100
AcDbLine
 10
163.8752529686
 20
113.7868543961
 30
0.0
 11
163.6024783654
 21
113.7868543961
 31
0.0
  0
LINE
  5
167
330
1F
100
AcDbEntity
  8
0
  6
Continuous
 62
     7
370
    25
100
AcDbLine
 10
163.6024783654
 20
113.1868535527
 30
0.0
 11
163.8752529686
 21
113.1868535527
 31
0.0
  0
LINE
  5
168
330
1F
100
AcDbEntity
  8
0
  6
Continuous
 62
     7
370
    25
100
AcDbLine
 10
163.8752529686
 20
113.7868543961
 30
0.0
 11
164.1252530096
 21
113.7868543961
 31
0.0
  0
LINE
  5
169
330
1F
100
AcDbEntity
  8
0
  6
Continuous
 62
     7
370
    25
100
AcDbLine
 10
164.1252530096
 20
113.7868543961
 30
0.0
 11
164.1252530096
 21
113.1868535527
 31
0.0
  0
LINE
  5
16A
330
1F
100
AcDbEntity
  8
0
  6
Continuous
 62
     7
370
    25
100
AcDbLine
 10
164.1252530096
 20
113.1868535527
 30
0.0
 11
163.8752529686
 21
113.1868535527
 31
0.0
  0
LINE
  5
16B
330
1F
100
AcDbEntity
  8
0
  6
Continuous
 62
     7
370
    25
100
AcDbLine
 10
163.8752529686
 20
113.7868543961
 30
0.0
 11
163.8752529686
 21
114.0368530401
 31
0.0
  0
LINE
  5
16C
330
1F
100
AcDbEntity
  8
0
  6
Continuous
 62
     7
370
    25
100
AcDbLine
 10
163.2242724588
 20
114.0368530401
 30
0.0
 11
163.8752529686
 21
114.0368530401
 31
0.0
  0
ARC
  5
16D
330
1F
100
AcDbEntity
  8
0
  6
Continuous
 62
     7
370
    25
100
AcDbCircle
 10
163.8752529574
 20
113.7868535378
 30
0.0
 40
0.25
100
AcDbArc
 50
0.0
 51
90.0
  0
LINE
  5
16E
330
1F
100
AcDbEntity
  8
0
  6
Continuous
 62
     7
370
    25
100
AcDbLine
 10
153.1252530692
 20
114.0368530401
 30
0.0
 11
153.1252530692
 21
114.0468535819
 31
0.0
  0
LINE
  5
16F
330
1F
100
AcDbEntity
  8
0
  6
Continuous
 62
     7
370
    25
100
AcDbLine
 10
153.1252530692
 20
114.0468535819
 30
0.0
 11
163.1252528457
 21
114.0468535819
 31
0.0
  0
LINE
  5
170
330
1F
100
AcDbEntity
  8
0
  6
Continuous
 62
     7
370
    25
100
AcDbLine
 10
163.1252528457
 20
114.0368530401
 30
0.0
 11
163.1252528457
 21
114.0468535819
 31
0.0
  0
LINE
  5
171
330
1F
100
AcDbEntity
  8
0
  6
Continuous
 62
     7
370
    25
100
AcDbLine
 10
156.1252528624
 20
97.1868537241
 30
0.0
 11
165.1252531735
 21
97.1868537241
 31
0.0
  0
LINE
  5
172
330
1F
100
AcDbEntity
  8
0
  6
Continuous
 62
     7
370
    25
100
AcDbLine
 10
156.1252528624
 20
97.2246700772
 30
0.0
 11
156.1252528624
 21
97.1868537241
 31
0.0
  0
SPLINE
  5
173
330
1F
100
AcDbEntity
  8
0
  6
Continuous
 62
     7
370
    25
100
AcDbSpline
210
0.0
220
0.0
230
1.0
 70
     8
 71
     3
 72
     9
 73
     5
 74
     0
 42
0.000000001
 43
0.00000001
 40
0.0
 40
0.0
 40
0.0
 40
0.0
 40
0.4875146278623623
 40
1.0
 40
1.0
 40
1.0
 40
1.0
 10
155.9693077867687
 20
97.18685372410211
 30
0.0
 10
155.9956143699003
 20
97.18858092333775
 30
0.0
 10
156.0495749725739
 20
97.19212378982203
 30
0.0
 10
156.099610424992
 20
97.2136422044936
 30
0.0
 10
156.1252528624445
 20
97.22467007724437
 30
0.0
  0
SPLINE
  5
174
330
1F
100
AcDbEntity
  8
0
  6
Continuous
 62
     7
370
    25
100
AcDbSpline
210
0.0
220
0.0
230
1.0
 70
     8
 71
     3
 72
    17
 73
    13
 74
     0
 42
0.000000001
 43
0.00000001
 40
0.0
 40
0.0
 40
0.0
 40
0.0
 40
0.324169770327861
 40
0.5422758229087583
 40
0.6895090437058177
 40
0.7894036496975263
 40
0.8577090037391434
 40
0.9049824067464051
 40
0.9551712187421326
 40
0.9753097550014747
 40
0.9919572002162055
 40
1.0
 40
1.0
 40
1.0
 40
1.0
 10
153.6507061971188
 20
105.1868541040817
 30
0.0
 10
153.7934213567202
 20
104.2742404530284
 30
0.0
 10
154.0321573145368
 20
102.7476072999057
 30
0.0
 10
154.4117449649299
 20
100.8208343683203
 30
0.0
 10
154.7208790871705
 20
99.53319868771173
 30
0.0
 10
154.9769927694249
 20
98.67404662993235
 30
0.0
 10
155.1913036833807
 20
98.10057847970924
 30
0.0
 10
155.3945380037357
 20
97.67904662306226
 30
0.0
 10
155.5790831025617
 20
97.39855345297062
 30
0.0
 10
155.7651542809956
 20
97.2430057552799
 30
0.0
 10
155.8803648811295
 20
97.19239412369231
 30
0.0
 10
155.9474537250094
 20
97.18821504948208
 30
0.0
 10
155.9693077867687
 20
97.18685372410211
 30
0.0
  0
LINE
  5
175
330
1F
100
AcDbEntity
  8
0
  6
Continuous
 62
     7
370
    25
100
AcDbLine
 10
153.6507061971
 20
105.1868541041
 30
0.0
 11
165.5752528747
 21
105.1868541041
 31
0.0
  0
SPLINE
  5
176
330
1F
100
AcDbEntity
  8
0
  6
Continuous
 62
     7
370
    25
100
AcDbSpline
210
0.0
220
0.0
230
1.0
 70
     8
 71
     3
 72
     9
 73
     5
 74
     0
 42
0.000000001
 43
0.00000001
 40
0.0
 40
0.0
 40
0.0
 40
0.0
 40
0.4978404435797771
 40
1.0
 40
1.0
 40
1.0
 40
1.0
 10
154.4109168751002
 20
106.1815978833834
 30
0.0
 10
154.2745948528512
 20
106.0250866035924
 30
0.0
 10
154.0007681197946
 20
105.7107061995708
 30
0.0
 10
153.7677290120782
 20
105.3619735411457
 30
0.0
 10
153.6507061971188
 20
105.1868541040817
 30
0.0
  0
LINE
  5
177
330
1F
100
AcDbEntity
  8
0
  6
Continuous
 62
     7
370
    25
100
AcDbLine
 10
152.9014506666
 20
113.1868535527
 30
0.0
 11
151.1733122459
 21
106.1815978834
 31
0.0
  0
LINE
  5
178
330
1F
100
AcDbEntity
  8
0
  6
Continuous
 62
     7
370
    25
100
AcDbLine
 10
163.3643382517
 20
113.1868535527
 30
0.0
 11
152.9014506666
 21
113.1868535527
 31
0.0
  0
SPLINE
  5
179
330
1F
100
AcDbEntity
  8
0
  6
Continuous
 62
     7
370
    25
100
AcDbSpline
210
0.0
220
0.0
230
1.0
 70
     8
 71
     3
 72
    14
 73
    10
 74
     0
 42
0.000000001
 43
0.00000001
 40
0.0
 40
0.0
 40
0.0
 40
0.0
 40
0.1576094781959944
 40
0.3152382799631762
 40
0.472692665002553
 40
0.6301650510672551
 40
0.7907312690168264
 40
0.9513051005854452
 40
1.0
 40
1.0
 40
1.0
 40
1.0
 10
151.625252823329
 20
97.18685372410211
 30
0.0
 10
151.5586817708609
 20
97.40035540577568
 30
0.0
 10
151.4255315040394
 20
97.8273849453084
 30
0.0
 10
151.0969652716814
 20
98.41263233843443
 30
0.0
 10
150.6835754432671
 20
98.93478695803887
 30
0.0
 10
150.1878999844987
 20
99.38376412284485
 30
0.0
 10
149.6216106004586
 20
99.7430464272166
 30
0.0
 10
149.14535993759
 20
99.94761211404635
 30
0.0
 10
148.8651652888475
 20
100.0284068614583
 30
0.0
 10
148.7999665839434
 20
100.0472070523897
 30
0.0
  0
LWPOLYLINE
  5
17A
330
1F
100
AcDbEntity
  8
0
  6
Continuous
 62
     7
370
    25
100
AcDbPolyline
 90
        4
 70
   128
 43
0.0
 10
148.7999665839
 20
100.0472070524
 10
146.8826444177
 20
100.5675667771
 10
144.9554809658
 20
101.0905975351
 10
143.0202094195
 20
101.6158280769
  0
SPLINE
  5
17B
330
1F
100
AcDbEntity
  8
0
  6
Continuous
 62
     7
370
    25
100
AcDbSpline
210
0.0
220
0.0
230
1.0
 70
     8
 71
     3
 72
    11
 73
     7
 74
     0
 42
0.000000001
 43
0.00000001
 40
0.0
 40
0.0
 40
0.0
 40
0.0
 40
0.2488465881559687
 40
0.4976945769343133
 40
0.7488460973326848
 40
1.0
 40
1.0
 40
1.0
 40
1.0
 10
135.9498161179781
 20
102.939028839151
 30
0.0
 10
136.5442520685247
 20
102.8695046884332
 30
0.0
 10
137.7331273153752
 20
102.7304559956839
 30
0.0
 10
139.5078516813617
 20
102.4301262325042
 30
0.0
 10
141.2744327276399
 20
102.0682181649217
 30
0.0
 10
142.4382820156453
 20
101.7666252496785
 30
0.0
 10
143.0202094195247
 20
101.6158280768791
 30
0.0
  0
LINE
  5
17C
330
1F
100
AcDbEntity
  8
0
  6
Continuous
 62
     7
370
    25
100
AcDbLine
 10
135.949816118
 20
102.9390288392
 30
0.0
 11
135.949816118
 21
106.1815978834
 31
0.0
  0
LINE
  5
17D
330
1F
100
AcDbEntity
  8
0
  6
Continuous
 62
     7
370
    25
100
AcDbLine
 10
135.949816118
 20
106.1815978834
 30
0.0
 11
154.4109168751
 21
106.1815978834
 31
0.0
  0
LINE
  5
17E
330
1F
100
AcDbEntity
  8
0
  6
Continuous
 62
     7
370
    25
100
AcDbLine
 10
155.9693077868
 20
97.1868537241
 30
0.0
 11
151.6252528233
 21
97.1868537241
 31
0.0
  0
LINE
  5
17F
330
1F
100
AcDbEntity
  8
0
  6
Continuous
 62
     7
370
    25
100
AcDbLine
 10
156.1252528624
 20
97.2246700772
 30
0.0
 11
156.1184535092
 21
97.1868537241
 31
0.0
  0
LINE
  5
180
330
1F
100
AcDbEntity
  8
0
  6
Continuous
 62
     7
370
    25
100
AcDbLine
 10
156.1252528624
 20
97.1868537241
 30
0.0
 11
156.1184535092
 21
97.1868537241
 31
0.0
  0
LINE
  5
181
330
1F
100
AcDbEntity
  8
0
  6
Continuous
 62
     7
370
    25
100
AcDbLine
 10
156.1184535092
 20
97.1868537241
 30
0.0
 11
155.9693077868
 21
97.1868537241
 31
0.0
  0
LINE
  5
182
330
1F
100
AcDbEntity
  8
0
  6
Continuous
 62
     7
370
    25
100
AcDbLine
 10
118.1252538515
 20
115.1868538806
 30
0.0
 11
135.949816118
 21
115.1868538806
 31
0.0
  0
LINE
  5
183
330
1F
100
AcDbEntity
  8
0
  6
Continuous
 62
     7
370
    25
100
AcDbLine
 10
135.949816118
 20
115.1868538806
 30
0.0
 11
135.949816118
 21
106.1815978834
 31
0.0
  0
LINE
  5
184
330
1F
100
AcDbEntity
  8
0
  6
Continuous
 62
     7
370
    25
100
AcDbLine
 10
131.2335855616
 20
103.1868537763
 30
0.0
 11
123.1252528084
 21
103.1868537763
 31
0.0
  0
ARC
  5
185
330
1F
100
AcDbEntity
  8
0
  6
Continuous
 62
     7
370
    25
100
AcDbCircle
 10
123.1252529574
 20
108.1868535378
 30
0.0
 40
5.0
100
AcDbArc
 50
180.0
 51
270.0
  0
LINE
  5
186
330
1F
100
AcDbEntity
  8
0
  6
Continuous
 62
     7
370
    25
100
AcDbLine
 10
118.1252538515
 20
108.1868527332
 30
0.0
 11
118.1252538515
 21
115.1868538806
 31
0.0
  0
ARC
  5
187
330
1F
100
AcDbEntity
  8
0
  6
Continuous
 62
     7
370
    25
100
AcDbCircle
 10
131.2335850997
 20
58.1867242837
 30
0.0
 40
45.00012925418375
100
AcDbArc
 50
83.9840777705
 51
90.0
  0
LINE
  5
188
330
1F
100
AcDbEntity
  8
0
  6
Continuous
 62
     7
370
    25
100
AcDbLine
 10
135.949816118
 20
115.1868538806
 30
0.0
 11
138.1252534045
 21
115.1868538806
 31
0.0
  0
LINE
  5
189
330
1F
100
AcDbEntity
  8
0
  6
Continuous
 62
     7
370
    25
100
AcDbLine
 10
138.1252534045
 20
115.1868538806
 30
0.0
 11
138.1252534045
 21
113.2058096924
 31
0.0
  0
ARC
  5
18A
330
1F
100
AcDbEntity
  8
0
  6
Continuous
 62
     7
370
    25
100
AcDbCircle
 10
144.1252529574
 20
113.2058090612
 30
0.0
 40
6.000000000000003
100
AcDbArc
 50
180.0
 51
275.5801667845
  0
ARC
  5
18B
330
1F
100
AcDbEntity
  8
0
  6
Continuous
 62
     7
370
    25
100
AcDbCircle
 10
143.7362993932
 20
117.1868535378
 30
0.0
 40
10.00000000000848
100
AcDbArc
 50
275.5801667845
 51
336.4218215217
  0
LINE
  5
18C
330
1F
100
AcDbEntity
  8
0
  6
Continuous
 62
     7
370
    25
100
AcDbLine
 10
151.6252528233
 20
97.1868537241
 30
0.0
 11
151.1252527414
 21
97.1868537241
 31
0.0
  0
LINE
  5
18D
330
1F
100
AcDbEntity
  8
0
  6
Continuous
 62
     7
370
    25
100
AcDbLine
 10
152.8861676631
 20
113.1868535527
 30
0.0
 11
152.9014506666
 21
113.1868535527
 31
0.0
  0
LINE
  5
18E
330
1F
100
AcDbEntity
  8
0
  6
Continuous
 62
     8
370
    25
100
AcDbLine
 10
117.3752523316
 20
66.6868543127
 30
0.0
 11
111.025252874
 21
66.6868543127
 31
0.0
  0
LINE
  5
18F
330
1F
100
AcDbEntity
  8
0
  6
Continuous
 62
     8
370
    25
100
AcDbLine
 10
123.7252517892
 20
66.6868543127
 30
0.0
 11
117.3752523316
 21
66.6868543127
 31
0.0
  0
LINE
  5
190
330
1F
100
AcDbEntity
  8
0
  6
Continuous
 62
     8
370
    25
100
AcDbLine
 10
135.3752534194
 20
84.6868535378
 30
0.0
 11
135.3752534194
 21
91.0368534611
 31
0.0
  0
LINE
  5
191
330
1F
100
AcDbEntity
  8
0
  6
Continuous
 62
     8
370
    25
100
AcDbLine
 10
135.3752534194
 20
78.3368536146
 30
0.0
 11
135.3752534194
 21
84.6868535378
 31
0.0
  0
LINE
  5
192
330
1F
100
AcDbEntity
  8
0
  6
Continuous
 62
     8
370
    25
100
AcDbLine
 10
167.2252533315
 20
89.9477229328
 30
0.0
 11
167.2252533315
 21
95.6868534782
 31
0.0
  0
LINE
  5
193
330
1F
100
AcDbEntity
  8
0
  6
Continuous
 62
     8
370
    25
100
AcDbLine
 10
149.0252525834
 20
95.6868534782
 30
0.0
 11
149.0252525834
 21
89.9477229328
 31
0.0
  0
LINE
  5
194
330
1F
100
AcDbEntity
  8
0
  6
Continuous
 62
     8
370
    25
100
AcDbLine
 10
167.2252533315
 20
73.6868535974
 30
0.0
 11
167.2252533315
 21
79.4259841428
 31
0.0
  0
LINE
  5
195
330
1F
100
AcDbEntity
  8
0
  6
Continuous
 62
     8
370
    25
100
AcDbLine
 10
149.0252525834
 20
79.4259841428
 30
0.0
 11
149.0252525834
 21
73.6868535974
 31
0.0
  0
SPLINE
  5
196
330
1F
100
AcDbEntity
  8
0
  6
Continuous
 62
     8
370
    25
100
AcDbSpline
210
0.0
220
0.0
230
1.0
 70
     8
 71
     3
 72
    27
 73
    23
 74
     0
 42
0.000000001
 43
0.00000001
 40
0.0
 40
0.0
 40
0.0
 40
0.0
 40
0.0523077773696602
 40
0.0971741100458693
 40
0.1432772008491154
 40
0.1914171053346067
 40
0.2407073746437902
 40
0.2952969817242265
 40
0.3513355630908357
 40
0.4082099598247039
 40
0.4671612923260733
 40
0.5161412596314278
 40
0.5667071753855447
 40
0.6111880418626982
 40
0.6566420163136052
 40
0.7059043423957096
 40
0.7562342502544738
 40
0.8115429235228023
 40
0.8685364960273845
 40
0.921832963483549
 40
0.9772371287865077
 40
1.0
 40
1.0
 40
1.0
 40
1.0
 10
164.5252527957618
 20
95.68685347823295
 30
0.0
 10
164.507288188385
 20
95.67723993425084
 30
0.0
 10
164.4739146668564
 20
95.6593804948362
 30
0.0
 10
164.2252985220372
 20
95.52894131875914
 30
0.0
 10
163.8669310678027
 20
95.34740166418064
 30
0.0
 10
163.3727304415022
 20
95.11015608693374
 30
0.0
 10
162.7346811005154
 20
94.82793406889343
 30
0.0
 10
161.9502520596434
 20
94.52113375938188
 30
0.0
 10
161.0200013596545
 20
94.22196485550002
 30
0.0
 10
159.9698909284806
 20
93.97554556940764
 30
0.0
 10
158.8930684677738
 20
93.83610979038538
 30
0.0
 10
157.832410823081
 20
93.81359739017414
 30
0.0
 10
156.877080281094
 20
93.88959906368221
 30
0.0
 10
155.9811988055941
 20
94.04239912751507
 30
0.0
 10
155.1435694451324
 20
94.25079746005788
 30
0.0
 10
154.3391475925289
 20
94.50909464598561
 30
0.0
 10
153.569582407009
 20
94.8050777157074
 30
0.0
 10
152.8765421899216
 20
95.10948184138327
 30
0.0
 10
152.3119808730465
 20
95.38245710349041
 30
0.0
 10
151.926642328885
 20
95.57991713405501
 30
0.0
 10
151.7345036563489
 20
95.68192496096646
 30
0.0
 10
151.7463202507692
 20
95.6756512349954
 30
0.0
 10
151.7497613383293
 20
95.67382427541408
 30
0.0
  0
SPLINE
  5
197
330
1F
100
AcDbEntity
  8
0
  6
Continuous
 62
     8
370
    25
100
AcDbSpline
210
0.0
220
0.0
230
1.0
 70
     8
 71
     3
 72
    28
 73
    24
 74
     0
 42
0.000000001
 43
0.00000001
 40
0.0
 40
0.0
 40
0.0
 40
0.0
 40
0.0252218579839105
 40
0.080324597919432
 40
0.1354717489327222
 40
0.1920332300479955
 40
0.2486315282475113
 40
0.2982147916389941
 40
0.3477839979968203
 40
0.3919336123915399
 40
0.4360526296726551
 40
0.4844578352376264
 40
0.5328510791262608
 40
0.5854995307348374
 40
0.6382106570744489
 40
0.6463058543972513
 40
0.7013769488543067
 40
0.7564682744988592
 40
0.8055689482934565
 40
0.8546485687446391
 40
0.9007697726778974
 40
0.946867143767401
 40
1.0
 40
1.0
 40
1.0
 40
1.0
 10
152.2478158874274
 20
96.1732506626645
 30
0.0
 10
152.2440829594048
 20
96.17550707902839
 30
0.0
 10
152.2321946226033
 20
96.18269313714052
 30
0.0
 10
152.4100170363077
 20
96.0752119430227
 30
0.0
 10
152.7593427565885
 20
95.87260996744945
 30
0.0
 10
153.2822022935801
 20
95.58536842121084
 30
0.0
 10
153.9159305936292
 20
95.26946377756788
 30
0.0
 10
154.6291522062085
 20
94.95796773286352
 30
0.0
 10
155.3664894452138
 20
94.68856199348427
 30
0.0
 10
156.1427363731552
 20
94.46968374958185
 30
0.0
 10
156.9635821475306
 20
94.30893086208407
 30
0.0
 10
157.8495038717071
 20
94.23050508129293
 30
0.0
 10
158.7994808532943
 20
94.2498058316433
 30
0.0
 10
159.7496096674844
 20
94.38646715781864
 30
0.0
 10
160.4070194531088
 20
94.55136192676841
 30
0.0
 10
161.0413285142396
 20
94.74579150497229
 30
0.0
 10
161.6518541683117
 20
94.96824450930623
 30
0.0
 10
162.3725130153428
 20
95.28799509012923
 30
0.0
 10
162.961811645703
 20
95.58329250485164
 30
0.0
 10
163.416301596386
 20
95.83091221164355
 30
0.0
 10
163.7471599431108
 20
96.02065793827596
 30
0.0
 10
163.9779766325063
 20
96.15820983281058
 30
0.0
 10
164.0087666532413
 20
96.17686476885436
 30
0.0
 10
164.0252531794667
 20
96.18685356018933
 30
0.0
  0
LINE
  5
198
330
1F
100
AcDbEntity
  8
0
  6
Continuous
 62
     7
370
     0
100
AcDbLine
 10
183.9940269265
 20
75.4280774517
 30
0.0
 11
171.3752529574
 21
75.0337407651
 31
0.0
  0
LINE
  5
199
330
1F
100
AcDbEntity
  8
0
  6
Continuous
 62
     7
370
     0
100
AcDbLine
 10
183.9940269265
 20
93.945629624
 30
0.0
 11
171.3752529574
 21
94.3399663106
 31
0.0
  0
LINE
  5
19A
330
1F
100
AcDbEntity
  8
0
  6
Continuous
 62
     7
370
     0
100
AcDbLine
 10
171.3752529574
 20
95.3312285378
 30
0.0
 11
171.3752529574
 21
74.0424785378
 31
0.0
  0
LINE
  5
19B
330
1F
100
AcDbEntity
  8
0
  6
Continuous
 62
     7
370
    25
100
AcDbLine
 10
220.8536687578
 20
66.6868543127
 30
0.0
 11
220.8536687578
 21
74.504638637
 31
0.0
  0
LINE
  5
19C
330
1F
100
AcDbEntity
  8
0
  6
Continuous
 62
     7
370
    25
100
AcDbLine
 10
208.1536689113
 20
74.504638637
 30
0.0
 11
208.1536689113
 21
66.6868543127
 31
0.0
  0
LINE
  5
19D
330
1F
100
AcDbEntity
  8
0
  6
Continuous
 62
     7
370
    25
100
AcDbLine
 10
220.8536687578
 20
64.6868539849
 30
0.0
 11
220.8536687578
 21
66.6868543127
 31
0.0
  0
LINE
  5
19E
330
1F
100
AcDbEntity
  8
0
  6
Continuous
 62
     7
370
    25
100
AcDbLine
 10
208.1536689113
 20
66.6868543127
 30
0.0
 11
208.1536689113
 21
64.6868539849
 31
0.0
  0
LINE
  5
19F
330
1F
100
AcDbEntity
  8
0
  6
Continuous
 62
     7
370
    25
100
AcDbLine
 10
220.4036690566
 20
95.1362555721
 30
0.0
 11
220.4036690566
 21
97.1868537241
 31
0.0
  0
LINE
  5
1A0
330
1F
100
AcDbEntity
  8
0
  6
Continuous
 62
     7
370
    25
100
AcDbLine
 10
208.6036686125
 20
97.1868537241
 30
0.0
 11
208.6036686125
 21
96.6849472248
 31
0.0
  0
ARC
  5
1A1
330
1F
100
AcDbEntity
  8
0
  6
Continuous
 62
     7
370
    25
100
AcDbCircle
 10
208.8036688345
 20
96.2285959682
 30
0.0
 40
0.4999999999999961
100
AcDbArc
 50
113.64497808
 51
180.007858636
  0
ARC
  5
1A2
330
1F
100
AcDbEntity
  8
0
  6
Continuous
 62
     7
370
    25
100
AcDbCircle
 10
208.8036722225
 20
95.1451128841
 30
0.0
 40
0.5000035668131309
100
AcDbArc
 50
179.9968481403
 51
199.4863010225
  0
ARC
  5
1A3
330
1F
100
AcDbEntity
  8
0
  6
Continuous
 62
     7
370
    25
100
AcDbCircle
 10
219.7536688345
 20
113.7868535378
 30
0.0
 40
0.25
100
AcDbArc
 50
0.0
 51
90.0
  0
ARC
  5
1A4
330
1F
100
AcDbEntity
  8
0
  6
Continuous
 62
     7
370
    25
100
AcDbCircle
 10
209.2536688345
 20
113.7868535378
 30
0.0
 40
0.25
100
AcDbArc
 50
90.0
 51
180.0
  0
LINE
  5
1A5
330
1F
100
AcDbEntity
  8
0
  6
Continuous
 62
     7
370
    25
100
AcDbLine
 10
220.0036688047
 20
113.1868535527
 30
0.0
 11
220.0036688047
 21
113.7868543961
 31
0.0
  0
LINE
  5
1A6
330
1F
100
AcDbEntity
  8
0
  6
Continuous
 62
     7
370
    25
100
AcDbLine
 10
209.0036688643
 20
113.7868543961
 30
0.0
 11
209.0036688643
 21
113.1868535527
 31
0.0
  0
LINE
  5
1A7
330
1F
100
AcDbEntity
  8
0
  6
Continuous
 62
     7
370
    25
100
AcDbLine
 10
221.9536687518
 20
105.1868541041
 30
0.0
 11
220.0036688047
 21
113.1868535527
 31
0.0
  0
LINE
  5
1A8
330
1F
100
AcDbEntity
  8
0
  6
Continuous
 62
     7
370
    25
100
AcDbLine
 10
209.0036688643
 20
113.1868535527
 30
0.0
 11
207.0536689172
 21
105.1868541041
 31
0.0
  0
LINE
  5
1A9
330
1F
100
AcDbEntity
  8
0
  6
Continuous
 62
     7
370
    25
100
AcDbLine
 10
207.0536689172
 20
105.1868541041
 30
0.0
 11
207.5036686185
 21
97.1868537241
 31
0.0
  0
LINE
  5
1AA
330
1F
100
AcDbEntity
  8
0
  6
Continuous
 62
     7
370
    25
100
AcDbLine
 10
221.5036690506
 20
97.1868537241
 30
0.0
 11
221.9536687518
 21
105.1868541041
 31
0.0
  0
LINE
  5
1AB
330
1F
100
AcDbEntity
  8
0
  6
Continuous
 62
     7
370
    25
100
AcDbLine
 10
220.8536687578
 20
64.6868539849
 30
0.0
 11
208.1536689113
 21
64.6868539849
 31
0.0
  0
CIRCLE
  5
1AC
330
1F
100
AcDbEntity
  8
0
  6
Continuous
 62
     7
370
    25
100
AcDbCircle
 10
214.5036688345
 20
84.6868535378
 30
0.0
 40
10.30676222727976
  0
CIRCLE
  5
1AD
330
1F
100
AcDbEntity
  8
0
  6
Continuous
 62
     7
370
    25
100
AcDbCircle
 10
214.5036688345
 20
84.6868535378
 30
0.0
 40
8.75
  0
CIRCLE
  5
1AE
330
1F
100
AcDbEntity
  8
0
  6
Continuous
 62
     7
370
    25
100
AcDbCircle
 10
214.5036688345
 20
84.6868535378
 30
0.0
 40
6.5
  0
CIRCLE
  5
1AF
330
1F
100
AcDbEntity
  8
0
  6
Continuous
 62
     7
370
    25
100
AcDbCircle
 10
214.5036688345
 20
84.6868535378
 30
0.0
 40
6.0
  0
CIRCLE
  5
1B0
330
1F
100
AcDbEntity
  8
0
  6
Continuous
 62
     7
370
    25
100
AcDbCircle
 10
214.5036688345
 20
84.6868535378
 30
0.0
 40
10.66
  0
CIRCLE
  5
1B1
330
1F
100
AcDbEntity
  8
0
  6
Continuous
 62
     7
370
    25
100
AcDbCircle
 10
214.5036688345
 20
84.6868535378
 30
0.0
 40
3.999999999999972
  0
CIRCLE
  5
1B2
330
1F
100
AcDbEntity
  8
0
  6
Continuous
 62
     7
370
    25
100
AcDbCircle
 10
214.5036688345
 20
84.6868535378
 30
0.0
 40
11.74999999999997
  0
CIRCLE
  5
1B3
330
1F
100
AcDbEntity
  8
0
  6
Continuous
 62
     7
370
    25
100
AcDbCircle
 10
214.5036688345
 20
84.6868535378
 30
0.0
 40
11.99999999999997
  0
SPLINE
  5
1B4
330
1F
100
AcDbEntity
  8
0
  6
Continuous
 62
     7
370
    25
100
AcDbSpline
210
0.0
220
0.0
230
1.0
 70
     8
 71
     3
 72
    15
 73
    11
 74
     0
 42
0.000000001
 43
0.00000001
 40
0.0
 40
0.0
 40
0.0
 40
0.0
 40
0.0472783798524087
 40
0.2062566962056222
 40
0.3632691585693379
 40
0.5192700619102106
 40
0.6767688535098001
 40
0.8359500964484146
 40
0.9943936350227858
 40
1.0
 40
1.0
 40
1.0
 40
1.0
 10
208.6642348478342
 20
95.16373517600688
 30
0.0
 10
208.667001773537
 20
95.19016228096588
 30
0.0
 10
208.6790727657303
 20
95.30545318932907
 30
0.0
 10
208.6907677005875
 20
95.56711661058235
 30
0.0
 10
208.6881761693334
 20
95.90369144682913
 30
0.0
 10
208.6672167002588
 20
96.2180605974237
 30
0.0
 10
208.6368440020085
 20
96.47674064552527
 30
0.0
 10
208.6124187720575
 20
96.63609619440622
 30
0.0
 10
208.6008163060101
 20
96.70410721862285
 30
0.0
 10
208.6038796420983
 20
96.6855803751403
 30
0.0
 10
208.6039843308533
 20
96.68494722483548
 30
0.0
  0
SPLINE
  5
1B5
330
1F
100
AcDbEntity
  8
0
  6
Continuous
 62
     7
370
    25
100
AcDbSpline
210
0.0
220
0.0
230
1.0
 70
    24
 71
     3
 72
    14
 73
    10
 74
     0
 42
0.000000001
 43
0.00000001
 40
0.0
 40
0.0
 40
0.0
 40
0.0
 40
0.0686782894992415
 40
0.29321677529996
 40
0.2935197492585215
 40
0.5073360559479282
 40
0.7069539244506959
 40
0.9001971405016516
 40
0.9999999999999999
 40
0.9999999999999999
 40
0.9999999999999999
 40
0.9999999999999999
 10
208.3036686564589
 20
95.68685347823295
 30
0.0
 10
208.3036686564589
 20
95.70570567421328
 30
0.0
 10
208.3036686564589
 20
95.78619370256953
 30
0.0
 10
208.3036686564585
 20
95.865878271041
 30
0.0
 10
208.3036686564593
 20
95.9750978813555
 30
0.0
 10
208.3036686564588
 20
96.07178866500006
 30
0.0
 10
208.3036686564589
 20
96.17337351636895
 30
0.0
 10
208.3036686564589
 20
96.22692486022825
 30
0.0
 10
208.3036686564589
 20
96.22271816391907
 30
0.0
 10
208.3036686564589
 20
96.22128548709544
 30
0.0
  0
SPLINE
  5
1B6
330
1F
100
AcDbEntity
  8
0
  6
Continuous
 62
     7
370
    25
100
AcDbSpline
210
0.0
220
0.0
230
1.0
 70
    24
 71
     3
 72
    12
 73
     8
 74
     0
 42
0.000000001
 43
0.00000001
 40
0.0
 40
0.0
 40
0.0
 40
0.0
 40
0.1662671571212572
 40
0.3874314293613706
 40
0.6144881505639619
 40
0.8409573163266635
 40
1.0
 40
1.0
 40
1.0
 40
1.0
 10
208.3036686564589
 20
95.14984636245164
 30
0.0
 10
208.3036686564589
 20
95.15180920667355
 30
0.0
 10
208.3036686564589
 20
95.15638297551445
 30
0.0
 10
208.3036686564589
 20
95.24107600241756
 30
0.0
 10
208.3036686564589
 20
95.37879382128547
 30
0.0
 10
208.3036686564589
 20
95.53701861254066
 30
0.0
 10
208.3036686564589
 20
95.64309268349405
 30
0.0
 10
208.3036686564589
 20
95.68685347823295
 30
0.0
  0
SPLINE
  5
1B7
330
1F
100
AcDbEntity
  8
0
  6
Continuous
 62
     7
370
    25
100
AcDbSpline
210
0.0
220
0.0
230
1.0
 70
     8
 71
     3
 72
    13
 73
     9
 74
     0
 42
0.000000001
 43
0.00000001
 40
0.0
 40
0.0
 40
0.0
 40
0.0
 40
0.2491824652873907
 40
0.4987738521015481
 40
0.6338602399676626
 40
0.7494868859159842
 40
0.8759187542423453
 40
1.0
 40
1.0
 40
1.0
 40
1.0
 10
203.6123305920354
 20
79.64912078513798
 30
0.0
 10
203.6024714463817
 20
79.67052627984123
 30
0.0
 10
203.5827369756979
 20
79.71337239678992
 30
0.0
 10
203.5551874112242
 20
79.774406620411
 30
0.0
 10
203.5318884752667
 20
79.8267404048584
 30
0.0
 10
203.5135584879537
 20
79.86833257673892
 30
0.0
 10
203.4952136190976
 20
79.91038553278388
 30
0.0
 10
203.4851618587913
 20
79.93370432982081
 30
0.0
 10
203.4801831376357
 20
79.94525432550265
 30
0.0
  0
SPLINE
  5
1B8
330
1F
100
AcDbEntity
  8
0
  6
Continuous
 62
     7
370
    25
100
AcDbSpline
210
0.0
220
0.0
230
1.0
 70
     8
 71
     3
 72
    13
 73
     9
 74
     0
 42
0.000000001
 43
0.00000001
 40
0.0
 40
0.0
 40
0.0
 40
0.0
 40
0.2491824652871812
 40
0.498773852101127
 40
0.6338602399483602
 40
0.7494868859161712
 40
0.8759187542426342
 40
1.0
 40
1.0
 40
1.0
 40
1.0
 10
225.3950070770202
 20
89.72458629053715
 30
0.0
 10
225.4048662226739
 20
89.70318079583396
 30
0.0
 10
225.4246006933577
 20
89.66033467888535
 30
0.0
 10
225.4521502578307
 20
89.59930045526548
 30
0.0
 10
225.4754491937877
 20
89.54696667081944
 30
0.0
 10
225.4937791811009
 20
89.50537449893831
 30
0.0
 10
225.512124049958
 20
89.46332154289126
 30
0.0
 10
225.5221758102643
 20
89.44000274585433
 30
0.0
 10
225.5271545314199
 20
89.4284527501725
 30
0.0
  0
SPLINE
  5
1B9
330
1F
100
AcDbEntity
  8
0
  6
Continuous
 62
     7
370
    25
100
AcDbSpline
210
0.0
220
0.0
230
1.0
 70
     8
 71
     3
 72
    14
 73
    10
 74
     0
 42
0.000000001
 43
0.00000001
 40
0.0
 40
0.0
 40
0.0
 40
0.0
 40
0.0833728361874164
 40
0.1651391830231223
 40
0.2505782922901014
 40
0.3661552980483097
 40
0.5013015333863843
 40
0.7511277814203854
 40
1.0
 40
1.0
 40
1.0
 40
1.0
 10
203.4801831376357
 20
89.4284527501725
 30
0.0
 10
203.4834190954533
 20
89.43596493311915
 30
0.0
 10
203.4898286582645
 20
89.45084454872614
 30
0.0
 10
203.5015505659313
 20
89.47785479672935
 30
0.0
 10
203.5153998548143
 20
89.50955066535285
 30
0.0
 10
203.531849582854
 20
89.54687978088543
 30
0.0
 10
203.5551429998113
 20
89.59920113654901
 30
0.0
 10
203.5827332349513
 20
89.66032713637908
 30
0.0
 10
203.6024773967905
 20
89.7031939077514
 30
0.0
 10
203.6123305920375
 20
89.72458629054178
 30
0.0
  0
SPLINE
  5
1BA
330
1F
100
AcDbEntity
  8
0
  6
Continuous
 62
     7
370
    25
100
AcDbSpline
210
0.0
220
0.0
230
1.0
 70
     8
 71
     3
 72
    14
 73
    10
 74
     0
 42
0.000000001
 43
0.00000001
 40
0.0
 40
0.0
 40
0.0
 40
0.0
 40
0.0833728361875584
 40
0.1651391830232386
 40
0.2505782922900667
 40
0.3661552980541213
 40
0.5013015333865077
 40
0.751127781420452
 40
1.0
 40
1.0
 40
1.0
 40
1.0
 10
225.5271545314199
 20
79.94525432550267
 30
0.0
 10
225.5239185736023
 20
79.937742142556
 30
0.0
 10
225.517509010791
 20
79.92286252694902
 30
0.0
 10
225.5057871031243
 20
79.8958522789458
 30
0.0
 10
225.491937814241
 20
79.86415641032168
 30
0.0
 10
225.4754880862012
 20
79.82682729478894
 30
0.0
 10
225.4521946692441
 20
79.77450593912576
 30
0.0
 10
225.4246044341043
 20
79.71337993929606
 30
0.0
 10
225.4048602722651
 20
79.67051316792377
 30
0.0
 10
225.3950070770181
 20
79.6491207851334
 30
0.0
  0
SPLINE
  5
1BB
330
1F
100
AcDbEntity
  8
0
  6
Continuous
 62
     7
370
    25
100
AcDbSpline
210
0.0
220
0.0
230
1.0
 70
     8
 71
     3
 72
    13
 73
     9
 74
     0
 42
0.000000001
 43
0.00000001
 40
0.0
 40
0.0
 40
0.0
 40
0.0
 40
0.126696314384486
 40
0.2513113397888735
 40
0.5007108425294119
 40
0.7510525732451946
 40
0.876867377471871
 40
1.0
 40
1.0
 40
1.0
 40
1.0
 10
203.8433427756455
 20
79.17709416756422
 30
0.0
 10
203.8324386502039
 20
79.19828120501282
 30
0.0
 10
203.810809525574
 20
79.24030723231465
 30
0.0
 10
203.7685491092357
 20
79.32394828628067
 30
0.0
 10
203.717386749497
 20
79.42734720278524
 30
0.0
 10
203.6698922193423
 20
79.52621492280797
 30
0.0
 10
203.6353286832107
 20
79.59956192219892
 30
0.0
 10
203.6199413609695
 20
79.63272024773718
 30
0.0
 10
203.6123305920375
 20
79.64912078513333
 30
0.0
  0
SPLINE
  5
1BC
330
1F
100
AcDbEntity
  8
0
  6
Continuous
 62
     7
370
    25
100
AcDbSpline
210
0.0
220
0.0
230
1.0
 70
     8
 71
     3
 72
    13
 73
     9
 74
     0
 42
0.000000001
 43
0.00000001
 40
0.0
 40
0.0
 40
0.0
 40
0.0
 40
0.123409203972734
 40
0.2495635406297123
 40
0.5004511475233475
 40
0.749483003608821
 40
0.8735723371285005
 40
1.0
 40
1.0
 40
1.0
 40
1.0
 10
203.6123305920375
 20
89.72458629054178
 30
0.0
 10
203.619959197535
 20
89.74102514036987
 30
0.0
 10
203.6353861003652
 20
89.7742685082461
 30
0.0
 10
203.6700393351079
 20
89.8478024726874
 30
0.0
 10
203.7175915622413
 20
89.94678062810961
 30
0.0
 10
203.7687351429758
 20
90.05012969656511
 30
0.0
 10
203.8109009558041
 20
90.13357810648587
 30
0.0
 10
203.8324617527708
 20
90.17547096472616
 30
0.0
 10
203.8433427756531
 20
90.1966129081257
 30
0.0
  0
LINE
  5
1BD
330
1F
100
AcDbEntity
  8
0
  6
Continuous
 62
     7
370
    25
100
AcDbLine
 10
215.7536688066
 20
113.7868543961
 30
0.0
 11
216.0036688476
 21
113.7868543961
 31
0.0
  0
LINE
  5
1BE
330
1F
100
AcDbEntity
  8
0
  6
Continuous
 62
     7
370
    25
100
AcDbLine
 10
215.7536688066
 20
113.7868543961
 30
0.0
 11
215.7536688066
 21
114.0368530401
 31
0.0
  0
ARC
  5
1BF
330
1F
100
AcDbEntity
  8
0
  6
Continuous
 62
     7
370
    25
100
AcDbCircle
 10
215.7536688345
 20
113.7868535378
 30
0.0
 40
0.25
100
AcDbArc
 50
0.0
 51
90.0
  0
LINE
  5
1C0
330
1F
100
AcDbEntity
  8
0
  6
Continuous
 62
     7
370
    25
100
AcDbLine
 10
215.7536688066
 20
113.1868535527
 30
0.0
 11
215.7536688066
 21
113.7868543961
 31
0.0
  0
LINE
  5
1C1
330
1F
100
AcDbEntity
  8
0
  6
Continuous
 62
     7
370
    25
100
AcDbLine
 10
216.0036688476
 20
113.7868543961
 30
0.0
 11
216.0036688476
 21
113.1868535527
 31
0.0
  0
LINE
  5
1C2
330
1F
100
AcDbEntity
  8
0
  6
Continuous
 62
     7
370
    25
100
AcDbLine
 10
216.0036688476
 20
113.1868535527
 30
0.0
 11
215.7536688066
 21
113.1868535527
 31
0.0
  0
LINE
  5
1C3
330
1F
100
AcDbEntity
  8
0
  6
Continuous
 62
     7
370
    25
100
AcDbLine
 10
213.2536688625
 20
113.7868543961
 30
0.0
 11
213.2536688625
 21
113.1868535527
 31
0.0
  0
LINE
  5
1C4
330
1F
100
AcDbEntity
  8
0
  6
Continuous
 62
     7
370
    25
100
AcDbLine
 10
215.7536688066
 20
113.7868543961
 30
0.0
 11
213.2536688625
 21
113.7868543961
 31
0.0
  0
LINE
  5
1C5
330
1F
100
AcDbEntity
  8
0
  6
Continuous
 62
     7
370
    25
100
AcDbLine
 10
213.2536688625
 20
113.1868535527
 30
0.0
 11
215.7536688066
 21
113.1868535527
 31
0.0
  0
LINE
  5
1C6
330
1F
100
AcDbEntity
  8
0
  6
Continuous
 62
     7
370
    25
100
AcDbLine
 10
213.2536688625
 20
114.0368530401
 30
0.0
 11
213.2536688625
 21
113.7868543961
 31
0.0
  0
LINE
  5
1C7
330
1F
100
AcDbEntity
  8
0
  6
Continuous
 62
     7
370
    25
100
AcDbLine
 10
213.2536688625
 20
114.0368530401
 30
0.0
 11
215.7536688066
 21
114.0368530401
 31
0.0
  0
LINE
  5
1C8
330
1F
100
AcDbEntity
  8
0
  6
Continuous
 62
     7
370
    25
100
AcDbLine
 10
213.0036688215
 20
113.7868543961
 30
0.0
 11
213.2536688625
 21
113.7868543961
 31
0.0
  0
ARC
  5
1C9
330
1F
100
AcDbEntity
  8
0
  6
Continuous
 62
     7
370
    25
100
AcDbCircle
 10
213.2536688345
 20
113.7868535378
 30
0.0
 40
0.25
100
AcDbArc
 50
90.0
 51
180.0
  0
LINE
  5
1CA
330
1F
100
AcDbEntity
  8
0
  6
Continuous
 62
     7
370
    25
100
AcDbLine
 10
213.0036688215
 20
113.1868535527
 30
0.0
 11
213.0036688215
 21
113.7868543961
 31
0.0
  0
LINE
  5
1CB
330
1F
100
AcDbEntity
  8
0
  6
Continuous
 62
     7
370
    25
100
AcDbLine
 10
213.2536688625
 20
113.1868535527
 30
0.0
 11
213.0036688215
 21
113.1868535527
 31
0.0
  0
SPLINE
  5
1CC
330
1F
100
AcDbEntity
  8
0
  6
Continuous
 62
     7
370
    25
100
AcDbSpline
210
0.0
220
0.0
230
1.0
 70
     8
 71
     3
 72
    15
 73
    11
 74
     0
 42
0.000000001
 43
0.00000001
 40
0.0
 40
0.0
 40
0.0
 40
0.0
 40
0.0090436724834494
 40
0.1032416751067569
 40
0.1542556056852488
 40
0.3133162322516578
 40
0.5243707672643673
 40
0.6678056085730026
 40
0.9918331394239733
 40
1.0
 40
1.0
 40
1.0
 40
1.0
 10
212.8297557393814
 20
113.7868543961445
 30
0.0
 10
212.8297734051783
 20
113.7885350766273
 30
0.0
 10
212.8299750761771
 20
113.8077215596277
 30
0.0
 10
212.83616458799
 20
113.8364155563202
 30
0.0
 10
212.8603661071077
 20
113.887092211158
 30
0.0
 10
212.9133852605039
 20
113.9449682440927
 30
0.0
 10
212.9947567378507
 20
113.9898330113867
 30
0.0
 10
213.1093347726683
 20
114.0271953831114
 30
0.0
 10
213.1937608325893
 20
114.0367530140447
 30
0.0
 10
213.2522313882411
 20
114.0368506400443
 30
0.0
 10
213.2536688624675
 20
114.0368530401388
 30
0.0
  0
LINE
  5
1CD
330
1F
100
AcDbEntity
  8
0
  6
Continuous
 62
     7
370
    25
100
AcDbLine
 10
212.8297557394
 20
113.7868543961
 30
0.0
 11
213.0036688215
 21
113.7868543961
 31
0.0
  0
LINE
  5
1CE
330
1F
100
AcDbEntity
  8
0
  6
Continuous
 62
     7
370
    25
100
AcDbLine
 10
216.0036688476
 20
113.7868543961
 30
0.0
 11
216.1775819297
 21
113.7868543961
 31
0.0
  0
SPLINE
  5
1CF
330
1F
100
AcDbEntity
  8
0
  6
Continuous
 62
     7
370
    25
100
AcDbSpline
210
0.0
220
0.0
230
1.0
 70
     8
 71
     3
 72
    15
 73
    11
 74
     0
 42
0.000000001
 43
0.00000001
 40
0.0
 40
0.0
 40
0.0
 40
0.0
 40
0.0081668605760267
 40
0.3321943914269974
 40
0.4756292327356328
 40
0.6866837677483423
 40
0.8457443943147512
 40
0.8967583248932431
 40
0.9909563275165506
 40
1.0
 40
1.0
 40
1.0
 40
1.0
 10
215.7536688065881
 20
114.0368530401388
 30
0.0
 10
215.7551062808145
 20
114.0368506400443
 30
0.0
 10
215.8135768364663
 20
114.0367530140447
 30
0.0
 10
215.8980028963873
 20
114.0271953831114
 30
0.0
 10
216.0125809312048
 20
113.9898330113867
 30
0.0
 10
216.0939524085516
 20
113.9449682440927
 30
0.0
 10
216.1469715619479
 20
113.887092211158
 30
0.0
 10
216.1711730810656
 20
113.8364155563202
 30
0.0
 10
216.1773625928785
 20
113.8077215596277
 30
0.0
 10
216.1775642638773
 20
113.7885350766273
 30
0.0
 10
216.1775819296742
 20
113.7868543961445
 30
0.0
  0
LINE
  5
1D0
330
1F
100
AcDbEntity
  8
0
  6
Continuous
 62
     7
370
    25
100
AcDbLine
 10
216.1775819297
 20
113.7868543961
 30
0.0
 11
216.1775819297
 21
113.1868535527
 31
0.0
  0
LINE
  5
1D1
330
1F
100
AcDbEntity
  8
0
  6
Continuous
 62
     7
370
    25
100
AcDbLine
 10
216.1775819297
 20
113.1868535527
 30
0.0
 11
216.0036688476
 21
113.1868535527
 31
0.0
  0
LINE
  5
1D2
330
1F
100
AcDbEntity
  8
0
  6
Continuous
 62
     7
370
    25
100
AcDbLine
 10
212.8297557394
 20
113.1868535527
 30
0.0
 11
212.8297557394
 21
113.7868543961
 31
0.0
  0
LINE
  5
1D3
330
1F
100
AcDbEntity
  8
0
  6
Continuous
 62
     7
370
    25
100
AcDbLine
 10
213.0036688215
 20
113.1868535527
 30
0.0
 11
212.8297557394
 21
113.1868535527
 31
0.0
  0
LINE
  5
1D4
330
1F
100
AcDbEntity
  8
0
  6
Continuous
 62
     7
370
    25
100
AcDbLine
 10
215.7536688066
 20
114.0368530401
 30
0.0
 11
219.7536687637
 21
114.0368530401
 31
0.0
  0
LINE
  5
1D5
330
1F
100
AcDbEntity
  8
0
  6
Continuous
 62
     7
370
    25
100
AcDbLine
 10
209.2536689053
 20
114.0368530401
 30
0.0
 11
213.2536688625
 21
114.0368530401
 31
0.0
  0
LINE
  5
1D6
330
1F
100
AcDbEntity
  8
0
  6
Continuous
 62
     7
370
    25
100
AcDbLine
 10
216.1775819297
 20
113.1868535527
 30
0.0
 11
220.0036688047
 21
113.1868535527
 31
0.0
  0
LINE
  5
1D7
330
1F
100
AcDbEntity
  8
0
  6
Continuous
 62
     7
370
    25
100
AcDbLine
 10
209.0036688643
 20
113.1868535527
 30
0.0
 11
212.8297557394
 21
113.1868535527
 31
0.0
  0
LINE
  5
1D8
330
1F
100
AcDbEntity
  8
0
  6
Continuous
 62
     7
370
    25
100
AcDbLine
 10
213.903668806
 20
114.0468535819
 30
0.0
 11
215.103668863
 21
114.0468535819
 31
0.0
  0
LINE
  5
1D9
330
1F
100
AcDbEntity
  8
0
  6
Continuous
 62
     7
370
    25
100
AcDbLine
 10
215.103668863
 20
114.0368530401
 30
0.0
 11
215.103668863
 21
114.0468535819
 31
0.0
  0
LINE
  5
1DA
330
1F
100
AcDbEntity
  8
0
  6
Continuous
 62
     7
370
    25
100
AcDbLine
 10
213.903668806
 20
114.0368530401
 30
0.0
 11
213.903668806
 21
114.0468535819
 31
0.0
  0
LINE
  5
1DB
330
1F
100
AcDbEntity
  8
0
  6
Continuous
 62
     7
370
    25
100
AcDbLine
 10
207.0536689172
 20
105.1868541041
 30
0.0
 11
221.9536687518
 21
105.1868541041
 31
0.0
  0
LINE
  5
1DC
330
1F
100
AcDbEntity
  8
0
  6
Continuous
 62
     7
370
    25
100
AcDbLine
 10
207.5036686185
 20
97.1868537241
 30
0.0
 11
221.5036690506
 21
97.1868537241
 31
0.0
  0
LINE
  5
1DD
330
1F
100
AcDbEntity
  8
0
  6
Continuous
 62
     7
370
    25
100
AcDbLine
 10
217.7753680191
 20
115.1868538806
 30
0.0
 11
217.7753680191
 21
114.0368530401
 31
0.0
  0
LINE
  5
1DE
330
1F
100
AcDbEntity
  8
0
  6
Continuous
 62
     7
370
    25
100
AcDbLine
 10
217.7753680191
 20
115.1868538806
 30
0.0
 11
218.0036689426
 21
115.1868538806
 31
0.0
  0
LINE
  5
1DF
330
1F
100
AcDbEntity
  8
0
  6
Continuous
 62
     7
370
    25
100
AcDbLine
 10
218.0036689426
 20
114.0368530401
 30
0.0
 11
218.0036689426
 21
115.1868538806
 31
0.0
  0
LINE
  5
1E0
330
1F
100
AcDbEntity
  8
0
  6
Continuous
 62
     7
370
    25
100
AcDbLine
 10
211.0036687265
 20
115.1868538806
 30
0.0
 11
211.0036687265
 21
114.0368530401
 31
0.0
  0
LINE
  5
1E1
330
1F
100
AcDbEntity
  8
0
  6
Continuous
 62
     7
370
    25
100
AcDbLine
 10
211.0036687265
 20
115.1868538806
 30
0.0
 11
211.23196965
 21
115.1868538806
 31
0.0
  0
LINE
  5
1E2
330
1F
100
AcDbEntity
  8
0
  6
Continuous
 62
     7
370
    25
100
AcDbLine
 10
211.23196965
 20
115.1868538806
 30
0.0
 11
211.23196965
 21
114.0368530401
 31
0.0
  0
LINE
  5
1E3
330
1F
100
AcDbEntity
  8
0
  6
Continuous
 62
     7
370
    25
100
AcDbLine
 10
211.23196965
 20
115.1868538806
 30
0.0
 11
217.7753680191
 21
115.1868538806
 31
0.0
  0
LINE
  5
1E4
330
1F
100
AcDbEntity
  8
0
  6
Continuous
 62
     8
370
    25
100
AcDbLine
 10
220.8536687578
 20
66.6868543127
 30
0.0
 11
208.1536689113
 21
66.6868543127
 31
0.0
  0
LINE
  5
1E5
330
1F
100
AcDbEntity
  8
0
  6
Continuous
 62
     8
370
    25
100
AcDbLine
 10
220.0036688047
 20
113.7868543961
 30
0.0
 11
216.1775819297
 21
113.7868543961
 31
0.0
  0
LINE
  5
1E6
330
1F
100
AcDbEntity
  8
0
  6
Continuous
 62
     8
370
    25
100
AcDbLine
 10
212.8297557394
 20
113.7868543961
 30
0.0
 11
209.0036688643
 21
113.7868543961
 31
0.0
  0
LINE
  5
1E7
330
1F
100
AcDbEntity
  8
0
  6
Continuous
 62
     7
370
    25
100
AcDbLine
 10
142.6252532108
 20
163.3121566355
 30
0.0
 11
142.3752527041
 21
163.0621570602
 31
0.0
  0
LINE
  5
1E8
330
1F
100
AcDbEntity
  8
0
  6
Continuous
 62
     7
370
    25
100
AcDbLine
 10
142.3752527041
 20
143.5621566578
 30
0.0
 11
142.6252532108
 21
143.3121570825
 31
0.0
  0
LINE
  5
1E9
330
1F
100
AcDbEntity
  8
0
  6
Continuous
 62
     7
370
    25
100
AcDbLine
 10
145.3752531959
 20
163.3121566355
 30
0.0
 11
142.6252532108
 21
163.3121566355
 31
0.0
  0
LINE
  5
1EA
330
1F
100
AcDbEntity
  8
0
  6
Continuous
 62
     7
370
    25
100
AcDbLine
 10
142.6252532108
 20
143.3121570825
 30
0.0
 11
145.3752531959
 21
143.3121570825
 31
0.0
  0
LINE
  5
1EB
330
1F
100
AcDbEntity
  8
0
  6
Continuous
 62
     7
370
    25
100
AcDbLine
 10
135.3752534194
 20
146.9621569357
 30
0.0
 11
142.3752527041
 21
146.9621569357
 31
0.0
  0
LINE
  5
1EC
330
1F
100
AcDbEntity
  8
0
  6
Continuous
 62
     7
370
    25
100
AcDbLine
 10
142.3752527041
 20
159.6621567823
 30
0.0
 11
135.3752534194
 21
159.6621567823
 31
0.0
  0
LINE
  5
1ED
330
1F
100
AcDbEntity
  8
0
  6
Continuous
 62
     7
370
    25
100
AcDbLine
 10
135.3752534194
 20
159.6621567823
 30
0.0
 11
117.3752523316
 21
159.6621567823
 31
0.0
  0
LINE
  5
1EE
330
1F
100
AcDbEntity
  8
0
  6
Continuous
 62
     7
370
    25
100
AcDbLine
 10
117.3752523316
 20
146.9621569357
 30
0.0
 11
135.3752534194
 21
146.9621569357
 31
0.0
  0
LINE
  5
1EF
330
1F
100
AcDbEntity
  8
0
  6
Continuous
 62
     7
370
    25
100
AcDbLine
 10
145.6252527712
 20
141.3121567547
 30
0.0
 11
148.3823596788
 21
141.3121567547
 31
0.0
  0
LINE
  5
1F0
330
1F
100
AcDbEntity
  8
0
  6
Continuous
 62
     7
370
    25
100
AcDbLine
 10
148.3823596788
 20
165.3121569633
 30
0.0
 11
145.6252527712
 21
165.3121569633
 31
0.0
  0
LINE
  5
1F1
330
1F
100
AcDbEntity
  8
0
  6
Continuous
 62
     7
370
    25
100
AcDbLine
 10
170.6252531437
 20
165.3121569633
 30
0.0
 11
167.868146236
 21
165.3121569633
 31
0.0
  0
LINE
  5
1F2
330
1F
100
AcDbEntity
  8
0
  6
Continuous
 62
     7
370
    25
100
AcDbLine
 10
167.868146236
 20
141.3121567547
 30
0.0
 11
170.6252531437
 21
141.3121567547
 31
0.0
  0
LINE
  5
1F3
330
1F
100
AcDbEntity
  8
0
  6
Continuous
 62
     7
370
    25
100
AcDbLine
 10
145.6252527712
 20
165.3121569633
 30
0.0
 11
145.3752531959
 21
165.0621564567
 31
0.0
  0
LINE
  5
1F4
330
1F
100
AcDbEntity
  8
0
  6
Continuous
 62
     7
370
    25
100
AcDbLine
 10
145.3752531959
 20
141.5621572613
 30
0.0
 11
145.6252527712
 21
141.3121567547
 31
0.0
  0
LINE
  5
1F5
330
1F
100
AcDbEntity
  8
0
  6
Continuous
 62
     7
370
    25
100
AcDbLine
 10
170.6252531437
 20
141.3121567547
 30
0.0
 11
170.875252719
 21
141.5621572613
 31
0.0
  0
LINE
  5
1F6
330
1F
100
AcDbEntity
  8
0
  6
Continuous
 62
     7
370
    25
100
AcDbLine
 10
170.875252719
 20
165.0621564567
 30
0.0
 11
170.6252531437
 21
165.3121569633
 31
0.0
  0
LINE
  5
1F7
330
1F
100
AcDbEntity
  8
0
  6
Continuous
 62
     7
370
    25
100
AcDbLine
 10
170.875252719
 20
142.6521567136
 30
0.0
 11
182.1788619561
 21
143.0053943276
 31
0.0
  0
LINE
  5
1F8
330
1F
100
AcDbEntity
  8
0
  6
Continuous
 62
     7
370
    25
100
AcDbLine
 10
182.1788619561
 20
163.6189193904
 30
0.0
 11
170.875252719
 21
163.9721570044
 31
0.0
  0
LINE
  5
1F9
330
1F
100
AcDbEntity
  8
0
  6
Continuous
 62
     7
370
    25
100
AcDbLine
 10
182.1788619561
 20
143.0053943276
 30
0.0
 11
184.8752531512
 21
144.5621568217
 31
0.0
  0
LINE
  5
1FA
330
1F
100
AcDbEntity
  8
0
  6
Continuous
 62
     7
370
    25
100
AcDbLine
 10
184.8752531512
 20
162.0621568963
 30
0.0
 11
182.1788619561
 21
163.6189193904
 31
0.0
  0
LINE
  5
1FB
330
1F
100
AcDbEntity
  8
0
  6
Continuous
 62
     7
370
    25
100
AcDbLine
 10
167.868146236
 20
165.3121569633
 30
0.0
 11
167.6252871109
 21
165.0692978382
 31
0.0
  0
LINE
  5
1FC
330
1F
100
AcDbEntity
  8
0
  6
Continuous
 62
     7
370
    25
100
AcDbLine
 10
148.3823596788
 20
141.3121567547
 30
0.0
 11
148.625218804
 21
141.5550158798
 31
0.0
  0
LINE
  5
1FD
330
1F
100
AcDbEntity
  8
0
  6
Continuous
 62
     7
370
    25
100
AcDbLine
 10
167.6252871109
 20
141.5550158798
 30
0.0
 11
167.868146236
 21
141.3121567547
 31
0.0
  0
LINE
  5
1FE
330
1F
100
AcDbEntity
  8
0
  6
Continuous
 62
     7
370
    25
100
AcDbLine
 10
148.625218804
 20
165.0692978382
 30
0.0
 11
148.3823596788
 21
165.3121569633
 31
0.0
  0
ARC
  5
1FF
330
1F
100
AcDbEntity
  8
0
  6
Continuous
 62
     7
370
    25
100
AcDbCircle
 10
168.3752529574
 20
165.062156859
 30
0.0
 40
0.7500000000000112
100
AcDbArc
 50
179.4544766745
 51
180.0
  0
ARC
  5
200
330
1F
100
AcDbEntity
  8
0
  6
Continuous
 62
     7
370
    25
100
AcDbCircle
 10
147.8752529574
 20
141.562156859
 30
0.0
 40
0.750000000000011
100
AcDbArc
 50
359.4544766745
 51
0.0
  0
ARC
  5
201
330
1F
100
AcDbEntity
  8
0
  6
Continuous
 62
     7
370
    25
100
AcDbCircle
 10
147.8752529574
 20
165.062156859
 30
0.0
 40
0.7500000000000115
100
AcDbArc
 50
0.0
 51
0.5455233255
  0
LINE
  5
202
330
1F
100
AcDbEntity
  8
0
  6
Continuous
 62
     7
370
    25
100
AcDbLine
 10
142.3752527041
 20
143.5621566578
 30
0.0
 11
142.3752527041
 21
149.4937906481
 31
0.0
  0
LINE
  5
203
330
1F
100
AcDbEntity
  8
0
  6
Continuous
 62
     7
370
    25
100
AcDbLine
 10
142.3752527041
 20
157.1305230699
 30
0.0
 11
142.3752527041
 21
163.0621570602
 31
0.0
  0
LINE
  5
204
330
1F
100
AcDbEntity
  8
0
  6
Continuous
 62
     7
370
    25
100
AcDbLine
 10
142.6252532108
 20
163.3121566355
 30
0.0
 11
142.6252532108
 21
157.1558459635
 31
0.0
  0
LINE
  5
205
330
1F
100
AcDbEntity
  8
0
  6
Continuous
 62
     7
370
    25
100
AcDbLine
 10
142.6252532108
 20
149.4684677545
 30
0.0
 11
142.6252532108
 21
143.3121570825
 31
0.0
  0
ARC
  5
206
330
1F
100
AcDbEntity
  8
0
  6
Continuous
 62
     7
370
    25
100
AcDbCircle
 10
117.3752529574
 20
153.312156859
 30
0.0
 40
6.350000000000023
100
AcDbArc
 50
90.0
 51
270.0
  0
LINE
  5
207
330
1F
100
AcDbEntity
  8
0
  6
Continuous
 62
     7
370
    25
100
AcDbLine
 10
145.6252527712
 20
165.3121569633
 30
0.0
 11
145.6252527712
 21
157.5362989187
 31
0.0
  0
LINE
  5
208
330
1F
100
AcDbEntity
  8
0
  6
Continuous
 62
     7
370
    25
100
AcDbLine
 10
145.6252527712
 20
149.0880147993
 30
0.0
 11
145.6252527712
 21
141.3121567547
 31
0.0
  0
LINE
  5
209
330
1F
100
AcDbEntity
  8
0
  6
Continuous
 62
     7
370
    25
100
AcDbLine
 10
148.3823596788
 20
164.9438710391
 30
0.0
 11
148.3823596788
 21
165.3121569633
 31
0.0
  0
SPLINE
  5
20A
330
1F
100
AcDbEntity
  8
0
  6
Continuous
 62
     7
370
    25
100
AcDbSpline
210
0.0
220
0.0
230
1.0
 70
     8
 71
     3
 72
    18
 73
    14
 74
     0
 42
0.000000001
 43
0.00000001
 40
0.0
 40
0.0
 40
0.0
 40
0.0
 40
0.0297375917713251
 40
0.0622585994666694
 40
0.1245690829005809
 40
0.1747355398269535
 40
0.2498061834274977
 40
0.3751803602811958
 40
0.437745418625877
 40
0.5002333231923135
 40
0.74993137206443
 40
0.8691943481444401
 40
1.0
 40
1.0
 40
1.0
 40
1.0
 10
148.6482746760235
 20
164.3356425558897
 30
0.0
 10
148.6363951989465
 20
164.3415982778272
 30
0.0
 10
148.6115243347925
 20
164.3540671727361
 30
0.0
 10
148.5716980166887
 20
164.3813885747551
 30
0.0
 10
148.5353656855271
 20
164.4145702876377
 30
0.0
 10
148.4995935258028
 20
164.458025654731
 30
0.0
 10
148.4635225514319
 20
164.5158611762322
 30
0.0
 10
148.438629871521
 20
164.5749651389322
 30
0.0
 10
148.4213942456092
 20
164.6291856072917
 30
0.0
 10
148.4010005868192
 20
164.7082352420136
 30
0.0
 10
148.3891831696548
 20
164.7927773835937
 30
0.0
 10
148.3830907120257
 20
164.8819748800271
 30
0.0
 10
148.3826107806551
 20
164.9226137467281
 30
0.0
 10
148.382359738626
 20
164.943871085137
 30
0.0
  0
SPLINE
  5
20B
330
1F
100
AcDbEntity
  8
0
  6
Continuous
 62
     7
370
    25
100
AcDbSpline
210
0.0
220
0.0
230
1.0
 70
     8
 71
     3
 72
    13
 73
     9
 74
     0
 42
0.000000001
 43
0.00000001
 40
0.0
 40
0.0
 40
0.0
 40
0.0
 40
0.2491824652871812
 40
0.498773852101127
 40
0.6338602399483602
 40
0.7494868859161712
 40
0.8759187542426342
 40
1.0
 40
1.0
 40
1.0
 40
1.0
 10
148.5539597330925
 20
164.20349510149
 30
0.0
 10
148.5730853171079
 20
164.2133542471437
 30
0.0
 10
148.6113678712277
 20
164.2330887178275
 30
0.0
 10
148.6506210425236
 20
164.2606382823006
 30
0.0
 10
148.6721857799315
 20
164.2839372182574
 30
0.0
 10
148.67973883909
 20
164.3022672055707
 30
0.0
 10
148.6746151670095
 20
164.3206120744278
 30
0.0
 10
148.6569997431515
 20
164.3306638347341
 30
0.0
 10
148.6482746760235
 20
164.3356425558897
 30
0.0
  0
SPLINE
  5
20C
330
1F
100
AcDbEntity
  8
0
  6
Continuous
 62
     7
370
    25
100
AcDbSpline
210
0.0
220
0.0
230
1.0
 70
     8
 71
     3
 72
    13
 73
     9
 74
     0
 42
0.000000001
 43
0.00000001
 40
0.0
 40
0.0
 40
0.0
 40
0.0
 40
0.1266963143627904
 40
0.2513113397887914
 40
0.5007108425293433
 40
0.7510525732451319
 40
0.8768673774687907
 40
1.0
 40
1.0
 40
1.0
 40
1.0
 10
148.3823597386261
 20
163.9724829178799
 30
0.0
 10
148.3828122532594
 20
163.9833870433197
 30
0.0
 10
148.3837098488947
 20
164.0050161679495
 30
0.0
 10
148.3936026225118
 20
164.0472765842879
 30
0.0
 10
148.4178568793905
 20
164.0984389440284
 30
0.0
 10
148.4622922088801
 20
164.1459334741828
 30
0.0
 10
148.5101364306802
 20
164.1804970103145
 30
0.0
 10
148.5394572673938
 20
164.1958843325557
 30
0.0
 10
148.5539597331007
 20
164.2034951014879
 30
0.0
  0
LINE
  5
20D
330
1F
100
AcDbEntity
  8
0
  6
Continuous
 62
     7
370
    25
100
AcDbLine
 10
148.3823596788
 20
142.6518307507
 30
0.0
 11
148.3823596788
 21
148.6120931312
 31
0.0
  0
LINE
  5
20E
330
1F
100
AcDbEntity
  8
0
  6
Continuous
 62
     7
370
    25
100
AcDbLine
 10
148.3823596788
 20
158.0122205868
 30
0.0
 11
148.3823596788
 21
163.9724829673
 31
0.0
  0
SPLINE
  5
20F
330
1F
100
AcDbEntity
  8
0
  6
Continuous
 62
     7
370
    25
100
AcDbSpline
210
0.0
220
0.0
230
1.0
 70
     8
 71
     3
 72
    13
 73
     9
 74
     0
 42
0.000000001
 43
0.00000001
 40
0.0
 40
0.0
 40
0.0
 40
0.0
 40
0.123409203972734
 40
0.2495635406297123
 40
0.5004511475233475
 40
0.749483003608821
 40
0.8735723371285005
 40
1.0
 40
1.0
 40
1.0
 40
1.0
 10
148.5539597331007
 20
142.4208186165073
 30
0.0
 10
148.5394266911827
 20
142.4284472220048
 30
0.0
 10
148.5100373322013
 20
142.443874124835
 30
0.0
 10
148.4621111156694
 20
142.4785273595777
 30
0.0
 10
148.4177168254576
 20
142.5260795867111
 30
0.0
 10
148.3935414407477
 20
142.5772231674457
 30
0.0
 10
148.3837078442249
 20
142.6193889802739
 30
0.0
 10
148.3828118947608
 20
142.6409497772406
 30
0.0
 10
148.382359738626
 20
142.6518308001229
 30
0.0
  0
SPLINE
  5
210
330
1F
100
AcDbEntity
  8
0
  6
Continuous
 62
     7
370
    25
100
AcDbSpline
210
0.0
220
0.0
230
1.0
 70
     8
 71
     3
 72
    14
 73
    10
 74
     0
 42
0.000000001
 43
0.00000001
 40
0.0
 40
0.0
 40
0.0
 40
0.0
 40
0.0833728361874164
 40
0.1651391830231223
 40
0.2505782922901014
 40
0.3661552980483097
 40
0.5013015333863843
 40
0.7511277814203854
 40
1.0
 40
1.0
 40
1.0
 40
1.0
 10
148.6482746760235
 20
142.2886711621055
 30
0.0
 10
148.6543871538148
 20
142.2919071199231
 30
0.0
 10
148.6664943296632
 20
142.2983166827343
 30
0.0
 10
148.6762731048407
 20
142.3100385904011
 30
0.0
 10
148.6790365083551
 20
142.3238878792841
 30
0.0
 10
148.6722008124055
 20
142.3403376073238
 30
0.0
 10
148.6506854749515
 20
142.3636310242811
 30
0.0
 10
148.6113782385841
 20
142.3912212594211
 30
0.0
 10
148.5730748096148
 20
142.4109654212603
 30
0.0
 10
148.5539597331007
 20
142.4208186165073
 30
0.0
  0
SPLINE
  5
211
330
1F
100
AcDbEntity
  8
0
  6
Continuous
 62
     7
370
    25
100
AcDbSpline
210
0.0
220
0.0
230
1.0
 70
     8
 71
     3
 72
    17
 73
    13
 74
     0
 42
0.000000001
 43
0.00000001
 40
0.0
 40
0.0
 40
0.0
 40
0.0
 40
0.1308472312971285
 40
0.2501712416478232
 40
0.5002181447817603
 40
0.5625722445347702
 40
0.6248529024619178
 40
0.7493346422976469
 40
0.8746411565565786
 40
0.9373094462329892
 40
0.9700546542881243
 40
1.0
 40
1.0
 40
1.0
 40
1.0
 10
148.382359738626
 20
141.6804426328625
 30
0.0
 10
148.3826110364441
 20
141.7017050953914
 30
0.0
 10
148.3830915012316
 20
141.7423575157646
 30
0.0
 10
148.3891911798395
 20
141.8316305840236
 30
0.0
 10
148.4010196951076
 20
141.916232490843
 30
0.0
 10
148.4214407729412
 20
141.9952692890842
 30
0.0
 10
148.4385713087143
 20
142.0492137765363
 30
0.0
 10
148.4682406924465
 20
142.1192493079534
 30
0.0
 10
148.5162809222823
 20
142.1920682064163
 30
0.0
 10
148.5712760668146
 20
142.2426098236882
 30
0.0
 10
148.6112833033714
 20
142.2701165469855
 30
0.0
 10
148.6363168988696
 20
142.2826732242926
 30
0.0
 10
148.6482746760235
 20
142.2886711621055
 30
0.0
  0
LINE
  5
212
330
1F
100
AcDbEntity
  8
0
  6
Continuous
 62
     7
370
    25
100
AcDbLine
 10
148.3823596788
 20
141.3121567547
 30
0.0
 11
148.3823596788
 21
141.6804426789
 31
0.0
  0
LINE
  5
213
330
1F
100
AcDbEntity
  8
0
  6
Continuous
 62
     7
370
    25
100
AcDbLine
 10
167.868146236
 20
141.6804426789
 30
0.0
 11
167.868146236
 21
141.3121567547
 31
0.0
  0
SPLINE
  5
214
330
1F
100
AcDbEntity
  8
0
  6
Continuous
 62
     7
370
    25
100
AcDbSpline
210
0.0
220
0.0
230
1.0
 70
     8
 71
     3
 72
    18
 73
    14
 74
     0
 42
0.000000001
 43
0.00000001
 40
0.0
 40
0.0
 40
0.0
 40
0.0
 40
0.0297375917713133
 40
0.06225859946667
 40
0.1245690829005796
 40
0.1747355398269516
 40
0.2498061834274989
 40
0.3751803602811941
 40
0.4377454186258753
 40
0.5002333231923115
 40
0.7499313720644271
 40
0.8691943481067824
 40
0.9999999999999999
 40
0.9999999999999999
 40
0.9999999999999999
 40
0.9999999999999999
 10
167.6022312388554
 20
142.2886711621055
 30
0.0
 10
167.6141107159324
 20
142.282715440168
 30
0.0
 10
167.6389815800864
 20
142.2702465452591
 30
0.0
 10
167.6788078981902
 20
142.2429251432401
 30
0.0
 10
167.7151402293518
 20
142.2097434303575
 30
0.0
 10
167.7509123890761
 20
142.1662880632641
 30
0.0
 10
167.786983363447
 20
142.108452541763
 30
0.0
 10
167.811876043358
 20
142.049348579063
 30
0.0
 10
167.8291116692698
 20
141.9951281107034
 30
0.0
 10
167.8495053280598
 20
141.9160784759816
 30
0.0
 10
167.8613227452222
 20
141.8315363344089
 30
0.0
 10
167.8674152028544
 20
141.7423388379745
 30
0.0
 10
167.8678951342241
 20
141.7016999712733
 30
0.0
 10
167.8681461762529
 20
141.6804426328581
 30
0.0
  0
SPLINE
  5
215
330
1F
100
AcDbEntity
  8
0
  6
Continuous
 62
     7
370
    25
100
AcDbSpline
210
0.0
220
0.0
230
1.0
 70
     8
 71
     3
 72
    13
 73
     9
 74
     0
 42
0.000000001
 43
0.00000001
 40
0.0
 40
0.0
 40
0.0
 40
0.0
 40
0.2491824652873909
 40
0.4987738521015305
 40
0.6338602399633625
 40
0.749486885916647
 40
0.8759187542469947
 40
1.0
 40
1.0
 40
1.0
 40
1.0
 10
167.6965461817864
 20
142.4208186165052
 30
0.0
 10
167.677420597771
 20
142.4109594708515
 30
0.0
 10
167.6391380436513
 20
142.3912250001677
 30
0.0
 10
167.5998848723541
 20
142.363675435694
 30
0.0
 10
167.5783201349474
 20
142.340376499737
 30
0.0
 10
167.5707670757887
 20
142.3220465124235
 30
0.0
 10
167.5758907478706
 20
142.3037016435673
 30
0.0
 10
167.593506171728
 20
142.293649883261
 30
0.0
 10
167.6022312388554
 20
142.2886711621055
 30
0.0
  0
SPLINE
  5
216
330
1F
100
AcDbEntity
  8
0
  6
Continuous
 62
     7
370
    25
100
AcDbSpline
210
0.0
220
0.0
230
1.0
 70
     8
 71
     3
 72
    13
 73
     9
 74
     0
 42
0.000000001
 43
0.00000001
 40
0.0
 40
0.0
 40
0.0
 40
0.0
 40
0.1266963143628506
 40
0.2513113397887842
 40
0.5007108425293414
 40
0.7510525732451352
 40
0.8768673774688646
 40
1.0
 40
1.0
 40
1.0
 40
1.0
 10
167.8681461762528
 20
142.6518308001152
 30
0.0
 10
167.8676936616195
 20
142.6409266746755
 30
0.0
 10
167.8667960659842
 20
142.6192975500457
 30
0.0
 10
167.8569032923671
 20
142.5770371337072
 30
0.0
 10
167.8326490354884
 20
142.5258747739668
 30
0.0
 10
167.7882137059988
 20
142.4783802438123
 30
0.0
 10
167.7403694841987
 20
142.4438167076806
 30
0.0
 10
167.7110486474851
 20
142.4284293854395
 30
0.0
 10
167.6965461817782
 20
142.4208186165073
 30
0.0
  0
LINE
  5
217
330
1F
100
AcDbEntity
  8
0
  6
Continuous
 62
     7
370
    25
100
AcDbLine
 10
167.868146236
 20
163.9724829673
 30
0.0
 11
167.868146236
 21
142.6518307507
 31
0.0
  0
SPLINE
  5
218
330
1F
100
AcDbEntity
  8
0
  6
Continuous
 62
     7
370
    25
100
AcDbSpline
210
0.0
220
0.0
230
1.0
 70
     8
 71
     3
 72
    13
 73
     9
 74
     0
 42
0.000000001
 43
0.00000001
 40
0.0
 40
0.0
 40
0.0
 40
0.0
 40
0.123409203982248
 40
0.2495635406298056
 40
0.5004511475234075
 40
0.7494830036088448
 40
0.8735723371263543
 40
1.0
 40
1.0
 40
1.0
 40
1.0
 10
167.6965461817782
 20
164.2034951014879
 30
0.0
 10
167.7110792236975
 20
164.1958664959898
 30
0.0
 10
167.7404685826794
 20
164.1804395931598
 30
0.0
 10
167.7883947992097
 20
164.1457863584167
 30
0.0
 10
167.8327890894215
 20
164.0982341312841
 30
0.0
 10
167.856964474131
 20
164.0470905505498
 30
0.0
 10
167.8667980706541
 20
164.0049247377216
 30
0.0
 10
167.8676940201181
 20
163.9833639407549
 30
0.0
 10
167.8681461762529
 20
163.9724829178724
 30
0.0
  0
SPLINE
  5
219
330
1F
100
AcDbEntity
  8
0
  6
Continuous
 62
     7
370
    25
100
AcDbSpline
210
0.0
220
0.0
230
1.0
 70
     8
 71
     3
 72
    14
 73
    10
 74
     0
 42
0.000000001
 43
0.00000001
 40
0.0
 40
0.0
 40
0.0
 40
0.0
 40
0.0833728361833459
 40
0.1651391830191044
 40
0.2505782922895461
 40
0.366155298038779
 40
0.5013015333860809
 40
0.7511277814202357
 40
0.9999999999999999
 40
0.9999999999999999
 40
0.9999999999999999
 40
0.9999999999999999
 10
167.6022312388554
 20
164.3356425558897
 30
0.0
 10
167.5961187610645
 20
164.3324065980723
 30
0.0
 10
167.5840115852165
 20
164.3259970352611
 30
0.0
 10
167.5742328100394
 20
164.3142751275944
 30
0.0
 10
167.5714694065234
 20
164.3004258387117
 30
0.0
 10
167.5783051024729
 20
164.2839761106718
 30
0.0
 10
167.5998204399269
 20
164.2606826937145
 30
0.0
 10
167.6391276762947
 20
164.2330924585741
 30
0.0
 10
167.6774311052641
 20
164.2133482967349
 30
0.0
 10
167.6965461817782
 20
164.2034951014879
 30
0.0
  0
SPLINE
  5
21A
330
1F
100
AcDbEntity
  8
0
  6
Continuous
 62
     7
370
    25
100
AcDbSpline
210
0.0
220
0.0
230
1.0
 70
     8
 71
     3
 72
    17
 73
    13
 74
     0
 42
0.000000001
 43
0.00000001
 40
0.0
 40
0.0
 40
0.0
 40
0.0
 40
0.1308472312969622
 40
0.2501712416478231
 40
0.5002181447817602
 40
0.5625722445347695
 40
0.6248529024619175
 40
0.7493346422976452
 40
0.8746411565565774
 40
0.9373094462329884
 40
0.9700546542881242
 40
0.9999999999999999
 40
0.9999999999999999
 40
0.9999999999999999
 40
0.9999999999999999
 10
167.8681461762529
 20
164.9438710851327
 30
0.0
 10
167.8678948784348
 20
164.9226086226037
 30
0.0
 10
167.8674144136473
 20
164.8819562022306
 30
0.0
 10
167.8613147350395
 20
164.7926831339717
 30
0.0
 10
167.8494862197713
 20
164.7080812271522
 30
0.0
 10
167.8290651419377
 20
164.629044428911
 30
0.0
 10
167.8119346061646
 20
164.5750999414589
 30
0.0
 10
167.7822652224324
 20
164.5050644100418
 30
0.0
 10
167.7342249925967
 20
164.4322455115788
 30
0.0
 10
167.6792298480644
 20
164.381703894307
 30
0.0
 10
167.6392226115075
 20
164.3541971710096
 30
0.0
 10
167.6141890160094
 20
164.3416404937026
 30
0.0
 10
167.6022312388554
 20
164.3356425558897
 30
0.0
  0
LINE
  5
21B
330
1F
100
AcDbEntity
  8
0
  6
Continuous
 62
     7
370
    25
100
AcDbLine
 10
167.868146236
 20
165.3121569633
 30
0.0
 11
167.868146236
 21
164.9438710391
 31
0.0
  0
LINE
  5
21C
330
1F
100
AcDbEntity
  8
0
  6
Continuous
 62
     7
370
    25
100
AcDbLine
 10
170.6252531437
 20
141.3121567547
 30
0.0
 11
170.6252531437
 21
165.3121569633
 31
0.0
  0
LINE
  5
21D
330
1F
100
AcDbEntity
  8
0
  6
Continuous
 62
     7
370
    25
100
AcDbLine
 10
148.3823596788
 20
163.9724829673
 30
0.0
 11
148.625218804
 21
163.756736505
 31
0.0
  0
LINE
  5
21E
330
1F
100
AcDbEntity
  8
0
  6
Continuous
 62
     7
370
    25
100
AcDbLine
 10
148.625218804
 20
163.756736505
 30
0.0
 11
148.625218804
 21
158.0600263059
 31
0.0
  0
LINE
  5
21F
330
1F
100
AcDbEntity
  8
0
  6
Continuous
 62
     7
370
    25
100
AcDbLine
 10
148.625218804
 20
148.5642874121
 30
0.0
 11
148.625218804
 21
142.867577213
 31
0.0
  0
LINE
  5
220
330
1F
100
AcDbEntity
  8
0
  6
Continuous
 62
     7
370
    25
100
AcDbLine
 10
148.3823596788
 20
142.6518307507
 30
0.0
 11
148.625218804
 21
142.867577213
 31
0.0
  0
LINE
  5
221
330
1F
100
AcDbEntity
  8
0
  6
Continuous
 62
     7
370
    25
100
AcDbLine
 10
167.6252871109
 20
142.867577213
 30
0.0
 11
167.6252871109
 21
163.756736505
 31
0.0
  0
LINE
  5
222
330
1F
100
AcDbEntity
  8
0
  6
Continuous
 62
     7
370
    25
100
AcDbLine
 10
167.6252871109
 20
163.756736505
 30
0.0
 11
167.868146236
 21
163.9724829673
 31
0.0
  0
LINE
  5
223
330
1F
100
AcDbEntity
  8
0
  6
Continuous
 62
     7
370
    25
100
AcDbLine
 10
167.6252871109
 20
142.867577213
 30
0.0
 11
167.868146236
 21
142.6518307507
 31
0.0
  0
LINE
  5
224
330
1F
100
AcDbEntity
  8
0
  6
Continuous
 62
     7
370
    25
100
AcDbLine
 10
145.3752531959
 20
141.5621572613
 30
0.0
 11
145.3752531959
 21
149.1251503557
 31
0.0
  0
LINE
  5
225
330
1F
100
AcDbEntity
  8
0
  6
Continuous
 62
     7
370
    25
100
AcDbLine
 10
145.3752531959
 20
157.4991633623
 30
0.0
 11
145.3752531959
 21
165.0621564567
 31
0.0
  0
LINE
  5
226
330
1F
100
AcDbEntity
  8
0
  6
Continuous
 62
     7
370
    25
100
AcDbLine
 10
170.875252719
 20
165.0621564567
 30
0.0
 11
170.875252719
 21
141.5621572613
 31
0.0
  0
LINE
  5
227
330
1F
100
AcDbEntity
  8
0
  6
Continuous
 62
     7
370
    25
100
AcDbLine
 10
148.6252532629
 20
163.7477930143
 30
0.0
 11
148.6252532629
 21
158.0600328251
 31
0.0
  0
LINE
  5
228
330
1F
100
AcDbEntity
  8
0
  6
Continuous
 62
     7
370
    25
100
AcDbLine
 10
148.6252532629
 20
148.5642808929
 30
0.0
 11
148.6252532629
 21
142.8765207037
 31
0.0
  0
SPLINE
  5
229
330
1F
100
AcDbEntity
  8
0
  6
Continuous
 62
     7
370
    25
100
AcDbSpline
210
0.0
220
0.0
230
1.0
 70
     8
 71
     3
 72
     8
 73
     4
 74
     0
 42
0.000000001
 43
0.00000001
 40
0.0
 40
0.0
 40
0.0
 40
0.0
 40
1.0
 40
1.0
 40
1.0
 40
1.0
 10
148.6252189628835
 20
142.8675773431818
 30
0.0
 10
148.6252416204944
 20
142.8705569216748
 30
0.0
 10
148.6252529574394
 20
142.8735380725479
 30
0.0
 10
148.6252529574394
 20
142.8765207978847
 30
0.0
  0
SPLINE
  5
22A
330
1F
100
AcDbEntity
  8
0
  6
Continuous
 62
     7
370
    25
100
AcDbSpline
210
0.0
220
0.0
230
1.0
 70
     8
 71
     3
 72
     8
 73
     4
 74
     0
 42
0.000000001
 43
0.00000001
 40
0.0
 40
0.0
 40
0.0
 40
0.0
 40
1.0
 40
1.0
 40
1.0
 40
1.0
 10
148.6252529574394
 20
163.7477929201105
 30
0.0
 10
148.6252529574394
 20
163.7507756454419
 30
0.0
 10
148.6252416204944
 20
163.7537567963097
 30
0.0
 10
148.6252189628836
 20
163.7567363747974
 30
0.0
  0
LINE
  5
22B
330
1F
100
AcDbEntity
  8
0
  6
Continuous
 62
     7
370
    25
100
AcDbLine
 10
167.625252652
 20
142.8765207037
 30
0.0
 11
167.625252652
 21
163.7477930143
 31
0.0
  0
SPLINE
  5
22C
330
1F
100
AcDbEntity
  8
0
  6
Continuous
 62
     7
370
    25
100
AcDbSpline
210
0.0
220
0.0
230
1.0
 70
     8
 71
     3
 72
     8
 73
     4
 74
     0
 42
0.000000001
 43
0.00000001
 40
0.0
 40
0.0
 40
0.0
 40
0.0
 40
1.0
 40
1.0
 40
1.0
 40
1.0
 10
167.6252869519953
 20
163.7567363747974
 30
0.0
 10
167.6252642943845
 20
163.7537567963097
 30
0.0
 10
167.6252529574395
 20
163.7507756454419
 30
0.0
 10
167.6252529574395
 20
163.7477929201105
 30
0.0
  0
SPLINE
  5
22D
330
1F
100
AcDbEntity
  8
0
  6
Continuous
 62
     7
370
    25
100
AcDbSpline
210
0.0
220
0.0
230
1.0
 70
     8
 71
     3
 72
     8
 73
     4
 74
     0
 42
0.000000001
 43
0.00000001
 40
0.0
 40
0.0
 40
0.0
 40
0.0
 40
1.0
 40
1.0
 40
1.0
 40
1.0
 10
167.6252529574395
 20
142.8765207978847
 30
0.0
 10
167.6252529574395
 20
142.8735380725533
 30
0.0
 10
167.6252642943845
 20
142.8705569216855
 30
0.0
 10
167.6252869519953
 20
142.8675773431978
 30
0.0
  0
ARC
  5
22E
330
1F
100
AcDbEntity
  8
0
  6
Continuous
 62
     7
370
    25
100
AcDbCircle
 10
167.2481268116
 20
163.349884062
 30
0.0
 40
0.3780240582240979
100
AcDbArc
 50
266.5310279273
 51
356.0494752198
  0
ARC
  5
22F
330
1F
100
AcDbEntity
  8
0
  6
Continuous
 62
     7
370
    25
100
AcDbCircle
 10
167.2481268116
 20
143.274429656
 30
0.0
 40
0.3780240582240979
100
AcDbArc
 50
3.9505247802
 51
93.4689720727
  0
LINE
  5
230
330
1F
100
AcDbEntity
  8
0
  6
Continuous
 62
     7
370
    25
100
AcDbLine
 10
167.2252533315
 20
143.6517610654
 30
0.0
 11
167.2252533315
 21
162.9725526526
 31
0.0
  0
ARC
  5
231
330
1F
100
AcDbEntity
  8
0
  6
Continuous
 62
     7
370
    25
100
AcDbCircle
 10
149.0023791033
 20
143.274429656
 30
0.0
 40
0.3780240582241247
100
AcDbArc
 50
86.5310279273
 51
176.0494752198
  0
ARC
  5
232
330
1F
100
AcDbEntity
  8
0
  6
Continuous
 62
     7
370
    25
100
AcDbCircle
 10
149.0023791033
 20
163.349884062
 30
0.0
 40
0.3780240582240979
100
AcDbArc
 50
183.9505247802
 51
273.4689720727
  0
LINE
  5
233
330
1F
100
AcDbEntity
  8
0
  6
Continuous
 62
     7
370
    25
100
AcDbLine
 10
167.2252533315
 20
162.9725526526
 30
0.0
 11
149.0252525834
 21
162.9725526526
 31
0.0
  0
LINE
  5
234
330
1F
100
AcDbEntity
  8
0
  6
Continuous
 62
     7
370
    25
100
AcDbLine
 10
149.0252525834
 20
143.6517610654
 30
0.0
 11
167.2252533315
 21
143.6517610654
 31
0.0
  0
LINE
  5
235
330
1F
100
AcDbEntity
  8
0
  6
Continuous
 62
     7
370
    25
100
AcDbLine
 10
182.1788619561
 20
163.6189193904
 30
0.0
 11
182.1788619561
 21
143.0053943276
 31
0.0
  0
LINE
  5
236
330
1F
100
AcDbEntity
  8
0
  6
Continuous
 62
     7
370
    25
100
AcDbLine
 10
184.8752531512
 20
162.0621568963
 30
0.0
 11
184.8752531512
 21
144.5621568217
 31
0.0
  0
SPLINE
  5
237
330
1F
100
AcDbEntity
  8
0
  6
Continuous
 62
     7
370
    25
100
AcDbSpline
210
0.0
220
0.0
230
1.0
 70
     8
 71
     3
 72
    14
 73
    10
 74
     0
 42
0.000000001
 43
0.00000001
 40
0.0
 40
0.0
 40
0.0
 40
0.0
 40
0.1377327108983413
 40
0.2725942884998932
 40
0.4041400602171393
 40
0.5321680644070492
 40
0.7754693061725265
 40
0.8890599100113705
 40
0.9999999999999999
 40
0.9999999999999999
 40
0.9999999999999999
 40
0.9999999999999999
 10
148.6252189628837
 20
142.8675773432074
 30
0.0
 10
148.6253537963337
 20
142.8538476812944
 30
0.0
 10
148.6256206525376
 20
142.8266745617347
 30
0.0
 10
148.6287424747828
 20
142.7869836819756
 30
0.0
 10
148.6342087387418
 20
142.7490510080772
 30
0.0
 10
148.6452085954527
 20
142.7022402482733
 30
0.0
 10
148.6632762680367
 20
142.6601411419232
 30
0.0
 10
148.6905497175318
 20
142.6248427341394
 30
0.0
 10
148.7081670619768
 20
142.6107943392437
 30
0.0
 10
148.7168717506087
 20
142.6038530602259
 30
0.0
  0
LINE
  5
238
330
1F
100
AcDbEntity
  8
0
  6
Continuous
 62
     7
370
    25
100
AcDbLine
 10
148.5539595885
 20
142.42081898
 30
0.0
 11
148.7168721212
 21
142.6038527369
 31
0.0
  0
SPLINE
  5
239
330
1F
100
AcDbEntity
  8
0
  6
Continuous
 62
     7
370
    25
100
AcDbSpline
210
0.0
220
0.0
230
1.0
 70
     8
 71
     3
 72
    14
 73
    10
 74
     0
 42
0.000000001
 43
0.00000001
 40
0.0
 40
0.0
 40
0.0
 40
0.0
 40
0.1377327108987162
 40
0.2725942885004416
 40
0.4041400602177524
 40
0.5321680644078574
 40
0.7754693061737634
 40
0.8890599099299614
 40
0.9999999999999999
 40
0.9999999999999999
 40
0.9999999999999999
 40
0.9999999999999999
 10
167.6252869519953
 20
163.756736374788
 30
0.0
 10
167.6251521185452
 20
163.770466036701
 30
0.0
 10
167.6248852623413
 20
163.7976391562605
 30
0.0
 10
167.6217634400961
 20
163.8373300360196
 30
0.0
 10
167.6162971761373
 20
163.8752627099182
 30
0.0
 10
167.6052973194258
 20
163.9220734697211
 30
0.0
 10
167.5872296468481
 20
163.9641725760699
 30
0.0
 10
167.5599561973482
 20
163.9994709838417
 30
0.0
 10
167.5423388529068
 20
164.0135193787433
 30
0.0
 10
167.5336341642702
 20
164.0204606577693
 30
0.0
  0
LWPOLYLINE
  5
23A
330
1F
100
AcDbEntity
  8
0
  6
Continuous
 62
     7
370
    25
100
AcDbPolyline
 90
        3
 70
   128
 43
0.0
 10
167.5336337937
 20
164.0204609811
 10
167.61509006
 20
164.1119783252
 10
167.6965463264
 20
164.203494738
  0
LWPOLYLINE
  5
23B
330
1F
100
AcDbEntity
  8
0
  6
Continuous
 62
     7
370
    25
100
AcDbPolyline
 90
        3
 70
   128
 43
0.0
 10
148.5539595885
 20
164.203494738
 10
148.6354158548
 20
164.1119783252
 10
148.7168721212
 20
164.0204609811
  0
SPLINE
  5
23C
330
1F
100
AcDbEntity
  8
0
  6
Continuous
 62
     7
370
    25
100
AcDbSpline
210
0.0
220
0.0
230
1.0
 70
     8
 71
     3
 72
    14
 73
    10
 74
     0
 42
0.000000001
 43
0.00000001
 40
0.0
 40
0.0
 40
0.0
 40
0.0
 40
0.1106414710202212
 40
0.2239563677549811
 40
0.4666597346533721
 40
0.5947565812544914
 40
0.7265559329283156
 40
0.8618634099915925
 40
0.9999999999999999
 40
0.9999999999999999
 40
0.9999999999999999
 40
0.9999999999999999
 10
148.7168717506088
 20
164.0204606577692
 30
0.0
 10
148.7081893527143
 20
164.0135386063279
 30
0.0
 10
148.6906147644706
 20
163.999527246176
 30
0.0
 10
148.6633790755025
 20
163.9643370887455
 30
0.0
 10
148.6452967062302
 20
163.9223278128294
 30
0.0
 10
148.6342616616514
 20
163.8755618146338
 30
0.0
 10
148.6287651484378
 20
163.8375598597182
 30
0.0
 10
148.625623476276
 20
163.7977644283121
 30
0.0
 10
148.6253547275257
 20
163.770506398509
 30
0.0
 10
148.6252189628836
 20
163.7567363747975
 30
0.0
  0
SPLINE
  5
23D
330
1F
100
AcDbEntity
  8
0
  6
Continuous
 62
     7
370
    25
100
AcDbSpline
210
0.0
220
0.0
230
1.0
 70
     8
 71
     3
 72
    14
 73
    10
 74
     0
 42
0.000000001
 43
0.00000001
 40
0.0
 40
0.0
 40
0.0
 40
0.0
 40
0.1106414710656435
 40
0.2239563677554478
 40
0.4666597346536896
 40
0.5947565812547271
 40
0.726555932928469
 40
0.8618634099916662
 40
1.0
 40
1.0
 40
1.0
 40
1.0
 10
167.5336341642702
 20
142.603853060226
 30
0.0
 10
167.5423165621686
 20
142.6107751116692
 30
0.0
 10
167.559891150413
 20
142.6247864718192
 30
0.0
 10
167.5871268393769
 20
142.6599766292556
 30
0.0
 10
167.6052092086489
 20
142.7019859051654
 30
0.0
 10
167.6162442532275
 20
142.7487519033615
 30
0.0
 10
167.6217407664411
 20
142.7867538582769
 30
0.0
 10
167.6248824386029
 20
142.826549289683
 30
0.0
 10
167.6251511873532
 20
142.8538073194861
 30
0.0
 10
167.6252869519953
 20
142.8675773431976
 30
0.0
  0
LINE
  5
23E
330
1F
100
AcDbEntity
  8
0
  6
Continuous
 62
     7
370
    25
100
AcDbLine
 10
167.5336337937
 20
142.6038527369
 30
0.0
 11
167.6965463264
 21
142.42081898
 31
0.0
  0
LINE
  5
23F
330
1F
100
AcDbEntity
  8
0
  6
Continuous
 62
     7
370
    25
100
AcDbLine
 10
148.6252532629
 20
163.4116619333
 30
0.0
 11
149.0252525834
 21
163.4116619333
 31
0.0
  0
LINE
  5
240
330
1F
100
AcDbEntity
  8
0
  6
Continuous
 62
     7
370
    25
100
AcDbLine
 10
149.0252525834
 20
162.9725526526
 30
0.0
 11
149.0252525834
 21
163.4116619333
 31
0.0
  0
LINE
  5
241
330
1F
100
AcDbEntity
  8
0
  6
Continuous
 62
     7
370
    25
100
AcDbLine
 10
167.2252533315
 20
162.9725526526
 30
0.0
 11
167.2252533315
 21
163.4116619333
 31
0.0
  0
LINE
  5
242
330
1F
100
AcDbEntity
  8
0
  6
Continuous
 62
     7
370
    25
100
AcDbLine
 10
167.2252533315
 20
163.4116619333
 30
0.0
 11
167.625252652
 21
163.4116619333
 31
0.0
  0
LINE
  5
243
330
1F
100
AcDbEntity
  8
0
  6
Continuous
 62
     7
370
    25
100
AcDbLine
 10
149.0252525834
 20
143.2126517847
 30
0.0
 11
149.0252525834
 21
143.6517610654
 31
0.0
  0
LINE
  5
244
330
1F
100
AcDbEntity
  8
0
  6
Continuous
 62
     7
370
    25
100
AcDbLine
 10
149.0252525834
 20
143.2126517847
 30
0.0
 11
148.6252532629
 21
143.2126517847
 31
0.0
  0
LINE
  5
245
330
1F
100
AcDbEntity
  8
0
  6
Continuous
 62
     7
370
    25
100
AcDbLine
 10
167.625252652
 20
143.2126517847
 30
0.0
 11
167.2252533315
 21
143.2126517847
 31
0.0
  0
LINE
  5
246
330
1F
100
AcDbEntity
  8
0
  6
Continuous
 62
     7
370
    25
100
AcDbLine
 10
167.2252533315
 20
143.2126517847
 30
0.0
 11
167.2252533315
 21
143.6517610654
 31
0.0
  0
LINE
  5
247
330
1F
100
AcDbEntity
  8
0
  6
Continuous
 62
     7
370
    25
100
AcDbLine
 10
167.2252533315
 20
163.7477930143
 30
0.0
 11
167.625252652
 21
163.7477930143
 31
0.0
  0
SPLINE
  5
248
330
1F
100
AcDbEntity
  8
0
  6
Continuous
 62
     7
370
    25
100
AcDbSpline
210
0.0
220
0.0
230
1.0
 70
     8
 71
     3
 72
     8
 73
     4
 74
     0
 42
0.000000001
 43
0.00000001
 40
0.0
 40
0.0
 40
0.0
 40
0.0
 40
1.0
 40
1.0
 40
1.0
 40
1.0
 10
167.2252529574395
 20
163.7477929201105
 30
0.0
 10
167.2252529574395
 20
163.7693266689128
 30
0.0
 10
167.2257297368321
 20
163.7907809340695
 30
0.0
 10
167.2266764368813
 20
163.812156858997
 30
0.0
  0
SPLINE
  5
249
330
1F
100
AcDbEntity
  8
0
  6
Continuous
 62
     7
370
    25
100
AcDbSpline
210
0.0
220
0.0
230
1.0
 70
     8
 71
     3
 72
     8
 73
     4
 74
     0
 42
0.000000001
 43
0.00000001
 40
0.0
 40
0.0
 40
0.0
 40
0.0
 40
0.0000524698222113
 40
0.0000524698222113
 40
0.0000524698222113
 40
0.0000524698222113
 10
167.2789420079463
 20
163.8152893026294
 30
0.0
 10
167.2616356960917
 20
163.8141614734133
 30
0.0
 10
167.244139871851
 20
163.8131193900292
 30
0.0
 10
167.2266764368788
 20
163.8121568589974
 30
0.0
  0
SPLINE
  5
24A
330
1F
100
AcDbEntity
  8
0
  6
Continuous
 62
     7
370
    25
100
AcDbSpline
210
0.0
220
0.0
230
1.0
 70
     8
 71
     3
 72
    10
 73
     6
 74
     0
 42
0.000000001
 43
0.00000001
 40
0.0
 40
0.0
 40
0.0
 40
0.0
 40
0.5
 40
0.5
 40
1.0
 40
1.0
 40
1.0
 40
1.0
 10
167.2789420079463
 20
163.8152893026294
 30
0.0
 10
167.3385707375481
 20
163.8191752272519
 30
0.0
 10
167.3887450293548
 20
163.8529108767565
 30
0.0
 10
167.4688101350956
 20
163.9305190310241
 30
0.0
 10
167.5015249245108
 20
163.9750611464584
 30
0.0
 10
167.5336341642702
 20
164.0204606577693
 30
0.0
  0
SPLINE
  5
24B
330
1F
100
AcDbEntity
  8
0
  6
Continuous
 62
     7
370
    25
100
AcDbSpline
210
0.0
220
0.0
230
1.0
 70
     8
 71
     3
 72
     8
 73
     4
 74
     0
 42
0.000000001
 43
0.00000001
 40
0.0
 40
0.0
 40
0.0
 40
0.0
 40
0.0000524698222138
 40
0.0000524698222138
 40
0.0000524698222138
 40
0.0000524698222138
 10
149.023829477998
 20
163.8121568589869
 30
0.0
 10
149.0063660430258
 20
163.8131193900184
 30
0.0
 10
148.9888702187858
 20
163.8141614734132
 30
0.0
 10
148.9715639069312
 20
163.8152893026295
 30
0.0
  0
SPLINE
  5
24C
330
1F
100
AcDbEntity
  8
0
  6
Continuous
 62
     7
370
    25
100
AcDbSpline
210
0.0
220
0.0
230
1.0
 70
     8
 71
     3
 72
     8
 73
     4
 74
     0
 42
0.000000001
 43
0.00000001
 40
0.0
 40
0.0
 40
0.0
 40
0.0
 40
1.0
 40
1.0
 40
1.0
 40
1.0
 10
149.023829477998
 20
163.8121568589869
 30
0.0
 10
149.024776178047
 20
163.7907809340627
 30
0.0
 10
149.0252529574394
 20
163.7693266689094
 30
0.0
 10
149.0252529574394
 20
163.7477929201105
 30
0.0
  0
LINE
  5
24D
330
1F
100
AcDbEntity
  8
0
  6
Continuous
 62
     7
370
    25
100
AcDbLine
 10
148.6252532629
 20
163.7477930143
 30
0.0
 11
149.0252525834
 21
163.7477930143
 31
0.0
  0
SPLINE
  5
24E
330
1F
100
AcDbEntity
  8
0
  6
Continuous
 62
     7
370
    25
100
AcDbSpline
210
0.0
220
0.0
230
1.0
 70
     8
 71
     3
 72
    10
 73
     6
 74
     0
 42
0.000000001
 43
0.00000001
 40
0.0
 40
0.0
 40
0.0
 40
0.0
 40
0.5
 40
0.5
 40
1.0
 40
1.0
 40
1.0
 40
1.0
 10
148.9715639069313
 20
163.8152893026316
 30
0.0
 10
148.9119351773298
 20
163.8191752272545
 30
0.0
 10
148.8617608855223
 20
163.8529108767578
 30
0.0
 10
148.7816957797814
 20
163.9305190310265
 30
0.0
 10
148.7489809903661
 20
163.9750611464612
 30
0.0
 10
148.7168717506064
 20
164.0204606577725
 30
0.0
  0
LINE
  5
24F
330
1F
100
AcDbEntity
  8
0
  6
Continuous
 62
     7
370
    25
100
AcDbLine
 10
148.6252532629
 20
142.8765207037
 30
0.0
 11
149.0252525834
 21
142.8765207037
 31
0.0
  0
SPLINE
  5
250
330
1F
100
AcDbEntity
  8
0
  6
Continuous
 62
     7
370
    25
100
AcDbSpline
210
0.0
220
0.0
230
1.0
 70
     8
 71
     3
 72
     8
 73
     4
 74
     0
 42
0.000000001
 43
0.00000001
 40
0.0
 40
0.0
 40
0.0
 40
0.0
 40
1.0
 40
1.0
 40
1.0
 40
1.0
 10
149.0252529574394
 20
142.8765207978847
 30
0.0
 10
149.0252529574394
 20
142.8549870490824
 30
0.0
 10
149.0247761780468
 20
142.8335327839256
 30
0.0
 10
149.0238294779976
 20
142.8121568589982
 30
0.0
  0
SPLINE
  5
251
330
1F
100
AcDbEntity
  8
0
  6
Continuous
 62
     7
370
    25
100
AcDbSpline
210
0.0
220
0.0
230
1.0
 70
     8
 71
     3
 72
     8
 73
     4
 74
     0
 42
0.000000001
 43
0.00000001
 40
0.0
 40
0.0
 40
0.0
 40
0.0
 40
0.0000524698222113
 40
0.0000524698222113
 40
0.0000524698222113
 40
0.0000524698222113
 10
148.9715639069326
 20
142.8090244153657
 30
0.0
 10
148.9888702187872
 20
142.8101522445819
 30
0.0
 10
149.0063660430279
 20
142.811194327966
 30
0.0
 10
149.0238294780001
 20
142.8121568589977
 30
0.0
  0
SPLINE
  5
252
330
1F
100
AcDbEntity
  8
0
  6
Continuous
 62
     7
370
    25
100
AcDbSpline
210
0.0
220
0.0
230
1.0
 70
     8
 71
     3
 72
    10
 73
     6
 74
     0
 42
0.000000001
 43
0.00000001
 40
0.0
 40
0.0
 40
0.0
 40
0.0
 40
0.5
 40
0.5
 40
1.0
 40
1.0
 40
1.0
 40
1.0
 10
148.9715639069326
 20
142.8090244153657
 30
0.0
 10
148.9119351773309
 20
142.8051384907432
 30
0.0
 10
148.8617608855241
 20
142.7714028412387
 30
0.0
 10
148.7816957797833
 20
142.693794686971
 30
0.0
 10
148.7489809903681
 20
142.6492525715368
 30
0.0
 10
148.7168717506087
 20
142.6038530602258
 30
0.0
  0
SPLINE
  5
253
330
1F
100
AcDbEntity
  8
0
  6
Continuous
 62
     7
370
    25
100
AcDbSpline
210
0.0
220
0.0
230
1.0
 70
     8
 71
     3
 72
     8
 73
     4
 74
     0
 42
0.000000001
 43
0.00000001
 40
0.0
 40
0.0
 40
0.0
 40
0.0
 40
0.0000524698222138
 40
0.0000524698222138
 40
0.0000524698222138
 40
0.0000524698222138
 10
167.2266764368809
 20
142.8121568590083
 30
0.0
 10
167.2441398718531
 20
142.8111943279768
 30
0.0
 10
167.2616356960932
 20
142.810152244582
 30
0.0
 10
167.2789420079478
 20
142.8090244153657
 30
0.0
  0
SPLINE
  5
254
330
1F
100
AcDbEntity
  8
0
  6
Continuous
 62
     7
370
    25
100
AcDbSpline
210
0.0
220
0.0
230
1.0
 70
     8
 71
     3
 72
     8
 73
     4
 74
     0
 42
0.000000001
 43
0.00000001
 40
0.0
 40
0.0
 40
0.0
 40
0.0
 40
1.0
 40
1.0
 40
1.0
 40
1.0
 10
167.2266764368809
 20
142.8121568590083
 30
0.0
 10
167.2257297368319
 20
142.8335327839325
 30
0.0
 10
167.2252529574395
 20
142.8549870490858
 30
0.0
 10
167.2252529574395
 20
142.8765207978847
 30
0.0
  0
LINE
  5
255
330
1F
100
AcDbEntity
  8
0
  6
Continuous
 62
     7
370
    25
100
AcDbLine
 10
167.2252533315
 20
142.8765207037
 30
0.0
 11
167.625252652
 21
142.8765207037
 31
0.0
  0
SPLINE
  5
256
330
1F
100
AcDbEntity
  8
0
  6
Continuous
 62
     7
370
    25
100
AcDbSpline
210
0.0
220
0.0
230
1.0
 70
     8
 71
     3
 72
    10
 73
     6
 74
     0
 42
0.000000001
 43
0.00000001
 40
0.0
 40
0.0
 40
0.0
 40
0.0
 40
0.5
 40
0.5
 40
1.0
 40
1.0
 40
1.0
 40
1.0
 10
167.2789420079477
 20
142.8090244153636
 30
0.0
 10
167.3385707375491
 20
142.8051384907405
 30
0.0
 10
167.3887450293567
 20
142.7714028412373
 30
0.0
 10
167.4688101350976
 20
142.6937946869687
 30
0.0
 10
167.5015249245129
 20
142.649252571534
 30
0.0
 10
167.5336341642725
 20
142.6038530602226
 30
0.0
  0
LINE
  5
257
330
1F
100
AcDbEntity
  8
0
  6
Continuous
 62
     7
370
    25
100
AcDbLine
 10
149.0252525834
 20
163.7477930143
 30
0.0
 11
149.0252525834
 21
163.4116619333
 31
0.0
  0
LINE
  5
258
330
1F
100
AcDbEntity
  8
0
  6
Continuous
 62
     7
370
    25
100
AcDbLine
 10
167.2252533315
 20
163.4116619333
 30
0.0
 11
167.2252533315
 21
163.7477930143
 31
0.0
  0
LINE
  5
259
330
1F
100
AcDbEntity
  8
0
  6
Continuous
 62
     7
370
    25
100
AcDbLine
 10
149.0252525834
 20
143.2126517847
 30
0.0
 11
149.0252525834
 21
142.8765207037
 31
0.0
  0
LINE
  5
25A
330
1F
100
AcDbEntity
  8
0
  6
Continuous
 62
     7
370
    25
100
AcDbLine
 10
167.2252533315
 20
142.8765207037
 30
0.0
 11
167.2252533315
 21
143.2126517847
 31
0.0
  0
LINE
  5
25B
330
1F
100
AcDbEntity
  8
0
  6
Continuous
 62
     7
370
    25
100
AcDbLine
 10
149.0252525834
 20
163.4116619333
 30
0.0
 11
167.2252533315
 21
163.4116619333
 31
0.0
  0
LINE
  5
25C
330
1F
100
AcDbEntity
  8
0
  6
Continuous
 62
     7
370
    25
100
AcDbLine
 10
167.2252533315
 20
143.2126517847
 30
0.0
 11
149.0252525834
 21
143.2126517847
 31
0.0
  0
ARC
  5
25D
330
1F
100
AcDbEntity
  8
0
  6
Continuous
 62
     7
370
    25
100
AcDbCircle
 10
147.9693333794
 20
163.9368515132
 30
0.0
 40
1.009575600164493
100
AcDbArc
 50
353.0843015392
 51
21.8233132377
  0
SPLINE
  5
25E
330
1F
100
AcDbEntity
  8
0
  6
Continuous
 62
     7
370
    25
100
AcDbSpline
210
0.0
220
0.0
230
1.0
 70
     8
 71
     3
 72
    16
 73
    12
 74
     0
 42
0.000000001
 43
0.00000001
 40
0.0
 40
0.0
 40
0.0
 40
0.0
 40
0.0761065009127368
 40
0.149479093119197
 40
0.2974911001276658
 40
0.4337219070480748
 40
0.5582000385649541
 40
0.6744773661246137
 40
0.7859690394832728
 40
0.8939353462389598
 40
1.0
 40
1.0
 40
1.0
 40
1.0
 10
148.7317326735493
 20
164.3377517355503
 30
0.0
 10
148.7391490445861
 20
164.3336548931836
 30
0.0
 10
148.7537153747092
 20
164.325608375813
 30
0.0
 10
148.7759341630316
 20
164.3051919546559
 30
0.0
 10
148.7932876711936
 20
164.2749276453132
 30
0.0
 10
148.7995924091224
 20
164.2329650153284
 30
0.0
 10
148.7954969941092
 20
164.1896847275011
 30
0.0
 10
148.7839690447589
 20
164.1464991746706
 30
0.0
 10
148.7665461415295
 20
164.1038373139409
 30
0.0
 10
148.7445287333075
 20
164.0617727398529
 30
0.0
 10
148.7260359758051
 20
164.0341495416131
 30
0.0
 10
148.7168717506068
 20
164.0204606577713
 30
0.0
  0
SPLINE
  5
25F
330
1F
100
AcDbEntity
  8
0
  6
Continuous
 62
     7
370
    25
100
AcDbSpline
210
0.0
220
0.0
230
1.0
 70
     8
 71
     3
 72
     8
 73
     4
 74
     0
 42
0.000000001
 43
0.00000001
 40
0.0
 40
0.0
 40
0.0
 40
0.0
 40
1.0
 40
1.0
 40
1.0
 40
1.0
 10
148.906557822853
 20
164.3121568589976
 30
0.0
 10
148.8341578526939
 20
164.3121568589976
 30
0.0
 10
148.7797276351049
 20
164.3251371025189
 30
0.0
 10
148.731732673545
 20
164.3377517355445
 30
0.0
  0
ARC
  5
260
330
1F
100
AcDbEntity
  8
0
  6
Continuous
 62
     7
370
    25
100
AcDbCircle
 10
168.2811725355
 20
142.6874622048
 30
0.0
 40
1.009575600164492
100
AcDbArc
 50
173.0843015392
 51
201.8233132377
  0
SPLINE
  5
261
330
1F
100
AcDbEntity
  8
0
  6
Continuous
 62
     7
370
    25
100
AcDbSpline
210
0.0
220
0.0
230
1.0
 70
     8
 71
     3
 72
    16
 73
    12
 74
     0
 42
0.000000001
 43
0.00000001
 40
0.0
 40
0.0
 40
0.0
 40
0.0
 40
0.0761065009119658
 40
0.1494790931191914
 40
0.2974911001276648
 40
0.43372190704806
 40
0.5582000385649448
 40
0.6744773661246064
 40
0.7859690394832595
 40
0.8939353462389478
 40
1.0
 40
1.0
 40
1.0
 40
1.0
 10
167.5187732413296
 20
142.2865619824449
 30
0.0
 10
167.5113568702929
 20
142.2906588248115
 30
0.0
 10
167.4967905401698
 20
142.2987053421821
 30
0.0
 10
167.4745717518473
 20
142.3191217633392
 30
0.0
 10
167.4572182436853
 20
142.349386072682
 30
0.0
 10
167.4509135057565
 20
142.3913487026668
 30
0.0
 10
167.4550089207698
 20
142.434628990494
 30
0.0
 10
167.46653687012
 20
142.4778145433246
 30
0.0
 10
167.4839597733494
 20
142.5204764040543
 30
0.0
 10
167.5059771815714
 20
142.5625409781423
 30
0.0
 10
167.5244699390738
 20
142.5901641763821
 30
0.0
 10
167.5336341642721
 20
142.6038530602239
 30
0.0
  0
SPLINE
  5
262
330
1F
100
AcDbEntity
  8
0
  6
Continuous
 62
     7
370
    25
100
AcDbSpline
210
0.0
220
0.0
230
1.0
 70
     8
 71
     3
 72
     8
 73
     4
 74
     0
 42
0.000000001
 43
0.00000001
 40
0.0
 40
0.0
 40
0.0
 40
0.0
 40
1.0
 40
1.0
 40
1.0
 40
1.0
 10
167.343948092026
 20
142.3121568589976
 30
0.0
 10
167.4163480621851
 20
142.3121568589976
 30
0.0
 10
167.4707782797738
 20
142.2991766154763
 30
0.0
 10
167.5187732413339
 20
142.2865619824506
 30
0.0
  0
ARC
  5
263
330
1F
100
AcDbEntity
  8
0
  6
Continuous
 62
     7
370
    25
100
AcDbCircle
 10
168.2811725355
 20
163.9368515132
 30
0.0
 40
1.009575600164493
100
AcDbArc
 50
158.1766867623
 51
186.9156984608
  0
SPLINE
  5
264
330
1F
100
AcDbEntity
  8
0
  6
Continuous
 62
     7
370
    25
100
AcDbSpline
210
0.0
220
0.0
230
1.0
 70
     8
 71
     3
 72
     8
 73
     4
 74
     0
 42
0.000000001
 43
0.00000001
 40
0.0
 40
0.0
 40
0.0
 40
0.0
 40
1.0
 40
1.0
 40
1.0
 40
1.0
 10
167.3439480920209
 20
164.3121568589976
 30
0.0
 10
167.4163480621825
 20
164.3121568589966
 30
0.0
 10
167.4707782797728
 20
164.3251371025186
 30
0.0
 10
167.5187732413339
 20
164.3377517355445
 30
0.0
  0
SPLINE
  5
265
330
1F
100
AcDbEntity
  8
0
  6
Continuous
 62
     7
370
    25
100
AcDbSpline
210
0.0
220
0.0
230
1.0
 70
     8
 71
     3
 72
    20
 73
    16
 74
     0
 42
0.000000001
 43
0.00000001
 40
0.0
 40
0.0
 40
0.0
 40
0.0
 40
0.1060317657589072
 40
0.2138409733617611
 40
0.2689060619482261
 40
0.3251014539057803
 40
0.3827863485576709
 40
0.4420118601149838
 40
0.5669442188442908
 40
0.6333957081060815
 40
0.7030323386078302
 40
0.7761748201543358
 40
0.8511692721701356
 40
0.92638940867628
 40
1.0
 40
1.0
 40
1.0
 40
1.0
 10
167.5336341642701
 20
164.0204606577684
 30
0.0
 10
167.524467969613
 20
164.0341510373213
 30
0.0
 10
167.5059819246673
 20
164.0617612923079
 30
0.0
 10
167.4878001266108
 20
164.0965308482315
 30
0.0
 10
167.4754999754292
 20
164.1244850140752
 30
0.0
 10
167.4675412275534
 20
164.1457774661062
 30
0.0
 10
167.4610144788002
 20
164.1672016006179
 30
0.0
 10
167.454356547647
 20
164.1963939987728
 30
0.0
 10
167.4516550654509
 20
164.2251898608779
 30
0.0
 10
167.4539092567762
 20
164.2527890629789
 30
0.0
 10
167.4587853444643
 20
164.2733566875492
 30
0.0
 10
167.4673917437507
 20
164.2928345378311
 30
0.0
 10
167.4802655690282
 20
164.3104628956895
 30
0.0
 10
167.4970351992049
 20
164.3257946826319
 30
0.0
 10
167.5115796581357
 20
164.3337948909354
 30
0.0
 10
167.5187732413291
 20
164.3377517355502
 30
0.0
  0
ARC
  5
266
330
1F
100
AcDbEntity
  8
0
  6
Continuous
 62
     7
370
    25
100
AcDbCircle
 10
147.9693333794
 20
142.6874622048
 30
0.0
 40
1.009575600164492
100
AcDbArc
 50
338.1766867623
 51
6.9156984608
  0
SPLINE
  5
267
330
1F
100
AcDbEntity
  8
0
  6
Continuous
 62
     7
370
    25
100
AcDbSpline
210
0.0
220
0.0
230
1.0
 70
     8
 71
     3
 72
     8
 73
     4
 74
     0
 42
0.000000001
 43
0.00000001
 40
0.0
 40
0.0
 40
0.0
 40
0.0
 40
1.0
 40
1.0
 40
1.0
 40
1.0
 10
148.906557822858
 20
142.3121568589976
 30
0.0
 10
148.8341578526964
 20
142.3121568589986
 30
0.0
 10
148.7797276351062
 20
142.2991766154767
 30
0.0
 10
148.731732673545
 20
142.2865619824506
 30
0.0
  0
SPLINE
  5
268
330
1F
100
AcDbEntity
  8
0
  6
Continuous
 62
     7
370
    25
100
AcDbSpline
210
0.0
220
0.0
230
1.0
 70
     8
 71
     3
 72
    20
 73
    16
 74
     0
 42
0.000000001
 43
0.00000001
 40
0.0
 40
0.0
 40
0.0
 40
0.0
 40
0.1060317657589631
 40
0.2138409733617976
 40
0.268906061948247
 40
0.3251014539057976
 40
0.382786348557697
 40
0.4420118601150135
 40
0.5669442188443142
 40
0.6333957081061092
 40
0.703032338607854
 40
0.7761748201543405
 40
0.8511692721701473
 40
0.9263894086762869
 40
1.0
 40
1.0
 40
1.0
 40
1.0
 10
148.7168717506088
 20
142.6038530602268
 30
0.0
 10
148.7260379452659
 20
142.5901626806739
 30
0.0
 10
148.7445239902117
 20
142.5625524256873
 30
0.0
 10
148.7627057882681
 20
142.5277828697637
 30
0.0
 10
148.7750059394497
 20
142.4998287039199
 30
0.0
 10
148.7829646873256
 20
142.478536251889
 30
0.0
 10
148.7894914360787
 20
142.4571121173773
 30
0.0
 10
148.7961493672319
 20
142.4279197192224
 30
0.0
 10
148.798850849428
 20
142.3991238571172
 30
0.0
 10
148.7965966581027
 20
142.3715246550162
 30
0.0
 10
148.7917205704146
 20
142.3509570304459
 30
0.0
 10
148.7831141711282
 20
142.3314791801641
 30
0.0
 10
148.7702403458508
 20
142.3138508223057
 30
0.0
 10
148.753470715674
 20
142.2985190353633
 30
0.0
 10
148.7389262567432
 20
142.2905188270598
 30
0.0
 10
148.7317326735498
 20
142.286561982445
 30
0.0
  0
LINE
  5
269
330
1F
100
AcDbEntity
  8
0
  6
Continuous
 62
     7
370
    25
100
AcDbLine
 10
148.6482746256
 20
164.3356428921
 30
0.0
 11
148.7317323042
 21
164.3377514064
 31
0.0
  0
LINE
  5
26A
330
1F
100
AcDbEntity
  8
0
  6
Continuous
 62
     7
370
    25
100
AcDbLine
 10
167.5187736107
 20
142.2865623116
 30
0.0
 11
167.6022312892
 21
142.2886708259
 31
0.0
  0
LINE
  5
26B
330
1F
100
AcDbEntity
  8
0
  6
Continuous
 62
     7
370
    25
100
AcDbLine
 10
167.5187736107
 20
164.3377514064
 30
0.0
 11
167.6022312892
 21
164.3356428921
 31
0.0
  0
LINE
  5
26C
330
1F
100
AcDbEntity
  8
0
  6
Continuous
 62
     7
370
    25
100
AcDbLine
 10
148.6482746256
 20
142.2886708259
 30
0.0
 11
148.7317323042
 21
142.2865623116
 31
0.0
  0
SPLINE
  5
26D
330
1F
100
AcDbEntity
  8
0
  6
Continuous
 62
     7
370
    25
100
AcDbSpline
210
0.0
220
0.0
230
1.0
 70
    24
 71
     3
 72
     8
 73
     4
 74
     0
 42
0.000000001
 43
0.00000001
 40
0.0
 40
0.0
 40
0.0
 40
0.0
 40
0.0001175213404591
 40
0.0001175213404591
 40
0.0001175213404591
 40
0.0001175213404591
 10
148.906557822853
 20
164.3121568589976
 30
0.0
 10
148.9453990984596
 20
164.3121568589976
 30
0.0
 10
148.9846556978456
 20
164.3121568589976
 30
0.0
 10
149.0238294779987
 20
164.3121568589976
 30
0.0
  0
LINE
  5
26E
330
1F
100
AcDbEntity
  8
0
  6
Continuous
 62
     7
370
    25
100
AcDbLine
 10
149.0238295225
 20
164.3121567994
 30
0.0
 11
149.0238295225
 21
163.8121567174
 31
0.0
  0
SPLINE
  5
26F
330
1F
100
AcDbEntity
  8
0
  6
Continuous
 62
     7
370
    25
100
AcDbSpline
210
0.0
220
0.0
230
1.0
 70
    24
 71
     3
 72
     8
 73
     4
 74
     0
 42
0.000000001
 43
0.00000001
 40
0.0
 40
0.0
 40
0.0
 40
0.0
 40
0.0001175213404591
 40
0.0001175213404591
 40
0.0001175213404591
 40
0.0001175213404591
 10
167.343948092026
 20
142.3121568589976
 30
0.0
 10
167.3051068164193
 20
142.3121568589976
 30
0.0
 10
167.2658502170333
 20
142.3121568589976
 30
0.0
 10
167.2266764368803
 20
142.3121568589976
 30
0.0
  0
LINE
  5
270
330
1F
100
AcDbEntity
  8
0
  6
Continuous
 62
     7
370
    25
100
AcDbLine
 10
167.2266763924
 20
142.8121570006
 30
0.0
 11
167.2266763924
 21
142.3121569186
 31
0.0
  0
SPLINE
  5
271
330
1F
100
AcDbEntity
  8
0
  6
Continuous
 62
     7
370
    25
100
AcDbSpline
210
0.0
220
0.0
230
1.0
 70
    24
 71
     3
 72
     8
 73
     4
 74
     0
 42
0.000000001
 43
0.00000001
 40
0.0
 40
0.0
 40
0.0
 40
0.0
 40
0.0001175213404538
 40
0.0001175213404538
 40
0.0001175213404538
 40
0.0001175213404538
 10
167.2266764368802
 20
164.3121568589976
 30
0.0
 10
167.2658502170315
 20
164.3121568589976
 30
0.0
 10
167.3051068164157
 20
164.3121568589976
 30
0.0
 10
167.3439480920207
 20
164.3121568589976
 30
0.0
  0
LINE
  5
272
330
1F
100
AcDbEntity
  8
0
  6
Continuous
 62
     7
370
    25
100
AcDbLine
 10
167.2266763924
 20
164.3121567994
 30
0.0
 11
167.2266763924
 21
163.8121567174
 31
0.0
  0
LINE
  5
273
330
1F
100
AcDbEntity
  8
0
  6
Continuous
 62
     7
370
    25
100
AcDbLine
 10
149.0238295225
 20
142.8121570006
 30
0.0
 11
149.0238295225
 21
142.3121569186
 31
0.0
  0
SPLINE
  5
274
330
1F
100
AcDbEntity
  8
0
  6
Continuous
 62
     7
370
    25
100
AcDbSpline
210
0.0
220
0.0
230
1.0
 70
    24
 71
     3
 72
     8
 73
     4
 74
     0
 42
0.000000001
 43
0.00000001
 40
0.0
 40
0.0
 40
0.0
 40
0.0
 40
0.0001175213404538
 40
0.0001175213404538
 40
0.0001175213404538
 40
0.0001175213404538
 10
149.0238294779987
 20
142.3121568589976
 30
0.0
 10
148.9846556978474
 20
142.3121568589976
 30
0.0
 10
148.9453990984632
 20
142.3121568589976
 30
0.0
 10
148.9065578228582
 20
142.3121568589976
 30
0.0
  0
LINE
  5
275
330
1F
100
AcDbEntity
  8
0
  6
Continuous
 62
     7
370
    25
100
AcDbLine
 10
149.0238295225
 20
164.3121567994
 30
0.0
 11
167.2266763924
 21
164.3121567994
 31
0.0
  0
LINE
  5
276
330
1F
100
AcDbEntity
  8
0
  6
Continuous
 62
     7
370
    25
100
AcDbLine
 10
167.2266763924
 20
163.8121567174
 30
0.0
 11
149.0238295225
 21
163.8121567174
 31
0.0
  0
LINE
  5
277
330
1F
100
AcDbEntity
  8
0
  6
Continuous
 62
     7
370
    25
100
AcDbLine
 10
149.0238295225
 20
142.8121570006
 30
0.0
 11
167.2266763924
 21
142.8121570006
 31
0.0
  0
LINE
  5
278
330
1F
100
AcDbEntity
  8
0
  6
Continuous
 62
     7
370
    25
100
AcDbLine
 10
167.2266763924
 20
142.3121569186
 30
0.0
 11
149.0238295225
 21
142.3121569186
 31
0.0
  0
LINE
  5
279
330
1F
100
AcDbEntity
  8
0
  6
Continuous
 62
     7
370
    25
100
AcDbLine
 10
148.3823596788
 20
164.9438710391
 30
0.0
 11
148.625218804
 21
164.7084652885
 31
0.0
  0
SPLINE
  5
27A
330
1F
100
AcDbEntity
  8
0
  6
Continuous
 62
     7
370
    25
100
AcDbSpline
210
0.0
220
0.0
230
1.0
 70
     8
 71
     3
 72
    16
 73
    12
 74
     0
 42
0.000000001
 43
0.00000001
 40
0.0
 40
0.0
 40
0.0
 40
0.0
 40
0.1358424562093261
 40
0.2585567702396716
 40
0.5157338482660032
 40
0.6432966940871808
 40
0.7692102787448635
 40
0.8342664723226236
 40
0.8905766424117051
 40
0.9515952839433239
 40
1.0
 40
1.0
 40
1.0
 40
1.0
 10
148.6252189628836
 20
164.7084653273204
 30
0.0
 10
148.6251805771375
 20
164.695455810522
 30
0.0
 10
148.6251075153361
 20
164.6706940479653
 30
0.0
 10
148.6258380669628
 20
164.6164148897518
 30
0.0
 10
148.6279034892299
 20
164.557707251482
 30
0.0
 10
148.6353432899894
 20
164.4925415862879
 30
0.0
 10
148.6446951083365
 20
164.4492698414304
 30
0.0
 10
148.6580230198554
 20
164.4139277850817
 30
0.0
 10
148.6735393264661
 20
164.3870613426105
 30
0.0
 10
148.6929583658011
 20
164.3617711632098
 30
0.0
 10
148.7198408769022
 20
164.3451183183697
 30
0.0
 10
148.7317326735481
 20
164.3377517355506
 30
0.0
  0
SPLINE
  5
27B
330
1F
100
AcDbEntity
  8
0
  6
Continuous
 62
     7
370
    25
100
AcDbSpline
210
0.0
220
0.0
230
1.0
 70
     8
 71
     3
 72
    18
 73
    14
 74
     0
 42
0.000000001
 43
0.00000001
 40
0.0
 40
0.0
 40
0.0
 40
0.0
 40
0.0228877262673261
 40
0.048750705436772
 40
0.0778154834714485
 40
0.1102364830156528
 40
0.1666044227785899
 40
0.23177420857927
 40
0.3567811110103338
 40
0.4838932701833289
 40
0.7413824458060223
 40
0.864106461387071
 40
1.0
 40
1.0
 40
1.0
 40
1.0
 10
167.5187732413309
 20
164.3377517355507
 30
0.0
 10
167.5249367072564
 20
164.3411981784672
 30
0.0
 10
167.5380648488766
 20
164.3485390790645
 30
0.0
 10
167.5529267525096
 20
164.3604960005451
 30
0.0
 10
167.566229591585
 20
164.3738179088999
 30
0.0
 10
167.5799123462569
 20
164.3915924297997
 30
0.0
 10
167.5925353804101
 20
164.4142897239371
 30
0.0
 10
167.6059264210178
 20
164.4495025029031
 30
0.0
 10
167.6151436979997
 20
164.4926051660856
 30
0.0
 10
167.6226128200173
 20
164.5576477802615
 30
0.0
 10
167.6246646945231
 20
164.6163536775254
 30
0.0
 10
167.6253988550085
 20
164.6706800394417
 30
0.0
 10
167.6253254981775
 20
164.6954497833443
 30
0.0
 10
167.6252869519953
 20
164.7084653273199
 30
0.0
  0
LINE
  5
27C
330
1F
100
AcDbEntity
  8
0
  6
Continuous
 62
     7
370
    25
100
AcDbLine
 10
167.6252871109
 20
164.7084652885
 30
0.0
 11
167.868146236
 21
164.9438710391
 31
0.0
  0
SPLINE
  5
27D
330
1F
100
AcDbEntity
  8
0
  6
Continuous
 62
     7
370
    25
100
AcDbSpline
210
0.0
220
0.0
230
1.0
 70
     8
 71
     3
 72
    18
 73
    14
 74
     0
 42
0.000000001
 43
0.00000001
 40
0.0
 40
0.0
 40
0.0
 40
0.0
 40
0.0228877262659284
 40
0.0487507054349101
 40
0.0778154834700411
 40
0.1102364830155919
 40
0.1666044227654431
 40
0.231774208579201
 40
0.3567811110102737
 40
0.4838932701832798
 40
0.741382445805996
 40
0.8641064613662746
 40
1.0
 40
1.0
 40
1.0
 40
1.0
 10
148.731732673548
 20
142.2865619824445
 30
0.0
 10
148.725569207623
 20
142.2831155395283
 30
0.0
 10
148.7124410660034
 20
142.2757746389313
 30
0.0
 10
148.6975791623708
 20
142.2638177174511
 30
0.0
 10
148.6842763232951
 20
142.2504958090963
 30
0.0
 10
148.6705935686231
 20
142.2327212881972
 30
0.0
 10
148.657970534471
 20
142.2100239940611
 30
0.0
 10
148.6445794938607
 20
142.1748112150932
 30
0.0
 10
148.6353622168795
 20
142.1317085519098
 30
0.0
 10
148.6278930948615
 20
142.0666659377335
 30
0.0
 10
148.625841220356
 20
142.0079600404727
 30
0.0
 10
148.6251070598703
 20
141.9536336785548
 30
0.0
 10
148.6251804167014
 20
141.9288639346526
 30
0.0
 10
148.6252189628836
 20
141.9158483906753
 30
0.0
  0
LINE
  5
27E
330
1F
100
AcDbEntity
  8
0
  6
Continuous
 62
     7
370
    25
100
AcDbLine
 10
148.3823596788
 20
141.6804426789
 30
0.0
 11
148.625218804
 21
141.9158484295
 31
0.0
  0
SPLINE
  5
27F
330
1F
100
AcDbEntity
  8
0
  6
Continuous
 62
     7
370
    25
100
AcDbSpline
210
0.0
220
0.0
230
1.0
 70
     8
 71
     3
 72
    16
 73
    12
 74
     0
 42
0.000000001
 43
0.00000001
 40
0.0
 40
0.0
 40
0.0
 40
0.0
 40
0.1358424561507865
 40
0.2585567702396487
 40
0.5157338482659685
 40
0.6432966940871401
 40
0.769210278744815
 40
0.8342664723165241
 40
0.890576642411649
 40
0.9515952839414612
 40
1.0
 40
1.0
 40
1.0
 40
1.0
 10
167.6252869519953
 20
141.9158483906748
 30
0.0
 10
167.6253253377414
 20
141.9288579074682
 30
0.0
 10
167.6253983995426
 20
141.9536196700259
 30
0.0
 10
167.6246678479165
 20
142.0078988282353
 30
0.0
 10
167.622602425649
 20
142.0666064665134
 30
0.0
 10
167.6151626248895
 20
142.1317721317072
 30
0.0
 10
167.6058108065427
 20
142.1750438765639
 30
0.0
 10
167.5924828950238
 20
142.2103859329127
 30
0.0
 10
167.5769665884134
 20
142.2372523753836
 30
0.0
 10
167.5575475490791
 20
142.2625425547846
 30
0.0
 10
167.5306650379774
 20
142.279195399625
 30
0.0
 10
167.5187732413308
 20
142.2865619824446
 30
0.0
  0
LINE
  5
280
330
1F
100
AcDbEntity
  8
0
  6
Continuous
 62
     7
370
    25
100
AcDbLine
 10
167.6252871109
 20
141.9158484295
 30
0.0
 11
167.868146236
 21
141.6804426789
 31
0.0
  0
ARC
  5
281
330
1F
100
AcDbEntity
  8
0
  6
Continuous
 62
     7
370
    25
100
AcDbCircle
 10
167.2252529574
 20
164.712156859
 30
0.0
 40
0.4000000000000057
100
AcDbArc
 50
270.0
 51
0.0
  0
SPLINE
  5
282
330
1F
100
AcDbEntity
  8
0
  6
Continuous
 62
     7
370
    25
100
AcDbSpline
210
0.0
220
0.0
230
1.0
 70
     8
 71
     3
 72
     8
 73
     4
 74
     0
 42
0.000000001
 43
0.00000001
 40
0.0
 40
0.0
 40
0.0
 40
0.0
 40
1.0
 40
1.0
 40
1.0
 40
1.0
 10
167.6252529574395
 20
164.7121568589976
 30
0.0
 10
167.6252529574395
 20
164.710934749
 30
0.0
 10
167.6252641127456
 20
164.7097042229361
 30
0.0
 10
167.6252869519953
 20
164.7084653273199
 30
0.0
  0
ARC
  5
283
330
1F
100
AcDbEntity
  8
0
  6
Continuous
 62
     7
370
    25
100
AcDbCircle
 10
149.0252529574
 20
164.712156859
 30
0.0
 40
0.4000000000000057
100
AcDbArc
 50
180.0
 51
270.0
  0
SPLINE
  5
284
330
1F
100
AcDbEntity
  8
0
  6
Continuous
 62
     7
370
    25
100
AcDbSpline
210
0.0
220
0.0
230
1.0
 70
     8
 71
     3
 72
     8
 73
     4
 74
     0
 42
0.000000001
 43
0.00000001
 40
0.0
 40
0.0
 40
0.0
 40
0.0
 40
1.0
 40
1.0
 40
1.0
 40
1.0
 10
148.6252189628836
 20
164.7084653273204
 30
0.0
 10
148.6252418007422
 20
164.7097041474742
 30
0.0
 10
148.6252529574394
 20
164.7109346755012
 30
0.0
 10
148.6252529574394
 20
164.7121568589976
 30
0.0
  0
ARC
  5
285
330
1F
100
AcDbEntity
  8
0
  6
Continuous
 62
     7
370
    25
100
AcDbCircle
 10
149.0252529574
 20
141.912156859
 30
0.0
 40
0.4000000000000057
100
AcDbArc
 50
90.0
 51
180.0
  0
SPLINE
  5
286
330
1F
100
AcDbEntity
  8
0
  6
Continuous
 62
     7
370
    25
100
AcDbSpline
210
0.0
220
0.0
230
1.0
 70
     8
 71
     3
 72
     8
 73
     4
 74
     0
 42
0.000000001
 43
0.00000001
 40
0.0
 40
0.0
 40
0.0
 40
0.0
 40
1.0
 40
1.0
 40
1.0
 40
1.0
 10
148.6252529574394
 20
141.9121568589976
 30
0.0
 10
148.6252529574394
 20
141.9133789689951
 30
0.0
 10
148.6252418021334
 20
141.9146094950591
 30
0.0
 10
148.6252189628836
 20
141.9158483906753
 30
0.0
  0
ARC
  5
287
330
1F
100
AcDbEntity
  8
0
  6
Continuous
 62
     7
370
    25
100
AcDbCircle
 10
167.2252529574
 20
141.912156859
 30
0.0
 40
0.4000000000000057
100
AcDbArc
 50
0.0
 51
90.0
  0
SPLINE
  5
288
330
1F
100
AcDbEntity
  8
0
  6
Continuous
 62
     7
370
    25
100
AcDbSpline
210
0.0
220
0.0
230
1.0
 70
     8
 71
     3
 72
     8
 73
     4
 74
     0
 42
0.000000001
 43
0.00000001
 40
0.0
 40
0.0
 40
0.0
 40
0.0
 40
1.0
 40
1.0
 40
1.0
 40
1.0
 10
167.6252869519953
 20
141.9158483906748
 30
0.0
 10
167.6252641141367
 20
141.9146095705209
 30
0.0
 10
167.6252529574395
 20
141.9133790424939
 30
0.0
 10
167.6252529574395
 20
141.9121568589976
 30
0.0
  0
LINE
  5
289
330
1F
100
AcDbEntity
  8
0
  6
Continuous
 62
     7
370
    25
100
AcDbLine
 10
167.6252871109
 20
164.7084652885
 30
0.0
 11
167.6252871109
 21
165.0692978382
 31
0.0
  0
LINE
  5
28A
330
1F
100
AcDbEntity
  8
0
  6
Continuous
 62
     7
370
    25
100
AcDbLine
 10
148.625218804
 20
141.9158484295
 30
0.0
 11
148.625218804
 21
141.5550158798
 31
0.0
  0
LINE
  5
28B
330
1F
100
AcDbEntity
  8
0
  6
Continuous
 62
     7
370
    25
100
AcDbLine
 10
167.6252871109
 20
141.5550158798
 30
0.0
 11
167.6252871109
 21
141.9158484295
 31
0.0
  0
LINE
  5
28C
330
1F
100
AcDbEntity
  8
0
  6
Continuous
 62
     7
370
    25
100
AcDbLine
 10
148.625218804
 20
165.0692978382
 30
0.0
 11
148.625218804
 21
164.7084652885
 31
0.0
  0
LINE
  5
28D
330
1F
100
AcDbEntity
  8
0
  6
Continuous
 62
     7
370
    25
100
AcDbLine
 10
167.625252652
 20
164.7121570512
 30
0.0
 11
167.625252652
 21
165.0621564567
 31
0.0
  0
LINE
  5
28E
330
1F
100
AcDbEntity
  8
0
  6
Continuous
 62
     7
370
    25
100
AcDbLine
 10
148.6252532629
 20
141.9121566668
 30
0.0
 11
148.6252532629
 21
141.5621572613
 31
0.0
  0
LINE
  5
28F
330
1F
100
AcDbEntity
  8
0
  6
Continuous
 62
     7
370
    25
100
AcDbLine
 10
148.6252532629
 20
165.0621564567
 30
0.0
 11
148.6252532629
 21
164.7121570512
 31
0.0
  0
LINE
  5
290
330
1F
100
AcDbEntity
  8
0
  6
Continuous
 62
     7
370
    25
100
AcDbLine
 10
167.625252652
 20
141.5621572613
 30
0.0
 11
167.625252652
 21
141.9121566668
 31
0.0
  0
SPLINE
  5
291
330
1F
100
AcDbEntity
  8
0
  6
Continuous
 62
     7
370
    25
100
AcDbSpline
210
0.0
220
0.0
230
1.0
 70
     8
 71
     3
 72
    15
 73
    11
 74
     0
 42
0.000000001
 43
0.00000001
 40
0.0
 40
0.0
 40
0.0
 40
0.0
 40
0.0081668605760267
 40
0.3321943914269974
 40
0.4756292327356328
 40
0.6866837677483423
 40
0.8457443943147512
 40
0.8967583248932431
 40
0.9909563275165506
 40
1.0
 40
1.0
 40
1.0
 40
1.0
 10
163.2242724587977
 20
154.5621568310579
 30
0.0
 10
163.2247600224535
 20
154.5635943052843
 30
0.0
 10
163.244592112204
 20
154.6220648609361
 30
0.0
 10
163.2728715435672
 20
154.706490920857
 30
0.0
 10
163.3107011864831
 20
154.8210689556747
 30
0.0
 10
163.337284651575
 20
154.9024404330214
 30
0.0
 10
163.3544554772456
 20
154.9554595864176
 30
0.0
 10
163.3622717080862
 20
154.9796611055354
 30
0.0
 10
163.3642667919865
 20
154.9858506173483
 30
0.0
 10
163.3643324962427
 20
154.9860522883471
 30
0.0
 10
163.3643382517457
 20
154.986069954144
 30
0.0
  0
ARC
  5
292
330
1F
100
AcDbEntity
  8
0
  6
Continuous
 62
     7
370
    25
100
AcDbCircle
 10
158.1252529574
 20
153.312156859
 30
0.0
 40
5.250000000000009
100
AcDbArc
 50
13.774146998
 51
166.225853002
  0
SPLINE
  5
293
330
1F
100
AcDbEntity
  8
0
  6
Continuous
 62
     7
370
    25
100
AcDbSpline
210
0.0
220
0.0
230
1.0
 70
     8
 71
     3
 72
    15
 73
    11
 74
     0
 42
0.000000001
 43
0.00000001
 40
0.0
 40
0.0
 40
0.0
 40
0.0
 40
0.0090436724834494
 40
0.1032416751067569
 40
0.1542556056852488
 40
0.3133162322516578
 40
0.5243707672643673
 40
0.6678056085730026
 40
0.9918331394239733
 40
1.0
 40
1.0
 40
1.0
 40
1.0
 10
152.8861676631332
 20
154.986069954144
 30
0.0
 10
152.8861734186362
 20
154.9860522883471
 30
0.0
 10
152.8862391228924
 20
154.9858506173483
 30
0.0
 10
152.8882342067928
 20
154.9796611055354
 30
0.0
 10
152.8960504376333
 20
154.9554595864176
 30
0.0
 10
152.9132212633039
 20
154.9024404330214
 30
0.0
 10
152.9398047283958
 20
154.8210689556747
 30
0.0
 10
152.9776343713117
 20
154.706490920857
 30
0.0
 10
153.0059138026749
 20
154.6220648609361
 30
0.0
 10
153.0257458924254
 20
154.5635943052843
 30
0.0
 10
153.0262334560812
 20
154.5621568310579
 30
0.0
  0
ARC
  5
294
330
1F
100
AcDbEntity
  8
0
  6
Continuous
 62
     7
370
    25
100
AcDbCircle
 10
158.1252529574
 20
153.312156859
 30
0.0
 40
5.50000000000002
100
AcDbArc
 50
17.7189318734
 51
162.2810681266
  0
ARC
  5
295
330
1F
100
AcDbEntity
  8
0
  6
Continuous
 62
     7
370
    25
100
AcDbCircle
 10
152.6480273824
 20
155.062156859
 30
0.0
 40
0.2500000000000126
100
AcDbArc
 50
270.0
 51
342.2810681266
  0
SPLINE
  5
296
330
1F
100
AcDbEntity
  8
0
  6
Continuous
 62
     7
370
    25
100
AcDbSpline
210
0.0
220
0.0
230
1.0
 70
     8
 71
     3
 72
    15
 73
    11
 74
     0
 42
0.000000001
 43
0.00000001
 40
0.0
 40
0.0
 40
0.0
 40
0.0
 40
0.0080845214935147
 40
0.331011280235
 40
0.4750347382601076
 40
0.6874371981409787
 40
0.8468377324488667
 40
0.9001014376254585
 40
0.991046501132562
 40
1.0
 40
1.0
 40
1.0
 40
1.0
 10
153.0262334560812
 20
154.5621568310579
 30
0.0
 10
153.0249536857139
 20
154.5629727822432
 30
0.0
 10
152.9725549843157
 20
154.5963809495233
 30
0.0
 10
152.8971982439764
 20
154.6451927371847
 30
0.0
 10
152.7952799564013
 20
154.7125632169545
 30
0.0
 10
152.722888955429
 20
154.761147490596
 30
0.0
 10
152.6751823592391
 20
154.7935965599301
 30
0.0
 10
152.653648647211
 20
154.8083071561243
 30
0.0
 10
152.6482179804964
 20
154.812025744097
 30
0.0
 10
152.6480432131616
 20
154.812146086261
 30
0.0
 10
152.6480275494814
 20
154.8121568720361
 30
0.0
  0
SPLINE
  5
297
330
1F
100
AcDbEntity
  8
0
  6
Continuous
 62
     7
370
    25
100
AcDbSpline
210
0.0
220
0.0
230
1.0
 70
     8
 71
     3
 72
    15
 73
    11
 74
     0
 42
0.000000001
 43
0.00000001
 40
0.0
 40
0.0
 40
0.0
 40
0.0
 40
0.0090436724834494
 40
0.1032416751067569
 40
0.1542556056852488
 40
0.3133162322516578
 40
0.5243707672643673
 40
0.6678056085730026
 40
0.9918331394239733
 40
1.0
 40
1.0
 40
1.0
 40
1.0
 10
163.3643382517457
 20
151.6382437638512
 30
0.0
 10
163.3643324962427
 20
151.6382614296481
 30
0.0
 10
163.3642667919865
 20
151.6384631006469
 30
0.0
 10
163.3622717080862
 20
151.6446526124598
 30
0.0
 10
163.3544554772456
 20
151.6688541315775
 30
0.0
 10
163.337284651575
 20
151.7218732849738
 30
0.0
 10
163.3107011864831
 20
151.8032447623205
 30
0.0
 10
163.2728715435672
 20
151.9178227971381
 30
0.0
 10
163.244592112204
 20
152.0022488570591
 30
0.0
 10
163.2247600224535
 20
152.0607194127109
 30
0.0
 10
163.2242724587977
 20
152.0621568869373
 30
0.0
  0
SPLINE
  5
298
330
1F
100
AcDbEntity
  8
0
  6
Continuous
 62
     7
370
    25
100
AcDbSpline
210
0.0
220
0.0
230
1.0
 70
     8
 71
     3
 72
    15
 73
    11
 74
     0
 42
0.000000001
 43
0.00000001
 40
0.0
 40
0.0
 40
0.0
 40
0.0
 40
0.0080845214935147
 40
0.331011280235
 40
0.4750347382601076
 40
0.6874371981409787
 40
0.8468377324488667
 40
0.9001014376254585
 40
0.991046501132562
 40
1.0
 40
1.0
 40
1.0
 40
1.0
 10
163.2242724587977
 20
152.0621568869373
 30
0.0
 10
163.225552229165
 20
152.061340935752
 30
0.0
 10
163.2779509305632
 20
152.0279327684719
 30
0.0
 10
163.3533076709025
 20
151.9791209808104
 30
0.0
 10
163.4552259584776
 20
151.9117505010407
 30
0.0
 10
163.5276169594499
 20
151.8631662273991
 30
0.0
 10
163.5753235556398
 20
151.8307171580651
 30
0.0
 10
163.5968572676679
 20
151.8160065618709
 30
0.0
 10
163.6022879343825
 20
151.8122879738982
 30
0.0
 10
163.6024627017173
 20
151.8121676317342
 30
0.0
 10
163.6024783653975
 20
151.8121568459591
 30
0.0
  0
ARC
  5
299
330
1F
100
AcDbEntity
  8
0
  6
Continuous
 62
     7
370
    25
100
AcDbCircle
 10
163.6024785325
 20
151.562156859
 30
0.0
 40
0.25
100
AcDbArc
 50
90.0
 51
162.2810681266
  0
ARC
  5
29A
330
1F
100
AcDbEntity
  8
0
  6
Continuous
 62
     7
370
    25
100
AcDbCircle
 10
163.6024785325
 20
155.062156859
 30
0.0
 40
0.25
100
AcDbArc
 50
197.7189318734
 51
270.0
  0
SPLINE
  5
29B
330
1F
100
AcDbEntity
  8
0
  6
Continuous
 62
     7
370
    25
100
AcDbSpline
210
0.0
220
0.0
230
1.0
 70
     8
 71
     3
 72
    15
 73
    11
 74
     0
 42
0.000000001
 43
0.00000001
 40
0.0
 40
0.0
 40
0.0
 40
0.0
 40
0.0089534988674381
 40
0.0998985623745415
 40
0.1531622675511333
 40
0.3125628018590214
 40
0.5249652617398926
 40
0.6689887197650001
 40
0.9919154785064853
 40
1.0
 40
1.0
 40
1.0
 40
1.0
 10
163.6024783653975
 20
154.8121568720361
 30
0.0
 10
163.6024627017173
 20
154.812146086261
 30
0.0
 10
163.6022879343825
 20
154.812025744097
 30
0.0
 10
163.5968572676679
 20
154.8083071561243
 30
0.0
 10
163.5753235556398
 20
154.7935965599301
 30
0.0
 10
163.52761695945
 20
154.761147490596
 30
0.0
 10
163.4552259584776
 20
154.7125632169545
 30
0.0
 10
163.3533076709025
 20
154.6451927371847
 30
0.0
 10
163.2779509305633
 20
154.5963809495233
 30
0.0
 10
163.225552229165
 20
154.5629727822432
 30
0.0
 10
163.2242724587977
 20
154.5621568310579
 30
0.0
  0
SPLINE
  5
29C
330
1F
100
AcDbEntity
  8
0
  6
Continuous
 62
     7
370
    25
100
AcDbSpline
210
0.0
220
0.0
230
1.0
 70
     8
 71
     3
 72
    15
 73
    11
 74
     0
 42
0.000000001
 43
0.00000001
 40
0.0
 40
0.0
 40
0.0
 40
0.0
 40
0.0089534988674381
 40
0.0998985623745415
 40
0.1531622675511333
 40
0.3125628018590214
 40
0.5249652617398926
 40
0.6689887197650001
 40
0.9919154785064853
 40
1.0
 40
1.0
 40
1.0
 40
1.0
 10
152.6480275494814
 20
151.8121568459591
 30
0.0
 10
152.6480432131616
 20
151.8121676317342
 30
0.0
 10
152.6482179804964
 20
151.8122879738982
 30
0.0
 10
152.653648647211
 20
151.8160065618709
 30
0.0
 10
152.6751823592391
 20
151.8307171580651
 30
0.0
 10
152.722888955429
 20
151.8631662273991
 30
0.0
 10
152.7952799564013
 20
151.9117505010407
 30
0.0
 10
152.8971982439765
 20
151.9791209808104
 30
0.0
 10
152.9725549843157
 20
152.0279327684719
 30
0.0
 10
153.0249536857139
 20
152.061340935752
 30
0.0
 10
153.0262334560812
 20
152.0621568869373
 30
0.0
  0
SPLINE
  5
29D
330
1F
100
AcDbEntity
  8
0
  6
Continuous
 62
     7
370
    25
100
AcDbSpline
210
0.0
220
0.0
230
1.0
 70
     8
 71
     3
 72
    15
 73
    11
 74
     0
 42
0.000000001
 43
0.00000001
 40
0.0
 40
0.0
 40
0.0
 40
0.0
 40
0.0081668605760267
 40
0.3321943914269974
 40
0.4756292327356328
 40
0.6866837677483423
 40
0.8457443943147512
 40
0.8967583248932431
 40
0.9909563275165506
 40
1.0
 40
1.0
 40
1.0
 40
1.0
 10
153.0262334560812
 20
152.0621568869373
 30
0.0
 10
153.0257458924254
 20
152.0607194127109
 30
0.0
 10
153.0059138026749
 20
152.0022488570591
 30
0.0
 10
152.9776343713117
 20
151.9178227971381
 30
0.0
 10
152.9398047283958
 20
151.8032447623205
 30
0.0
 10
152.9132212633039
 20
151.7218732849738
 30
0.0
 10
152.8960504376333
 20
151.6688541315775
 30
0.0
 10
152.8882342067928
 20
151.6446526124598
 30
0.0
 10
152.8862391228924
 20
151.6384631006469
 30
0.0
 10
152.8861734186362
 20
151.6382614296481
 30
0.0
 10
152.8861676631332
 20
151.6382437638512
 30
0.0
  0
ARC
  5
29E
330
1F
100
AcDbEntity
  8
0
  6
Continuous
 62
     7
370
    25
100
AcDbCircle
 10
152.6480273824
 20
151.562156859
 30
0.0
 40
0.2500000000000126
100
AcDbArc
 50
17.7189318734
 51
90.0
  0
ARC
  5
29F
330
1F
100
AcDbEntity
  8
0
  6
Continuous
 62
     7
370
    25
100
AcDbCircle
 10
158.1252529574
 20
153.312156859
 30
0.0
 40
5.500000000000029
100
AcDbArc
 50
197.7189318734
 51
342.2810681266
  0
ARC
  5
2A0
330
1F
100
AcDbEntity
  8
0
  6
Continuous
 62
     7
370
    25
100
AcDbCircle
 10
158.1252529574
 20
153.312156859
 30
0.0
 40
5.250000000000009
100
AcDbArc
 50
193.774146998
 51
346.225853002
  0
LINE
  5
2A1
330
1F
100
AcDbEntity
  8
0
  6
Continuous
 62
     7
370
    25
100
AcDbLine
 10
153.1252530692
 20
152.7121568305
 30
0.0
 11
163.1252528457
 21
152.7121568305
 31
0.0
  0
LINE
  5
2A2
330
1F
100
AcDbEntity
  8
0
  6
Continuous
 62
     7
370
    25
100
AcDbLine
 10
163.1252528457
 20
152.7121568305
 30
0.0
 11
163.1252528457
 21
153.9121568875
 31
0.0
  0
LINE
  5
2A3
330
1F
100
AcDbEntity
  8
0
  6
Continuous
 62
     7
370
    25
100
AcDbLine
 10
163.1252528457
 20
153.9121568875
 30
0.0
 11
153.1252530692
 21
153.9121568875
 31
0.0
  0
LINE
  5
2A4
330
1F
100
AcDbEntity
  8
0
  6
Continuous
 62
     7
370
    25
100
AcDbLine
 10
153.1252530692
 20
153.9121568875
 30
0.0
 11
153.1252530692
 21
152.7121568305
 31
0.0
  0
LINE
  5
2A5
330
1F
100
AcDbEntity
  8
0
  6
Continuous
 62
     7
370
    25
100
AcDbLine
 10
163.8752529686
 20
154.5621568311
 30
0.0
 11
163.2242724588
 21
154.5621568311
 31
0.0
  0
LINE
  5
2A6
330
1F
100
AcDbEntity
  8
0
  6
Continuous
 62
     7
370
    25
100
AcDbLine
 10
163.8752529686
 20
152.0621568869
 30
0.0
 11
163.8752529686
 21
154.5621568311
 31
0.0
  0
LINE
  5
2A7
330
1F
100
AcDbEntity
  8
0
  6
Continuous
 62
     7
370
    25
100
AcDbLine
 10
163.2242724588
 20
152.0621568869
 30
0.0
 11
163.8752529686
 21
152.0621568869
 31
0.0
  0
LINE
  5
2A8
330
1F
100
AcDbEntity
  8
0
  6
Continuous
 62
     7
370
    25
100
AcDbLine
 10
152.3752529463
 20
152.0621568869
 30
0.0
 11
153.0262334561
 21
152.0621568869
 31
0.0
  0
LINE
  5
2A9
330
1F
100
AcDbEntity
  8
0
  6
Continuous
 62
     7
370
    25
100
AcDbLine
 10
152.3752529463
 20
154.5621568311
 30
0.0
 11
152.3752529463
 21
152.0621568869
 31
0.0
  0
LINE
  5
2AA
330
1F
100
AcDbEntity
  8
0
  6
Continuous
 62
     7
370
    25
100
AcDbLine
 10
153.0262334561
 20
154.5621568311
 30
0.0
 11
152.3752529463
 21
154.5621568311
 31
0.0
  0
LINE
  5
2AB
330
1F
100
AcDbEntity
  8
0
  6
Continuous
 62
     7
370
    25
100
AcDbLine
 10
152.3752529463
 20
154.812156872
 30
0.0
 11
152.3752529463
 21
154.5621568311
 31
0.0
  0
LINE
  5
2AC
330
1F
100
AcDbEntity
  8
0
  6
Continuous
 62
     7
370
    25
100
AcDbLine
 10
152.3752529463
 20
154.812156872
 30
0.0
 11
152.6480275495
 21
154.812156872
 31
0.0
  0
LINE
  5
2AD
330
1F
100
AcDbEntity
  8
0
  6
Continuous
 62
     7
370
    25
100
AcDbLine
 10
163.8752529686
 20
154.5621568311
 30
0.0
 11
163.8752529686
 21
154.812156872
 31
0.0
  0
LINE
  5
2AE
330
1F
100
AcDbEntity
  8
0
  6
Continuous
 62
     7
370
    25
100
AcDbLine
 10
163.6024783654
 20
154.812156872
 30
0.0
 11
163.8752529686
 21
154.812156872
 31
0.0
  0
ARC
  5
2AF
330
1F
100
AcDbEntity
  8
0
  6
Continuous
 62
     7
370
    25
100
AcDbCircle
 10
163.8752529574
 20
154.562156859
 30
0.0
 40
0.25
100
AcDbArc
 50
0.0
 51
90.0
  0
LINE
  5
2B0
330
1F
100
AcDbEntity
  8
0
  6
Continuous
 62
     7
370
    25
100
AcDbLine
 10
164.1252530096
 20
154.5621568311
 30
0.0
 11
163.8752529686
 21
154.5621568311
 31
0.0
  0
LINE
  5
2B1
330
1F
100
AcDbEntity
  8
0
  6
Continuous
 62
     7
370
    25
100
AcDbLine
 10
152.3752529463
 20
154.5621568311
 30
0.0
 11
152.1252529053
 21
154.5621568311
 31
0.0
  0
ARC
  5
2B2
330
1F
100
AcDbEntity
  8
0
  6
Continuous
 62
     7
370
    25
100
AcDbCircle
 10
152.3752529574
 20
154.562156859
 30
0.0
 40
0.25
100
AcDbArc
 50
90.0
 51
180.0
  0
LINE
  5
2B3
330
1F
100
AcDbEntity
  8
0
  6
Continuous
 62
     7
370
    25
100
AcDbLine
 10
164.1252530096
 20
154.5621568311
 30
0.0
 11
164.1252530096
 21
152.0621568869
 31
0.0
  0
LINE
  5
2B4
330
1F
100
AcDbEntity
  8
0
  6
Continuous
 62
     7
370
    25
100
AcDbLine
 10
163.8752529686
 20
152.0621568869
 30
0.0
 11
164.1252530096
 21
152.0621568869
 31
0.0
  0
LINE
  5
2B5
330
1F
100
AcDbEntity
  8
0
  6
Continuous
 62
     7
370
    25
100
AcDbLine
 10
152.1252529053
 20
152.0621568869
 30
0.0
 11
152.3752529463
 21
152.0621568869
 31
0.0
  0
LINE
  5
2B6
330
1F
100
AcDbEntity
  8
0
  6
Continuous
 62
     7
370
    25
100
AcDbLine
 10
152.1252529053
 20
152.0621568869
 30
0.0
 11
152.1252529053
 21
154.5621568311
 31
0.0
  0
ARC
  5
2B7
330
1F
100
AcDbEntity
  8
0
  6
Continuous
 62
     7
370
    25
100
AcDbCircle
 10
163.8752529574
 20
152.062156859
 30
0.0
 40
0.25
100
AcDbArc
 50
270.0
 51
0.0
  0
LINE
  5
2B8
330
1F
100
AcDbEntity
  8
0
  6
Continuous
 62
     7
370
    25
100
AcDbLine
 10
163.8752529686
 20
151.812156846
 30
0.0
 11
163.8752529686
 21
152.0621568869
 31
0.0
  0
LINE
  5
2B9
330
1F
100
AcDbEntity
  8
0
  6
Continuous
 62
     7
370
    25
100
AcDbLine
 10
152.6480275495
 20
151.812156846
 30
0.0
 11
152.3752529463
 21
151.812156846
 31
0.0
  0
LINE
  5
2BA
330
1F
100
AcDbEntity
  8
0
  6
Continuous
 62
     7
370
    25
100
AcDbLine
 10
152.3752529463
 20
152.0621568869
 30
0.0
 11
152.3752529463
 21
151.812156846
 31
0.0
  0
ARC
  5
2BB
330
1F
100
AcDbEntity
  8
0
  6
Continuous
 62
     7
370
    25
100
AcDbCircle
 10
152.3752529574
 20
152.062156859
 30
0.0
 40
0.25
100
AcDbArc
 50
180.0
 51
270.0
  0
LINE
  5
2BC
330
1F
100
AcDbEntity
  8
0
  6
Continuous
 62
     7
370
    25
100
AcDbLine
 10
163.8752529686
 20
151.812156846
 30
0.0
 11
163.6024783654
 21
151.812156846
 31
0.0
  0
LINE
  5
2BD
330
1F
100
AcDbEntity
  8
0
  6
Continuous
 62
     7
370
    25
100
AcDbLine
 10
138.1252534045
 20
150.0404576744
 30
0.0
 11
138.1252534045
 21
156.5838560435
 31
0.0
  0
LINE
  5
2BE
330
1F
100
AcDbEntity
  8
0
  6
Continuous
 62
     7
370
    25
100
AcDbLine
 10
135.949816118
 20
149.812156751
 30
0.0
 11
138.1252534045
 21
150.0404576744
 31
0.0
  0
LINE
  5
2BF
330
1F
100
AcDbEntity
  8
0
  6
Continuous
 62
     7
370
    25
100
AcDbLine
 10
118.1252538515
 20
149.812156751
 30
0.0
 11
135.949816118
 21
149.812156751
 31
0.0
  0
LINE
  5
2C0
330
1F
100
AcDbEntity
  8
0
  6
Continuous
 62
     7
370
    25
100
AcDbLine
 10
135.949816118
 20
156.812156967
 30
0.0
 11
118.1252538515
 21
156.812156967
 31
0.0
  0
LINE
  5
2C1
330
1F
100
AcDbEntity
  8
0
  6
Continuous
 62
     7
370
    25
100
AcDbLine
 10
118.1252538515
 20
156.812156967
 30
0.0
 11
118.1252538515
 21
149.812156751
 31
0.0
  0
LINE
  5
2C2
330
1F
100
AcDbEntity
  8
0
  6
Continuous
 62
     7
370
    25
100
AcDbLine
 10
138.1252534045
 20
156.5838560435
 30
0.0
 11
135.949816118
 21
156.812156967
 31
0.0
  0
LINE
  5
2C3
330
1F
100
AcDbEntity
  8
0
  6
Continuous
 62
     7
370
    25
100
AcDbLine
 10
152.9014506666
 20
155.0331713605
 30
0.0
 11
152.7730417726
 21
154.849029679
 31
0.0
  0
LINE
  5
2C4
330
1F
100
AcDbEntity
  8
0
  6
Continuous
 62
     7
370
    25
100
AcDbLine
 10
152.7826092494
 20
151.7669391559
 30
0.0
 11
152.9014506666
 21
151.5911423575
 31
0.0
  0
LINE
  5
2C5
330
1F
100
AcDbEntity
  8
0
  6
Continuous
 62
     7
370
    25
100
AcDbLine
 10
144.7086832775
 20
155.8929595138
 30
0.0
 11
144.7086832775
 21
150.7313542042
 31
0.0
  0
LWPOLYLINE
  5
2C6
330
1F
100
AcDbEntity
  8
0
  6
Continuous
 62
     7
370
    25
100
AcDbPolyline
 90
       14
 70
   128
 43
0.0
 10
152.9014506666
 20
151.5911423575
 10
152.5445203585
 20
151.5536844471
 10
152.128852467
 20
151.510062229
 10
151.6572190737
 20
151.4605667416
 10
151.1327643236
 20
151.4055280221
 10
150.5589867299
 20
151.3453130118
 10
149.9397117002
 20
151.2803232271
 10
149.27906965
 20
151.210992315
 10
148.5814652694
 20
151.1377824444
 10
147.8515505148
 20
151.0611816283
 10
147.0941934092
 20
150.9817011628
 10
146.3144445149
 20
150.8998705048
 10
145.5175024746
 20
150.8162356421
 10
144.7086832775
 20
150.7313542042
  0
LWPOLYLINE
  5
2C7
330
1F
100
AcDbEntity
  8
0
  6
Continuous
 62
     7
370
    25
100
AcDbPolyline
 90
       14
 70
   128
 43
0.0
 10
144.7086832775
 20
155.8929595138
 10
145.5175024746
 20
155.8080780759
 10
146.3144445149
 20
155.7244432132
 10
147.0941934092
 20
155.6426125552
 10
147.8515505148
 20
155.5631320897
 10
148.5814652694
 20
155.4865312736
 10
149.27906965
 20
155.413321403
 10
149.9397117002
 20
155.3439904909
 10
150.5589867299
 20
155.2790007062
 10
151.1327643236
 20
155.2187856959
 10
151.6572190737
 20
155.1637469764
 10
152.128852467
 20
155.114251489
 10
152.5445203585
 20
155.0706292709
 10
152.9014506666
 20
155.0331713605
  0
LWPOLYLINE
  5
2C8
330
1F
100
AcDbEntity
  8
0
  6
Continuous
 62
     7
370
    25
100
AcDbPolyline
 90
       17
 70
   128
 43
0.0
 10
144.7086832775
 20
150.7313542042
 10
144.0840359134
 20
150.6658007364
 10
143.4598365156
 20
150.6002943005
 10
142.8428641809
 20
150.535546194
 10
142.2398197753
 20
150.4722597982
 10
141.6572514279
 20
150.4111224293
 10
141.1014884068
 20
150.3527978874
 10
140.5785638196
 20
150.2979197047
 10
140.0941605968
 20
150.2470841605
 10
139.6535369856
 20
150.2008430633
 10
139.2614781214
 20
150.159698629
 10
138.9222438736
 20
150.1240976594
 10
138.6395185543
 20
150.0944271192
 10
138.4163718028
 20
150.071009013
 10
138.2552269203
 20
150.0540978249
 10
138.1578347934
 20
150.0438767924
 10
138.1252534045
 20
150.0404576744
  0
LWPOLYLINE
  5
2C9
330
1F
100
AcDbEntity
  8
0
  6
Continuous
 62
     7
370
    25
100
AcDbPolyline
 90
       17
 70
   128
 43
0.0
 10
138.1252534045
 20
156.5838560435
 10
138.1578347934
 20
156.5804369255
 10
138.2552269203
 20
156.5702158931
 10
138.4163718028
 20
156.553304705
 10
138.6395185543
 20
156.5298865988
 10
138.9222438736
 20
156.5002160586
 10
139.2614781214
 20
156.464615089
 10
139.6535369856
 20
156.4234706547
 10
140.0941605968
 20
156.3772295575
 10
140.5785638196
 20
156.3263940133
 10
141.1014884068
 20
156.2715158306
 10
141.6572514279
 20
156.2131912887
 10
142.2398197753
 20
156.1520539198
 10
142.8428641809
 20
156.088767524
 10
143.4598365156
 20
156.0240194175
 10
144.0840359134
 20
155.9585129816
 10
144.7086832775
 20
155.8929595138
  0
ARC
  5
2CA
330
1F
100
AcDbEntity
  8
0
  6
Continuous
 62
     7
370
    25
100
AcDbCircle
 10
158.1252529574
 20
153.312156859
 30
0.0
 40
7.45000000000065
100
AcDbArc
 50
233.0863788866
 51
126.9136211134
  0
ARC
  5
2CB
330
1F
100
AcDbEntity
  8
0
  6
Continuous
 62
     7
370
    25
100
AcDbCircle
 10
158.1252529574
 20
153.312156859
 30
0.0
 40
7.207531252870776
100
AcDbArc
 50
195.3041237151
 51
238.9797515565
  0
ARC
  5
2CC
330
1F
100
AcDbEntity
  8
0
  6
Continuous
 62
     7
370
    25
100
AcDbCircle
 10
158.1252529574
 20
153.312156859
 30
0.0
 40
7.207531252872398
100
AcDbArc
 50
121.0202484435
 51
164.6958762849
  0
ARC
  5
2CD
330
1F
100
AcDbEntity
  8
0
  6
Continuous
 62
     7
370
    25
100
AcDbCircle
 10
135.9498160959
 20
221.812156859
 30
0.0
 40
65.0
100
AcDbArc
 50
270.0
 51
286.5000949923
  0
ARC
  5
2CE
330
1F
100
AcDbEntity
  8
0
  6
Continuous
 62
     7
370
    25
100
AcDbCircle
 10
135.9498160959
 20
84.812156859
 30
0.0
 40
65.00000000000001
100
AcDbArc
 50
73.4999050077
 51
90.0
  0
LINE
  5
2CF
330
1F
100
AcDbEntity
  8
0
  6
Continuous
 62
     8
370
    25
100
AcDbLine
 10
135.3752534194
 20
146.9621569357
 30
0.0
 11
135.3752534194
 21
149.812156751
 31
0.0
  0
LINE
  5
2D0
330
1F
100
AcDbEntity
  8
0
  6
Continuous
 62
     8
370
    25
100
AcDbLine
 10
135.3752534194
 20
156.812156967
 30
0.0
 11
135.3752534194
 21
159.6621567823
 31
0.0
  0
LINE
  5
2D1
330
1F
100
AcDbEntity
  8
0
  6
Continuous
 62
     8
370
    25
100
AcDbLine
 10
149.0252525834
 20
162.9725526526
 30
0.0
 11
149.0252525834
 21
158.140868365
 31
0.0
  0
LINE
  5
2D2
330
1F
100
AcDbEntity
  8
0
  6
Continuous
 62
     8
370
    25
100
AcDbLine
 10
149.0252525834
 20
148.483445353
 30
0.0
 11
149.0252525834
 21
143.6517610654
 31
0.0
  0
LINE
  5
2D3
330
1F
100
AcDbEntity
  8
0
  6
Continuous
 62
     7
370
     0
100
AcDbLine
 10
183.9940269265
 20
144.0533807728
 30
0.0
 11
171.3752529574
 21
143.6590440863
 31
0.0
  0
LINE
  5
2D4
330
1F
100
AcDbEntity
  8
0
  6
Continuous
 62
     7
370
     0
100
AcDbLine
 10
183.9940269265
 20
162.5709329452
 30
0.0
 11
171.3752529574
 21
162.9652696317
 31
0.0
  0
LINE
  5
2D5
330
1F
100
AcDbEntity
  8
0
  6
Continuous
 62
     7
370
     0
100
AcDbLine
 10
171.3752529574
 20
163.956531859
 30
0.0
 11
171.3752529574
 21
142.667781859
 31
0.0
  0
ENDSEC
  0
SECTION
  2
OBJECTS
  0
DICTIONARY
  5
C
330
0
100
AcDbDictionary
281
     1
  3
ACAD_GROUP
350
D
  3
ACAD_LAYOUT
350
1A
  3
ACAD_MLINESTYLE
350
17
  3
ACAD_PLOTSETTINGS
350
19
  3
ACAD_PLOTSTYLENAME
350
E
  3
ACAD_SCALELIST
350
47
  0
DICTIONARY
  5
D
102
{ACAD_REACTORS
330
C
102
}
330
C
100
AcDbDictionary
281
     1
  0
DICTIONARY
  5
1A
102
{ACAD_REACTORS
330
C
102
}
330
C
100
AcDbDictionary
281
     1
  3
Layout1
350
1E
  3
Layout2
350
26
  3
Model
350
22
  0
DICTIONARY
  5
17
102
{ACAD_REACTORS
330
C
102
}
330
C
100
AcDbDictionary
281
     1
  3
Standard
350
18
  0
DICTIONARY
  5
19
102
{ACAD_REACTORS
330
C
102
}
330
C
100
AcDbDictionary
281
     1
  0
ACDBDICTIONARYWDFLT
  5
E
102
{ACAD_REACTORS
330
C
102
}
330
C
100
AcDbDictionary
281
     1
  3
Normal
350
F
100
AcDbDictionaryWithDefault
340
F
  0
DICTIONARY
  5
47
102
{ACAD_REACTORS
330
C
102
}
330
C
100
AcDbDictionary
281
     1
  3
A0
350
48
  3
A1
350
49
  3
A2
350
4A
  3
A3
350
4B
  3
A4
350
4C
  3
A5
350
4D
  3
A6
350
4E
  3
A7
350
4F
  3
A8
350
50
  3
A9
350
51
  3
B0
350
52
  3
B1
350
53
  3
B2
350
54
  3
B3
350
55
  3
B4
350
56
  3
B5
350
57
  3
B6
350
58
  3
B7
350
59
  3
B8
350
5A
  3
B9
350
5B
  3
C0
350
5C
  3
C1
350
5D
  3
C2
350
5E
  3
C3
350
5F
  3
C4
350
60
  3
C5
350
61
  3
C6
350
62
  3
C7
350
63
  3
C8
350
64
  3
C9
350
65
  3
D0
350
66
  3
D1
350
67
  3
D2
350
68
  0
LAYOUT
  5
1E
102
{ACAD_REACTORS
330
1A
102
}
330
1A
100
AcDbPlotSettings
  1

  2
none_device
  4

  6

 40
0.0
 41
0.0
 42
0.0
 43
0.0
 44
0.0
 45
0.0
 46
0.0
 47
0.0
 48
0.0
 49
0.0
140
0.0
141
0.0
142
1.0
143
1.0
 70
   688
 72
     1
 73
     0
 74
     5
  7

 75
    16
147
1.0
148
0.0
149
0.0
100
AcDbLayout
  1
Layout1
 70
     1
 71
     1
 10
0.0
 20
0.0
 11
420.0
 21
297.0
 12
0.0
 22
0.0
 32
0.0
 14
1.0000000000E+20
 24
1.0000000000E+20
 34
1.0000000000E+20
 15
-1.0000000000E+20
 25
-1.0000000000E+20
 35
-1.0000000000E+20
146
0.0
 13
0.0
 23
0.0
 33
0.0
 16
1.0
 26
0.0
 36
0.0
 17
0.0
 27
1.0
 37
0.0
 76
     0
330
1B
  0
LAYOUT
  5
26
102
{ACAD_REACTORS
330
1A
102
}
330
1A
100
AcDbPlotSettings
  1

  2
none_device
  4

  6

 40
0.0
 41
0.0
 42
0.0
 43
0.0
 44
0.0
 45
0.0
 46
0.0
 47
0.0
 48
0.0
 49
0.0
140
0.0
141
0.0
142
1.0
143
1.0
 70
   688
 72
     1
 73
     0
 74
     5
  7

 75
    16
147
1.0
148
0.0
149
0.0
100
AcDbLayout
  1
Layout2
 70
     1
 71
     2
 10
0.0
 20
0.0
 11
0.0
 21
0.0
 12
0.0
 22
0.0
 32
0.0
 14
0.0
 24
0.0
 34
0.0
 15
0.0
 25
0.0
 35
0.0
146
0.0
 13
0.0
 23
0.0
 33
0.0
 16
1.0
 26
0.0
 36
0.0
 17
0.0
 27
1.0
 37
0.0
 76
     0
330
23
  0
LAYOUT
  5
22
102
{ACAD_REACTORS
330
1A
102
}
330
1A
100
AcDbPlotSettings
  1

  2
none_device
  4
Letter_(8.50_x_11.00_Inches)
  6

 40
6.35
 41
6.35
 42
6.35000508
 43
6.35000508
 44
215.9
 45
279.4
 46
0.0
 47
0.0
 48
0.0
 49
0.0
140
0.0
141
0.0
142
1.0
143
1.0
 70
  1712
 72
     1
 73
     0
 74
     0
  7

 75
     0
147
1.0
148
0.0
149
0.0
100
AcDbLayout
  1
Model
 70
     1
 71
     0
 10
0.0
 20
0.0
 11
431.8
 21
279.4
 12
0.0
 22
0.0
 32
0.0
 14
0.0
 24
0.0
 34
0.0
 15
431.8
 25
279.4
 35
0.0
146
0.0
 13
0.0
 23
0.0
 33
0.0
 16
1.0
 26
0.0
 36
0.0
 17
0.0
 27
1.0
 37
0.0
 76
     0
330
1F
331
29
  0
MLINESTYLE
  5
18
102
{ACAD_REACTORS
330
17
102
}
330
17
100
AcDbMlineStyle
  2
Standard
 70
     0
  3

 62
   256
 51
90.0
 52
90.0
 71
     2
 49
0.5
 62
   256
  6
BYLAYER
 49
-0.5
 62
   256
  6
BYLAYER
  0
ACDBPLACEHOLDER
  5
F
102
{ACAD_REACTORS
330
E
102
}
330
E
  0
SCALE
  5
48
102
{ACAD_REACTORS
330
47
102
}
330
47
100
AcDbScale
 70
     0
300
1:1
140
1.0
141
1.0
290
     1
  0
SCALE
  5
49
102
{ACAD_REACTORS
330
47
102
}
330
47
100
AcDbScale
 70
     0
300
1:2
140
1.0
141
2.0
290
     0
  0
SCALE
  5
4A
102
{ACAD_REACTORS
330
47
102
}
330
47
100
AcDbScale
 70
     0
300
1:4
140
1.0
141
4.0
290
     0
  0
SCALE
  5
4B
102
{ACAD_REACTORS
330
47
102
}
330
47
100
AcDbScale
 70
     0
300
1:5
140
1.0
141
5.0
290
     0
  0
SCALE
  5
4C
102
{ACAD_REACTORS
330
47
102
}
330
47
100
AcDbScale
 70
     0
300
1:8
140
1.0
141
8.0
290
     0
  0
SCALE
  5
4D
102
{ACAD_REACTORS
330
47
102
}
330
47
100
AcDbScale
 70
     0
300
1:10
140
1.0
141
10.0
290
     0
  0
SCALE
  5
4E
102
{ACAD_REACTORS
330
47
102
}
330
47
100
AcDbScale
 70
     0
300
1:16
140
1.0
141
16.0
290
     0
  0
SCALE
  5
4F
102
{ACAD_REACTORS
330
47
102
}
330
47
100
AcDbScale
 70
     0
300
1:20
140
1.0
141
20.0
290
     0
  0
SCALE
  5
50
102
{ACAD_REACTORS
330
47
102
}
330
47
100
AcDbScale
 70
     0
300
1:30
140
1.0
141
30.0
290
     0
  0
SCALE
  5
51
102
{ACAD_REACTORS
330
47
102
}
330
47
100
AcDbScale
 70
     0
300
1:40
140
1.0
141
40.0
290
     0
  0
SCALE
  5
52
102
{ACAD_REACTORS
330
47
102
}
330
47
100
AcDbScale
 70
     0
300
1:50
140
1.0
141
50.0
290
     0
  0
SCALE
  5
53
102
{ACAD_REACTORS
330
47
102
}
330
47
100
AcDbScale
 70
     0
300
1:100
140
1.0
141
100.0
290
     0
  0
SCALE
  5
54
102
{ACAD_REACTORS
330
47
102
}
330
47
100
AcDbScale
 70
     0
300
2:1
140
2.0
141
1.0
290
     0
  0
SCALE
  5
55
102
{ACAD_REACTORS
330
47
102
}
330
47
100
AcDbScale
 70
     0
300
4:1
140
4.0
141
1.0
290
     0
  0
SCALE
  5
56
102
{ACAD_REACTORS
330
47
102
}
330
47
100
AcDbScale
 70
     0
300
8:1
140
8.0
141
1.0
290
     0
  0
SCALE
  5
57
102
{ACAD_REACTORS
330
47
102
}
330
47
100
AcDbScale
 70
     0
300
10:1
140
10.0
141
1.0
290
     0
  0
SCALE
  5
58
102
{ACAD_REACTORS
330
47
102
}
330
47
100
AcDbScale
 70
     0
300
100:1
140
100.0
141
1.0
290
     0
  0
SCALE
  5
59
102
{ACAD_REACTORS
330
47
102
}
330
47
100
AcDbScale
 70
     0
300
1/128" = 1'-0"
140
0.0078125
141
12.0
290
     0
  0
SCALE
  5
5A
102
{ACAD_REACTORS
330
47
102
}
330
47
100
AcDbScale
 70
     0
300
1/64" = 1'-0"
140
0.015625
141
12.0
290
     0
  0
SCALE
  5
5B
102
{ACAD_REACTORS
330
47
102
}
330
47
100
AcDbScale
 70
     0
300
1/32" = 1'-0"
140
0.03125
141
12.0
290
     0
  0
SCALE
  5
5C
102
{ACAD_REACTORS
330
47
102
}
330
47
100
AcDbScale
 70
     0
300
1/16" = 1'-0"
140
0.0625
141
12.0
290
     0
  0
SCALE
  5
5D
102
{ACAD_REACTORS
330
47
102
}
330
47
100
AcDbScale
 70
     0
300
3/32" = 1'-0"
140
0.09375
141
12.0
290
     0
  0
SCALE
  5
5E
102
{ACAD_REACTORS
330
47
102
}
330
47
100
AcDbScale
 70
     0
300
1/8" = 1'-0"
140
0.125
141
12.0
290
     0
  0
SCALE
  5
5F
102
{ACAD_REACTORS
330
47
102
}
330
47
100
AcDbScale
 70
     0
300
3/16" = 1'-0"
140
0.1875
141
12.0
290
     0
  0
SCALE
  5
60
102
{ACAD_REACTORS
330
47
102
}
330
47
100
AcDbScale
 70
     0
300
1/4" = 1'-0"
140
0.25
141
12.0
290
     0
  0
SCALE
  5
61
102
{ACAD_REACTORS
330
47
102
}
330
47
100
AcDbScale
 70
     0
300
3/8" = 1'-0"
140
0.375
141
12.0
290
     0
  0
SCALE
  5
62
102
{ACAD_REACTORS
330
47
102
}
330
47
100
AcDbScale
 70
     0
300
1/2" = 1'-0"
140
0.5
141
12.0
290
     0
  0
SCALE
  5
63
102
{ACAD_REACTORS
330
47
102
}
330
47
100
AcDbScale
 70
     0
300
3/4" = 1'-0"
140
0.75
141
12.0
290
     0
  0
SCALE
  5
64
102
{ACAD_REACTORS
330
47
102
}
330
47
100
AcDbScale
 70
     0
300
1" = 1'-0"
140
1.0
141
12.0
290
     0
  0
SCALE
  5
65
102
{ACAD_REACTORS
330
47
102
}
330
47
100
AcDbScale
 70
     0
300
1-1/2" = 1'-0"
140
1.5
141
12.0
290
     0
  0
SCALE
  5
66
102
{ACAD_REACTORS
330
47
102
}
330
47
100
AcDbScale
 70
     0
300
3" = 1'-0"
140
3.0
141
12.0
290
     0
  0
SCALE
  5
67
102
{ACAD_REACTORS
330
47
102
}
330
47
100
AcDbScale
 70
     0
300
6" = 1'-0"
140
6.0
141
12.0
290
     0
  0
SCALE
  5
68
102
{ACAD_REACTORS
330
47
102
}
330
47
100
AcDbScale
 70
     0
300
1'-0" = 1'-0"
140
12.0
141
12.0
290
     0
  0
ENDSEC
  0
EOF
