  0
SECTION
  2
HEADER
  9
$ACADVER
  1
AC1015
  9
$ACADMAINTVER
 70
     6
  9
$DWGCODEPAGE
  3
DOS932
  9
$INSBASE
 10
0.0
 20
0.0
 30
0.0
  9
$EXTMIN
 10
0.0
 20
0.0
 30
0.0
  9
$EXTMAX
 10
431.8
 20
279.4
 30
0.0
  9
$LIMMIN
 10
0.0
 20
0.0
  9
$LIMMAX
 10
431.8
 20
279.4
  9
$ORTHOMODE
 70
     0
  9
$REGENMODE
 70
     1
  9
$FILLMODE
 70
     1
  9
$QTEXTMODE
 70
     0
  9
$MIRRTEXT
 70
     1
  9
$LTSCALE
 40
1.0
  9
$ATTMODE
 70
     1
  9
$TEXTSIZE
 40
3.5
  9
$TRACEWID
 40
1.0
  9
$TEXTSTYLE
  7
Standard
  9
$CLAYER
  8
0
  9
$CELTYPE
  6
ByLayer
  9
$CECOLOR
 62
   256
  9
$CELTSCALE
 40
1.0
  9
$DISPSILH
 70
     0
  9
$DIMSCALE
 40
1.0
  9
$DIMASZ
 40
3.302
  9
$DIMEXO
 40
1.0
  9
$DIMDLI
 40
3.75
  9
$DIMRND
 40
0.0
  9
$DIMDLE
 40
0.0
  9
$DIMEXE
 40
1.0
  9
$DIMTP
 40
0.0
  9
$DIMTM
 40
0.0
  9
$DIMTXT
 40
3.5
  9
$DIMCEN
 40
2.5
  9
$DIMTSZ
 40
0.0
  9
$DIMTOL
 70
     0
  9
$DIMLIM
 70
     0
  9
$DIMTIH
 70
     1
  9
$DIMTOH
 70
     1
  9
$DIMSE1
 70
     0
  9
$DIMSE2
 70
     0
  9
$DIMTAD
 70
     1
  9
$DIMZIN
 70
     1
  9
$DIMBLK
  1

  9
$DIMASO
 70
     1
  9
$DIMSHO
 70
     1
  9
$DIMPOST
  1

  9
$DIMAPOST
  1

  9
$DIMALT
 70
     0
  9
$DIMALTD
 70
     3
  9
$DIMALTF
 40
0.0393700787
  9
$DIMLFAC
 40
1.0
  9
$DIMTOFL
 70
     1
  9
$DIMTVP
 40
0.0
  9
$DIMTIX
 70
     0
  9
$DIMSOXD
 70
     0
  9
$DIMSAH
 70
     0
  9
$DIMBLK1
  1

  9
$DIMBLK2
  1

  9
$DIMSTYLE
  2
ISO-25
  9
$DIMCLRD
 70
     0
  9
$DIMCLRE
 70
     0
  9
$DIMCLRT
 70
     0
  9
$DIMTFAC
 40
1.0
  9
$DIMGAP
 40
1.524
  9
$DIMJUST
 70
     0
  9
$DIMSD1
 70
     0
  9
$DIMSD2
 70
     0
  9
$DIMTOLJ
 70
     0
  9
$DIMTZIN
 70
     1
  9
$DIMALTZ
 70
     0
  9
$DIMALTTZ
 70
     0
  9
$DIMUPT
 70
     0
  9
$DIMDEC
 70
     2
  9
$DIMTDEC
 70
     2
  9
$DIMALTU
 70
     2
  9
$DIMALTTD
 70
     3
  9
$DIMTXSTY
  7
Standard
  9
$DIMAUNIT
 70
     0
  9
$DIMADEC
 70
     2
  9
$DIMALTRND
 40
0.0
  9
$DIMAZIN
 70
     0
  9
$DIMDSEP
 70
    44
  9
$DIMATFIT
 70
     3
  9
$DIMFRAC
 70
     0
  9
$DIMLDRBLK
  1

  9
$DIMLUNIT
 70
     2
  9
$DIMLWD
 70
    -2
  9
$DIMLWE
 70
    -2
  9
$DIMTMOVE
 70
     0
  9
$LUNITS
 70
     2
  9
$LUPREC
 70
     2
  9
$SKETCHINC
 40
1.0
  9
$FILLETRAD
 40
10.0
  9
$AUNITS
 70
     0
  9
$AUPREC
 70
     2
  9
$MENU
  1
.
  9
$ELEVATION
 40
0.0
  9
$PELEVATION
 40
0.0
  9
$THICKNESS
 40
0.0
  9
$LIMCHECK
 70
     0
  9
$CHAMFERA
 40
0.0
  9
$CHAMFERB
 40
0.0
  9
$CHAMFERC
 40
0.0
  9
$CHAMFERD
 40
0.0
  9
$SKPOLY
 70
     0
  9
$TDCREATE
 40
2459279.58637941
  9
$TDUCREATE
 40
2459279.21137941
  9
$TDUPDATE
 40
2459279.586380208
  9
$TDUUPDATE
 40
2459279.211380208
  9
$TDINDWG
 40
0.0000000116
  9
$TDUSRTIMER
 40
0.0000000116
  9
$USRTIMER
 70
     1
  9
$ANGBASE
 50
0.0
  9
$ANGDIR
 70
     0
  9
$PDMODE
 70
     0
  9
$PDSIZE
 40
-1.0
  9
$PLINEWID
 40
0.0
  9
$SPLFRAME
 70
     0
  9
$SPLINETYPE
 70
     6
  9
$SPLINESEGS
 70
     8
  9
$HANDSEED
  5
244
  9
$SURFTAB1
 70
     6
  9
$SURFTAB2
 70
     6
  9
$SURFTYPE
 70
     6
  9
$SURFU
 70
     6
  9
$SURFV
 70
     6
  9
$UCSBASE
  2

  9
$UCSNAME
  2

  9
$UCSORG
 10
0.0
 20
0.0
 30
0.0
  9
$UCSXDIR
 10
1.0
 20
0.0
 30
0.0
  9
$UCSYDIR
 10
0.0
 20
1.0
 30
0.0
  9
$UCSORTHOREF
  2

  9
$UCSORTHOVIEW
 70
     0
  9
$UCSORGTOP
 10
0.0
 20
0.0
 30
0.0
  9
$UCSORGBOTTOM
 10
0.0
 20
0.0
 30
0.0
  9
$UCSORGLEFT
 10
0.0
 20
0.0
 30
0.0
  9
$UCSORGRIGHT
 10
0.0
 20
0.0
 30
0.0
  9
$UCSORGFRONT
 10
0.0
 20
0.0
 30
0.0
  9
$UCSORGBACK
 10
0.0
 20
0.0
 30
0.0
  9
$PUCSBASE
  2

  9
$PUCSNAME
  2

  9
$PUCSORG
 10
0.0
 20
0.0
 30
0.0
  9
$PUCSXDIR
 10
1.0
 20
0.0
 30
0.0
  9
$PUCSYDIR
 10
0.0
 20
1.0
 30
0.0
  9
$PUCSORTHOREF
  2

  9
$PUCSORTHOVIEW
 70
     0
  9
$PUCSORGTOP
 10
0.0
 20
0.0
 30
0.0
  9
$PUCSORGBOTTOM
 10
0.0
 20
0.0
 30
0.0
  9
$PUCSORGLEFT
 10
0.0
 20
0.0
 30
0.0
  9
$PUCSORGRIGHT
 10
0.0
 20
0.0
 30
0.0
  9
$PUCSORGFRONT
 10
0.0
 20
0.0
 30
0.0
  9
$PUCSORGBACK
 10
0.0
 20
0.0
 30
0.0
  9
$USERI1
 70
     0
  9
$USERI2
 70
     0
  9
$USERI3
 70
     0
  9
$USERI4
 70
     0
  9
$USERI5
 70
     0
  9
$USERR1
 40
0.0
  9
$USERR2
 40
0.0
  9
$USERR3
 40
0.0
  9
$USERR4
 40
0.0
  9
$USERR5
 40
0.0
  9
$WORLDVIEW
 70
     1
  9
$SHADEDGE
 70
     3
  9
$SHADEDIF
 70
    70
  9
$TILEMODE
 70
     1
  9
$MAXACTVP
 70
    64
  9
$PINSBASE
 10
0.0
 20
0.0
 30
0.0
  9
$PLIMCHECK
 70
     0
  9
$PEXTMIN
 10
1.0000000000E+20
 20
1.0000000000E+20
 30
1.0000000000E+20
  9
$PEXTMAX
 10
-1.0000000000E+20
 20
-1.0000000000E+20
 30
-1.0000000000E+20
  9
$PLIMMIN
 10
0.0
 20
0.0
  9
$PLIMMAX
 10
420.0
 20
297.0
  9
$UNITMODE
 70
     0
  9
$VISRETAIN
 70
     1
  9
$PLINEGEN
 70
     0
  9
$PSLTSCALE
 70
     1
  9
$TREEDEPTH
 70
  3020
  9
$CMLSTYLE
  2
Standard
  9
$CMLJUST
 70
     0
  9
$CMLSCALE
 40
20.0
  9
$PROXYGRAPHICS
 70
     1
  9
$MEASUREMENT
 70
     1
  9
$CELWEIGHT
370
    -1
  9
$ENDCAPS
280
     0
  9
$JOINSTYLE
280
     0
  9
$LWDISPLAY
290
     1
  9
$INSUNITS
 70
     4
  9
$HYPERLINKBASE
  1

  9
$STYLESHEET
  1

  9
$XEDIT
290
     1
  9
$CEPSNTYPE
380
     0
  9
$PSTYLEMODE
290
     1
  9
$FINGERPRINTGUID
  2
{BED14599-AA78-418A-B631-333631453991}
  9
$VERSIONGUID
  2
{FAEB1C32-E019-11D5-929B-00C0DF256EC4}
  9
$EXTNAMES
290
     1
  9
$PSVPSCALE
 40
0.0
  9
$OLESTARTUP
290
     0
  0
ENDSEC
  0
SECTION
  2
CLASSES
  0
CLASS
  1
ACDBDICTIONARYWDFLT
  2
AcDbDictionaryWithDefault
  3
ObjectDBX Classes
 90
        0
280
     0
281
     0
  0
CLASS
  1
VISUALSTYLE
  2
AcDbVisualStyle
  3
ObjectDBX Classes
 90
     4095
280
     0
281
     0
  0
CLASS
  1
MATERIAL
  2
AcDbMaterial
  3
ObjectDBX Classes
 90
     1153
280
     0
281
     0
  0
CLASS
  1
SCALE
  2
AcDbScale
  3
ObjectDBX Classes
 90
     1153
280
     0
281
     0
  0
CLASS
  1
TABLESTYLE
  2
AcDbTableStyle
  3
ObjectDBX Classes
 90
     4095
280
     0
281
     0
  0
CLASS
  1
MLEADERSTYLE
  2
AcDbMLeaderStyle
  3
ACDB_MLEADERSTYLE_CLASS
 90
     4095
280
     0
281
     0
  0
CLASS
  1
SUN
  2
AcDbSun
  3
SCENEOE
 90
     1153
280
     0
281
     0
  0
CLASS
  1
ACDBPLACEHOLDER
  2
AcDbPlaceHolder
  3
ObjectDBX Classes
 90
        0
280
     0
281
     0
  0
CLASS
  1
LAYOUT
  2
AcDbLayout
  3
ObjectDBX Classes
 90
        0
280
     0
281
     0
  0
ENDSEC
  0
SECTION
  2
TABLES
  0
TABLE
  2
VPORT
  5
8
330
0
100
AcDbSymbolTable
 70
     1
  0
VPORT
  5
29
330
8
100
AcDbSymbolTableRecord
100
AcDbViewportTableRecord
  2
*Active
 70
     0
 10
0.0
 20
0.0
 11
1.0
 21
1.0
 12
215.9
 22
139.7
 13
0.0
 23
0.0
 14
10.0
 24
10.0
 15
10.0
 25
10.0
 16
0.0
 26
0.0
 36
1.0
 17
0.0
 27
0.0
 37
0.0
 40
279.4
 41
1.5454545455
 42
50.0
 43
0.0
 44
0.0
 50
0.0
 51
0.0
 71
     0
 72
  2000
 73
     1
 74
     3
 75
     0
 76
     0
 77
     0
 78
     0
281
     0
 65
     1
110
0.0
120
0.0
130
0.0
111
1.0
121
0.0
131
0.0
112
0.0
122
1.0
132
0.0
 79
     0
146
0.0
  0
ENDTAB
  0
TABLE
  2
LTYPE
  5
5
330
0
100
AcDbSymbolTable
 70
     6
  0
LTYPE
  5
14
330
5
100
AcDbSymbolTableRecord
100
AcDbLinetypeTableRecord
  2
ByBlock
 70
     0
  3

 72
    65
 73
     0
 40
0.0
  0
LTYPE
  5
15
330
5
100
AcDbSymbolTableRecord
100
AcDbLinetypeTableRecord
  2
ByLayer
 70
     0
  3

 72
    65
 73
     0
 40
0.0
  0
LTYPE
  5
16
330
5
100
AcDbSymbolTableRecord
100
AcDbLinetypeTableRecord
  2
Continuous
 70
     0
  3
Solid line
 72
    65
 73
     0
 40
0.0
  0
LTYPE
  5
6E
330
5
100
AcDbSymbolTableRecord
100
AcDbLinetypeTableRecord
  2
HIDDEN
 70
     0
  3
Hidden __ __ __ __ __ __ __ __ __ __ __ __ __ __
 72
    65
 73
     2
 40
1.905
 49
1.27
 74
     0
 49
-0.635
 74
     0
  0
LTYPE
  5
6F
330
5
100
AcDbSymbolTableRecord
100
AcDbLinetypeTableRecord
  2
PHANTOM
 70
     0
  3
Phantom ______  __  __  ______  __  __  ______
 72
    65
 73
     6
 40
12.7
 49
6.35
 74
     0
 49
-1.27
 74
     0
 49
1.27
 74
     0
 49
-1.27
 74
     0
 49
1.27
 74
     0
 49
-1.27
 74
     0
  0
LTYPE
  5
70
330
5
100
AcDbSymbolTableRecord
100
AcDbLinetypeTableRecord
  2
CENTER
 70
     0
  3
Center ____ _ ____ _ ____ _ ____ _ ____ _ ____
 72
    65
 73
     4
 40
10.16
 49
6.35
 74
     0
 49
-1.27
 74
     0
 49
1.27
 74
     0
 49
-1.27
 74
     0
  0
LTYPE
  5
71
330
5
100
AcDbSymbolTableRecord
100
AcDbLinetypeTableRecord
  2
CENTERX2
 70
     0
  3
Center (2x) ________  __  ________  __  _____
 72
    65
 73
     4
 40
20.32
 49
12.7
 74
     0
 49
-2.54
 74
     0
 49
2.54
 74
     0
 49
-2.54
 74
     0
  0
LTYPE
  5
72
330
5
100
AcDbSymbolTableRecord
100
AcDbLinetypeTableRecord
  2
DOT2
 70
     0
  3
Dot (.5x) ........................................
 72
    65
 73
     2
 40
0.635
 49
0.0
 74
     0
 49
-0.635
 74
     0
  0
ENDTAB
  0
TABLE
  2
LAYER
  5
2
330
0
100
AcDbSymbolTable
 70
     1
  0
LAYER
  5
10
330
2
100
AcDbSymbolTableRecord
100
AcDbLayerTableRecord
  2
0
 70
     0
 62
     7
  6
Continuous
370
    -3
390
F
  0
ENDTAB
  0
TABLE
  2
STYLE
  5
3
330
0
100
AcDbSymbolTable
 70
     2
  0
STYLE
  5
11
330
3
100
AcDbSymbolTableRecord
100
AcDbTextStyleTableRecord
  2
Standard
 70
     0
 40
0.0
 41
1.0
 50
0.0
 71
     0
 42
3.5
  3
txt
  4
bigfont
  0
STYLE
  5
73
330
3
100
AcDbSymbolTableRecord
100
AcDbTextStyleTableRecord
  2
SLDTEXTSTYLE0
 70
     0
 40
0.0
 41
0.7
 50
0.0
 71
     0
 42
3.5
  3
TXT
  4
bigfont
  0
ENDTAB
  0
TABLE
  2
VIEW
  5
6
330
0
100
AcDbSymbolTable
 70
     0
  0
ENDTAB
  0
TABLE
  2
UCS
  5
7
330
0
100
AcDbSymbolTable
 70
     0
  0
ENDTAB
  0
TABLE
  2
APPID
  5
9
330
0
100
AcDbSymbolTable
 70
     1
  0
APPID
  5
12
330
9
100
AcDbSymbolTableRecord
100
AcDbRegAppTableRecord
  2
ACAD
 70
     0
  0
ENDTAB
  0
TABLE
  2
DIMSTYLE
  5
A
330
0
100
AcDbSymbolTable
 70
     1
100
AcDbDimStyleTable
  0
DIMSTYLE
105
27
330
A
100
AcDbSymbolTableRecord
100
AcDbDimStyleTableRecord
  2
ISO-25
 70
     0
 41
2.5
 42
0.625
 43
3.75
 44
1.25
 73
     0
 74
     0
 77
     1
 78
     8
140
2.5
141
2.5
143
0.0393700787
147
0.625
171
     3
172
     1
178
     0
271
     2
272
     2
274
     3
278
    44
283
     0
284
     8
340
11
  0
ENDTAB
  0
TABLE
  2
BLOCK_RECORD
  5
1
330
0
100
AcDbSymbolTable
 70
     1
  0
BLOCK_RECORD
  5
1F
330
1
100
AcDbSymbolTableRecord
100
AcDbBlockTableRecord
  2
*Model_Space
340
22
  0
BLOCK_RECORD
  5
1B
330
1
100
AcDbSymbolTableRecord
100
AcDbBlockTableRecord
  2
*Paper_Space
340
1E
  0
BLOCK_RECORD
  5
23
330
1
100
AcDbSymbolTableRecord
100
AcDbBlockTableRecord
  2
*Paper_Space0
340
26
  0
ENDTAB
  0
ENDSEC
  0
SECTION
  2
BLOCKS
  0
BLOCK
  5
20
330
1F
100
AcDbEntity
  8
0
100
AcDbBlockBegin
  2
*Model_Space
 70
     0
 10
0.0
 20
0.0
 30
0.0
  3
*Model_Space
  1

  0
ENDBLK
  5
21
330
1F
100
AcDbEntity
  8
0
100
AcDbBlockEnd
  0
BLOCK
  5
1C
330
1B
100
AcDbEntity
 67
     1
  8
0
100
AcDbBlockBegin
  2
*Paper_Space
 70
     0
 10
0.0
 20
0.0
 30
0.0
  3
*Paper_Space
  1

  0
ENDBLK
  5
1D
330
1B
100
AcDbEntity
 67
     1
  8
0
100
AcDbBlockEnd
  0
BLOCK
  5
24
330
23
100
AcDbEntity
  8
0
100
AcDbBlockBegin
  2
*Paper_Space0
 70
     0
 10
0.0
 20
0.0
 30
0.0
  3
*Paper_Space0
  1

  0
ENDBLK
  5
25
330
23
100
AcDbEntity
  8
0
100
AcDbBlockEnd
  0
ENDSEC
  0
SECTION
  2
ENTITIES
  0
MTEXT
  5
74
330
1F
100
AcDbEntity
  8
0
  6
Continuous
 62
     7
370
     0
100
AcDbMText
 10
181.2649053949
 20
126.6899666092
 30
0.0
 40
4.2333333333
 41
0.0
 71
     1
 72
     1
  1
1R-BL1300
  7
SLDTEXTSTYLE0
 73
     1
 44
1.0
  0
LINE
  5
75
330
1F
100
AcDbEntity
  8
0
  6
Continuous
 62
     7
370
    25
100
AcDbLine
 10
167.7826991819
 20
73.7853476112
 30
0.0
 11
168.2826992639
 21
74.2853476932
 31
0.0
  0
LINE
  5
76
330
1F
100
AcDbEntity
  8
0
  6
Continuous
 62
     7
370
    25
100
AcDbLine
 10
168.2826992639
 20
93.2853470823
 30
0.0
 11
167.7826991819
 21
93.7853471642
 31
0.0
  0
LINE
  5
77
330
1F
100
AcDbEntity
  8
0
  6
Continuous
 62
     7
370
    25
100
AcDbLine
 10
167.7826991819
 20
93.7853471642
 30
0.0
 11
166.1646659069
 21
93.7853471642
 31
0.0
  0
LINE
  5
78
330
1F
100
AcDbEntity
  8
0
  6
Continuous
 62
     7
370
    25
100
AcDbLine
 10
166.1646659069
 20
73.7853476112
 30
0.0
 11
167.7826991819
 21
73.7853476112
 31
0.0
  0
ARC
  5
79
330
1F
100
AcDbEntity
  8
0
  6
Continuous
 62
     7
370
    25
100
AcDbCircle
 10
167.2826994874
 20
92.7853473877
 30
0.0
 40
1.5
100
AcDbArc
 50
138.1896851042
 51
180.0
  0
ARC
  5
7A
330
1F
100
AcDbEntity
  8
0
  6
Continuous
 62
     7
370
    25
100
AcDbCircle
 10
167.2826994874
 20
74.7853473877
 30
0.0
 40
1.5
100
AcDbArc
 50
180.0
 51
221.8103148958
  0
ARC
  5
7B
330
1F
100
AcDbEntity
  8
0
  6
Continuous
 62
     7
370
    25
100
AcDbCircle
 10
149.2826994874
 20
74.7853473877
 30
0.0
 40
1.5
100
AcDbArc
 50
318.1896851042
 51
0.0
  0
ARC
  5
7C
330
1F
100
AcDbEntity
  8
0
  6
Continuous
 62
     7
370
    25
100
AcDbCircle
 10
149.2826994874
 20
92.7853473877
 30
0.0
 40
1.5
100
AcDbArc
 50
0.0
 51
41.8103148958
  0
LINE
  5
7D
330
1F
100
AcDbEntity
  8
0
  6
Continuous
 62
     7
370
    25
100
AcDbLine
 10
148.5326992862
 20
73.7853476112
 30
0.0
 11
150.4007330679
 21
73.7853476112
 31
0.0
  0
LINE
  5
7E
330
1F
100
AcDbEntity
  8
0
  6
Continuous
 62
     7
370
    25
100
AcDbLine
 10
150.4007330679
 20
93.7853471642
 30
0.0
 11
148.5326992862
 21
93.7853471642
 31
0.0
  0
LINE
  5
7F
330
1F
100
AcDbEntity
  8
0
  6
Continuous
 62
     7
370
    25
100
AcDbLine
 10
148.5326992862
 20
93.7853471642
 30
0.0
 11
148.2826997109
 21
93.5353475889
 31
0.0
  0
LINE
  5
80
330
1F
100
AcDbEntity
  8
0
  6
Continuous
 62
     7
370
    25
100
AcDbLine
 10
148.2826997109
 20
74.0353471866
 30
0.0
 11
148.5326992862
 21
73.7853476112
 31
0.0
  0
LINE
  5
81
330
1F
100
AcDbEntity
  8
0
  6
Continuous
 62
     7
370
    25
100
AcDbLine
 10
168.2826992639
 20
75.3402847131
 30
0.0
 11
176.2087908156
 21
75.5879755398
 31
0.0
  0
LINE
  5
82
330
1F
100
AcDbEntity
  8
0
  6
Continuous
 62
     7
370
    25
100
AcDbLine
 10
176.2087908156
 20
91.9827192357
 30
0.0
 11
168.2826992639
 21
92.2304100623
 31
0.0
  0
LINE
  5
83
330
1F
100
AcDbEntity
  8
0
  6
Continuous
 62
     7
370
    25
100
AcDbLine
 10
176.2087908156
 20
75.5879755398
 30
0.0
 11
178.2826990403
 21
76.7853471717
 31
0.0
  0
LINE
  5
84
330
1F
100
AcDbEntity
  8
0
  6
Continuous
 62
     7
370
    25
100
AcDbLine
 10
178.2826990403
 20
90.7853476038
 30
0.0
 11
176.2087908156
 21
91.9827192357
 31
0.0
  0
ARC
  5
85
330
1F
100
AcDbEntity
  8
0
  6
Continuous
 62
     7
370
    25
100
AcDbCircle
 10
165.2826994874
 20
92.7853473877
 30
0.0
 40
0.5
100
AcDbArc
 50
270.0
 51
0.0
  0
ARC
  5
86
330
1F
100
AcDbEntity
  8
0
  6
Continuous
 62
     7
370
    25
100
AcDbCircle
 10
151.2826994874
 20
92.7853473877
 30
0.0
 40
0.5
100
AcDbArc
 50
180.0
 51
270.0
  0
ARC
  5
87
330
1F
100
AcDbEntity
  8
0
  6
Continuous
 62
     7
370
    25
100
AcDbCircle
 10
151.2826994874
 20
74.7853473877
 30
0.0
 40
0.5
100
AcDbArc
 50
90.0
 51
180.0
  0
ARC
  5
88
330
1F
100
AcDbEntity
  8
0
  6
Continuous
 62
     7
370
    25
100
AcDbCircle
 10
165.2826994874
 20
74.7853473877
 30
0.0
 40
0.5
100
AcDbArc
 50
0.0
 51
90.0
  0
LINE
  5
89
330
1F
100
AcDbEntity
  8
0
  6
Continuous
 62
     7
370
    25
100
AcDbLine
 10
151.9003784798
 20
92.2853478497
 30
0.0
 11
151.2826992713
 21
92.2853478497
 31
0.0
  0
LINE
  5
8A
330
1F
100
AcDbEntity
  8
0
  6
Continuous
 62
     7
370
    25
100
AcDbLine
 10
165.2826997034
 20
92.2853478497
 30
0.0
 11
164.6826993257
 21
92.2853478497
 31
0.0
  0
LINE
  5
8B
330
1F
100
AcDbEntity
  8
0
  6
Continuous
 62
     7
370
    25
100
AcDbLine
 10
151.2826992713
 20
75.2853469258
 30
0.0
 11
165.2826997034
 21
75.2853469258
 31
0.0
  0
SPLINE
  5
8C
330
1F
100
AcDbEntity
  8
0
  6
Continuous
 62
     7
370
    25
100
AcDbSpline
210
0.0
220
0.0
230
1.0
 70
     8
 71
     3
 72
    13
 73
     9
 74
     0
 42
0.000000001
 43
0.00000001
 40
0.0
 40
0.0
 40
0.0
 40
0.0
 40
0.1666119996278473
 40
0.3332810333364505
 40
0.5159694476909096
 40
0.7023447083309986
 40
0.8787876188413701
 40
1.0
 40
1.0
 40
1.0
 40
1.0
 10
164.6829386756003
 20
92.2878559013571
 30
0.0
 10
164.6390882397588
 20
92.29012017049429
 30
0.0
 10
164.5513723573362
 20
92.29464948386595
 30
0.0
 10
164.4254383138764
 20
92.3498828559864
 30
0.0
 10
164.3136320755662
 20
92.43714037910485
 30
0.0
 10
164.2314307609265
 20
92.55596612997759
 30
0.0
 10
164.187525885848
 20
92.677436916837
 30
0.0
 10
164.1857313286149
 20
92.75561291901515
 30
0.0
 10
164.1850005418241
 20
92.78744806402581
 30
0.0
  0
SPLINE
  5
8D
330
1F
100
AcDbEntity
  8
0
  6
Continuous
 62
     7
370
    25
100
AcDbSpline
210
0.0
220
0.0
230
1.0
 70
     8
 71
     3
 72
    13
 73
     9
 74
     0
 42
0.000000001
 43
0.00000001
 40
0.0
 40
0.0
 40
0.0
 40
0.0
 40
0.1754141285687179
 40
0.3673219870868909
 40
0.5786632035970406
 40
0.7555664517503052
 40
0.9093028040716595
 40
1.0
 40
1.0
 40
1.0
 40
1.0
 10
152.3822983309806
 20
92.77066563123124
 30
0.0
 10
152.3776894658299
 20
92.72668308898004
 30
0.0
 10
152.3680383760394
 20
92.63458244150843
 30
0.0
 10
152.3032724308288
 20
92.50160321525149
 30
0.0
 10
152.2038610745399
 20
92.39231493280721
 30
0.0
 10
152.0854168285029
 20
92.32325435085397
 30
0.0
 10
151.9833375356945
 20
92.29070566645214
 30
0.0
 10
151.9219583659873
 20
92.28864004602569
 30
0.0
 10
151.8991835929633
 20
92.28787359648602
 30
0.0
  0
LINE
  5
8E
330
1F
100
AcDbEntity
  8
0
  6
Continuous
 62
     7
370
    25
100
AcDbLine
 10
164.1826997094
 20
92.7853470003
 30
0.0
 11
164.1826997094
 21
94.2853472462
 31
0.0
  0
LINE
  5
8F
330
1F
100
AcDbEntity
  8
0
  6
Continuous
 62
     7
370
    25
100
AcDbLine
 10
152.3826992653
 20
94.2853472462
 30
0.0
 11
152.3826992653
 21
92.7740770658
 31
0.0
  0
LINE
  5
90
330
1F
100
AcDbEntity
  8
0
  6
Continuous
 62
     7
370
    25
100
AcDbLine
 10
165.7326994047
 20
102.2853476261
 30
0.0
 11
163.7826994576
 21
110.2853470748
 31
0.0
  0
LINE
  5
91
330
1F
100
AcDbEntity
  8
0
  6
Continuous
 62
     7
370
    25
100
AcDbLine
 10
165.2826997034
 20
94.2853472462
 30
0.0
 11
165.7326994047
 21
102.2853476261
 31
0.0
  0
LINE
  5
92
330
1F
100
AcDbEntity
  8
0
  6
Continuous
 62
     7
370
    25
100
AcDbLine
 10
151.2120430872
 20
95.5414648434
 30
0.0
 11
151.2826992713
 21
94.2853472462
 31
0.0
  0
LINE
  5
93
330
1F
100
AcDbEntity
  8
0
  6
Continuous
 62
     7
370
    25
100
AcDbLine
 10
152.7826995172
 20
110.2853470748
 30
0.0
 11
152.5294677869
 21
109.2464492922
 31
0.0
  0
LINE
  5
94
330
1F
100
AcDbEntity
  8
0
  6
Continuous
 62
     7
370
    25
100
AcDbLine
 10
145.5326997258
 20
91.7853477677
 30
0.0
 11
145.2826992192
 21
91.5353472611
 31
0.0
  0
LINE
  5
95
330
1F
100
AcDbEntity
  8
0
  6
Continuous
 62
     7
370
    25
100
AcDbLine
 10
145.2826992192
 20
76.0353475144
 30
0.0
 11
145.5326997258
 21
75.7853470077
 31
0.0
  0
LINE
  5
96
330
1F
100
AcDbEntity
  8
0
  6
Continuous
 62
     7
370
    25
100
AcDbLine
 10
148.2826997109
 20
91.7853477677
 30
0.0
 11
145.5326997258
 21
91.7853477677
 31
0.0
  0
LINE
  5
97
330
1F
100
AcDbEntity
  8
0
  6
Continuous
 62
     7
370
    25
100
AcDbLine
 10
145.5326997258
 20
75.7853470077
 30
0.0
 11
148.2826997109
 21
75.7853470077
 31
0.0
  0
LINE
  5
98
330
1F
100
AcDbEntity
  8
0
  6
Continuous
 62
     7
370
    25
100
AcDbLine
 10
132.7826999642
 20
68.785347723
 30
0.0
 11
132.7826999642
 21
72.7853474473
 31
0.0
  0
LINE
  5
99
330
1F
100
AcDbEntity
  8
0
  6
Continuous
 62
     7
370
    25
100
AcDbLine
 10
123.7827003516
 20
72.7853474473
 30
0.0
 11
123.7827003516
 21
68.785347723
 31
0.0
  0
ARC
  5
9A
330
1F
100
AcDbEntity
  8
0
  6
Continuous
 62
     7
370
    25
100
AcDbCircle
 10
139.2826994874
 20
72.7853473877
 30
0.0
 40
6.499999999999986
100
AcDbArc
 50
90.0
 51
180.0
  0
ARC
  5
9B
330
1F
100
AcDbEntity
  8
0
  6
Continuous
 62
     7
370
    25
100
AcDbCircle
 10
139.2826994874
 20
72.7853473877
 30
0.0
 40
15.49999999999997
100
AcDbArc
 50
90.0
 51
180.0
  0
LINE
  5
9C
330
1F
100
AcDbEntity
  8
0
  6
Continuous
 62
     7
370
    25
100
AcDbLine
 10
139.2827000983
 20
79.2853475814
 30
0.0
 11
145.2826992192
 21
79.2853475814
 31
0.0
  0
LINE
  5
9D
330
1F
100
AcDbEntity
  8
0
  6
Continuous
 62
     7
370
    25
100
AcDbLine
 10
145.2826992192
 20
88.285347194
 30
0.0
 11
139.2827000983
 21
88.285347194
 31
0.0
  0
LINE
  5
9E
330
1F
100
AcDbEntity
  8
0
  6
Continuous
 62
     7
370
    25
100
AcDbLine
 10
167.7826991819
 20
73.7853476112
 30
0.0
 11
167.7826991819
 21
93.7853471642
 31
0.0
  0
LINE
  5
9F
330
1F
100
AcDbEntity
  8
0
  6
Continuous
 62
     7
370
    25
100
AcDbLine
 10
168.2826992639
 20
93.2853470823
 30
0.0
 11
168.2826992639
 21
74.2853476932
 31
0.0
  0
LINE
  5
A0
330
1F
100
AcDbEntity
  8
0
  6
Continuous
 62
     7
370
    25
100
AcDbLine
 10
166.1646659069
 20
73.7853476112
 30
0.0
 11
166.1646659069
 21
93.7853471642
 31
0.0
  0
SPLINE
  5
A1
330
1F
100
AcDbEntity
  8
0
  6
Continuous
 62
     7
370
    25
100
AcDbSpline
210
0.0
220
0.0
230
1.0
 70
     8
 71
     3
 72
     8
 73
     4
 74
     0
 42
0.000000001
 43
0.00000001
 40
0.0
 40
0.0
 40
0.0
 40
0.0
 40
1.0
 40
1.0
 40
1.0
 40
1.0
 10
165.8799006120302
 20
78.38565753623178
 30
0.0
 10
165.8120641944541
 20
78.35429459522099
 30
0.0
 10
165.7826994873762
 20
78.32082643457144
 30
0.0
 10
165.7826994873762
 20
78.28534738772765
 30
0.0
  0
SPLINE
  5
A2
330
1F
100
AcDbEntity
  8
0
  6
Continuous
 62
     7
370
    25
100
AcDbSpline
210
0.0
220
0.0
230
1.0
 70
     8
 71
     3
 72
    12
 73
     8
 74
     0
 42
0.000000001
 43
0.00000001
 40
0.0
 40
0.0
 40
0.0
 40
0.0
 40
0.5000000000000001
 40
0.5000000000000001
 40
0.75
 40
0.75
 40
1.0
 40
1.0
 40
1.0
 40
1.0
 10
165.8799006120302
 20
78.38565753623178
 30
0.0
 10
165.94777037204
 20
78.41703589251387
 30
0.0
 10
166.0238049232937
 20
78.55074441301242
 30
0.0
 10
166.0704495216707
 20
78.8287705226782
 30
0.0
 10
166.0748885181933
 20
78.93561670668215
 30
0.0
 10
166.0591579044005
 20
79.16249818073791
 30
0.0
 10
166.0392774744581
 20
79.28266715304252
 30
0.0
 10
166.0117855544783
 20
79.40411679785277
 30
0.0
  0
SPLINE
  5
A3
330
1F
100
AcDbEntity
  8
0
  6
Continuous
 62
     7
370
    25
100
AcDbSpline
210
0.0
220
0.0
230
1.0
 70
     8
 71
     3
 72
    12
 73
     8
 74
     0
 42
0.000000001
 43
0.00000001
 40
0.0
 40
0.0
 40
0.0
 40
0.0
 40
0.5
 40
0.5
 40
0.75
 40
0.75
 40
1.0
 40
1.0
 40
1.0
 40
1.0
 10
165.7826994873762
 20
83.78534738772768
 30
0.0
 10
165.7826994873762
 20
83.05139036557046
 30
0.0
 10
165.778142092377
 20
82.31841192120766
 30
0.0
 10
165.8053257567563
 20
81.22158780826125
 30
0.0
 10
165.8207754276735
 20
80.85644021969081
 30
0.0
 10
165.8836390292053
 20
80.12765220582676
 30
0.0
 10
165.9306689523736
 20
79.76246145042843
 30
0.0
 10
166.0117855544783
 20
79.40411679785277
 30
0.0
  0
LINE
  5
A4
330
1F
100
AcDbEntity
  8
0
  6
Continuous
 62
     7
370
    25
100
AcDbLine
 10
165.784556377
 20
84.2037487983
 30
0.0
 11
165.7826993197
 21
83.7853473877
 31
0.0
  0
SPLINE
  5
A5
330
1F
100
AcDbEntity
  8
0
  6
Continuous
 62
     7
370
    25
100
AcDbSpline
210
0.0
220
0.0
230
1.0
 70
     8
 71
     3
 72
    14
 73
    10
 74
     0
 42
0.000000001
 43
0.00000001
 40
0.0
 40
0.0
 40
0.0
 40
0.0
 40
0.25
 40
0.25
 40
0.5
 40
0.5
 40
0.75
 40
0.75
 40
1.0
 40
1.0
 40
1.0
 40
1.0
 10
166.0117855544783
 20
88.16657797760257
 30
0.0
 10
166.0393065422234
 20
88.2881560335883
 30
0.0
 10
166.0592264640598
 20
88.40868077061342
 30
0.0
 10
166.0748935058778
 20
88.63565702972153
 30
0.0
 10
166.0704016740655
 20
88.7426270072877
 30
0.0
 10
166.039145328782
 20
88.92809255906742
 30
0.0
 10
166.0127727454002
 20
89.00697782018625
 30
0.0
 10
165.9499361942559
 20
89.12761561135935
 30
0.0
 10
165.9138966153958
 20
89.16931980180196
 30
0.0
 10
165.8799006120302
 20
89.18503723922356
 30
0.0
  0
SPLINE
  5
A6
330
1F
100
AcDbEntity
  8
0
  6
Continuous
 62
     7
370
    25
100
AcDbSpline
210
0.0
220
0.0
230
1.0
 70
     8
 71
     3
 72
     8
 73
     4
 74
     0
 42
0.000000001
 43
0.00000001
 40
0.0
 40
0.0
 40
0.0
 40
0.0
 40
1.0
 40
1.0
 40
1.0
 40
1.0
 10
165.7826994873762
 20
89.28534738772767
 30
0.0
 10
165.7826994873762
 20
89.2498683408839
 30
0.0
 10
165.8120641944541
 20
89.21640018023434
 30
0.0
 10
165.8799006120302
 20
89.18503723922356
 30
0.0
  0
LINE
  5
A7
330
1F
100
AcDbEntity
  8
0
  6
Continuous
 62
     7
370
    25
100
AcDbLine
 10
165.7826993197
 20
89.2853473579
 30
0.0
 11
165.7826993197
 21
92.7853470003
 31
0.0
  0
LINE
  5
A8
330
1F
100
AcDbEntity
  8
0
  6
Continuous
 62
     7
370
    25
100
AcDbLine
 10
165.7826993197
 20
74.7853477752
 30
0.0
 11
165.7826993197
 21
78.2853474175
 31
0.0
  0
LINE
  5
A9
330
1F
100
AcDbEntity
  8
0
  6
Continuous
 62
     7
370
    25
100
AcDbLine
 10
150.4007330679
 20
83.7853473877
 30
0.0
 11
150.4007330679
 21
73.7853476112
 31
0.0
  0
LINE
  5
AA
330
1F
100
AcDbEntity
  8
0
  6
Continuous
 62
     7
370
    25
100
AcDbLine
 10
150.4007330679
 20
93.7853471642
 30
0.0
 11
150.4007330679
 21
83.7853473877
 31
0.0
  0
LINE
  5
AB
330
1F
100
AcDbEntity
  8
0
  6
Continuous
 62
     7
370
    25
100
AcDbLine
 10
150.782699655
 20
92.7853470003
 30
0.0
 11
150.782699655
 21
89.2853473579
 31
0.0
  0
SPLINE
  5
AC
330
1F
100
AcDbEntity
  8
0
  6
Continuous
 62
     7
370
    25
100
AcDbSpline
210
0.0
220
0.0
230
1.0
 70
     8
 71
     3
 72
     8
 73
     4
 74
     0
 42
0.000000001
 43
0.00000001
 40
0.0
 40
0.0
 40
0.0
 40
0.0
 40
1.0
 40
1.0
 40
1.0
 40
1.0
 10
150.6854983627223
 20
89.18503723922356
 30
0.0
 10
150.7533347802984
 20
89.21640018023434
 30
0.0
 10
150.7826994873762
 20
89.2498683408839
 30
0.0
 10
150.7826994873762
 20
89.28534738772767
 30
0.0
  0
SPLINE
  5
AD
330
1F
100
AcDbEntity
  8
0
  6
Continuous
 62
     7
370
    25
100
AcDbSpline
210
0.0
220
0.0
230
1.0
 70
     8
 71
     3
 72
    12
 73
     8
 74
     0
 42
0.000000001
 43
0.00000001
 40
0.0
 40
0.0
 40
0.0
 40
0.0
 40
0.4999999999999992
 40
0.4999999999999992
 40
0.7499999999999996
 40
0.7499999999999996
 40
1.0
 40
1.0
 40
1.0
 40
1.0
 10
150.6854983627223
 20
89.18503723922356
 30
0.0
 10
150.6176286027125
 20
89.15365888294147
 30
0.0
 10
150.5415940514588
 20
89.01995036244293
 30
0.0
 10
150.4949494530818
 20
88.74192425277714
 30
0.0
 10
150.4905104565592
 20
88.63507806877317
 30
0.0
 10
150.506241070352
 20
88.40819659471744
 30
0.0
 10
150.5261215002944
 20
88.28802762241283
 30
0.0
 10
150.5536134202742
 20
88.16657797760257
 30
0.0
  0
SPLINE
  5
AE
330
1F
100
AcDbEntity
  8
0
  6
Continuous
 62
     7
370
    25
100
AcDbSpline
210
0.0
220
0.0
230
1.0
 70
     8
 71
     3
 72
    12
 73
     8
 74
     0
 42
0.000000001
 43
0.00000001
 40
0.0
 40
0.0
 40
0.0
 40
0.0
 40
0.4999999999999998
 40
0.4999999999999998
 40
0.7499999999999999
 40
0.7499999999999999
 40
1.0
 40
1.0
 40
1.0
 40
1.0
 10
150.7826994873762
 20
83.78534738772765
 30
0.0
 10
150.7826994873762
 20
84.51930440988487
 30
0.0
 10
150.7872568823755
 20
85.25228285424768
 30
0.0
 10
150.7600732179962
 20
86.3491069671941
 30
0.0
 10
150.744623547079
 20
86.71425455576453
 30
0.0
 10
150.6817599455472
 20
87.44304256962857
 30
0.0
 10
150.6347300223788
 20
87.80823332502689
 30
0.0
 10
150.5536134202742
 20
88.16657797760257
 30
0.0
  0
LINE
  5
AF
330
1F
100
AcDbEntity
  8
0
  6
Continuous
 62
     7
370
    25
100
AcDbLine
 10
150.7808425978
 20
83.3669459772
 30
0.0
 11
150.782699655
 21
83.7853473877
 31
0.0
  0
SPLINE
  5
B0
330
1F
100
AcDbEntity
  8
0
  6
Continuous
 62
     7
370
    25
100
AcDbSpline
210
0.0
220
0.0
230
1.0
 70
     8
 71
     3
 72
    14
 73
    10
 74
     0
 42
0.000000001
 43
0.00000001
 40
0.0
 40
0.0
 40
0.0
 40
0.0
 40
0.25
 40
0.25
 40
0.5
 40
0.5
 40
0.75
 40
0.75
 40
1.0
 40
1.0
 40
1.0
 40
1.0
 10
150.5536134202742
 20
79.40411679785277
 30
0.0
 10
150.5260924325291
 20
79.28253874186706
 30
0.0
 10
150.5061725106927
 20
79.16201400484192
 30
0.0
 10
150.4905054688747
 20
78.93503774573382
 30
0.0
 10
150.494997300687
 20
78.82806776816764
 30
0.0
 10
150.5262536459705
 20
78.64260221638791
 30
0.0
 10
150.5526262293523
 20
78.56371695526907
 30
0.0
 10
150.6154627804966
 20
78.44307916409599
 30
0.0
 10
150.6515023593567
 20
78.40137497365338
 30
0.0
 10
150.6854983627223
 20
78.38565753623176
 30
0.0
  0
SPLINE
  5
B1
330
1F
100
AcDbEntity
  8
0
  6
Continuous
 62
     7
370
    25
100
AcDbSpline
210
0.0
220
0.0
230
1.0
 70
     8
 71
     3
 72
     8
 73
     4
 74
     0
 42
0.000000001
 43
0.00000001
 40
0.0
 40
0.0
 40
0.0
 40
0.0
 40
1.0
 40
1.0
 40
1.0
 40
1.0
 10
150.7826994873762
 20
78.28534738772765
 30
0.0
 10
150.7826994873762
 20
78.32082643457144
 30
0.0
 10
150.7533347802984
 20
78.35429459522099
 30
0.0
 10
150.6854983627223
 20
78.38565753623178
 30
0.0
  0
LINE
  5
B2
330
1F
100
AcDbEntity
  8
0
  6
Continuous
 62
     7
370
    25
100
AcDbLine
 10
150.782699655
 20
78.2853474175
 30
0.0
 11
150.782699655
 21
74.7853477752
 31
0.0
  0
LINE
  5
B3
330
1F
100
AcDbEntity
  8
0
  6
Continuous
 62
     7
370
    25
100
AcDbLine
 10
148.5326992862
 20
83.7853473877
 30
0.0
 11
148.5326992862
 21
73.7853476112
 31
0.0
  0
LINE
  5
B4
330
1F
100
AcDbEntity
  8
0
  6
Continuous
 62
     7
370
    25
100
AcDbLine
 10
148.5326992862
 20
93.7853471642
 30
0.0
 11
148.5326992862
 21
83.7853473877
 31
0.0
  0
LINE
  5
B5
330
1F
100
AcDbEntity
  8
0
  6
Continuous
 62
     7
370
    25
100
AcDbLine
 10
148.2826997109
 20
83.7853473877
 30
0.0
 11
148.2826997109
 21
93.5353475889
 31
0.0
  0
LINE
  5
B6
330
1F
100
AcDbEntity
  8
0
  6
Continuous
 62
     7
370
    25
100
AcDbLine
 10
148.2826997109
 20
74.0353471866
 30
0.0
 11
148.2826997109
 21
83.7853473877
 31
0.0
  0
LWPOLYLINE
  5
B7
330
1F
100
AcDbEntity
  8
0
  6
Continuous
 62
     7
370
    25
100
AcDbPolyline
 90
        9
 70
   128
 43
0.0
 10
166.011785581
 20
79.4041168211
 10
165.9772982404
 20
79.3944482958
 10
165.9357850023
 20
79.3828095576
 10
165.8879955813
 20
79.369411551
 10
165.8347928479
 20
79.3544959543
 10
165.77713653
 20
79.338331454
 10
165.7160683118
 20
79.3212109511
 10
165.6526904136
 20
79.3034422477
 10
165.5881474309
 20
79.2853475814
  0
SPLINE
  5
B8
330
1F
100
AcDbEntity
  8
0
  6
Continuous
 62
     7
370
    25
100
AcDbSpline
210
0.0
220
0.0
230
1.0
 70
     8
 71
     3
 72
    14
 73
    10
 74
     0
 42
0.000000001
 43
0.00000001
 40
0.0
 40
0.0
 40
0.0
 40
0.0
 40
0.2500000000000002
 40
0.2500000000000002
 40
0.5000000000000003
 40
0.5000000000000003
 40
0.7500000000000002
 40
0.7500000000000002
 40
1.0
 40
1.0
 40
1.0
 40
1.0
 10
165.5881475768456
 20
79.28534738772767
 30
0.0
 10
165.4855870590215
 20
79.65116995357351
 30
0.0
 10
165.4222740728706
 20
80.02677786901498
 30
0.0
 10
165.3370564096854
 20
80.77578310828366
 30
0.0
 10
165.3151383150069
 20
81.15126376593267
 30
0.0
 10
165.2893650592272
 20
81.9030789046478
 30
0.0
 10
165.2856015737625
 20
82.27941771916315
 30
0.0
 10
165.2822902256566
 20
83.03229461801173
 30
0.0
 10
165.2826994873762
 20
83.4088306756407
 30
0.0
 10
165.2826994873762
 20
83.78534738772768
 30
0.0
  0
LINE
  5
B9
330
1F
100
AcDbEntity
  8
0
  6
Continuous
 62
     7
370
    25
100
AcDbLine
 10
165.7826993197
 20
83.7853473877
 30
0.0
 11
165.2826997034
 21
83.7853473877
 31
0.0
  0
SPLINE
  5
BA
330
1F
100
AcDbEntity
  8
0
  6
Continuous
 62
     7
370
    25
100
AcDbSpline
210
0.0
220
0.0
230
1.0
 70
     8
 71
     3
 72
    14
 73
    10
 74
     0
 42
0.000000001
 43
0.00000001
 40
0.0
 40
0.0
 40
0.0
 40
0.0
 40
0.2499999999999999
 40
0.2499999999999999
 40
0.4999999999999999
 40
0.4999999999999999
 40
0.7499999999999999
 40
0.7499999999999999
 40
1.0
 40
1.0
 40
1.0
 40
1.0
 10
165.2826994873762
 20
83.78534738772767
 30
0.0
 10
165.2826994873762
 20
84.16186409981464
 30
0.0
 10
165.2822902256566
 20
84.5384001574436
 30
0.0
 10
165.2856015737625
 20
85.29127705629217
 30
0.0
 10
165.2893650592272
 20
85.66761587080752
 30
0.0
 10
165.3151383150069
 20
86.41943100952267
 30
0.0
 10
165.3370564096854
 20
86.79491166717168
 30
0.0
 10
165.4222740728706
 20
87.54391690644037
 30
0.0
 10
165.4855870590215
 20
87.91952482188181
 30
0.0
 10
165.5881475768456
 20
88.28534738772767
 30
0.0
  0
LWPOLYLINE
  5
BB
330
1F
100
AcDbEntity
  8
0
  6
Continuous
 62
     7
370
    25
100
AcDbPolyline
 90
        9
 70
   128
 43
0.0
 10
166.011785581
 20
88.1665779544
 10
165.9772982404
 20
88.1762464797
 10
165.9357850023
 20
88.1878852179
 10
165.8879955813
 20
88.2012832245
 10
165.8347928479
 20
88.2161988212
 10
165.77713653
 20
88.2323633214
 10
165.7160683118
 20
88.2494838243
 10
165.6526904136
 20
88.2672525277
 10
165.5881474309
 20
88.285347194
  0
SPLINE
  5
BC
330
1F
100
AcDbEntity
  8
0
  6
Continuous
 62
     7
370
    25
100
AcDbSpline
210
0.0
220
0.0
230
1.0
 70
     8
 71
     3
 72
    14
 73
    10
 74
     0
 42
0.000000001
 43
0.00000001
 40
0.0
 40
0.0
 40
0.0
 40
0.0
 40
0.2500000000000001
 40
0.2500000000000001
 40
0.5000000000000001
 40
0.5000000000000001
 40
0.7500000000000001
 40
0.7500000000000001
 40
1.0
 40
1.0
 40
1.0
 40
1.0
 10
151.2826994873762
 20
83.78534738772767
 30
0.0
 10
151.2826994873762
 20
83.4088306756407
 30
0.0
 10
151.2831087490959
 20
83.03229461801173
 30
0.0
 10
151.27979740099
 20
82.27941771916313
 30
0.0
 10
151.2760339155253
 20
81.90307890464778
 30
0.0
 10
151.2502606597456
 20
81.15126376593265
 30
0.0
 10
151.2283425650671
 20
80.77578310828365
 30
0.0
 10
151.1431249018819
 20
80.02677786901498
 30
0.0
 10
151.079811915731
 20
79.65116995357351
 30
0.0
 10
150.9772513979069
 20
79.28534738772767
 30
0.0
  0
LWPOLYLINE
  5
BD
330
1F
100
AcDbEntity
  8
0
  6
Continuous
 62
     7
370
    25
100
AcDbPolyline
 90
        9
 70
   128
 43
0.0
 10
150.9772515439
 20
79.2853475814
 10
150.9127085611
 20
79.3034422477
 10
150.849330663
 20
79.3212109511
 10
150.7882624448
 20
79.338331454
 10
150.7306061268
 20
79.3544959543
 10
150.6774033934
 20
79.369411551
 10
150.6296139725
 20
79.3828095576
 10
150.5881007344
 20
79.3944482958
 10
150.5536133938
 20
79.4041168211
  0
LINE
  5
BE
330
1F
100
AcDbEntity
  8
0
  6
Continuous
 62
     7
370
    25
100
AcDbLine
 10
151.2826992713
 20
83.7853473877
 30
0.0
 11
150.782699655
 21
83.7853473877
 31
0.0
  0
SPLINE
  5
BF
330
1F
100
AcDbEntity
  8
0
  6
Continuous
 62
     7
370
    25
100
AcDbSpline
210
0.0
220
0.0
230
1.0
 70
     8
 71
     3
 72
    14
 73
    10
 74
     0
 42
0.000000001
 43
0.00000001
 40
0.0
 40
0.0
 40
0.0
 40
0.0
 40
0.2500000000000001
 40
0.2500000000000001
 40
0.5000000000000001
 40
0.5000000000000001
 40
0.75
 40
0.75
 40
1.0
 40
1.0
 40
1.0
 40
1.0
 10
150.9772513979069
 20
88.28534738772767
 30
0.0
 10
151.079811915731
 20
87.91952482188181
 30
0.0
 10
151.1431249018819
 20
87.54391690644036
 30
0.0
 10
151.2283425650671
 20
86.79491166717166
 30
0.0
 10
151.2502606597456
 20
86.41943100952267
 30
0.0
 10
151.2760339155253
 20
85.66761587080752
 30
0.0
 10
151.27979740099
 20
85.29127705629216
 30
0.0
 10
151.2831087490959
 20
84.53840015744359
 30
0.0
 10
151.2826994873762
 20
84.16186409981464
 30
0.0
 10
151.2826994873762
 20
83.78534738772765
 30
0.0
  0
LWPOLYLINE
  5
C0
330
1F
100
AcDbEntity
  8
0
  6
Continuous
 62
     7
370
    25
100
AcDbPolyline
 90
        9
 70
   128
 43
0.0
 10
150.9772515439
 20
88.285347194
 10
150.9127085611
 20
88.2672525277
 10
150.849330663
 20
88.2494838243
 10
150.7882624448
 20
88.2323633214
 10
150.7306061268
 20
88.2161988212
 10
150.6774033934
 20
88.2012832245
 10
150.6296139725
 20
88.1878852179
 10
150.5881007344
 20
88.1762464797
 10
150.5536133938
 20
88.1665779544
  0
SPLINE
  5
C1
330
1F
100
AcDbEntity
  8
0
  6
Continuous
 62
     7
370
    25
100
AcDbSpline
210
0.0
220
0.0
230
1.0
 70
     8
 71
     3
 72
    14
 73
    10
 74
     0
 42
0.000000001
 43
0.00000001
 40
0.0
 40
0.0
 40
0.0
 40
0.0
 40
0.25
 40
0.25
 40
0.5
 40
0.5
 40
0.75
 40
0.75
 40
1.0
 40
1.0
 40
1.0
 40
1.0
 10
151.1530979878377
 20
78.78534738772765
 30
0.0
 10
151.1146225042161
 20
78.78534738772765
 30
0.0
 10
151.0735335827461
 20
78.7961339587109
 30
0.0
 10
150.9942507353055
 20
78.83906574577604
 30
0.0
 10
150.956967834195
 20
78.87048325408091
 30
0.0
 10
150.9041620748833
 20
78.96179809965713
 30
0.0
 10
150.8921928147896
 20
79.02302858242139
 30
0.0
 10
150.9121946031618
 20
79.15389194307713
 30
0.0
 10
150.9416510587141
 20
79.22185605741471
 30
0.0
 10
150.9772513979069
 20
79.28534738772767
 30
0.0
  0
ARC
  5
C2
330
1F
100
AcDbEntity
  8
0
  6
Continuous
 62
     7
370
    25
100
AcDbCircle
 10
151.1616467316
 20
78.3019776646
 30
0.0
 40
0.483445427338095
100
AcDbArc
 50
91.0132315312
 51
170.0324555796
  0
SPLINE
  5
C3
330
1F
100
AcDbEntity
  8
0
  6
Continuous
 62
     7
370
    25
100
AcDbSpline
210
0.0
220
0.0
230
1.0
 70
     8
 71
     3
 72
    14
 73
    10
 74
     0
 42
0.000000001
 43
0.00000001
 40
0.0
 40
0.0
 40
0.0
 40
0.0
 40
0.25
 40
0.25
 40
0.5
 40
0.5
 40
0.75
 40
0.75
 40
1.0
 40
1.0
 40
1.0
 40
1.0
 10
165.4123009869148
 20
88.78534738772767
 30
0.0
 10
165.4507764705364
 20
88.78534738772767
 30
0.0
 10
165.4918653920064
 20
88.77456081674445
 30
0.0
 10
165.571148239447
 20
88.7316290296793
 30
0.0
 10
165.6084311405574
 20
88.70021152137441
 30
0.0
 10
165.6612368998692
 20
88.6088966757982
 30
0.0
 10
165.6732061599628
 20
88.54766619303395
 30
0.0
 10
165.6532043715907
 20
88.41680283237822
 30
0.0
 10
165.6237479160384
 20
88.34883871804064
 30
0.0
 10
165.5881475768456
 20
88.28534738772767
 30
0.0
  0
ARC
  5
C4
330
1F
100
AcDbEntity
  8
0
  6
Continuous
 62
     7
370
    25
100
AcDbCircle
 10
165.4037522432
 20
89.2687171109
 30
0.0
 40
0.4834454273381065
100
AcDbArc
 50
271.0132315313
 51
350.0324555796
  0
SPLINE
  5
C5
330
1F
100
AcDbEntity
  8
0
  6
Continuous
 62
     7
370
    25
100
AcDbSpline
210
0.0
220
0.0
230
1.0
 70
     8
 71
     3
 72
    16
 73
    12
 74
     0
 42
0.000000001
 43
0.00000001
 40
0.0
 40
0.0
 40
0.0
 40
0.0
 40
0.2500000000000049
 40
0.2500000000000049
 40
0.3750000000000051
 40
0.3750000000000051
 40
0.5000000000000052
 40
0.5000000000000052
 40
0.7500000000000026
 40
0.7500000000000026
 40
1.0
 40
1.0
 40
1.0
 40
1.0
 10
150.9772513979069
 20
88.28534738772767
 30
0.0
 10
150.9416974684582
 20
88.34875594870587
 30
0.0
 10
150.9124253272295
 20
88.41602324902668
 30
0.0
 10
150.8972127770086
 20
88.51446256016902
 30
0.0
 10
150.8971521088351
 20
88.54693796652431
 30
0.0
 10
150.9073626933124
 20
88.60556317365051
 30
0.0
 10
150.9171460228376
 20
88.63118598520349
 30
0.0
 10
150.9563105713696
 20
88.69939482889893
 30
0.0
 10
150.9941836446429
 20
88.73155758406472
 30
0.0
 10
151.0732566176345
 20
88.77444580318061
 30
0.0
 10
151.1146437502253
 20
88.78534738772767
 30
0.0
 10
151.1530979878377
 20
88.78534738772767
 30
0.0
  0
ARC
  5
C6
330
1F
100
AcDbEntity
  8
0
  6
Continuous
 62
     7
370
    25
100
AcDbCircle
 10
151.1616467316
 20
89.2687171109
 30
0.0
 40
0.483445427338095
100
AcDbArc
 50
189.9675444204
 51
268.9867684688
  0
ARC
  5
C7
330
1F
100
AcDbEntity
  8
0
  6
Continuous
 62
     7
370
    25
100
AcDbCircle
 10
165.4037522432
 20
78.3019776646
 30
0.0
 40
0.4834454273381065
100
AcDbArc
 50
9.9675444204
 51
88.9867684687
  0
SPLINE
  5
C8
330
1F
100
AcDbEntity
  8
0
  6
Continuous
 62
     7
370
    25
100
AcDbSpline
210
0.0
220
0.0
230
1.0
 70
     8
 71
     3
 72
    16
 73
    12
 74
     0
 42
0.000000001
 43
0.00000001
 40
0.0
 40
0.0
 40
0.0
 40
0.0
 40
0.2499999999999999
 40
0.2499999999999999
 40
0.3750000000000003
 40
0.3750000000000003
 40
0.5000000000000007
 40
0.5000000000000007
 40
0.7500000000000003
 40
0.7500000000000003
 40
1.0
 40
1.0
 40
1.0
 40
1.0
 10
165.5881475768456
 20
79.28534738772767
 30
0.0
 10
165.6237015062943
 20
79.22193882674947
 30
0.0
 10
165.652973647523
 20
79.15467152642866
 30
0.0
 10
165.6681861977438
 20
79.05623221528631
 30
0.0
 10
165.6682468659174
 20
79.02375680893104
 30
0.0
 10
165.6580362814401
 20
78.96513160180483
 30
0.0
 10
165.6482529519148
 20
78.93950879025184
 30
0.0
 10
165.6090884033829
 20
78.87129994655639
 30
0.0
 10
165.5712153301096
 20
78.83913719139062
 30
0.0
 10
165.492142357118
 20
78.79624897227474
 30
0.0
 10
165.4507552245272
 20
78.78534738772765
 30
0.0
 10
165.4123009869148
 20
78.78534738772765
 30
0.0
  0
LINE
  5
C9
330
1F
100
AcDbEntity
  8
0
  6
Continuous
 62
     7
370
    25
100
AcDbLine
 10
165.4123011559
 20
78.7853474995
 30
0.0
 11
151.1530978188
 21
78.7853474995
 31
0.0
  0
LINE
  5
CA
330
1F
100
AcDbEntity
  8
0
  6
Continuous
 62
     7
370
    25
100
AcDbLine
 10
150.9772515439
 20
79.2853475814
 30
0.0
 11
165.5881474309
 21
79.2853475814
 31
0.0
  0
ARC
  5
CB
330
1F
100
AcDbEntity
  8
0
  6
Continuous
 62
     7
370
    25
100
AcDbCircle
 10
159.4723498962
 20
82.9803012472
 30
0.0
 40
0.7111999999997725
100
AcDbArc
 50
45.0
 51
315.0
  0
ARC
  5
CC
330
1F
100
AcDbEntity
  8
0
  6
Continuous
 62
     7
370
    25
100
AcDbCircle
 10
159.4723498962
 20
82.9803012472
 30
0.0
 40
1.239109388553836
100
AcDbArc
 50
45.0
 51
315.0
  0
LINE
  5
CD
330
1F
100
AcDbEntity
  8
0
  6
Continuous
 62
     7
370
    25
100
AcDbLine
 10
160.3485324469
 20
82.1041186373
 30
0.0
 11
159.9752442727
 21
82.4774069279
 31
0.0
  0
ARC
  5
CE
330
1F
100
AcDbEntity
  8
0
  6
Continuous
 62
     7
370
    25
100
AcDbCircle
 10
162.1460655732
 20
82.9803012472
 30
0.0
 40
0.7112000000000946
100
AcDbArc
 50
200.9248324276
 51
315.0
  0
LINE
  5
CF
330
1F
100
AcDbEntity
  8
0
  6
Continuous
 62
     7
370
    25
100
AcDbLine
 10
162.648959975
 20
83.4831955818
 30
0.0
 11
163.0222480327
 21
83.8564839015
 31
0.0
  0
LINE
  5
D0
330
1F
100
AcDbEntity
  8
0
  6
Continuous
 62
     7
370
    25
100
AcDbLine
 10
163.0222480327
 20
82.1041186373
 30
0.0
 11
162.648959975
 21
82.4774069279
 31
0.0
  0
ELLIPSE
  5
D1
330
1F
100
AcDbEntity
  8
0
  6
Continuous
 62
     7
370
    25
100
AcDbEllipse
 10
155.2316953497
 20
80.1388205037
 30
0.0
 11
2.293035763987604
 21
-1.065814103640150E-12
 31
0.0
210
0.0
220
0.0
230
1.0
 40
0.9533039403
 41
0.8210019969645902
 42
2.320590656625122
  0
ELLIPSE
  5
D2
330
1F
100
AcDbEntity
  8
0
  6
Continuous
 62
     7
370
    25
100
AcDbEllipse
 10
156.8406053463
 20
81.7858994002
 30
0.0
 11
0.06784129479237322
 21
0.0
 31
0.0
210
0.0
220
0.0
230
1.0
 40
0.9533039403
 41
3.962594650555296
 42
5.819537698174843
  0
LINE
  5
D3
330
1F
100
AcDbEntity
  8
0
  6
Continuous
 62
     7
370
    25
100
AcDbLine
 10
156.9012844285
 20
81.756976646
 30
0.0
 11
157.5382993489
 21
82.9715142409
 31
0.0
  0
LINE
  5
D4
330
1F
100
AcDbEntity
  8
0
  6
Continuous
 62
     7
370
    25
100
AcDbLine
 10
157.5382993489
 20
82.9715142409
 30
0.0
 11
157.5049791301
 21
82.9524703241
 31
0.0
  0
LINE
  5
D5
330
1F
100
AcDbEntity
  8
0
  6
Continuous
 62
     7
370
    25
100
AcDbLine
 10
156.7122047583
 20
83.2292689975
 30
0.0
 11
155.7044810198
 21
86.047225379
 31
0.0
  0
LINE
  5
D6
330
1F
100
AcDbEntity
  8
0
  6
Continuous
 62
     7
370
    25
100
AcDbLine
 10
154.7589096755
 20
86.047225379
 30
0.0
 11
153.7514207468
 21
83.2299256963
 31
0.0
  0
ELLIPSE
  5
D7
330
1F
100
AcDbEntity
  8
0
  6
Continuous
 62
     7
370
    25
100
AcDbEllipse
 10
153.2377209624
 20
83.3968729895
 30
0.0
 11
-0.5427303583406626
 21
3.552713678800501E-13
 31
0.0
210
0.0
220
0.0
230
1.0
 40
0.9533039403
 41
1.047197551196535
 42
2.813039483039265
  0
LINE
  5
D8
330
1F
100
AcDbEntity
  8
0
  6
Continuous
 62
     7
370
    25
100
AcDbLine
 10
152.9250912883
 20
82.9715142409
 30
0.0
 11
153.5621061504
 21
81.756976646
 31
0.0
  0
ELLIPSE
  5
D9
330
1F
100
AcDbEntity
  8
0
  6
Continuous
 62
     7
370
    25
100
AcDbEllipse
 10
153.6227853531
 20
81.7858994002
 30
0.0
 11
0.06784129479237322
 21
0.0
 31
0.0
210
0.0
220
0.0
230
1.0
 40
0.9533039403
 41
3.605240262580905
 42
5.462183310226712
  0
LINE
  5
DA
330
1F
100
AcDbEntity
  8
0
  6
Continuous
 62
     7
370
    25
100
AcDbLine
 10
165.5881474309
 20
88.285347194
 30
0.0
 11
150.9772515439
 21
88.285347194
 31
0.0
  0
ARC
  5
DB
330
1F
100
AcDbEntity
  8
0
  6
Continuous
 62
     7
370
    25
100
AcDbCircle
 10
162.1460655732
 20
82.9803012472
 30
0.0
 40
0.7112000000000438
100
AcDbArc
 50
45.0
 51
159.0751675723
  0
LINE
  5
DC
330
1F
100
AcDbEntity
  8
0
  6
Continuous
 62
     7
370
    25
100
AcDbLine
 10
163.0222480327
 20
83.2343012244
 30
0.0
 11
161.4817694809
 21
83.2343012244
 31
0.0
  0
LINE
  5
DD
330
1F
100
AcDbEntity
  8
0
  6
Continuous
 62
     7
370
    25
100
AcDbLine
 10
152.9663558632
 20
82.9488027176
 30
0.0
 11
152.9250912883
 21
82.9715142409
 31
0.0
  0
LINE
  5
DE
330
1F
100
AcDbEntity
  8
0
  6
Continuous
 62
     7
370
    25
100
AcDbLine
 10
161.4817694809
 20
82.7263012562
 30
0.0
 11
163.0222480327
 21
82.7263012562
 31
0.0
  0
LINE
  5
DF
330
1F
100
AcDbEntity
  8
0
  6
Continuous
 62
     7
370
    25
100
AcDbLine
 10
159.9752442727
 20
83.4831955818
 30
0.0
 11
160.3485324469
 21
83.8564839015
 31
0.0
  0
ARC
  5
E0
330
1F
100
AcDbEntity
  8
0
  6
Continuous
 62
     7
370
    25
100
AcDbCircle
 10
162.1460655732
 20
82.9803012472
 30
0.0
 40
1.239109388553867
100
AcDbArc
 50
45.0
 51
315.0
  0
ELLIPSE
  5
E1
330
1F
100
AcDbEntity
  8
0
  6
Continuous
 62
     7
370
    25
100
AcDbEllipse
 10
157.2259045736
 20
83.3962163024
 30
0.0
 11
0.5427303583402932
 21
3.410605131648481E-13
 31
0.0
210
0.0
220
0.0
230
1.0
 40
0.9533039404
 41
3.470145824142471
 42
5.252469180527946
  0
LINE
  5
E2
330
1F
100
AcDbEntity
  8
0
  6
Continuous
 62
     7
370
    25
100
AcDbLine
 10
163.0222480327
 20
82.7263012562
 30
0.0
 11
163.0222480327
 21
83.2343012244
 31
0.0
  0
ELLIPSE
  5
E3
330
1F
100
AcDbEntity
  8
0
  6
Continuous
 62
     7
370
    25
100
AcDbEllipse
 10
155.2316953497
 20
85.8373531389
 30
0.0
 11
0.5215299537176463
 21
0.0
 31
0.0
210
0.0
220
0.0
230
1.0
 40
0.9533039403
 41
0.4357918987553248
 42
2.705800754834494
  0
ELLIPSE
  5
E4
330
1F
100
AcDbEntity
  8
0
  6
Continuous
 62
     7
370
    25
100
AcDbEllipse
 10
154.9887560064
 20
83.2948811376
 30
0.0
 11
0.06784129479237322
 21
0.0
 31
0.0
210
0.0
220
0.0
230
1.0
 40
0.9533039403
 41
2.798568711307185
 42
4.712388980384703
  0
ELLIPSE
  5
E5
330
1F
100
AcDbEntity
  8
0
  6
Continuous
 62
     7
370
    25
100
AcDbEllipse
 10
155.2316953513
 20
83.9433472312
 30
0.0
 11
0.06784129479271428
 21
0.0
 31
0.0
210
0.0
220
0.0
230
1.0
 40
0.9533039403
 41
0.3430239385580228
 42
2.798568711309151
  0
LINE
  5
E6
330
1F
100
AcDbEntity
  8
0
  6
Continuous
 62
     7
370
    25
100
AcDbLine
 10
155.5385237608
 20
83.3166331377
 30
0.0
 11
155.2955843091
 21
83.9650992366
 31
0.0
  0
LINE
  5
E7
330
1F
100
AcDbEntity
  8
0
  6
Continuous
 62
     7
370
    25
100
AcDbLine
 10
154.988755896
 20
83.2302077707
 30
0.0
 11
155.4746347994
 21
83.2302077707
 31
0.0
  0
LINE
  5
E8
330
1F
100
AcDbEntity
  8
0
  6
Continuous
 62
     7
370
    25
100
AcDbLine
 10
155.1678063862
 20
83.9650992366
 30
0.0
 11
154.9248669345
 21
83.3166331377
 31
0.0
  0
ELLIPSE
  5
E9
330
1F
100
AcDbEntity
  8
0
  6
Continuous
 62
     7
370
    25
100
AcDbEllipse
 10
155.4746346934
 20
83.2948811376
 30
0.0
 11
-0.0678412947923448
 21
0.0
 31
0.0
210
0.0
220
0.0
230
1.0
 40
0.9533039403
 41
1.570796326794897
 42
3.484616592149592
  0
LINE
  5
EA
330
1F
100
AcDbEntity
  8
0
  6
Continuous
 62
     7
370
    25
100
AcDbLine
 10
151.1530978188
 20
88.785347276
 30
0.0
 11
165.4123011559
 21
88.785347276
 31
0.0
  0
LINE
  5
EB
330
1F
100
AcDbEntity
  8
0
  6
Continuous
 62
     7
370
    25
100
AcDbLine
 10
176.2087908156
 20
83.7853473877
 30
0.0
 11
176.2087908156
 21
75.5879755398
 31
0.0
  0
LINE
  5
EC
330
1F
100
AcDbEntity
  8
0
  6
Continuous
 62
     7
370
    25
100
AcDbLine
 10
176.2087908156
 20
91.9827192357
 30
0.0
 11
176.2087908156
 21
83.7853473877
 31
0.0
  0
LINE
  5
ED
330
1F
100
AcDbEntity
  8
0
  6
Continuous
 62
     7
370
    25
100
AcDbLine
 10
178.2826990403
 20
90.7853476038
 30
0.0
 11
178.2826990403
 21
76.7853471717
 31
0.0
  0
ARC
  5
EE
330
1F
100
AcDbEntity
  8
0
  6
Continuous
 62
     7
370
    25
100
AcDbCircle
 10
165.2826994874
 20
78.2853473877
 30
0.0
 40
0.5
100
AcDbArc
 50
0.0
 51
90.0
  0
ARC
  5
EF
330
1F
100
AcDbEntity
  8
0
  6
Continuous
 62
     7
370
    25
100
AcDbCircle
 10
151.2826994874
 20
78.2853473877
 30
0.0
 40
0.5
100
AcDbArc
 50
90.0
 51
180.0
  0
ARC
  5
F0
330
1F
100
AcDbEntity
  8
0
  6
Continuous
 62
     7
370
    25
100
AcDbCircle
 10
165.2826994874
 20
89.2853473877
 30
0.0
 40
0.5
100
AcDbArc
 50
270.0
 51
0.0
  0
ARC
  5
F1
330
1F
100
AcDbEntity
  8
0
  6
Continuous
 62
     7
370
    25
100
AcDbCircle
 10
151.2826994874
 20
89.2853473877
 30
0.0
 40
0.5
100
AcDbArc
 50
180.0
 51
270.0
  0
LWPOLYLINE
  5
F2
330
1F
100
AcDbEntity
  8
0
  6
Continuous
 62
     7
370
    25
100
AcDbPolyline
 90
        9
 70
   128
 43
0.0
 10
165.2826997034
 20
88.9797920627
 10
165.3802445673
 20
88.9856631202
 10
165.4740413234
 20
89.0030509127
 10
165.5604848221
 20
89.0312872162
 10
165.6362530358
 20
89.0692870399
 10
165.6984341845
 20
89.1155896043
 10
165.7446394257
 20
89.1684165491
 10
165.7730922617
 20
89.2257366596
 10
165.7826993197
 20
89.2853473579
  0
LINE
  5
F3
330
1F
100
AcDbEntity
  8
0
  6
Continuous
 62
     7
370
    25
100
AcDbLine
 10
165.2826997034
 20
88.785347276
 30
0.0
 11
165.2826997034
 21
88.9797920627
 31
0.0
  0
LWPOLYLINE
  5
F4
330
1F
100
AcDbEntity
  8
0
  6
Continuous
 62
     7
370
    25
100
AcDbPolyline
 90
        9
 70
   128
 43
0.0
 10
150.782699655
 20
89.2853473579
 10
150.792306713
 20
89.2257366596
 10
150.820759549
 20
89.1684165491
 10
150.8669647902
 20
89.1155896043
 10
150.9291459389
 20
89.0692870399
 10
151.0049141526
 20
89.0312872162
 10
151.0913576514
 20
89.0030509127
 10
151.1851544075
 20
88.9856631202
 10
151.2826992713
 20
88.9797920627
  0
LINE
  5
F5
330
1F
100
AcDbEntity
  8
0
  6
Continuous
 62
     7
370
    25
100
AcDbLine
 10
151.2826992713
 20
88.785347276
 30
0.0
 11
151.2826992713
 21
88.9797920627
 31
0.0
  0
LINE
  5
F6
330
1F
100
AcDbEntity
  8
0
  6
Continuous
 62
     7
370
    25
100
AcDbLine
 10
165.2826997034
 20
78.5909027127
 30
0.0
 11
151.2826992713
 21
78.5909027127
 31
0.0
  0
LINE
  5
F7
330
1F
100
AcDbEntity
  8
0
  6
Continuous
 62
     7
370
    25
100
AcDbLine
 10
151.2826992713
 20
78.5909027127
 30
0.0
 11
151.2826992713
 21
78.7853474995
 31
0.0
  0
LINE
  5
F8
330
1F
100
AcDbEntity
  8
0
  6
Continuous
 62
     7
370
    25
100
AcDbLine
 10
165.2826997034
 20
78.5909027127
 30
0.0
 11
165.2826997034
 21
78.7853474995
 31
0.0
  0
LWPOLYLINE
  5
F9
330
1F
100
AcDbEntity
  8
0
  6
Continuous
 62
     7
370
    25
100
AcDbPolyline
 90
        9
 70
   128
 43
0.0
 10
151.2826992713
 20
78.5909027127
 10
151.1851544075
 20
78.5850316552
 10
151.0913576514
 20
78.5676438628
 10
151.0049141526
 20
78.5394075593
 10
150.9291459389
 20
78.5014077356
 10
150.8669647902
 20
78.4551051711
 10
150.820759549
 20
78.4022782264
 10
150.792306713
 20
78.3449581159
 10
150.782699655
 20
78.2853474175
  0
LWPOLYLINE
  5
FA
330
1F
100
AcDbEntity
  8
0
  6
Continuous
 62
     7
370
    25
100
AcDbPolyline
 90
        9
 70
   128
 43
0.0
 10
165.7826993197
 20
78.2853474175
 10
165.7730922617
 20
78.3449581159
 10
165.7446394257
 20
78.4022782264
 10
165.6984341845
 20
78.4551051711
 10
165.6362530358
 20
78.5014077356
 10
165.5604848221
 20
78.5394075593
 10
165.4740413234
 20
78.5676438628
 10
165.3802445673
 20
78.5850316552
 10
165.2826997034
 20
78.5909027127
  0
LINE
  5
FB
330
1F
100
AcDbEntity
  8
0
  6
Continuous
 62
     7
370
    25
100
AcDbLine
 10
151.2826992713
 20
88.9797920627
 30
0.0
 11
165.2826997034
 21
88.9797920627
 31
0.0
  0
SPLINE
  5
FC
330
1F
100
AcDbEntity
  8
0
  6
Continuous
 62
     7
370
    25
100
AcDbSpline
210
0.0
220
0.0
230
1.0
 70
    11
 71
     3
 72
    26
 73
    22
 74
     0
 42
0.000000001
 43
0.00000001
 40
0.0
 40
0.0
 40
0.0
 40
0.0
 40
0.125
 40
0.125
 40
0.1875
 40
0.1875
 40
0.25
 40
0.25
 40
0.3125
 40
0.3125
 40
0.375
 40
0.375
 40
0.5
 40
0.5
 40
0.625
 40
0.625
 40
0.75
 40
0.75
 40
0.875
 40
0.875
 40
1.0
 40
1.0
 40
1.0
 40
1.0
 10
158.7960184562246
 20
91.78534738772767
 30
0.0
 10
158.7960184562246
 20
91.92446641895648
 30
0.0
 10
158.7432224850757
 20
92.06019412193197
 30
0.0
 10
158.6017668951983
 20
92.21321285842775
 30
0.0
 10
158.5452129588265
 20
92.25471575944829
 30
0.0
 10
158.4196688073831
 20
92.31191565324195
 30
0.0
 10
158.350517194275
 20
92.3271996419863
 30
0.0
 10
158.2133588195316
 20
92.32697876822266
 30
0.0
 10
158.1442442367255
 20
92.31141870693499
 30
0.0
 10
158.0194844680944
 20
92.25421287244099
 30
0.0
 10
157.9628533797599
 20
92.21246144517403
 30
0.0
 10
157.822739753237
 20
92.06062057689059
 30
0.0
 10
157.7694192192903
 20
91.92456824962272
 30
0.0
 10
157.7693418607143
 20
91.64643555591937
 30
0.0
 10
157.8230302427359
 20
91.50963354589938
 30
0.0
 10
158.0097250570436
 20
91.3075647422343
 30
0.0
 10
158.1456062664072
 20
91.24339498254876
 30
0.0
 10
158.4212374004457
 20
91.24381603534977
 30
0.0
 10
158.5562124388593
 20
91.30808471777308
 30
0.0
 10
158.7420599159254
 20
91.50936226899721
 30
0.0
 10
158.7960184562246
 20
91.64622835649885
 30
0.0
 10
158.7960184562246
 20
91.78534738772767
 30
0.0
  0
SPLINE
  5
FD
330
1F
100
AcDbEntity
  8
0
  6
Continuous
 62
     7
370
    25
100
AcDbSpline
210
0.0
220
0.0
230
1.0
 70
    11
 71
     3
 72
    38
 73
    34
 74
     0
 42
0.000000001
 43
0.00000001
 40
0.0
 40
0.0
 40
0.0
 40
0.0
 40
0.0625
 40
0.0625
 40
0.125
 40
0.125
 40
0.1874999999999999
 40
0.1874999999999999
 40
0.2499999999999999
 40
0.2499999999999999
 40
0.3125
 40
0.3125
 40
0.375
 40
0.375
 40
0.4375000000000001
 40
0.4375000000000001
 40
0.5000000000000001
 40
0.5000000000000001
 40
0.5625000000000001
 40
0.5625000000000001
 40
0.6250000000000001
 40
0.6250000000000001
 40
0.6875000000000001
 40
0.6875000000000001
 40
0.75
 40
0.75
 40
0.8125
 40
0.8125
 40
0.875
 40
0.875
 40
0.9375
 40
0.9375
 40
1.0
 40
1.0
 40
1.0
 40
1.0
 10
157.2826994873762
 20
91.78534738772767
 30
0.0
 10
157.2826994873762
 20
91.65296147281735
 30
0.0
 10
157.3088480385191
 20
91.52307414633866
 30
0.0
 10
157.4093137079769
 20
91.28099515175278
 30
0.0
 10
157.4835985743734
 20
91.17021379769677
 30
0.0
 10
157.6677477541081
 20
90.986106517591
 30
0.0
 10
157.7791233767024
 20
90.91163784629501
 30
0.0
 10
158.0196718812363
 20
90.81181067016631
 30
0.0
 10
158.1514297772237
 20
90.785422750093
 30
0.0
 10
158.4128184693876
 20
90.78527235640618
 30
0.0
 10
158.5439905399793
 20
90.81121217681621
 30
0.0
 10
158.786428225979
 20
90.9115798092415
 30
0.0
 10
158.8964823941286
 20
90.98496871238672
 30
0.0
 10
159.0827357115394
 20
91.17111817921626
 30
0.0
 10
159.1561620394326
 20
91.28115669661626
 30
0.0
 10
159.2565267870615
 20
91.52303941370495
 30
0.0
 10
159.2826480513577
 20
91.65431393221627
 30
0.0
 10
159.2827507688429
 20
91.91559458158878
 30
0.0
 10
159.2565071407492
 20
92.04740998510171
 30
0.0
 10
159.1568387839511
 20
92.28819790318317
 30
0.0
 10
159.0825579919825
 20
92.39953010458117
 30
0.0
 10
158.898371251549
 20
92.58406029977617
 30
0.0
 10
158.7879476774864
 20
92.65824662904996
 30
0.0
 10
158.5455629622464
 20
92.7590678880201
 30
0.0
 10
158.41563878268
 20
92.78524211732514
 30
0.0
 10
158.1513486731631
 20
92.78545202731206
 30
0.0
 10
158.0211149145011
 20
92.75936430494889
 30
0.0
 10
157.7792222433304
 20
92.65921586097026
 30
0.0
 10
157.6682063179238
 20
92.58492956580513
 30
0.0
 10
157.4840385819437
 20
92.40103746636834
 30
0.0
 10
157.4094399104416
 20
92.2897073158143
 30
0.0
 10
157.3093890968965
 20
92.04921877600569
 30
0.0
 10
157.2826994873762
 20
91.91773330263797
 30
0.0
 10
157.2826994873762
 20
91.78534738772765
 30
0.0
  0
LINE
  5
FE
330
1F
100
AcDbEntity
  8
0
  6
Continuous
 62
     7
370
    25
100
AcDbLine
 10
153.0436141931
 20
110.8853479182
 30
0.0
 11
153.0436141931
 21
110.2853470748
 31
0.0
  0
LINE
  5
FF
330
1F
100
AcDbEntity
  8
0
  6
Continuous
 62
     7
370
    25
100
AcDbLine
 10
163.5217847817
 20
110.8853479182
 30
0.0
 11
153.0436141931
 21
110.8853479182
 31
0.0
  0
LINE
  5
100
330
1F
100
AcDbEntity
  8
0
  6
Continuous
 62
     7
370
    25
100
AcDbLine
 10
163.5217847817
 20
110.2853470748
 30
0.0
 11
163.5217847817
 21
110.8853479182
 31
0.0
  0
LINE
  5
101
330
1F
100
AcDbEntity
  8
0
  6
Continuous
 62
     7
370
    25
100
AcDbLine
 10
153.0436141931
 20
110.2853470748
 30
0.0
 11
163.5217847817
 21
110.2853470748
 31
0.0
  0
SPLINE
  5
102
330
1F
100
AcDbEntity
  8
0
  6
Continuous
 62
     7
370
    25
100
AcDbSpline
210
0.0
220
0.0
230
1.0
 70
     8
 71
     3
 72
    15
 73
    11
 74
     0
 42
0.000000001
 43
0.00000001
 40
0.0
 40
0.0
 40
0.0
 40
0.0
 40
0.0081668554937291
 40
0.3321941846999776
 40
0.4756279332062201
 40
0.6866839627273442
 40
0.8457444903091523
 40
0.8967583891412989
 40
0.9909563331444947
 40
1.0
 40
1.0
 40
1.0
 40
1.0
 10
153.183679986018
 20
111.1353465622033
 30
0.0
 10
153.1831924223369
 20
111.1353441623441
 30
0.0
 10
153.1633603315582
 20
111.1352465459115
 30
0.0
 10
153.1350811380402
 20
111.1256872773406
 30
0.0
 10
153.0972509697577
 20
111.0883294373997
 30
0.0
 10
153.070667956953
 20
111.0434613417179
 30
0.0
 10
153.0534969613122
 20
110.9855857748395
 30
0.0
 10
153.0456807385766
 20
110.9349090661011
 30
0.0
 10
153.0436856527879
 20
110.9062150819672
 30
0.0
 10
153.0436199485697
 20
110.887028598714
 30
0.0
 10
153.04361419307
 20
110.885347918209
 30
0.0
  0
LINE
  5
103
330
1F
100
AcDbEntity
  8
0
  6
Continuous
 62
     7
370
    25
100
AcDbLine
 10
153.183679986
 20
111.1353465622
 30
0.0
 11
163.3817189887
 21
111.1353465622
 31
0.0
  0
SPLINE
  5
104
330
1F
100
AcDbEntity
  8
0
  6
Continuous
 62
     7
370
    25
100
AcDbSpline
210
0.0
220
0.0
230
1.0
 70
     8
 71
     3
 72
    15
 73
    11
 74
     0
 42
0.000000001
 43
0.00000001
 40
0.0
 40
0.0
 40
0.0
 40
0.0
 40
0.0090436668555053
 40
0.1032416108587011
 40
0.1542555096908477
 40
0.3133160372726557
 40
0.5243720667937798
 40
0.6678058153000223
 40
0.9918331445062708
 40
0.9999999999999999
 40
0.9999999999999999
 40
0.9999999999999999
 40
0.9999999999999999
 10
163.5217847816825
 20
110.885347918209
 30
0.0
 10
163.5217790261828
 20
110.887028598714
 30
0.0
 10
163.5217133219646
 20
110.9062150819672
 30
0.0
 10
163.5197182361759
 20
110.9349090661011
 30
0.0
 10
163.5119020134403
 20
110.9855857748395
 30
0.0
 10
163.4947310177994
 20
111.0434613417179
 30
0.0
 10
163.4681480049948
 20
111.0883294373997
 30
0.0
 10
163.4303178367123
 20
111.1256872773406
 30
0.0
 10
163.4020386431943
 20
111.1352465459115
 30
0.0
 10
163.3822065524156
 20
111.1353441623441
 30
0.0
 10
163.3817189887345
 20
111.1353465622033
 30
0.0
  0
LINE
  5
105
330
1F
100
AcDbEntity
  8
0
  6
Continuous
 62
     7
370
    25
100
AcDbLine
 10
152.8054740794
 20
110.8853479182
 30
0.0
 11
153.0436141931
 21
110.8853479182
 31
0.0
  0
SPLINE
  5
106
330
1F
100
AcDbEntity
  8
0
  6
Continuous
 62
     7
370
    25
100
AcDbSpline
210
0.0
220
0.0
230
1.0
 70
     8
 71
     3
 72
    15
 73
    11
 74
     0
 42
0.000000001
 43
0.00000001
 40
0.0
 40
0.0
 40
0.0
 40
0.0
 40
0.0089534934608068
 40
0.0998985020501141
 40
0.1531621750630547
 40
0.3125626131158444
 40
0.524966528186016
 40
0.6689889196484162
 40
0.9919154833883785
 40
0.9999999999999999
 40
0.9999999999999999
 40
0.9999999999999999
 40
0.9999999999999999
 10
152.8054740794182
 20
110.885347918209
 30
0.0
 10
152.8054897430896
 20
110.8870286260223
 30
0.0
 10
152.8056645103263
 20
110.9057811044457
 30
0.0
 10
152.8110951819266
 20
110.9345428650988
 30
0.0
 10
152.8326288719796
 20
110.985430898963
 30
0.0
 10
152.8803359182721
 20
111.043565648177
 30
0.0
 10
152.9527257264421
 20
111.0882761445441
 30
0.0
 10
153.0546453920084
 20
111.1255534554511
 30
0.0
 10
153.1300015115254
 20
111.135245816211
 30
0.0
 10
153.1824002155857
 20
111.135344160277
 30
0.0
 10
153.183679986018
 20
111.1353465622033
 30
0.0
  0
LINE
  5
107
330
1F
100
AcDbEntity
  8
0
  6
Continuous
 62
     7
370
    25
100
AcDbLine
 10
163.5217847817
 20
110.8853479182
 30
0.0
 11
163.7599248953
 21
110.8853479182
 31
0.0
  0
SPLINE
  5
108
330
1F
100
AcDbEntity
  8
0
  6
Continuous
 62
     7
370
    25
100
AcDbSpline
210
0.0
220
0.0
230
1.0
 70
     8
 71
     3
 72
    15
 73
    11
 74
     0
 42
0.000000001
 43
0.00000001
 40
0.0
 40
0.0
 40
0.0
 40
0.0
 40
0.0080845166116213
 40
0.3310110803515837
 40
0.4750334718139839
 40
0.6874373868841556
 40
0.8468378249369453
 40
0.9001014979498858
 40
0.9910465065391931
 40
0.9999999999999999
 40
0.9999999999999999
 40
0.9999999999999999
 40
0.9999999999999999
 10
163.3817189887345
 20
111.1353465622033
 30
0.0
 10
163.3829987591668
 20
111.135344160277
 30
0.0
 10
163.4353974632271
 20
111.135245816211
 30
0.0
 10
163.5107535827441
 20
111.1255534554511
 30
0.0
 10
163.6126732483104
 20
111.0882761445441
 30
0.0
 10
163.6850630564804
 20
111.043565648177
 30
0.0
 10
163.7327701027729
 20
110.985430898963
 30
0.0
 10
163.7543037928258
 20
110.9345428650988
 30
0.0
 10
163.7597344644262
 20
110.9057811044457
 30
0.0
 10
163.7599092316629
 20
110.8870286260224
 30
0.0
 10
163.7599248953343
 20
110.885347918209
 30
0.0
  0
LINE
  5
109
330
1F
100
AcDbEntity
  8
0
  6
Continuous
 62
     7
370
    25
100
AcDbLine
 10
152.8054740794
 20
110.2853470748
 30
0.0
 11
152.8054740794
 21
110.8853479182
 31
0.0
  0
LINE
  5
10A
330
1F
100
AcDbEntity
  8
0
  6
Continuous
 62
     7
370
    25
100
AcDbLine
 10
153.0436141931
 20
110.2853470748
 30
0.0
 11
152.8054740794
 21
110.2853470748
 31
0.0
  0
LINE
  5
10B
330
1F
100
AcDbEntity
  8
0
  6
Continuous
 62
     7
370
    25
100
AcDbLine
 10
163.7599248953
 20
110.8853479182
 30
0.0
 11
163.7599248953
 21
110.2853470748
 31
0.0
  0
LINE
  5
10C
330
1F
100
AcDbEntity
  8
0
  6
Continuous
 62
     7
370
    25
100
AcDbLine
 10
163.7599248953
 20
110.2853470748
 30
0.0
 11
163.5217847817
 21
110.2853470748
 31
0.0
  0
LINE
  5
10D
330
1F
100
AcDbEntity
  8
0
  6
Continuous
 62
     7
370
    25
100
AcDbLine
 10
152.2826994352
 20
110.2853470748
 30
0.0
 11
152.2826994352
 21
110.8853479182
 31
0.0
  0
LINE
  5
10E
330
1F
100
AcDbEntity
  8
0
  6
Continuous
 62
     7
370
    25
100
AcDbLine
 10
152.2826994352
 20
110.8853479182
 30
0.0
 11
152.5326994762
 21
110.8853479182
 31
0.0
  0
LINE
  5
10F
330
1F
100
AcDbEntity
  8
0
  6
Continuous
 62
     7
370
    25
100
AcDbLine
 10
152.5326994762
 20
110.8853479182
 30
0.0
 11
152.5326994762
 21
110.2853470748
 31
0.0
  0
LINE
  5
110
330
1F
100
AcDbEntity
  8
0
  6
Continuous
 62
     7
370
    25
100
AcDbLine
 10
152.5326994762
 20
110.2853470748
 30
0.0
 11
152.2826994352
 21
110.2853470748
 31
0.0
  0
LINE
  5
111
330
1F
100
AcDbEntity
  8
0
  6
Continuous
 62
     7
370
    25
100
AcDbLine
 10
152.8054740794
 20
110.8853479182
 30
0.0
 11
152.5326994762
 21
110.8853479182
 31
0.0
  0
LINE
  5
112
330
1F
100
AcDbEntity
  8
0
  6
Continuous
 62
     7
370
    25
100
AcDbLine
 10
152.8054740794
 20
110.2853470748
 30
0.0
 11
152.5326994762
 21
110.2853470748
 31
0.0
  0
ARC
  5
113
330
1F
100
AcDbEntity
  8
0
  6
Continuous
 62
     7
370
    25
100
AcDbCircle
 10
152.5326994874
 20
110.8853473877
 30
0.0
 40
0.25
100
AcDbArc
 50
90.0
 51
180.0
  0
LINE
  5
114
330
1F
100
AcDbEntity
  8
0
  6
Continuous
 62
     7
370
    25
100
AcDbLine
 10
152.5326994762
 20
111.1353465622
 30
0.0
 11
152.5326994762
 21
110.8853479182
 31
0.0
  0
LINE
  5
115
330
1F
100
AcDbEntity
  8
0
  6
Continuous
 62
     7
370
    25
100
AcDbLine
 10
152.5326994762
 20
111.1353465622
 30
0.0
 11
153.183679986
 21
111.1353465622
 31
0.0
  0
LINE
  5
116
330
1F
100
AcDbEntity
  8
0
  6
Continuous
 62
     7
370
    25
100
AcDbLine
 10
164.0326994986
 20
110.8853479182
 30
0.0
 11
164.0326994986
 21
111.1353465622
 31
0.0
  0
LINE
  5
117
330
1F
100
AcDbEntity
  8
0
  6
Continuous
 62
     7
370
    25
100
AcDbLine
 10
164.0326994986
 20
110.8853479182
 30
0.0
 11
163.7599248953
 21
110.8853479182
 31
0.0
  0
LINE
  5
118
330
1F
100
AcDbEntity
  8
0
  6
Continuous
 62
     7
370
    25
100
AcDbLine
 10
163.3817189887
 20
111.1353465622
 30
0.0
 11
164.0326994986
 21
111.1353465622
 31
0.0
  0
LINE
  5
119
330
1F
100
AcDbEntity
  8
0
  6
Continuous
 62
     7
370
    25
100
AcDbLine
 10
164.0326994986
 20
110.2853470748
 30
0.0
 11
164.0326994986
 21
110.8853479182
 31
0.0
  0
LINE
  5
11A
330
1F
100
AcDbEntity
  8
0
  6
Continuous
 62
     7
370
    25
100
AcDbLine
 10
164.0326994986
 20
110.2853470748
 30
0.0
 11
163.7599248953
 21
110.2853470748
 31
0.0
  0
LINE
  5
11B
330
1F
100
AcDbEntity
  8
0
  6
Continuous
 62
     7
370
    25
100
AcDbLine
 10
164.0326994986
 20
110.8853479182
 30
0.0
 11
164.2826995395
 21
110.8853479182
 31
0.0
  0
LINE
  5
11C
330
1F
100
AcDbEntity
  8
0
  6
Continuous
 62
     7
370
    25
100
AcDbLine
 10
164.2826995395
 20
110.8853479182
 30
0.0
 11
164.2826995395
 21
110.2853470748
 31
0.0
  0
LINE
  5
11D
330
1F
100
AcDbEntity
  8
0
  6
Continuous
 62
     7
370
    25
100
AcDbLine
 10
164.2826995395
 20
110.2853470748
 30
0.0
 11
164.0326994986
 21
110.2853470748
 31
0.0
  0
ARC
  5
11E
330
1F
100
AcDbEntity
  8
0
  6
Continuous
 62
     7
370
    25
100
AcDbCircle
 10
164.0326994874
 20
110.8853473877
 30
0.0
 40
0.25
100
AcDbArc
 50
0.0
 51
90.0
  0
LINE
  5
11F
330
1F
100
AcDbEntity
  8
0
  6
Continuous
 62
     7
370
    25
100
AcDbLine
 10
163.2826993756
 20
111.1353465622
 30
0.0
 11
163.2826993756
 21
111.145347104
 31
0.0
  0
LINE
  5
120
330
1F
100
AcDbEntity
  8
0
  6
Continuous
 62
     7
370
    25
100
AcDbLine
 10
153.2826995991
 20
111.145347104
 30
0.0
 11
163.2826993756
 21
111.145347104
 31
0.0
  0
LINE
  5
121
330
1F
100
AcDbEntity
  8
0
  6
Continuous
 62
     7
370
    25
100
AcDbLine
 10
153.2826995991
 20
111.1353465622
 30
0.0
 11
153.2826995991
 21
111.145347104
 31
0.0
  0
LINE
  5
122
330
1F
100
AcDbEntity
  8
0
  6
Continuous
 62
     7
370
    25
100
AcDbLine
 10
153.8081527271
 20
102.2853476261
 30
0.0
 11
165.7326994047
 21
102.2853476261
 31
0.0
  0
SPLINE
  5
123
330
1F
100
AcDbEntity
  8
0
  6
Continuous
 62
     7
370
    25
100
AcDbSpline
210
0.0
220
0.0
230
1.0
 70
     8
 71
     3
 72
     9
 73
     5
 74
     0
 42
0.000000001
 43
0.00000001
 40
0.0
 40
0.0
 40
0.0
 40
0.0
 40
0.4978404435797771
 40
1.0
 40
1.0
 40
1.0
 40
1.0
 10
154.568363405037
 20
103.2800914054479
 30
0.0
 10
154.432041382788
 20
103.123580125657
 30
0.0
 10
154.1582146497314
 20
102.8091997216354
 30
0.0
 10
153.925175542015
 20
102.4604670632102
 30
0.0
 10
153.8081527270556
 20
102.2853476261462
 30
0.0
  0
LINE
  5
124
330
1F
100
AcDbEntity
  8
0
  6
Continuous
 62
     7
370
    25
100
AcDbLine
 10
153.0588971965
 20
110.2853470748
 30
0.0
 11
151.3307587758
 21
103.2800914054
 31
0.0
  0
LINE
  5
125
330
1F
100
AcDbEntity
  8
0
  6
Continuous
 62
     7
370
    25
100
AcDbLine
 10
163.5217847817
 20
110.2853470748
 30
0.0
 11
153.0588971965
 21
110.2853470748
 31
0.0
  0
LINE
  5
126
330
1F
100
AcDbEntity
  8
0
  6
Continuous
 62
     7
370
    25
100
AcDbLine
 10
156.2826993924
 20
94.2853472462
 30
0.0
 11
165.2826997034
 21
94.2853472462
 31
0.0
  0
LINE
  5
127
330
1F
100
AcDbEntity
  8
0
  6
Continuous
 62
     7
370
    25
100
AcDbLine
 10
156.2826993924
 20
94.3231645306
 30
0.0
 11
156.2826993924
 21
94.2853472462
 31
0.0
  0
SPLINE
  5
128
330
1F
100
AcDbEntity
  8
0
  6
Continuous
 62
     7
370
    25
100
AcDbSpline
210
0.0
220
0.0
230
1.0
 70
     8
 71
     3
 72
     9
 73
     5
 74
     0
 42
0.000000001
 43
0.00000001
 40
0.0
 40
0.0
 40
0.0
 40
0.0
 40
0.4875149508301391
 40
1.0
 40
1.0
 40
1.0
 40
1.0
 10
156.1267543167055
 20
94.28534724616664
 30
0.0
 10
156.1530608922539
 20
94.28707482773814
 30
0.0
 10
156.2070214436249
 20
94.29061847612998
 30
0.0
 10
156.2570569456604
 20
94.3121367413977
 30
0.0
 10
156.2826993923813
 20
94.32316453063147
 30
0.0
  0
SPLINE
  5
129
330
1F
100
AcDbEntity
  8
0
  6
Continuous
 62
     7
370
    25
100
AcDbSpline
210
0.0
220
0.0
230
1.0
 70
     8
 71
     3
 72
    17
 73
    13
 74
     0
 42
0.000000001
 43
0.00000001
 40
0.0
 40
0.0
 40
0.0
 40
0.0
 40
0.3241697917523345
 40
0.5422758587479237
 40
0.689509089275669
 40
0.7894035981534984
 40
0.8577089567094359
 40
0.9049823628410104
 40
0.9551711781537311
 40
0.9753097815865951
 40
0.991957189245944
 40
1.0
 40
1.0
 40
1.0
 40
1.0
 10
153.8081527270556
 20
102.2853476261462
 30
0.0
 10
153.9508678755297
 20
101.3727339734296
 30
0.0
 10
154.1896038147324
 20
99.84610081752446
 30
0.0
 10
154.5691915602329
 20
97.91932790015575
 30
0.0
 10
154.8783254092472
 20
96.6316924760633
 30
0.0
 10
155.1344394236395
 20
95.77254076010706
 30
0.0
 10
155.3487502793556
 20
95.19907307234782
 30
0.0
 10
155.551984345079
 20
94.7775407125682
 30
0.0
 10
155.7365303108684
 20
94.49704884937321
 30
0.0
 10
155.9226002884292
 20
94.34149865468663
 30
0.0
 10
156.0378116453928
 20
94.29088923854775
 30
0.0
 10
156.1049002722885
 20
94.28670896541644
 30
0.0
 10
156.1267543167055
 20
94.28534724616664
 30
0.0
  0
SPLINE
  5
12A
330
1F
100
AcDbEntity
  8
0
  6
Continuous
 62
     7
370
    25
100
AcDbSpline
210
0.0
220
0.0
230
1.0
 70
     8
 71
     3
 72
    14
 73
    10
 74
     0
 42
0.000000001
 43
0.00000001
 40
0.0
 40
0.0
 40
0.0
 40
0.0
 40
0.1576094553927752
 40
0.315238234353942
 40
0.4726925966125388
 40
0.6301651045756322
 40
0.790731299294198
 40
0.9513051076307096
 40
1.0
 40
1.0
 40
1.0
 40
1.0
 10
151.7826993532658
 20
94.28534724616664
 30
0.0
 10
151.7161282969724
 20
94.49884892341362
 30
0.0
 10
151.5829780225
 20
94.9258784540926
 30
0.0
 10
151.254411847508
 20
95.5111259136034
 30
0.0
 10
150.8410216747546
 20
96.03328044106645
 30
0.0
 10
150.3453468475509
 20
96.48225865514608
 30
0.0
 10
149.7790570852458
 20
96.84154082831805
 30
0.0
 10
149.3028064703399
 20
97.0461065706911
 30
0.0
 10
149.0226118193152
 20
97.12690131546037
 30
0.0
 10
148.9574131138802
 20
97.14570150577681
 30
0.0
  0
LWPOLYLINE
  5
12B
330
1F
100
AcDbEntity
  8
0
  6
Continuous
 62
     7
370
    25
100
AcDbPolyline
 90
        4
 70
   128
 43
0.0
 10
148.9574131139
 20
97.1457015058
 10
147.0400909476
 20
97.6660612305
 10
145.1129274957
 20
98.1890919884
 10
143.1776559495
 20
98.7143225303
  0
SPLINE
  5
12C
330
1F
100
AcDbEntity
  8
0
  6
Continuous
 62
     7
370
    25
100
AcDbSpline
210
0.0
220
0.0
230
1.0
 70
     8
 71
     3
 72
    11
 73
     7
 74
     0
 42
0.000000001
 43
0.00000001
 40
0.0
 40
0.0
 40
0.0
 40
0.0
 40
0.2488465959137647
 40
0.4976945924499491
 40
0.7488461206779728
 40
1.0
 40
1.0
 40
1.0
 40
1.0
 10
136.1072626479149
 20
100.0375223612155
 30
0.0
 10
136.7016985971925
 20
99.96799820537092
 30
0.0
 10
137.8905738415051
 20
99.82894950236795
 30
0.0
 10
139.6652982265846
 20
99.52861981632823
 30
0.0
 10
141.4318791263424
 20
99.16671146801212
 30
0.0
 10
142.5957285259147
 20
98.86511931339292
 30
0.0
 10
143.1776559494615
 20
98.71432253026622
 30
0.0
  0
LINE
  5
12D
330
1F
100
AcDbEntity
  8
0
  6
Continuous
 62
     7
370
    25
100
AcDbLine
 10
136.1072626479
 20
100.0375223612
 30
0.0
 11
136.1072626479
 21
103.2800914054
 31
0.0
  0
LINE
  5
12E
330
1F
100
AcDbEntity
  8
0
  6
Continuous
 62
     7
370
    25
100
AcDbLine
 10
136.1072626479
 20
103.2800914054
 30
0.0
 11
154.568363405
 21
103.2800914054
 31
0.0
  0
LINE
  5
12F
330
1F
100
AcDbEntity
  8
0
  6
Continuous
 62
     7
370
    25
100
AcDbLine
 10
156.1267543167
 20
94.2853472462
 30
0.0
 11
151.7826993533
 21
94.2853472462
 31
0.0
  0
LINE
  5
130
330
1F
100
AcDbEntity
  8
0
  6
Continuous
 62
     7
370
    25
100
AcDbLine
 10
156.2826993924
 20
94.3231645306
 30
0.0
 11
156.2759000391
 21
94.2853472462
 31
0.0
  0
LINE
  5
131
330
1F
100
AcDbEntity
  8
0
  6
Continuous
 62
     7
370
    25
100
AcDbLine
 10
156.2759000391
 20
94.2853472462
 30
0.0
 11
156.1267543167
 21
94.2853472462
 31
0.0
  0
LINE
  5
132
330
1F
100
AcDbEntity
  8
0
  6
Continuous
 62
     7
370
    25
100
AcDbLine
 10
156.2826993924
 20
94.2853472462
 30
0.0
 11
156.2759000391
 21
94.2853472462
 31
0.0
  0
LINE
  5
133
330
1F
100
AcDbEntity
  8
0
  6
Continuous
 62
     7
370
    25
100
AcDbLine
 10
118.2827003814
 20
112.2853474026
 30
0.0
 11
136.1072626479
 21
112.2853474026
 31
0.0
  0
LINE
  5
134
330
1F
100
AcDbEntity
  8
0
  6
Continuous
 62
     7
370
    25
100
AcDbLine
 10
136.1072626479
 20
112.2853474026
 30
0.0
 11
136.1072626479
 21
103.2800914054
 31
0.0
  0
LINE
  5
135
330
1F
100
AcDbEntity
  8
0
  6
Continuous
 62
     7
370
    25
100
AcDbLine
 10
131.3910320915
 20
100.2853472983
 30
0.0
 11
123.2826993384
 21
100.2853472983
 31
0.0
  0
ARC
  5
136
330
1F
100
AcDbEntity
  8
0
  6
Continuous
 62
     7
370
    25
100
AcDbCircle
 10
123.2826994874
 20
105.2853473877
 30
0.0
 40
5.0
100
AcDbArc
 50
180.0
 51
270.0
  0
LINE
  5
137
330
1F
100
AcDbEntity
  8
0
  6
Continuous
 62
     7
370
    25
100
AcDbLine
 10
118.2827003814
 20
105.2853481179
 30
0.0
 11
118.2827003814
 21
112.2853474026
 31
0.0
  0
ARC
  5
138
330
1F
100
AcDbEntity
  8
0
  6
Continuous
 62
     7
370
    25
100
AcDbCircle
 10
131.3910316296
 20
55.2852181335
 30
0.0
 40
45.00012925418375
100
AcDbArc
 50
83.9840777705
 51
90.0
  0
LINE
  5
139
330
1F
100
AcDbEntity
  8
0
  6
Continuous
 62
     7
370
    25
100
AcDbLine
 10
136.1072626479
 20
112.2853474026
 30
0.0
 11
138.2826999344
 21
112.2853474026
 31
0.0
  0
LINE
  5
13A
330
1F
100
AcDbEntity
  8
0
  6
Continuous
 62
     7
370
    25
100
AcDbLine
 10
138.2826999344
 20
112.2853474026
 30
0.0
 11
138.2826999344
 21
110.3043032145
 31
0.0
  0
ARC
  5
13B
330
1F
100
AcDbEntity
  8
0
  6
Continuous
 62
     7
370
    25
100
AcDbCircle
 10
144.2826994874
 20
110.3043029111
 30
0.0
 40
6.000000000000003
100
AcDbArc
 50
180.0
 51
275.5801667845
  0
ARC
  5
13C
330
1F
100
AcDbEntity
  8
0
  6
Continuous
 62
     7
370
    25
100
AcDbCircle
 10
143.8937459231
 20
114.2853473877
 30
0.0
 40
10.00000000000848
100
AcDbArc
 50
275.5801667845
 51
336.4218215217
  0
LINE
  5
13D
330
1F
100
AcDbEntity
  8
0
  6
Continuous
 62
     7
370
    25
100
AcDbLine
 10
151.7826993533
 20
94.2853472462
 30
0.0
 11
151.2826992713
 21
94.2853472462
 31
0.0
  0
LINE
  5
13E
330
1F
100
AcDbEntity
  8
0
  6
Continuous
 62
     7
370
    25
100
AcDbLine
 10
153.0436141931
 20
110.2853470748
 30
0.0
 11
153.0588971965
 21
110.2853470748
 31
0.0
  0
LINE
  5
13F
330
1F
100
AcDbEntity
  8
0
  6
Continuous
 62
     7
370
    25
100
AcDbLine
 10
145.2826992192
 20
83.7853473877
 30
0.0
 11
145.2826992192
 21
91.5353472611
 31
0.0
  0
LINE
  5
140
330
1F
100
AcDbEntity
  8
0
  6
Continuous
 62
     7
370
    25
100
AcDbLine
 10
145.2826992192
 20
76.0353475144
 30
0.0
 11
145.2826992192
 21
83.7853473877
 31
0.0
  0
LINE
  5
141
330
1F
100
AcDbEntity
  8
0
  6
Continuous
 62
     7
370
    25
100
AcDbLine
 10
145.5326997258
 20
83.7853473877
 30
0.0
 11
145.5326997258
 21
75.7853470077
 31
0.0
  0
LINE
  5
142
330
1F
100
AcDbEntity
  8
0
  6
Continuous
 62
     7
370
    25
100
AcDbLine
 10
145.5326997258
 20
91.7853477677
 30
0.0
 11
145.5326997258
 21
83.7853473877
 31
0.0
  0
LINE
  5
143
330
1F
100
AcDbEntity
  8
0
  6
Continuous
 62
     7
370
    25
100
AcDbLine
 10
128.2827001579
 20
68.785347723
 30
0.0
 11
123.7827003516
 21
68.785347723
 31
0.0
  0
LINE
  5
144
330
1F
100
AcDbEntity
  8
0
  6
Continuous
 62
     7
370
    25
100
AcDbLine
 10
132.7826999642
 20
68.785347723
 30
0.0
 11
128.2827001579
 21
68.785347723
 31
0.0
  0
SPLINE
  5
145
330
1F
100
AcDbEntity
  8
0
  6
Continuous
 62
     8
370
    25
100
AcDbSpline
210
0.0
220
0.0
230
1.0
 70
     8
 71
     3
 72
    11
 73
     7
 74
     0
 42
0.000000001
 43
0.00000001
 40
0.0
 40
0.0
 40
0.0
 40
0.0
 40
0.1198441334940601
 40
0.3649707355539814
 40
0.6103443370299418
 40
1.0
 40
1.0
 40
1.0
 40
1.0
 10
166.0117855809808
 20
88.1665779543783
 30
0.0
 10
165.9808012988518
 20
88.01109302522131
 30
0.0
 10
165.8864424353052
 20
87.53758258038339
 30
0.0
 10
165.8166600491286
 20
86.73076919420265
 30
0.0
 10
165.7816729560555
 20
85.5649274279128
 30
0.0
 10
165.7834599020737
 20
84.72136250291327
 30
0.0
 10
165.784556376952
 20
84.20374879829804
 30
0.0
  0
SPLINE
  5
146
330
1F
100
AcDbEntity
  8
0
  6
Continuous
 62
     8
370
    25
100
AcDbSpline
210
0.0
220
0.0
230
1.0
 70
     8
 71
     3
 72
    11
 73
     7
 74
     0
 42
0.000000001
 43
0.00000001
 40
0.0
 40
0.0
 40
0.0
 40
0.0
 40
0.1198441334940601
 40
0.3649707355539814
 40
0.6103443370299418
 40
1.0
 40
1.0
 40
1.0
 40
1.0
 10
150.5536133937717
 20
79.40411682107704
 30
0.0
 10
150.5845976759007
 20
79.55960175023404
 30
0.0
 10
150.6789565394473
 20
80.03311219507195
 30
0.0
 10
150.7487389256239
 20
80.83992558125269
 30
0.0
 10
150.7837260186969
 20
82.00576734754254
 30
0.0
 10
150.7819390726788
 20
82.84933227254209
 30
0.0
 10
150.7808425978005
 20
83.3669459771573
 30
0.0
  0
LINE
  5
147
330
1F
100
AcDbEntity
  8
0
  6
Continuous
 62
     8
370
    25
100
AcDbLine
 10
165.2826997034
 20
88.9797920627
 30
0.0
 11
165.2826997034
 21
92.2853478497
 31
0.0
  0
LINE
  5
148
330
1F
100
AcDbEntity
  8
0
  6
Continuous
 62
     8
370
    25
100
AcDbLine
 10
151.2826992713
 20
92.2853478497
 30
0.0
 11
151.2826992713
 21
88.9797920627
 31
0.0
  0
LINE
  5
149
330
1F
100
AcDbEntity
  8
0
  6
Continuous
 62
     8
370
    25
100
AcDbLine
 10
151.2826992713
 20
78.5909027127
 30
0.0
 11
151.2826992713
 21
75.2853469258
 31
0.0
  0
LINE
  5
14A
330
1F
100
AcDbEntity
  8
0
  6
Continuous
 62
     8
370
    25
100
AcDbLine
 10
165.2826997034
 20
75.2853469258
 30
0.0
 11
165.2826997034
 21
78.5909027127
 31
0.0
  0
SPLINE
  5
14B
330
1F
100
AcDbEntity
  8
0
  6
Continuous
 62
     8
370
    25
100
AcDbSpline
210
0.0
220
0.0
230
1.0
 70
     8
 71
     3
 72
    31
 73
    27
 74
     0
 42
0.000000001
 43
0.00000001
 40
0.0
 40
0.0
 40
0.0
 40
0.0
 40
0.0401469674686242
 40
0.0814986026226104
 40
0.1230168016889695
 40
0.1655416012274912
 40
0.2131130161285811
 40
0.2616996828497939
 40
0.3186667233940659
 40
0.3479437321399341
 40
0.3772159140049192
 40
0.4187751004512731
 40
0.4612875549783683
 40
0.5032031450453729
 40
0.5465043050002475
 40
0.5837432916969165
 40
0.6217090261095588
 40
0.6775256579079723
 40
0.734862360906015
 40
0.7907485712470934
 40
0.8195217853075434
 40
0.8482899200809866
 40
0.8930370735445798
 40
0.9390657783783559
 40
0.9835421349504135
 40
1.0
 40
1.0
 40
1.0
 40
1.0
 10
164.6826993256986
 20
92.28534784966367
 30
0.0
 10
164.671380660635
 20
92.27772914632301
 30
0.0
 10
164.6484036976313
 20
92.26226312945523
 30
0.0
 10
164.4637269904233
 20
92.1390430169695
 30
0.0
 10
164.1731470000664
 20
91.9490199495838
 30
0.0
 10
163.762207038066
 20
91.68848494461281
 30
0.0
 10
163.2295749110006
 20
91.36668043792265
 30
0.0
 10
162.5411303092793
 20
90.98082095967763
 30
0.0
 10
161.8491743212354
 20
90.63665197574196
 30
0.0
 10
161.2032557124892
 20
90.36261063418932
 30
0.0
 10
160.6130697268787
 20
90.14552418779776
 30
0.0
 10
159.9051767203121
 20
89.9399745211751
 30
0.0
 10
159.0750807716287
 20
89.79053706632958
 30
0.0
 10
158.2082820065368
 20
89.74295504067692
 30
0.0
 10
157.3792184116637
 20
89.80641997740422
 30
0.0
 10
156.6034296773815
 20
89.95665716059825
 30
0.0
 10
155.7863675138378
 20
90.19468865826151
 30
0.0
 10
154.9123878257931
 20
90.5416154778084
 30
0.0
 10
154.038571744693
 20
90.97179917404257
 30
0.0
 10
153.3995746676145
 20
91.33082271827634
 30
0.0
 10
152.9559810728556
 20
91.59595810213004
 30
0.0
 10
152.6010476911301
 20
91.81570828431998
 30
0.0
 10
152.2577264567443
 20
92.03625764191662
 30
0.0
 10
152.0010686613524
 20
92.20587453332517
 30
0.0
 10
151.8779909852378
 20
92.28850395010062
 30
0.0
 10
151.8956176524527
 20
92.27667859913863
 30
0.0
 10
151.9003784798265
 20
92.27348466270821
 30
0.0
  0
SPLINE
  5
14C
330
1F
100
AcDbEntity
  8
0
  6
Continuous
 62
     8
370
    25
100
AcDbSpline
210
0.0
220
0.0
230
1.0
 70
     8
 71
     3
 72
    31
 73
    27
 74
     0
 42
0.000000001
 43
0.00000001
 40
0.0
 40
0.0
 40
0.0
 40
0.0
 40
0.0148210566466454
 40
0.0619108786813931
 40
0.1074455066899998
 40
0.154342074548709
 40
0.2108203590328918
 40
0.2689848173338092
 40
0.3245691015009363
 40
0.353116802941412
 40
0.3816579138779144
 40
0.4179574127613481
 40
0.454999010202526
 40
0.4952942461141884
 40
0.5372057403442616
 40
0.5775812190257532
 40
0.619138190658019
 40
0.6474898119195819
 40
0.6758477225739482
 40
0.7341551700649505
 40
0.7822816910649438
 40
0.8313532509707088
 40
0.8736398241975869
 40
0.9168634838215617
 40
0.9578466218450228
 40
1.0
 40
1.0
 40
1.0
 40
1.0
 10
152.3972041487873
 20
92.77416926675694
 30
0.0
 10
152.3932612391405
 20
92.77720766506162
 30
0.0
 10
152.3767908209639
 20
92.78989973643762
 30
0.0
 10
152.4875441286545
 20
92.70446248063541
 30
0.0
 10
152.7250599981228
 20
92.52415953257625
 30
0.0
 10
153.1106669137567
 20
92.23942109874109
 30
0.0
 10
153.6534454565401
 20
91.85745306968968
 30
0.0
 10
154.3512300523581
 20
91.40597197806552
 30
0.0
 10
155.0270433486862
 20
91.02285239135918
 30
0.0
 10
155.6136131103699
 20
90.73903863741003
 30
0.0
 10
156.1288753981828
 20
90.52290304140959
 30
0.0
 10
156.7263743655048
 20
90.32203536330019
 30
0.0
 10
157.4324635412064
 20
90.16354918849223
 30
0.0
 10
158.203837160763
 20
90.09345248005255
 30
0.0
 10
159.0006862537249
 20
90.14175348732566
 30
0.0
 10
159.7766262189777
 20
90.30145513438045
 30
0.0
 10
160.4255218956685
 20
90.51755721650143
 30
0.0
 10
160.9665694369264
 20
90.74582435606405
 30
0.0
 10
161.564272038036
 20
91.03603966988304
 30
0.0
 10
162.2016180327855
 20
91.3999414111002
 30
0.0
 10
162.8410155881961
 20
91.81120800107315
 30
0.0
 10
163.3290582478338
 20
92.14979619783195
 30
0.0
 10
163.7108800106607
 20
92.42767949349795
 30
0.0
 10
163.9771990920442
 20
92.62768806814356
 30
0.0
 10
164.1499754872576
 20
92.76004442074914
 30
0.0
 10
164.1716897511121
 20
92.77683402956131
 30
0.0
 10
164.1826997094036
 20
92.78534700029748
 30
0.0
  0
LINE
  5
14D
330
1F
100
AcDbEntity
  8
0
  6
Continuous
 62
     8
370
    25
100
AcDbLine
 10
128.2827001579
 20
72.7853474473
 30
0.0
 11
123.7827003516
 21
72.7853474473
 31
0.0
  0
LINE
  5
14E
330
1F
100
AcDbEntity
  8
0
  6
Continuous
 62
     8
370
    25
100
AcDbLine
 10
132.7826999642
 20
72.7853474473
 30
0.0
 11
128.2827001579
 21
72.7853474473
 31
0.0
  0
LINE
  5
14F
330
1F
100
AcDbEntity
  8
0
  6
Continuous
 62
     8
370
    25
100
AcDbLine
 10
139.2827000983
 20
83.7853473877
 30
0.0
 11
139.2827000983
 21
88.285347194
 31
0.0
  0
LINE
  5
150
330
1F
100
AcDbEntity
  8
0
  6
Continuous
 62
     8
370
    25
100
AcDbLine
 10
139.2827000983
 20
79.2853475814
 30
0.0
 11
139.2827000983
 21
83.7853473877
 31
0.0
  0
LINE
  5
151
330
1F
100
AcDbEntity
  8
0
  6
Continuous
 62
     7
370
     0
100
AcDbLine
 10
177.5315730856
 20
76.3516843575
 30
0.0
 11
168.7826994874
 21
76.0782820575
 31
0.0
  0
LINE
  5
152
330
1F
100
AcDbEntity
  8
0
  6
Continuous
 62
     7
370
     0
100
AcDbLine
 10
177.5315730856
 20
91.219010418
 30
0.0
 11
168.7826994874
 21
91.4924127179
 31
0.0
  0
LINE
  5
153
330
1F
100
AcDbEntity
  8
0
  6
Continuous
 62
     7
370
     0
100
AcDbLine
 10
168.7826994874
 20
92.2147848877
 30
0.0
 11
168.7826994874
 21
75.3559098877
 31
0.0
  0
LINE
  5
154
330
1F
100
AcDbEntity
  8
0
  6
Continuous
 62
     7
370
    25
100
AcDbLine
 10
210.5912165177
 20
91.8593795305
 30
0.0
 11
210.5912165177
 21
94.2853472462
 31
0.0
  0
LINE
  5
155
330
1F
100
AcDbEntity
  8
0
  6
Continuous
 62
     7
370
    25
100
AcDbLine
 10
198.7912160736
 20
94.2853472462
 30
0.0
 11
198.7912160736
 21
92.7834415143
 31
0.0
  0
ARC
  5
156
330
1F
100
AcDbEntity
  8
0
  6
Continuous
 62
     7
370
    25
100
AcDbCircle
 10
198.9912162956
 20
92.3270898181
 30
0.0
 40
0.4999999999999961
100
AcDbArc
 50
113.64497808
 51
180.007858636
  0
ARC
  5
157
330
1F
100
AcDbEntity
  8
0
  6
Continuous
 62
     7
370
    25
100
AcDbCircle
 10
209.9412162956
 20
110.8853473877
 30
0.0
 40
0.25
100
AcDbArc
 50
0.0
 51
90.0
  0
ARC
  5
158
330
1F
100
AcDbEntity
  8
0
  6
Continuous
 62
     7
370
    25
100
AcDbCircle
 10
199.4412162956
 20
110.8853473877
 30
0.0
 40
0.25
100
AcDbArc
 50
90.0
 51
180.0
  0
LINE
  5
159
330
1F
100
AcDbEntity
  8
0
  6
Continuous
 62
     7
370
    25
100
AcDbLine
 10
210.1912162658
 20
110.2853470748
 30
0.0
 11
210.1912162658
 21
110.8853479182
 31
0.0
  0
LINE
  5
15A
330
1F
100
AcDbEntity
  8
0
  6
Continuous
 62
     7
370
    25
100
AcDbLine
 10
199.1912163254
 20
110.8853479182
 30
0.0
 11
199.1912163254
 21
110.2853470748
 31
0.0
  0
LINE
  5
15B
330
1F
100
AcDbEntity
  8
0
  6
Continuous
 62
     7
370
    25
100
AcDbLine
 10
212.1412162129
 20
102.2853476261
 30
0.0
 11
210.1912162658
 21
110.2853470748
 31
0.0
  0
LINE
  5
15C
330
1F
100
AcDbEntity
  8
0
  6
Continuous
 62
     7
370
    25
100
AcDbLine
 10
199.1912163254
 20
110.2853470748
 30
0.0
 11
197.2412163783
 21
102.2853476261
 31
0.0
  0
LINE
  5
15D
330
1F
100
AcDbEntity
  8
0
  6
Continuous
 62
     7
370
    25
100
AcDbLine
 10
197.2412163783
 20
102.2853476261
 30
0.0
 11
197.6912160796
 21
94.2853472462
 31
0.0
  0
LINE
  5
15E
330
1F
100
AcDbEntity
  8
0
  6
Continuous
 62
     7
370
    25
100
AcDbLine
 10
211.6912165117
 20
94.2853472462
 30
0.0
 11
212.1412162129
 21
102.2853476261
 31
0.0
  0
LINE
  5
15F
330
1F
100
AcDbEntity
  8
0
  6
Continuous
 62
     7
370
    25
100
AcDbLine
 10
209.1912161019
 20
72.7853474473
 30
0.0
 11
209.1912161019
 21
74.8550619265
 31
0.0
  0
LINE
  5
160
330
1F
100
AcDbEntity
  8
0
  6
Continuous
 62
     7
370
    25
100
AcDbLine
 10
200.1912164893
 20
74.8550619265
 30
0.0
 11
200.1912164893
 21
72.7853474473
 31
0.0
  0
LINE
  5
161
330
1F
100
AcDbEntity
  8
0
  6
Continuous
 62
     7
370
    25
100
AcDbLine
 10
209.1912161019
 20
68.785347723
 30
0.0
 11
209.1912161019
 21
72.7853474473
 31
0.0
  0
LINE
  5
162
330
1F
100
AcDbEntity
  8
0
  6
Continuous
 62
     7
370
    25
100
AcDbLine
 10
200.1912164893
 20
72.7853474473
 30
0.0
 11
200.1912164893
 21
68.785347723
 31
0.0
  0
CIRCLE
  5
163
330
1F
100
AcDbEntity
  8
0
  6
Continuous
 62
     7
370
    25
100
AcDbCircle
 10
204.6912162956
 20
83.7853473877
 30
0.0
 40
8.197372169802065
  0
CIRCLE
  5
164
330
1F
100
AcDbEntity
  8
0
  6
Continuous
 62
     7
370
    25
100
AcDbCircle
 10
204.6912162956
 20
83.7853473877
 30
0.0
 40
7.0
  0
CIRCLE
  5
165
330
1F
100
AcDbEntity
  8
0
  6
Continuous
 62
     7
370
    25
100
AcDbCircle
 10
204.6912162956
 20
83.7853473877
 30
0.0
 40
5.0
  0
CIRCLE
  5
166
330
1F
100
AcDbEntity
  8
0
  6
Continuous
 62
     7
370
    25
100
AcDbCircle
 10
204.6912162956
 20
83.7853473877
 30
0.0
 40
4.5
  0
CIRCLE
  5
167
330
1F
100
AcDbEntity
  8
0
  6
Continuous
 62
     7
370
    25
100
AcDbCircle
 10
204.6912162956
 20
83.7853473877
 30
0.0
 40
8.445062500000034
  0
CIRCLE
  5
168
330
1F
100
AcDbEntity
  8
0
  6
Continuous
 62
     7
370
    25
100
AcDbCircle
 10
204.6912162956
 20
83.7853473877
 30
0.0
 40
9.999999999999972
  0
CIRCLE
  5
169
330
1F
100
AcDbEntity
  8
0
  6
Continuous
 62
     7
370
    25
100
AcDbCircle
 10
204.6912162956
 20
83.7853473877
 30
0.0
 40
9.5
  0
CIRCLE
  5
16A
330
1F
100
AcDbEntity
  8
0
  6
Continuous
 62
     7
370
    25
100
AcDbCircle
 10
204.6912162956
 20
83.7853473877
 30
0.0
 40
2.999999999999972
  0
SPLINE
  5
16B
330
1F
100
AcDbEntity
  8
0
  6
Continuous
 62
     7
370
    25
100
AcDbSpline
210
0.0
220
0.0
230
1.0
 70
     8
 71
     3
 72
    13
 73
     9
 74
     0
 42
0.000000001
 43
0.00000001
 40
0.0
 40
0.0
 40
0.0
 40
0.0
 40
0.0718680280326739
 40
0.299263643077089
 40
0.528841584314296
 40
0.7608724351670312
 40
0.991827969806919
 40
0.9999999999999999
 40
0.9999999999999999
 40
0.9999999999999999
 40
0.9999999999999999
 10
198.8734970260889
 20
91.8948256676759
 30
0.0
 10
198.8734132778586
 20
91.92986450087689
 30
0.0
 10
198.8730645441982
 20
92.07576872504919
 30
0.0
 10
198.8539498013351
 20
92.31593843416238
 30
0.0
 10
198.8246141354164
 20
92.57540154109674
 30
0.0
 10
198.7999029607126
 20
92.73454551388392
 30
0.0
 10
198.7883641182507
 20
92.80259242630454
 30
0.0
 10
198.7914271159875
 20
92.78407435736412
 30
0.0
 10
198.7915317919582
 20
92.78344151430981
 30
0.0
  0
SPLINE
  5
16C
330
1F
100
AcDbEntity
  8
0
  6
Continuous
 62
     7
370
    25
100
AcDbSpline
210
0.0
220
0.0
230
1.0
 70
    24
 71
     3
 72
    14
 73
    10
 74
     0
 42
0.000000001
 43
0.00000001
 40
0.0
 40
0.0
 40
0.0
 40
0.0
 40
0.0686783537768138
 40
0.2932170497282056
 40
0.2935200239703272
 40
0.5073355948525435
 40
0.7069536501822122
 40
0.9001970470938867
 40
1.0
 40
1.0
 40
1.0
 40
1.0
 10
198.4912161175639
 20
91.78534776770728
 30
0.0
 10
198.4912161175639
 20
91.80419996369024
 30
0.0
 10
198.4912161175639
 20
91.88468799205774
 30
0.0
 10
198.4912161175641
 20
91.96437256039637
 30
0.0
 10
198.4912161175637
 20
92.07359193791221
 30
0.0
 10
198.4912161175639
 20
92.17028206694982
 30
0.0
 10
198.4912161175639
 20
92.27186690333339
 30
0.0
 10
198.4912161175639
 20
92.32541821510317
 30
0.0
 10
198.4912161175639
 20
92.32121152123835
 30
0.0
 10
198.4912161175639
 20
92.3197788452472
 30
0.0
  0
SPLINE
  5
16D
330
1F
100
AcDbEntity
  8
0
  6
Continuous
 62
     7
370
    25
100
AcDbSpline
210
0.0
220
0.0
230
1.0
 70
    24
 71
     3
 72
     9
 73
     5
 74
     0
 42
0.000000001
 43
0.00000001
 40
0.0
 40
0.0
 40
0.0
 40
0.0
 40
0.2165176317845731
 40
1.0
 40
1.0
 40
1.0
 40
1.0
 10
198.4912161175639
 20
91.62186712824958
 30
0.0
 10
198.4912161175639
 20
91.632872122372
 30
0.0
 10
198.4912161175639
 20
91.68369936462351
 30
0.0
 10
198.4912161175639
 20
91.74069370608453
 30
0.0
 10
198.4912161175639
 20
91.78534776770728
 30
0.0
  0
LINE
  5
16E
330
1F
100
AcDbEntity
  8
0
  6
Continuous
 62
     7
370
    25
100
AcDbLine
 10
205.9412162677
 20
110.8853479182
 30
0.0
 11
205.9412162677
 21
111.1353465622
 31
0.0
  0
ARC
  5
16F
330
1F
100
AcDbEntity
  8
0
  6
Continuous
 62
     7
370
    25
100
AcDbCircle
 10
205.9412162956
 20
110.8853473877
 30
0.0
 40
0.25
100
AcDbArc
 50
0.0
 51
90.0
  0
LINE
  5
170
330
1F
100
AcDbEntity
  8
0
  6
Continuous
 62
     7
370
    25
100
AcDbLine
 10
205.9412162677
 20
110.8853479182
 30
0.0
 11
206.1912163087
 21
110.8853479182
 31
0.0
  0
LINE
  5
171
330
1F
100
AcDbEntity
  8
0
  6
Continuous
 62
     7
370
    25
100
AcDbLine
 10
205.9412162677
 20
110.2853470748
 30
0.0
 11
205.9412162677
 21
110.8853479182
 31
0.0
  0
LINE
  5
172
330
1F
100
AcDbEntity
  8
0
  6
Continuous
 62
     7
370
    25
100
AcDbLine
 10
206.1912163087
 20
110.8853479182
 30
0.0
 11
206.1912163087
 21
110.2853470748
 31
0.0
  0
LINE
  5
173
330
1F
100
AcDbEntity
  8
0
  6
Continuous
 62
     7
370
    25
100
AcDbLine
 10
206.1912163087
 20
110.2853470748
 30
0.0
 11
205.9412162677
 21
110.2853470748
 31
0.0
  0
LINE
  5
174
330
1F
100
AcDbEntity
  8
0
  6
Continuous
 62
     7
370
    25
100
AcDbLine
 10
205.9412162677
 20
110.8853479182
 30
0.0
 11
203.4412163236
 21
110.8853479182
 31
0.0
  0
LINE
  5
175
330
1F
100
AcDbEntity
  8
0
  6
Continuous
 62
     7
370
    25
100
AcDbLine
 10
203.4412163236
 20
111.1353465622
 30
0.0
 11
203.4412163236
 21
110.8853479182
 31
0.0
  0
LINE
  5
176
330
1F
100
AcDbEntity
  8
0
  6
Continuous
 62
     7
370
    25
100
AcDbLine
 10
203.4412163236
 20
111.1353465622
 30
0.0
 11
205.9412162677
 21
111.1353465622
 31
0.0
  0
LINE
  5
177
330
1F
100
AcDbEntity
  8
0
  6
Continuous
 62
     7
370
    25
100
AcDbLine
 10
203.4412163236
 20
110.8853479182
 30
0.0
 11
203.4412163236
 21
110.2853470748
 31
0.0
  0
LINE
  5
178
330
1F
100
AcDbEntity
  8
0
  6
Continuous
 62
     7
370
    25
100
AcDbLine
 10
205.9412162677
 20
110.2853470748
 30
0.0
 11
203.4412163236
 21
110.2853470748
 31
0.0
  0
LINE
  5
179
330
1F
100
AcDbEntity
  8
0
  6
Continuous
 62
     7
370
    25
100
AcDbLine
 10
203.1912162826
 20
110.2853470748
 30
0.0
 11
203.1912162826
 21
110.8853479182
 31
0.0
  0
LINE
  5
17A
330
1F
100
AcDbEntity
  8
0
  6
Continuous
 62
     7
370
    25
100
AcDbLine
 10
203.1912162826
 20
110.8853479182
 30
0.0
 11
203.4412163236
 21
110.8853479182
 31
0.0
  0
LINE
  5
17B
330
1F
100
AcDbEntity
  8
0
  6
Continuous
 62
     7
370
    25
100
AcDbLine
 10
203.4412163236
 20
110.2853470748
 30
0.0
 11
203.1912162826
 21
110.2853470748
 31
0.0
  0
ARC
  5
17C
330
1F
100
AcDbEntity
  8
0
  6
Continuous
 62
     7
370
    25
100
AcDbCircle
 10
203.4412162956
 20
110.8853473877
 30
0.0
 40
0.25
100
AcDbArc
 50
90.0
 51
180.0
  0
SPLINE
  5
17D
330
1F
100
AcDbEntity
  8
0
  6
Continuous
 62
     7
370
    25
100
AcDbSpline
210
0.0
220
0.0
230
1.0
 70
     8
 71
     3
 72
    15
 73
    11
 74
     0
 42
0.000000001
 43
0.00000001
 40
0.0
 40
0.0
 40
0.0
 40
0.0
 40
0.0081668554937291
 40
0.3321941846999776
 40
0.4756279332062201
 40
0.6866839627273442
 40
0.8457444903091523
 40
0.8967583891412989
 40
0.9909563331444947
 40
1.0
 40
1.0
 40
1.0
 40
1.0
 10
205.9412162676931
 20
111.1353465622033
 30
0.0
 10
205.9426537419963
 20
111.1353441623441
 30
0.0
 10
206.001124300777
 20
111.1352465459115
 30
0.0
 10
206.0855496403813
 20
111.1256872773406
 30
0.0
 10
206.200129269534
 20
111.0883294373997
 30
0.0
 10
206.2814993683669
 20
111.0434613417179
 30
0.0
 10
206.334519042105
 20
110.9855857748395
 30
0.0
 10
206.3587205365471
 20
110.9349090661011
 30
0.0
 10
206.3649100541093
 20
110.9062150819672
 30
0.0
 10
206.3651117249924
 20
110.887028598714
 30
0.0
 10
206.3651293907792
 20
110.885347918209
 30
0.0
  0
LINE
  5
17E
330
1F
100
AcDbEntity
  8
0
  6
Continuous
 62
     7
370
    25
100
AcDbLine
 10
206.1912163087
 20
110.8853479182
 30
0.0
 11
206.3651293908
 21
110.8853479182
 31
0.0
  0
LINE
  5
17F
330
1F
100
AcDbEntity
  8
0
  6
Continuous
 62
     7
370
    25
100
AcDbLine
 10
203.0173032005
 20
110.8853479182
 30
0.0
 11
203.1912162826
 21
110.8853479182
 31
0.0
  0
SPLINE
  5
180
330
1F
100
AcDbEntity
  8
0
  6
Continuous
 62
     7
370
    25
100
AcDbSpline
210
0.0
220
0.0
230
1.0
 70
     8
 71
     3
 72
    15
 73
    11
 74
     0
 42
0.000000001
 43
0.00000001
 40
0.0
 40
0.0
 40
0.0
 40
0.0
 40
0.0090436668555053
 40
0.1032416108587011
 40
0.1542555096908477
 40
0.3133160372726557
 40
0.5243720667937798
 40
0.6678058153000223
 40
0.9918331445062708
 40
0.9999999999999999
 40
0.9999999999999999
 40
0.9999999999999999
 40
0.9999999999999999
 10
203.0173032004863
 20
110.885347918209
 30
0.0
 10
203.0173208662731
 20
110.887028598714
 30
0.0
 10
203.0175225371562
 20
110.9062150819672
 30
0.0
 10
203.0237120547184
 20
110.9349090661011
 30
0.0
 10
203.0479135491605
 20
110.9855857748395
 30
0.0
 10
203.1009332228986
 20
111.0434613417179
 30
0.0
 10
203.1823033217315
 20
111.0883294373997
 30
0.0
 10
203.2968829508842
 20
111.1256872773406
 30
0.0
 10
203.3813082904884
 20
111.1352465459115
 30
0.0
 10
203.4397788492692
 20
111.1353441623441
 30
0.0
 10
203.4412163235724
 20
111.1353465622033
 30
0.0
  0
LINE
  5
181
330
1F
100
AcDbEntity
  8
0
  6
Continuous
 62
     7
370
    25
100
AcDbLine
 10
206.3651293908
 20
110.8853479182
 30
0.0
 11
206.3651293908
 21
110.2853470748
 31
0.0
  0
LINE
  5
182
330
1F
100
AcDbEntity
  8
0
  6
Continuous
 62
     7
370
    25
100
AcDbLine
 10
206.3651293908
 20
110.2853470748
 30
0.0
 11
206.1912163087
 21
110.2853470748
 31
0.0
  0
LINE
  5
183
330
1F
100
AcDbEntity
  8
0
  6
Continuous
 62
     7
370
    25
100
AcDbLine
 10
203.0173032005
 20
110.2853470748
 30
0.0
 11
203.0173032005
 21
110.8853479182
 31
0.0
  0
LINE
  5
184
330
1F
100
AcDbEntity
  8
0
  6
Continuous
 62
     7
370
    25
100
AcDbLine
 10
203.1912162826
 20
110.2853470748
 30
0.0
 11
203.0173032005
 21
110.2853470748
 31
0.0
  0
LINE
  5
185
330
1F
100
AcDbEntity
  8
0
  6
Continuous
 62
     7
370
    25
100
AcDbLine
 10
205.9412162677
 20
111.1353465622
 30
0.0
 11
209.9412162249
 21
111.1353465622
 31
0.0
  0
LINE
  5
186
330
1F
100
AcDbEntity
  8
0
  6
Continuous
 62
     7
370
    25
100
AcDbLine
 10
199.4412163664
 20
111.1353465622
 30
0.0
 11
203.4412163236
 21
111.1353465622
 31
0.0
  0
LINE
  5
187
330
1F
100
AcDbEntity
  8
0
  6
Continuous
 62
     7
370
    25
100
AcDbLine
 10
206.3651293908
 20
110.2853470748
 30
0.0
 11
210.1912162658
 21
110.2853470748
 31
0.0
  0
LINE
  5
188
330
1F
100
AcDbEntity
  8
0
  6
Continuous
 62
     7
370
    25
100
AcDbLine
 10
199.1912163254
 20
110.2853470748
 30
0.0
 11
203.0173032005
 21
110.2853470748
 31
0.0
  0
LINE
  5
189
330
1F
100
AcDbEntity
  8
0
  6
Continuous
 62
     7
370
    25
100
AcDbLine
 10
204.0912162671
 20
111.145347104
 30
0.0
 11
205.2912163241
 21
111.145347104
 31
0.0
  0
LINE
  5
18A
330
1F
100
AcDbEntity
  8
0
  6
Continuous
 62
     7
370
    25
100
AcDbLine
 10
205.2912163241
 20
111.1353465622
 30
0.0
 11
205.2912163241
 21
111.145347104
 31
0.0
  0
LINE
  5
18B
330
1F
100
AcDbEntity
  8
0
  6
Continuous
 62
     7
370
    25
100
AcDbLine
 10
204.0912162671
 20
111.1353465622
 30
0.0
 11
204.0912162671
 21
111.145347104
 31
0.0
  0
LINE
  5
18C
330
1F
100
AcDbEntity
  8
0
  6
Continuous
 62
     7
370
    25
100
AcDbLine
 10
197.2412163783
 20
102.2853476261
 30
0.0
 11
212.1412162129
 21
102.2853476261
 31
0.0
  0
LINE
  5
18D
330
1F
100
AcDbEntity
  8
0
  6
Continuous
 62
     7
370
    25
100
AcDbLine
 10
197.6912160796
 20
94.2853472462
 30
0.0
 11
211.6912165117
 21
94.2853472462
 31
0.0
  0
LINE
  5
18E
330
1F
100
AcDbEntity
  8
0
  6
Continuous
 62
     7
370
    25
100
AcDbLine
 10
207.9629154802
 20
112.2853474026
 30
0.0
 11
207.9629154802
 21
111.1353465622
 31
0.0
  0
LINE
  5
18F
330
1F
100
AcDbEntity
  8
0
  6
Continuous
 62
     7
370
    25
100
AcDbLine
 10
207.9629154802
 20
112.2853474026
 30
0.0
 11
208.1912164037
 21
112.2853474026
 31
0.0
  0
LINE
  5
190
330
1F
100
AcDbEntity
  8
0
  6
Continuous
 62
     7
370
    25
100
AcDbLine
 10
208.1912164037
 20
111.1353465622
 30
0.0
 11
208.1912164037
 21
112.2853474026
 31
0.0
  0
LINE
  5
191
330
1F
100
AcDbEntity
  8
0
  6
Continuous
 62
     7
370
    25
100
AcDbLine
 10
201.1912161876
 20
112.2853474026
 30
0.0
 11
201.1912161876
 21
111.1353465622
 31
0.0
  0
LINE
  5
192
330
1F
100
AcDbEntity
  8
0
  6
Continuous
 62
     7
370
    25
100
AcDbLine
 10
201.1912161876
 20
112.2853474026
 30
0.0
 11
201.4195171111
 21
112.2853474026
 31
0.0
  0
LINE
  5
193
330
1F
100
AcDbEntity
  8
0
  6
Continuous
 62
     7
370
    25
100
AcDbLine
 10
201.4195171111
 20
112.2853474026
 30
0.0
 11
201.4195171111
 21
111.1353465622
 31
0.0
  0
LINE
  5
194
330
1F
100
AcDbEntity
  8
0
  6
Continuous
 62
     7
370
    25
100
AcDbLine
 10
201.4195171111
 20
112.2853474026
 30
0.0
 11
207.9629154802
 21
112.2853474026
 31
0.0
  0
LINE
  5
195
330
1F
100
AcDbEntity
  8
0
  6
Continuous
 62
     7
370
    25
100
AcDbLine
 10
209.1912161019
 20
68.785347723
 30
0.0
 11
200.1912164893
 21
68.785347723
 31
0.0
  0
LINE
  5
196
330
1F
100
AcDbEntity
  8
0
  6
Continuous
 62
     8
370
    25
100
AcDbLine
 10
210.1912162658
 20
110.8853479182
 30
0.0
 11
206.3651293908
 21
110.8853479182
 31
0.0
  0
LINE
  5
197
330
1F
100
AcDbEntity
  8
0
  6
Continuous
 62
     8
370
    25
100
AcDbLine
 10
203.0173032005
 20
110.8853479182
 30
0.0
 11
199.1912163254
 21
110.8853479182
 31
0.0
  0
LINE
  5
198
330
1F
100
AcDbEntity
  8
0
  6
Continuous
 62
     8
370
    25
100
AcDbLine
 10
209.1912161019
 20
72.7853474473
 30
0.0
 11
200.1912164893
 21
72.7853474473
 31
0.0
  0
LINE
  5
199
330
1F
100
AcDbEntity
  8
0
  6
Continuous
 62
     7
370
    25
100
AcDbLine
 10
167.7826991819
 20
151.5565337155
 30
0.0
 11
166.1646659069
 21
151.5565337155
 31
0.0
  0
LINE
  5
19A
330
1F
100
AcDbEntity
  8
0
  6
Continuous
 62
     7
370
    25
100
AcDbLine
 10
166.1646659069
 20
131.5565341625
 30
0.0
 11
167.7826991819
 21
131.5565341625
 31
0.0
  0
ARC
  5
19B
330
1F
100
AcDbEntity
  8
0
  6
Continuous
 62
     7
370
    25
100
AcDbCircle
 10
149.2826994874
 20
132.556533939
 30
0.0
 40
1.5
100
AcDbArc
 50
318.1896851042
 51
0.0
  0
ARC
  5
19C
330
1F
100
AcDbEntity
  8
0
  6
Continuous
 62
     7
370
    25
100
AcDbCircle
 10
149.2826994874
 20
150.556533939
 30
0.0
 40
1.5
100
AcDbArc
 50
0.0
 51
41.8103148958
  0
ARC
  5
19D
330
1F
100
AcDbEntity
  8
0
  6
Continuous
 62
     7
370
    25
100
AcDbCircle
 10
167.2826994874
 20
150.556533939
 30
0.0
 40
1.5
100
AcDbArc
 50
138.1896851042
 51
180.0
  0
ARC
  5
19E
330
1F
100
AcDbEntity
  8
0
  6
Continuous
 62
     7
370
    25
100
AcDbCircle
 10
167.2826994874
 20
132.556533939
 30
0.0
 40
1.5
100
AcDbArc
 50
180.0
 51
221.8103148958
  0
LINE
  5
19F
330
1F
100
AcDbEntity
  8
0
  6
Continuous
 62
     7
370
    25
100
AcDbLine
 10
167.7826991819
 20
131.5565341625
 30
0.0
 11
168.2826992639
 21
132.0565342445
 31
0.0
  0
LINE
  5
1A0
330
1F
100
AcDbEntity
  8
0
  6
Continuous
 62
     7
370
    25
100
AcDbLine
 10
168.2826992639
 20
151.0565336335
 30
0.0
 11
167.7826991819
 21
151.5565337155
 31
0.0
  0
LINE
  5
1A1
330
1F
100
AcDbEntity
  8
0
  6
Continuous
 62
     7
370
    25
100
AcDbLine
 10
148.5326992862
 20
131.5565341625
 30
0.0
 11
150.4007330679
 21
131.5565341625
 31
0.0
  0
LINE
  5
1A2
330
1F
100
AcDbEntity
  8
0
  6
Continuous
 62
     7
370
    25
100
AcDbLine
 10
150.4007330679
 20
151.5565337155
 30
0.0
 11
148.5326992862
 21
151.5565337155
 31
0.0
  0
LINE
  5
1A3
330
1F
100
AcDbEntity
  8
0
  6
Continuous
 62
     7
370
    25
100
AcDbLine
 10
148.5326992862
 20
151.5565337155
 30
0.0
 11
148.2826997109
 21
151.3065341402
 31
0.0
  0
LINE
  5
1A4
330
1F
100
AcDbEntity
  8
0
  6
Continuous
 62
     7
370
    25
100
AcDbLine
 10
148.2826997109
 20
131.8065337379
 30
0.0
 11
148.5326992862
 21
131.5565341625
 31
0.0
  0
LINE
  5
1A5
330
1F
100
AcDbEntity
  8
0
  6
Continuous
 62
     7
370
    25
100
AcDbLine
 10
168.2826992639
 20
133.1114712644
 30
0.0
 11
176.2087908156
 21
133.3591620911
 31
0.0
  0
LINE
  5
1A6
330
1F
100
AcDbEntity
  8
0
  6
Continuous
 62
     7
370
    25
100
AcDbLine
 10
176.2087908156
 20
149.7539057869
 30
0.0
 11
168.2826992639
 21
150.0015966136
 31
0.0
  0
LINE
  5
1A7
330
1F
100
AcDbEntity
  8
0
  6
Continuous
 62
     7
370
    25
100
AcDbLine
 10
176.2087908156
 20
133.3591620911
 30
0.0
 11
178.2826990403
 21
134.5565337229
 31
0.0
  0
LINE
  5
1A8
330
1F
100
AcDbEntity
  8
0
  6
Continuous
 62
     7
370
    25
100
AcDbLine
 10
178.2826990403
 20
148.5565341551
 30
0.0
 11
176.2087908156
 21
149.7539057869
 31
0.0
  0
LINE
  5
1A9
330
1F
100
AcDbEntity
  8
0
  6
Continuous
 62
     7
370
    25
100
AcDbLine
 10
148.2826997109
 20
149.556534319
 30
0.0
 11
145.5326997258
 21
149.556534319
 31
0.0
  0
LINE
  5
1AA
330
1F
100
AcDbEntity
  8
0
  6
Continuous
 62
     7
370
    25
100
AcDbLine
 10
145.5326997258
 20
133.556533559
 30
0.0
 11
148.2826997109
 21
133.556533559
 31
0.0
  0
LINE
  5
1AB
330
1F
100
AcDbEntity
  8
0
  6
Continuous
 62
     7
370
    25
100
AcDbLine
 10
145.5326997258
 20
149.556534319
 30
0.0
 11
145.2826992192
 21
149.3065338124
 31
0.0
  0
LINE
  5
1AC
330
1F
100
AcDbEntity
  8
0
  6
Continuous
 62
     7
370
    25
100
AcDbLine
 10
145.2826992192
 20
133.8065340657
 30
0.0
 11
145.5326997258
 21
133.556533559
 31
0.0
  0
LINE
  5
1AD
330
1F
100
AcDbEntity
  8
0
  6
Continuous
 62
     7
370
    25
100
AcDbLine
 10
139.2827000983
 20
137.0565341327
 30
0.0
 11
145.2826992192
 21
137.0565341327
 31
0.0
  0
LINE
  5
1AE
330
1F
100
AcDbEntity
  8
0
  6
Continuous
 62
     7
370
    25
100
AcDbLine
 10
145.2826992192
 20
146.0565337453
 30
0.0
 11
139.2827000983
 21
146.0565337453
 31
0.0
  0
LINE
  5
1AF
330
1F
100
AcDbEntity
  8
0
  6
Continuous
 62
     7
370
    25
100
AcDbLine
 10
139.2827000983
 20
146.0565337453
 30
0.0
 11
128.2827001579
 21
146.0565337453
 31
0.0
  0
LINE
  5
1B0
330
1F
100
AcDbEntity
  8
0
  6
Continuous
 62
     7
370
    25
100
AcDbLine
 10
128.2827001579
 20
137.0565341327
 30
0.0
 11
139.2827000983
 21
137.0565341327
 31
0.0
  0
LINE
  5
1B1
330
1F
100
AcDbEntity
  8
0
  6
Continuous
 62
     7
370
    25
100
AcDbLine
 10
166.1646659069
 20
131.5565341625
 30
0.0
 11
166.1646659069
 21
151.5565337155
 31
0.0
  0
LINE
  5
1B2
330
1F
100
AcDbEntity
  8
0
  6
Continuous
 62
     7
370
    25
100
AcDbLine
 10
167.7826991819
 20
131.5565341625
 30
0.0
 11
167.7826991819
 21
151.5565337155
 31
0.0
  0
LINE
  5
1B3
330
1F
100
AcDbEntity
  8
0
  6
Continuous
 62
     7
370
    25
100
AcDbLine
 10
150.4007330679
 20
151.5565337155
 30
0.0
 11
150.4007330679
 21
146.6475701433
 31
0.0
  0
LINE
  5
1B4
330
1F
100
AcDbEntity
  8
0
  6
Continuous
 62
     7
370
    25
100
AcDbLine
 10
150.4007330679
 20
136.4654977348
 30
0.0
 11
150.4007330679
 21
131.5565341625
 31
0.0
  0
SPLINE
  5
1B5
330
1F
100
AcDbEntity
  8
0
  6
Continuous
 62
     7
370
    25
100
AcDbSpline
210
0.0
220
0.0
230
1.0
 70
     8
 71
     3
 72
    12
 73
     8
 74
     0
 42
0.000000001
 43
0.00000001
 40
0.0
 40
0.0
 40
0.0
 40
0.0
 40
0.2500000000000001
 40
0.2500000000000001
 40
0.5000000000000001
 40
0.5000000000000001
 40
1.0
 40
1.0
 40
1.0
 40
1.0
 10
150.5536134202742
 20
150.3189951187657
 30
0.0
 10
150.6347300223788
 20
150.3535002566258
 30
0.0
 10
150.6817599455472
 20
150.3863453279263
 30
0.0
 10
150.744623547079
 20
150.444697856173
 30
0.0
 10
150.7600732179962
 20
150.4703522198016
 30
0.0
 10
150.7872568823755
 20
150.5334514725413
 30
0.0
 10
150.7826994873762
 20
150.5565339390159
 30
0.0
 10
150.7826994873762
 20
150.5565339390159
 30
0.0
  0
SPLINE
  5
1B6
330
1F
100
AcDbEntity
  8
0
  6
Continuous
 62
     7
370
    25
100
AcDbSpline
210
0.0
220
0.0
230
1.0
 70
     8
 71
     3
 72
    14
 73
    10
 74
     0
 42
0.000000001
 43
0.00000001
 40
0.0
 40
0.0
 40
0.0
 40
0.0
 40
0.25
 40
0.25
 40
0.5
 40
0.5
 40
0.75
 40
0.75
 40
1.0
 40
1.0
 40
1.0
 40
1.0
 10
150.5536134202742
 20
150.3189951187657
 30
0.0
 10
150.5260924325291
 20
150.3072883232202
 30
0.0
 10
150.5061725106927
 20
150.2752463701386
 30
0.0
 10
150.4905054688747
 20
150.1759226194736
 30
0.0
 10
150.494997300687
 20
150.1080991766929
 30
0.0
 10
150.5262536459705
 20
149.94565755928
 30
0.0
 10
150.5526262293523
 20
149.8512121625443
 30
0.0
 10
150.6154627804966
 20
149.6429830549477
 30
0.0
 10
150.6515023593567
 20
149.5303846620646
 30
0.0
 10
150.6854983627223
 20
149.4106282684645
 30
0.0
  0
SPLINE
  5
1B7
330
1F
100
AcDbEntity
  8
0
  6
Continuous
 62
     7
370
    25
100
AcDbSpline
210
0.0
220
0.0
230
1.0
 70
     8
 71
     3
 72
     8
 73
     4
 74
     0
 42
0.000000001
 43
0.00000001
 40
0.0
 40
0.0
 40
0.0
 40
0.0
 40
1.0
 40
1.0
 40
1.0
 40
1.0
 10
150.7826994873762
 20
148.6804373634035
 30
0.0
 10
150.7826994873762
 20
148.9278668201985
 30
0.0
 10
150.7533347802984
 20
149.1716635691058
 30
0.0
 10
150.6854983627223
 20
149.4106282684645
 30
0.0
  0
LINE
  5
1B8
330
1F
100
AcDbEntity
  8
0
  6
Continuous
 62
     7
370
    25
100
AcDbLine
 10
150.782699655
 20
148.6804373104
 30
0.0
 11
150.782699655
 21
146.734882566
 31
0.0
  0
LINE
  5
1B9
330
1F
100
AcDbEntity
  8
0
  6
Continuous
 62
     7
370
    25
100
AcDbLine
 10
150.782699655
 20
136.3781853121
 30
0.0
 11
150.782699655
 21
134.4326305676
 31
0.0
  0
SPLINE
  5
1BA
330
1F
100
AcDbEntity
  8
0
  6
Continuous
 62
     7
370
    25
100
AcDbSpline
210
0.0
220
0.0
230
1.0
 70
     8
 71
     3
 72
     8
 73
     4
 74
     0
 42
0.000000001
 43
0.00000001
 40
0.0
 40
0.0
 40
0.0
 40
0.0
 40
1.0
 40
1.0
 40
1.0
 40
1.0
 10
150.6854983627223
 20
133.7024396095673
 30
0.0
 10
150.7533347802984
 20
133.9414043089261
 30
0.0
 10
150.7826994873762
 20
134.1852010578334
 30
0.0
 10
150.7826994873762
 20
134.4326305146284
 30
0.0
  0
SPLINE
  5
1BB
330
1F
100
AcDbEntity
  8
0
  6
Continuous
 62
     7
370
    25
100
AcDbSpline
210
0.0
220
0.0
230
1.0
 70
     8
 71
     3
 72
    12
 73
     8
 74
     0
 42
0.000000001
 43
0.00000001
 40
0.0
 40
0.0
 40
0.0
 40
0.0
 40
0.4999999999999992
 40
0.4999999999999992
 40
0.7499999999999996
 40
0.7499999999999996
 40
1.0
 40
1.0
 40
1.0
 40
1.0
 10
150.6854983627223
 20
133.7024396095673
 30
0.0
 10
150.6176286027125
 20
133.4633574561193
 30
0.0
 10
150.5415940514588
 20
133.2475873489424
 30
0.0
 10
150.4949494530818
 20
133.0044927562385
 30
0.0
 10
150.4905104565592
 20
132.9368274807624
 30
0.0
 10
150.506241070352
 20
132.8376743646058
 30
0.0
 10
150.5261215002944
 20
132.8057671900525
 30
0.0
 10
150.5536134202742
 20
132.7940727592661
 30
0.0
  0
SPLINE
  5
1BC
330
1F
100
AcDbEntity
  8
0
  6
Continuous
 62
     7
370
    25
100
AcDbSpline
210
0.0
220
0.0
230
1.0
 70
     8
 71
     3
 72
    12
 73
     8
 74
     0
 42
0.000000001
 43
0.00000001
 40
0.0
 40
0.0
 40
0.0
 40
0.0
 40
0.4999999999999998
 40
0.4999999999999998
 40
0.7499999999999999
 40
0.7499999999999999
 40
1.0
 40
1.0
 40
1.0
 40
1.0
 10
150.7826994873762
 20
132.5565339390159
 30
0.0
 10
150.7826994873762
 20
132.5565339390159
 30
0.0
 10
150.7872568823755
 20
132.5796164054906
 30
0.0
 10
150.7600732179962
 20
132.6427156582303
 30
0.0
 10
150.744623547079
 20
132.6683700218589
 30
0.0
 10
150.6817599455472
 20
132.7267225501056
 30
0.0
 10
150.6347300223788
 20
132.759567621406
 30
0.0
 10
150.5536134202742
 20
132.7940727592661
 30
0.0
  0
SPLINE
  5
1BD
330
1F
100
AcDbEntity
  8
0
  6
Continuous
 62
     7
370
    25
100
AcDbSpline
210
0.0
220
0.0
230
1.0
 70
     8
 71
     3
 72
    12
 73
     8
 74
     0
 42
0.000000001
 43
0.00000001
 40
0.0
 40
0.0
 40
0.0
 40
0.0
 40
0.25
 40
0.25
 40
0.5
 40
0.5
 40
1.0
 40
1.0
 40
1.0
 40
1.0
 10
166.0117855544783
 20
132.7940727592661
 30
0.0
 10
165.9306689523736
 20
132.759567621406
 30
0.0
 10
165.8836390292053
 20
132.7267225501056
 30
0.0
 10
165.8207754276735
 20
132.6683700218589
 30
0.0
 10
165.8053257567563
 20
132.6427156582303
 30
0.0
 10
165.778142092377
 20
132.5796164054906
 30
0.0
 10
165.7826994873762
 20
132.5565339390159
 30
0.0
 10
165.7826994873762
 20
132.5565339390159
 30
0.0
  0
SPLINE
  5
1BE
330
1F
100
AcDbEntity
  8
0
  6
Continuous
 62
     7
370
    25
100
AcDbSpline
210
0.0
220
0.0
230
1.0
 70
     8
 71
     3
 72
    14
 73
    10
 74
     0
 42
0.000000001
 43
0.00000001
 40
0.0
 40
0.0
 40
0.0
 40
0.0
 40
0.25
 40
0.25
 40
0.5
 40
0.5
 40
0.75
 40
0.75
 40
1.0
 40
1.0
 40
1.0
 40
1.0
 10
166.0117855544783
 20
132.7940727592661
 30
0.0
 10
166.0393065422234
 20
132.8057795548117
 30
0.0
 10
166.0592264640598
 20
132.8378215078932
 30
0.0
 10
166.0748935058778
 20
132.9371452585583
 30
0.0
 10
166.0704016740655
 20
133.004968701339
 30
0.0
 10
166.039145328782
 20
133.1674103187518
 30
0.0
 10
166.0127727454002
 20
133.2618557154876
 30
0.0
 10
165.9499361942559
 20
133.4700848230841
 30
0.0
 10
165.9138966153958
 20
133.5826832159673
 30
0.0
 10
165.8799006120302
 20
133.7024396095673
 30
0.0
  0
SPLINE
  5
1BF
330
1F
100
AcDbEntity
  8
0
  6
Continuous
 62
     7
370
    25
100
AcDbSpline
210
0.0
220
0.0
230
1.0
 70
     8
 71
     3
 72
     8
 73
     4
 74
     0
 42
0.000000001
 43
0.00000001
 40
0.0
 40
0.0
 40
0.0
 40
0.0
 40
1.0
 40
1.0
 40
1.0
 40
1.0
 10
165.7826994873762
 20
134.4326305146284
 30
0.0
 10
165.7826994873762
 20
134.1852010578334
 30
0.0
 10
165.8120641944541
 20
133.9414043089261
 30
0.0
 10
165.8799006120302
 20
133.7024396095673
 30
0.0
  0
LINE
  5
1C0
330
1F
100
AcDbEntity
  8
0
  6
Continuous
 62
     7
370
    25
100
AcDbLine
 10
165.7826993197
 20
134.4326305676
 30
0.0
 11
165.7826993197
 21
148.6804373104
 31
0.0
  0
SPLINE
  5
1C1
330
1F
100
AcDbEntity
  8
0
  6
Continuous
 62
     7
370
    25
100
AcDbSpline
210
0.0
220
0.0
230
1.0
 70
     8
 71
     3
 72
     8
 73
     4
 74
     0
 42
0.000000001
 43
0.00000001
 40
0.0
 40
0.0
 40
0.0
 40
0.0
 40
1.0
 40
1.0
 40
1.0
 40
1.0
 10
165.8799006120302
 20
149.4106282684645
 30
0.0
 10
165.8120641944541
 20
149.1716635691058
 30
0.0
 10
165.7826994873762
 20
148.9278668201985
 30
0.0
 10
165.7826994873762
 20
148.6804373634035
 30
0.0
  0
SPLINE
  5
1C2
330
1F
100
AcDbEntity
  8
0
  6
Continuous
 62
     7
370
    25
100
AcDbSpline
210
0.0
220
0.0
230
1.0
 70
     8
 71
     3
 72
    12
 73
     8
 74
     0
 42
0.000000001
 43
0.00000001
 40
0.0
 40
0.0
 40
0.0
 40
0.0
 40
0.4999999999999992
 40
0.4999999999999992
 40
0.7499999999999996
 40
0.7499999999999996
 40
1.0
 40
1.0
 40
1.0
 40
1.0
 10
165.8799006120302
 20
149.4106282684645
 30
0.0
 10
165.94777037204
 20
149.6497104219126
 30
0.0
 10
166.0238049232937
 20
149.8654805290894
 30
0.0
 10
166.0704495216707
 20
150.1085751217933
 30
0.0
 10
166.0748885181933
 20
150.1762403972695
 30
0.0
 10
166.0591579044005
 20
150.2753935134261
 30
0.0
 10
166.0392774744581
 20
150.3073006879793
 30
0.0
 10
166.0117855544783
 20
150.3189951187657
 30
0.0
  0
SPLINE
  5
1C3
330
1F
100
AcDbEntity
  8
0
  6
Continuous
 62
     7
370
    25
100
AcDbSpline
210
0.0
220
0.0
230
1.0
 70
     8
 71
     3
 72
    12
 73
     8
 74
     0
 42
0.000000001
 43
0.00000001
 40
0.0
 40
0.0
 40
0.0
 40
0.0
 40
0.5000000000000002
 40
0.5000000000000002
 40
0.7500000000000001
 40
0.7500000000000001
 40
1.0
 40
1.0
 40
1.0
 40
1.0
 10
165.7826994873762
 20
150.5565339390159
 30
0.0
 10
165.7826994873762
 20
150.5565339390159
 30
0.0
 10
165.778142092377
 20
150.5334514725413
 30
0.0
 10
165.8053257567563
 20
150.4703522198016
 30
0.0
 10
165.8207754276735
 20
150.444697856173
 30
0.0
 10
165.8836390292053
 20
150.3863453279263
 30
0.0
 10
165.9306689523736
 20
150.3535002566258
 30
0.0
 10
166.0117855544783
 20
150.3189951187657
 30
0.0
  0
LINE
  5
1C4
330
1F
100
AcDbEntity
  8
0
  6
Continuous
 62
     7
370
    25
100
AcDbLine
 10
168.2826992639
 20
151.0565336335
 30
0.0
 11
168.2826992639
 21
132.0565342445
 31
0.0
  0
LINE
  5
1C5
330
1F
100
AcDbEntity
  8
0
  6
Continuous
 62
     7
370
    25
100
AcDbLine
 10
148.5326992862
 20
151.5565337155
 30
0.0
 11
148.5326992862
 21
146.2552132558
 31
0.0
  0
LINE
  5
1C6
330
1F
100
AcDbEntity
  8
0
  6
Continuous
 62
     7
370
    25
100
AcDbLine
 10
148.5326992862
 20
136.8578546222
 30
0.0
 11
148.5326992862
 21
131.5565341625
 31
0.0
  0
LINE
  5
1C7
330
1F
100
AcDbEntity
  8
0
  6
Continuous
 62
     7
370
    25
100
AcDbLine
 10
148.2826997109
 20
131.8065337379
 30
0.0
 11
148.2826997109
 21
136.906034733
 31
0.0
  0
LINE
  5
1C8
330
1F
100
AcDbEntity
  8
0
  6
Continuous
 62
     7
370
    25
100
AcDbLine
 10
148.2826997109
 20
146.2070331451
 30
0.0
 11
148.2826997109
 21
151.3065341402
 31
0.0
  0
ARC
  5
1C9
330
1F
100
AcDbEntity
  8
0
  6
Continuous
 62
     7
370
    25
100
AcDbCircle
 10
165.329381722
 20
148.739412795
 30
0.0
 40
0.4571377824698378
100
AcDbArc
 50
264.1388497305
 51
352.5875946393
  0
ARC
  5
1CA
330
1F
100
AcDbEntity
  8
0
  6
Continuous
 62
     7
370
    25
100
AcDbCircle
 10
165.329381722
 20
134.373655083
 30
0.0
 40
0.4571377824698378
100
AcDbArc
 50
7.4124053607
 51
95.8611502695
  0
ARC
  5
1CB
330
1F
100
AcDbEntity
  8
0
  6
Continuous
 62
     7
370
    25
100
AcDbCircle
 10
151.2360172527
 20
148.739412795
 30
0.0
 40
0.4571377824698493
100
AcDbArc
 50
187.4124053607
 51
275.8611502695
  0
ARC
  5
1CC
330
1F
100
AcDbEntity
  8
0
  6
Continuous
 62
     7
370
    25
100
AcDbCircle
 10
151.2360172527
 20
134.373655083
 30
0.0
 40
0.4571377824698493
100
AcDbArc
 50
84.1388497305
 51
172.5875946393
  0
LINE
  5
1CD
330
1F
100
AcDbEntity
  8
0
  6
Continuous
 62
     7
370
    25
100
AcDbLine
 10
176.2087908156
 20
149.7539057869
 30
0.0
 11
176.2087908156
 21
133.3591620911
 31
0.0
  0
LINE
  5
1CE
330
1F
100
AcDbEntity
  8
0
  6
Continuous
 62
     7
370
    25
100
AcDbLine
 10
178.2826990403
 20
148.5565341551
 30
0.0
 11
178.2826990403
 21
134.5565337229
 31
0.0
  0
LWPOLYLINE
  5
1CF
330
1F
100
AcDbEntity
  8
0
  6
Continuous
 62
     7
370
    25
100
AcDbPolyline
 90
        9
 70
   128
 43
0.0
 10
150.6854984492
 20
149.4106286678
 10
150.7086306393
 20
149.4178464178
 10
150.7447426722
 20
149.4291144896
 10
150.7927807562
 20
149.4441041265
 10
150.8513418541
 20
149.4623766754
 10
150.9187151261
 20
149.4833994199
 10
150.9929331534
 20
149.506557687
 10
151.0718287483
 20
149.5311753366
 10
151.1530978188
 20
149.556534319
  0
SPLINE
  5
1D0
330
1F
100
AcDbEntity
  8
0
  6
Continuous
 62
     7
370
    25
100
AcDbSpline
210
0.0
220
0.0
230
1.0
 70
     8
 71
     3
 72
     8
 73
     4
 74
     0
 42
0.000000001
 43
0.00000001
 40
0.0
 40
0.0
 40
0.0
 40
0.0
 40
1.0
 40
1.0
 40
1.0
 40
1.0
 10
151.1530979878377
 20
149.5565339390159
 30
0.0
 10
151.2421066832261
 20
149.2712781813861
 30
0.0
 10
151.2826994873762
 20
148.9788602315042
 30
0.0
 10
151.2826994873762
 20
148.6804373634035
 30
0.0
  0
LINE
  5
1D1
330
1F
100
AcDbEntity
  8
0
  6
Continuous
 62
     7
370
    25
100
AcDbLine
 10
150.782699655
 20
148.6804373104
 30
0.0
 11
151.2826992713
 21
148.6804373104
 31
0.0
  0
SPLINE
  5
1D2
330
1F
100
AcDbEntity
  8
0
  6
Continuous
 62
     7
370
    25
100
AcDbSpline
210
0.0
220
0.0
230
1.0
 70
     8
 71
     3
 72
     8
 73
     4
 74
     0
 42
0.000000001
 43
0.00000001
 40
0.0
 40
0.0
 40
0.0
 40
0.0
 40
1.0
 40
1.0
 40
1.0
 40
1.0
 10
165.2826994873762
 20
148.6804373634035
 30
0.0
 10
165.2826994873762
 20
148.9788602315042
 30
0.0
 10
165.3232922915264
 20
149.2712781813861
 30
0.0
 10
165.4123009869148
 20
149.5565339390159
 30
0.0
  0
LWPOLYLINE
  5
1D3
330
1F
100
AcDbEntity
  8
0
  6
Continuous
 62
     7
370
    25
100
AcDbPolyline
 90
        9
 70
   128
 43
0.0
 10
165.4123011559
 20
149.556534319
 10
165.4935702264
 20
149.5311753366
 10
165.5724658214
 20
149.506557687
 10
165.6466838487
 20
149.4833994199
 10
165.7140571207
 20
149.4623766754
 10
165.7726182185
 20
149.4441041265
 10
165.8206563026
 20
149.4291144896
 10
165.8567683354
 20
149.4178464178
 10
165.8799005255
 20
149.4106286678
  0
LINE
  5
1D4
330
1F
100
AcDbEntity
  8
0
  6
Continuous
 62
     7
370
    25
100
AcDbLine
 10
165.2826997034
 20
148.6804373104
 30
0.0
 11
165.7826993197
 21
148.6804373104
 31
0.0
  0
SPLINE
  5
1D5
330
1F
100
AcDbEntity
  8
0
  6
Continuous
 62
     7
370
    25
100
AcDbSpline
210
0.0
220
0.0
230
1.0
 70
     8
 71
     3
 72
     8
 73
     4
 74
     0
 42
0.000000001
 43
0.00000001
 40
0.0
 40
0.0
 40
0.0
 40
0.0
 40
1.0
 40
1.0
 40
1.0
 40
1.0
 10
151.2826994873762
 20
134.4326305146284
 30
0.0
 10
151.2826994873762
 20
134.1342076465277
 30
0.0
 10
151.2421066832261
 20
133.8417896966457
 30
0.0
 10
151.1530979878377
 20
133.5565339390159
 30
0.0
  0
LWPOLYLINE
  5
1D6
330
1F
100
AcDbEntity
  8
0
  6
Continuous
 62
     7
370
    25
100
AcDbPolyline
 90
        9
 70
   128
 43
0.0
 10
151.1530978188
 20
133.556533559
 10
151.0718287483
 20
133.5818925414
 10
150.9929331534
 20
133.606510191
 10
150.9187151261
 20
133.6296684582
 10
150.8513418541
 20
133.6506912027
 10
150.7927807562
 20
133.6689637516
 10
150.7447426722
 20
133.6839533884
 10
150.7086306393
 20
133.6952214602
 10
150.6854984492
 20
133.7024392102
  0
LINE
  5
1D7
330
1F
100
AcDbEntity
  8
0
  6
Continuous
 62
     7
370
    25
100
AcDbLine
 10
150.782699655
 20
134.4326305676
 30
0.0
 11
151.2826992713
 21
134.4326305676
 31
0.0
  0
LWPOLYLINE
  5
1D8
330
1F
100
AcDbEntity
  8
0
  6
Continuous
 62
     7
370
    25
100
AcDbPolyline
 90
        9
 70
   128
 43
0.0
 10
165.8799005255
 20
133.7024392102
 10
165.8567683354
 20
133.6952214602
 10
165.8206563026
 20
133.6839533884
 10
165.7726182185
 20
133.6689637516
 10
165.7140571207
 20
133.6506912027
 10
165.6466838487
 20
133.6296684582
 10
165.5724658214
 20
133.606510191
 10
165.4935702264
 20
133.5818925414
 10
165.4123011559
 20
133.556533559
  0
SPLINE
  5
1D9
330
1F
100
AcDbEntity
  8
0
  6
Continuous
 62
     7
370
    25
100
AcDbSpline
210
0.0
220
0.0
230
1.0
 70
     8
 71
     3
 72
     8
 73
     4
 74
     0
 42
0.000000001
 43
0.00000001
 40
0.0
 40
0.0
 40
0.0
 40
0.0
 40
1.0
 40
1.0
 40
1.0
 40
1.0
 10
165.4123009869148
 20
133.5565339390159
 30
0.0
 10
165.3232922915264
 20
133.8417896966457
 30
0.0
 10
165.2826994873762
 20
134.1342076465277
 30
0.0
 10
165.2826994873762
 20
134.4326305146284
 30
0.0
  0
LINE
  5
1DA
330
1F
100
AcDbEntity
  8
0
  6
Continuous
 62
     7
370
    25
100
AcDbLine
 10
165.7826993197
 20
134.4326305676
 30
0.0
 11
165.2826997034
 21
134.4326305676
 31
0.0
  0
LINE
  5
1DB
330
1F
100
AcDbEntity
  8
0
  6
Continuous
 62
     7
370
    25
100
AcDbLine
 10
151.2826992713
 20
148.2846647974
 30
0.0
 11
151.2826992713
 21
148.6804373104
 31
0.0
  0
LINE
  5
1DC
330
1F
100
AcDbEntity
  8
0
  6
Continuous
 62
     7
370
    25
100
AcDbLine
 10
165.2826997034
 20
148.2846647974
 30
0.0
 11
165.2826997034
 21
148.6804373104
 31
0.0
  0
LINE
  5
1DD
330
1F
100
AcDbEntity
  8
0
  6
Continuous
 62
     7
370
    25
100
AcDbLine
 10
151.2826992713
 20
134.4326305676
 30
0.0
 11
151.2826992713
 21
134.8284030806
 31
0.0
  0
LINE
  5
1DE
330
1F
100
AcDbEntity
  8
0
  6
Continuous
 62
     7
370
    25
100
AcDbLine
 10
165.2826997034
 20
134.4326305676
 30
0.0
 11
165.2826997034
 21
134.8284030806
 31
0.0
  0
ARC
  5
1DF
330
1F
100
AcDbEntity
  8
0
  6
Continuous
 62
     7
370
    25
100
AcDbCircle
 10
150.9810796206
 20
150.5358411169
 30
0.0
 40
0.4793220025378311
100
AcDbArc
 50
206.8978733264
 51
269.5424057934
  0
SPLINE
  5
1E0
330
1F
100
AcDbEntity
  8
0
  6
Continuous
 62
     7
370
    25
100
AcDbSpline
210
0.0
220
0.0
230
1.0
 70
     8
 71
     3
 72
    14
 73
    10
 74
     0
 42
0.000000001
 43
0.00000001
 40
0.0
 40
0.0
 40
0.0
 40
0.0
 40
0.25
 40
0.25
 40
0.5
 40
0.5
 40
0.75
 40
0.75
 40
1.0
 40
1.0
 40
1.0
 40
1.0
 10
151.1530979878377
 20
149.5565339390159
 30
0.0
 10
151.1146225042161
 20
149.6181872032434
 30
0.0
 10
151.0735335827461
 20
149.6763711485163
 30
0.0
 10
150.9942507353055
 20
149.7900364699833
 30
0.0
 10
150.956967834195
 20
149.843713068683
 30
0.0
 10
150.9041620748833
 20
149.9437031011297
 30
0.0
 10
150.8921928147896
 20
149.9881076013527
 30
0.0
 10
150.9121946031618
 20
150.0441674568464
 30
0.0
 10
150.9416510587141
 20
150.0565339390159
 30
0.0
 10
150.9772513979069
 20
150.0565339390159
 30
0.0
  0
ARC
  5
1E1
330
1F
100
AcDbEntity
  8
0
  6
Continuous
 62
     7
370
    25
100
AcDbCircle
 10
165.5843193542
 20
132.5772267611
 30
0.0
 40
0.4793220025377928
100
AcDbArc
 50
26.8978733264
 51
89.5424057934
  0
SPLINE
  5
1E2
330
1F
100
AcDbEntity
  8
0
  6
Continuous
 62
     7
370
    25
100
AcDbSpline
210
0.0
220
0.0
230
1.0
 70
     8
 71
     3
 72
    14
 73
    10
 74
     0
 42
0.000000001
 43
0.00000001
 40
0.0
 40
0.0
 40
0.0
 40
0.0
 40
0.25
 40
0.25
 40
0.5
 40
0.5
 40
0.75
 40
0.75
 40
1.0
 40
1.0
 40
1.0
 40
1.0
 10
165.4123009869148
 20
133.5565339390159
 30
0.0
 10
165.4507764705364
 20
133.4948806747884
 30
0.0
 10
165.4918653920064
 20
133.4366967295155
 30
0.0
 10
165.571148239447
 20
133.3230314080486
 30
0.0
 10
165.6084311405574
 20
133.2693548093488
 30
0.0
 10
165.6612368998692
 20
133.1693647769022
 30
0.0
 10
165.6732061599628
 20
133.1249602766792
 30
0.0
 10
165.6532043715907
 20
133.0689004211854
 30
0.0
 10
165.6237479160384
 20
133.0565339390159
 30
0.0
 10
165.5881475768456
 20
133.0565339390159
 30
0.0
  0
SPLINE
  5
1E3
330
1F
100
AcDbEntity
  8
0
  6
Continuous
 62
     7
370
    25
100
AcDbSpline
210
0.0
220
0.0
230
1.0
 70
     8
 71
     3
 72
    16
 73
    12
 74
     0
 42
0.000000001
 43
0.00000001
 40
0.0
 40
0.0
 40
0.0
 40
0.0
 40
0.2500000000000011
 40
0.2500000000000011
 40
0.3749999999999992
 40
0.3749999999999992
 40
0.4999999999999974
 40
0.4999999999999974
 40
0.7499999999999987
 40
0.7499999999999987
 40
1.0
 40
1.0
 40
1.0
 40
1.0
 10
165.5881475768456
 20
150.0565339390159
 30
0.0
 10
165.6237015062943
 20
150.0565339390159
 30
0.0
 10
165.652973647523
 20
150.0444021886001
 30
0.0
 10
165.6681861977439
 20
150.0023804823207
 30
0.0
 10
165.6682468659174
 20
149.9841661128142
 30
0.0
 10
165.6580362814401
 20
149.9422291002876
 30
0.0
 10
165.6482529519148
 20
149.9192015367933
 30
0.0
 10
165.6090884033829
 20
149.8447928580213
 30
0.0
 10
165.5712153301096
 20
149.7901349818388
 30
0.0
 10
165.492142357118
 20
149.6767659086601
 30
0.0
 10
165.4507552245272
 20
149.6181531585559
 30
0.0
 10
165.4123009869148
 20
149.5565339390159
 30
0.0
  0
ARC
  5
1E4
330
1F
100
AcDbEntity
  8
0
  6
Continuous
 62
     7
370
    25
100
AcDbCircle
 10
165.5843193542
 20
150.5358411169
 30
0.0
 40
0.4793220025378209
100
AcDbArc
 50
270.4575942066
 51
333.1021266736
  0
SPLINE
  5
1E5
330
1F
100
AcDbEntity
  8
0
  6
Continuous
 62
     7
370
    25
100
AcDbSpline
210
0.0
220
0.0
230
1.0
 70
     8
 71
     3
 72
    16
 73
    12
 74
     0
 42
0.000000001
 43
0.00000001
 40
0.0
 40
0.0
 40
0.0
 40
0.0
 40
0.2500000000000049
 40
0.2500000000000049
 40
0.3750000000000051
 40
0.3750000000000051
 40
0.5000000000000052
 40
0.5000000000000052
 40
0.7500000000000026
 40
0.7500000000000026
 40
1.0
 40
1.0
 40
1.0
 40
1.0
 10
150.9772513979069
 20
133.0565339390159
 30
0.0
 10
150.9416974684582
 20
133.0565339390159
 30
0.0
 10
150.9124253272295
 20
133.0686656894317
 30
0.0
 10
150.8972127770086
 20
133.1106873957112
 30
0.0
 10
150.8971521088351
 20
133.1289017652177
 30
0.0
 10
150.9073626933124
 20
133.1708387777443
 30
0.0
 10
150.9171460228376
 20
133.1938663412385
 30
0.0
 10
150.9563105713696
 20
133.2682750200106
 30
0.0
 10
150.9941836446429
 20
133.3229328961931
 30
0.0
 10
151.0732566176345
 20
133.4363019693718
 30
0.0
 10
151.1146437502253
 20
133.494914719476
 30
0.0
 10
151.1530979878377
 20
133.5565339390159
 30
0.0
  0
ARC
  5
1E6
330
1F
100
AcDbEntity
  8
0
  6
Continuous
 62
     7
370
    25
100
AcDbCircle
 10
150.9810796206
 20
132.5772267611
 30
0.0
 40
0.4793220025378182
100
AcDbArc
 50
90.4575942066
 51
153.1021266736
  0
LINE
  5
1E7
330
1F
100
AcDbEntity
  8
0
  6
Continuous
 62
     7
370
    25
100
AcDbLine
 10
165.4123011559
 20
149.556534319
 30
0.0
 11
151.1530978188
 21
149.556534319
 31
0.0
  0
LINE
  5
1E8
330
1F
100
AcDbEntity
  8
0
  6
Continuous
 62
     7
370
    25
100
AcDbLine
 10
150.9772515439
 20
150.056534401
 30
0.0
 11
165.5881474309
 21
150.056534401
 31
0.0
  0
LINE
  5
1E9
330
1F
100
AcDbEntity
  8
0
  6
Continuous
 62
     7
370
    25
100
AcDbLine
 10
151.1530978188
 20
133.556533559
 30
0.0
 11
165.4123011559
 21
133.556533559
 31
0.0
  0
LINE
  5
1EA
330
1F
100
AcDbEntity
  8
0
  6
Continuous
 62
     7
370
    25
100
AcDbLine
 10
165.5881474309
 20
133.0565334771
 30
0.0
 11
150.9772515439
 21
133.0565334771
 31
0.0
  0
ARC
  5
1EB
330
1F
100
AcDbEntity
  8
0
  6
Continuous
 62
     7
370
    25
100
AcDbCircle
 10
151.2826994874
 20
150.556533939
 30
0.0
 40
0.5
100
AcDbArc
 50
180.0
 51
270.0
  0
ARC
  5
1EC
330
1F
100
AcDbEntity
  8
0
  6
Continuous
 62
     7
370
    25
100
AcDbCircle
 10
165.2826994874
 20
150.556533939
 30
0.0
 40
0.5
100
AcDbArc
 50
270.0
 51
0.0
  0
ARC
  5
1ED
330
1F
100
AcDbEntity
  8
0
  6
Continuous
 62
     7
370
    25
100
AcDbCircle
 10
151.2826994874
 20
132.556533939
 30
0.0
 40
0.5
100
AcDbArc
 50
90.0
 51
180.0
  0
ARC
  5
1EE
330
1F
100
AcDbEntity
  8
0
  6
Continuous
 62
     7
370
    25
100
AcDbCircle
 10
165.2826994874
 20
132.556533939
 30
0.0
 40
0.5
100
AcDbArc
 50
0.0
 51
90.0
  0
SPLINE
  5
1EF
330
1F
100
AcDbEntity
  8
0
  6
Continuous
 62
     7
370
    25
100
AcDbSpline
210
0.0
220
0.0
230
1.0
 70
     8
 71
     3
 72
    15
 73
    11
 74
     0
 42
0.000000001
 43
0.00000001
 40
0.0
 40
0.0
 40
0.0
 40
0.0
 40
0.0090436668555053
 40
0.1032416108587011
 40
0.1542555096908477
 40
0.3133160372726557
 40
0.5243720667937798
 40
0.6678058153000223
 40
0.9918331445062708
 40
0.9999999999999999
 40
0.9999999999999999
 40
0.9999999999999999
 40
0.9999999999999999
 10
153.04361419307
 20
143.2304470341624
 30
0.0
 10
153.0436199485697
 20
143.2304293683756
 30
0.0
 10
153.0436856527879
 20
143.2302276974925
 30
0.0
 10
153.0456807385766
 20
143.2240381799303
 30
0.0
 10
153.0534969613122
 20
143.1998366854882
 30
0.0
 10
153.070667956953
 20
143.14681701175
 30
0.0
 10
153.0972509697577
 20
143.0654469129172
 30
0.0
 10
153.1350811380402
 20
142.9508672837645
 30
0.0
 10
153.1633603315582
 20
142.8664419441602
 30
0.0
 10
153.1831924223369
 20
142.8079713853795
 30
0.0
 10
153.183679986018
 20
142.8065339110763
 30
0.0
  0
ARC
  5
1F0
330
1F
100
AcDbEntity
  8
0
  6
Continuous
 62
     7
370
    25
100
AcDbCircle
 10
158.2826994874
 20
141.556533939
 30
0.0
 40
5.50000000000002
100
AcDbArc
 50
17.7189318734
 51
162.2810681266
  0
SPLINE
  5
1F1
330
1F
100
AcDbEntity
  8
0
  6
Continuous
 62
     7
370
    25
100
AcDbSpline
210
0.0
220
0.0
230
1.0
 70
     8
 71
     3
 72
    15
 73
    11
 74
     0
 42
0.000000001
 43
0.00000001
 40
0.0
 40
0.0
 40
0.0
 40
0.0
 40
0.0081668554937291
 40
0.3321941846999776
 40
0.4756279332062201
 40
0.6866839627273442
 40
0.8457444903091523
 40
0.8967583891412989
 40
0.9909563331444947
 40
1.0
 40
1.0
 40
1.0
 40
1.0
 10
163.3817189887345
 20
142.8065339110763
 30
0.0
 10
163.3822065524156
 20
142.8079713853795
 30
0.0
 10
163.4020386431943
 20
142.8664419441602
 30
0.0
 10
163.4303178367122
 20
142.9508672837645
 30
0.0
 10
163.4681480049948
 20
143.0654469129172
 30
0.0
 10
163.4947310177994
 20
143.14681701175
 30
0.0
 10
163.5119020134403
 20
143.1998366854882
 30
0.0
 10
163.5197182361759
 20
143.2240381799303
 30
0.0
 10
163.5217133219646
 20
143.2302276974925
 30
0.0
 10
163.5217790261828
 20
143.2304293683756
 30
0.0
 10
163.5217847816825
 20
143.2304470341624
 30
0.0
  0
ARC
  5
1F2
330
1F
100
AcDbEntity
  8
0
  6
Continuous
 62
     7
370
    25
100
AcDbCircle
 10
158.2826994874
 20
141.556533939
 30
0.0
 40
5.250000000000009
100
AcDbArc
 50
13.774146998
 51
166.225853002
  0
SPLINE
  5
1F3
330
1F
100
AcDbEntity
  8
0
  6
Continuous
 62
     7
370
    25
100
AcDbSpline
210
0.0
220
0.0
230
1.0
 70
     8
 71
     3
 72
    15
 73
    11
 74
     0
 42
0.000000001
 43
0.00000001
 40
0.0
 40
0.0
 40
0.0
 40
0.0
 40
0.0089534934608068
 40
0.0998985020501141
 40
0.1531621750630547
 40
0.3125626131158444
 40
0.524966528186016
 40
0.6689889196484162
 40
0.9919154833883785
 40
0.9999999999999999
 40
0.9999999999999999
 40
0.9999999999999999
 40
0.9999999999999999
 10
163.7599248953343
 20
143.0565339520545
 30
0.0
 10
163.7599092316629
 20
143.0565231662852
 30
0.0
 10
163.7597344644262
 20
143.0564028241865
 30
0.0
 10
163.7543037928258
 20
143.05268423296
 30
0.0
 10
163.7327701027729
 20
143.0379736514005
 30
0.0
 10
163.6850630564804
 20
143.0055242797895
 30
0.0
 10
163.6126732483104
 20
142.956940801975
 30
0.0
 10
163.5107535827441
 20
142.8895694086229
 30
0.0
 10
163.435397463227
 20
142.8407580313564
 30
0.0
 10
163.3829987591668
 20
142.8073498623048
 30
0.0
 10
163.3817189887345
 20
142.8065339110763
 30
0.0
  0
ARC
  5
1F4
330
1F
100
AcDbEntity
  8
0
  6
Continuous
 62
     7
370
    25
100
AcDbCircle
 10
163.7599250624
 20
143.306533939
 30
0.0
 40
0.25
100
AcDbArc
 50
197.7189318734
 51
270.0
  0
SPLINE
  5
1F5
330
1F
100
AcDbEntity
  8
0
  6
Continuous
 62
     7
370
    25
100
AcDbSpline
210
0.0
220
0.0
230
1.0
 70
     8
 71
     3
 72
    15
 73
    11
 74
     0
 42
0.000000001
 43
0.00000001
 40
0.0
 40
0.0
 40
0.0
 40
0.0
 40
0.0080845166116213
 40
0.3310110803515837
 40
0.4750334718139839
 40
0.6874373868841556
 40
0.8468378249369453
 40
0.9001014979498858
 40
0.9910465065391931
 40
0.9999999999999999
 40
0.9999999999999999
 40
0.9999999999999999
 40
0.9999999999999999
 10
153.183679986018
 20
142.8065339110763
 30
0.0
 10
153.1824002155857
 20
142.8073498623048
 30
0.0
 10
153.1300015115254
 20
142.8407580313564
 30
0.0
 10
153.0546453920084
 20
142.8895694086229
 30
0.0
 10
152.9527257264421
 20
142.956940801975
 30
0.0
 10
152.8803359182721
 20
143.0055242797895
 30
0.0
 10
152.8326288719796
 20
143.0379736514005
 30
0.0
 10
152.8110951819266
 20
143.05268423296
 30
0.0
 10
152.8056645103262
 20
143.0564028241865
 30
0.0
 10
152.8054897430896
 20
143.0565231662852
 30
0.0
 10
152.8054740794182
 20
143.0565339520545
 30
0.0
  0
ARC
  5
1F6
330
1F
100
AcDbEntity
  8
0
  6
Continuous
 62
     7
370
    25
100
AcDbCircle
 10
152.8054739123
 20
143.306533939
 30
0.0
 40
0.25
100
AcDbArc
 50
270.0
 51
342.2810681266
  0
SPLINE
  5
1F7
330
1F
100
AcDbEntity
  8
0
  6
Continuous
 62
     7
370
    25
100
AcDbSpline
210
0.0
220
0.0
230
1.0
 70
     8
 71
     3
 72
    15
 73
    11
 74
     0
 42
0.000000001
 43
0.00000001
 40
0.0
 40
0.0
 40
0.0
 40
0.0
 40
0.0081668554937291
 40
0.3321941846999776
 40
0.4756279332062201
 40
0.6866839627273442
 40
0.8457444903091523
 40
0.8967583891412989
 40
0.9909563331444947
 40
1.0
 40
1.0
 40
1.0
 40
1.0
 10
153.183679986018
 20
140.3065339669556
 30
0.0
 10
153.1831924223369
 20
140.3050964926524
 30
0.0
 10
153.1633603315582
 20
140.2466259338716
 30
0.0
 10
153.1350811380402
 20
140.1622005942673
 30
0.0
 10
153.0972509697577
 20
140.0476209651146
 30
0.0
 10
153.070667956953
 20
139.9662508662818
 30
0.0
 10
153.0534969613122
 20
139.9132311925437
 30
0.0
 10
153.0456807385766
 20
139.8890296981016
 30
0.0
 10
153.0436856527879
 20
139.8828401805393
 30
0.0
 10
153.0436199485697
 20
139.8826385096563
 30
0.0
 10
153.04361419307
 20
139.8826208438695
 30
0.0
  0
ARC
  5
1F8
330
1F
100
AcDbEntity
  8
0
  6
Continuous
 62
     7
370
    25
100
AcDbCircle
 10
158.2826994874
 20
141.556533939
 30
0.0
 40
5.250000000000009
100
AcDbArc
 50
193.774146998
 51
346.225853002
  0
SPLINE
  5
1F9
330
1F
100
AcDbEntity
  8
0
  6
Continuous
 62
     7
370
    25
100
AcDbSpline
210
0.0
220
0.0
230
1.0
 70
     8
 71
     3
 72
    15
 73
    11
 74
     0
 42
0.000000001
 43
0.00000001
 40
0.0
 40
0.0
 40
0.0
 40
0.0
 40
0.0090436668555053
 40
0.1032416108587011
 40
0.1542555096908477
 40
0.3133160372726557
 40
0.5243720667937798
 40
0.6678058153000223
 40
0.9918331445062708
 40
0.9999999999999999
 40
0.9999999999999999
 40
0.9999999999999999
 40
0.9999999999999999
 10
163.5217847816825
 20
139.8826208438695
 30
0.0
 10
163.5217790261828
 20
139.8826385096563
 30
0.0
 10
163.5217133219646
 20
139.8828401805394
 30
0.0
 10
163.5197182361759
 20
139.8890296981016
 30
0.0
 10
163.5119020134403
 20
139.9132311925437
 30
0.0
 10
163.4947310177994
 20
139.9662508662818
 30
0.0
 10
163.4681480049948
 20
140.0476209651146
 30
0.0
 10
163.4303178367123
 20
140.1622005942673
 30
0.0
 10
163.4020386431943
 20
140.2466259338716
 30
0.0
 10
163.3822065524156
 20
140.3050964926524
 30
0.0
 10
163.3817189887345
 20
140.3065339669556
 30
0.0
  0
ARC
  5
1FA
330
1F
100
AcDbEntity
  8
0
  6
Continuous
 62
     7
370
    25
100
AcDbCircle
 10
158.2826994874
 20
141.556533939
 30
0.0
 40
5.500000000000029
100
AcDbArc
 50
197.7189318734
 51
342.2810681266
  0
ARC
  5
1FB
330
1F
100
AcDbEntity
  8
0
  6
Continuous
 62
     7
370
    25
100
AcDbCircle
 10
163.7599250624
 20
139.806533939
 30
0.0
 40
0.25
100
AcDbArc
 50
90.0
 51
162.2810681266
  0
SPLINE
  5
1FC
330
1F
100
AcDbEntity
  8
0
  6
Continuous
 62
     7
370
    25
100
AcDbSpline
210
0.0
220
0.0
230
1.0
 70
     8
 71
     3
 72
    15
 73
    11
 74
     0
 42
0.000000001
 43
0.00000001
 40
0.0
 40
0.0
 40
0.0
 40
0.0
 40
0.0080845166116213
 40
0.3310110803515837
 40
0.4750334718139839
 40
0.6874373868841556
 40
0.8468378249369453
 40
0.9001014979498858
 40
0.9910465065391931
 40
0.9999999999999999
 40
0.9999999999999999
 40
0.9999999999999999
 40
0.9999999999999999
 10
163.3817189887345
 20
140.3065339669556
 30
0.0
 10
163.3829987591668
 20
140.3057180157271
 30
0.0
 10
163.4353974632271
 20
140.2723098466754
 30
0.0
 10
163.5107535827441
 20
140.223498469409
 30
0.0
 10
163.6126732483104
 20
140.1561270760568
 30
0.0
 10
163.6850630564804
 20
140.1075435982424
 30
0.0
 10
163.7327701027729
 20
140.0750942266313
 30
0.0
 10
163.7543037928258
 20
140.0603836450718
 30
0.0
 10
163.7597344644262
 20
140.0566650538453
 30
0.0
 10
163.7599092316629
 20
140.0565447117467
 30
0.0
 10
163.7599248953343
 20
140.0565339259774
 30
0.0
  0
ARC
  5
1FD
330
1F
100
AcDbEntity
  8
0
  6
Continuous
 62
     7
370
    25
100
AcDbCircle
 10
152.8054739123
 20
139.806533939
 30
0.0
 40
0.25
100
AcDbArc
 50
17.7189318734
 51
90.0
  0
SPLINE
  5
1FE
330
1F
100
AcDbEntity
  8
0
  6
Continuous
 62
     7
370
    25
100
AcDbSpline
210
0.0
220
0.0
230
1.0
 70
     8
 71
     3
 72
    15
 73
    11
 74
     0
 42
0.000000001
 43
0.00000001
 40
0.0
 40
0.0
 40
0.0
 40
0.0
 40
0.0089534934608068
 40
0.0998985020501141
 40
0.1531621750630547
 40
0.3125626131158444
 40
0.524966528186016
 40
0.6689889196484162
 40
0.9919154833883785
 40
0.9999999999999999
 40
0.9999999999999999
 40
0.9999999999999999
 40
0.9999999999999999
 10
152.8054740794182
 20
140.0565339259774
 30
0.0
 10
152.8054897430896
 20
140.0565447117467
 30
0.0
 10
152.8056645103263
 20
140.0566650538453
 30
0.0
 10
152.8110951819266
 20
140.0603836450718
 30
0.0
 10
152.8326288719796
 20
140.0750942266313
 30
0.0
 10
152.8803359182721
 20
140.1075435982424
 30
0.0
 10
152.9527257264421
 20
140.1561270760568
 30
0.0
 10
153.0546453920084
 20
140.223498469409
 30
0.0
 10
153.1300015115254
 20
140.2723098466754
 30
0.0
 10
153.1824002155857
 20
140.3057180157271
 30
0.0
 10
153.183679986018
 20
140.3065339669556
 30
0.0
  0
LINE
  5
1FF
330
1F
100
AcDbEntity
  8
0
  6
Continuous
 62
     7
370
    25
100
AcDbLine
 10
153.2826995991
 20
140.9565339105
 30
0.0
 11
163.2826993756
 21
140.9565339105
 31
0.0
  0
LINE
  5
200
330
1F
100
AcDbEntity
  8
0
  6
Continuous
 62
     7
370
    25
100
AcDbLine
 10
153.2826995991
 20
142.1565339675
 30
0.0
 11
153.2826995991
 21
140.9565339105
 31
0.0
  0
LINE
  5
201
330
1F
100
AcDbEntity
  8
0
  6
Continuous
 62
     7
370
    25
100
AcDbLine
 10
163.2826993756
 20
140.9565339105
 30
0.0
 11
163.2826993756
 21
142.1565339675
 31
0.0
  0
LINE
  5
202
330
1F
100
AcDbEntity
  8
0
  6
Continuous
 62
     7
370
    25
100
AcDbLine
 10
163.2826993756
 20
142.1565339675
 30
0.0
 11
153.2826995991
 21
142.1565339675
 31
0.0
  0
LINE
  5
203
330
1F
100
AcDbEntity
  8
0
  6
Continuous
 62
     7
370
    25
100
AcDbLine
 10
152.5326994762
 20
140.306533967
 30
0.0
 11
153.183679986
 21
140.306533967
 31
0.0
  0
LINE
  5
204
330
1F
100
AcDbEntity
  8
0
  6
Continuous
 62
     7
370
    25
100
AcDbLine
 10
152.5326994762
 20
142.8065339111
 30
0.0
 11
152.5326994762
 21
140.306533967
 31
0.0
  0
LINE
  5
205
330
1F
100
AcDbEntity
  8
0
  6
Continuous
 62
     7
370
    25
100
AcDbLine
 10
153.183679986
 20
142.8065339111
 30
0.0
 11
152.5326994762
 21
142.8065339111
 31
0.0
  0
LINE
  5
206
330
1F
100
AcDbEntity
  8
0
  6
Continuous
 62
     7
370
    25
100
AcDbLine
 10
164.0326994986
 20
142.8065339111
 30
0.0
 11
163.3817189887
 21
142.8065339111
 31
0.0
  0
LINE
  5
207
330
1F
100
AcDbEntity
  8
0
  6
Continuous
 62
     7
370
    25
100
AcDbLine
 10
164.0326994986
 20
140.306533967
 30
0.0
 11
164.0326994986
 21
142.8065339111
 31
0.0
  0
LINE
  5
208
330
1F
100
AcDbEntity
  8
0
  6
Continuous
 62
     7
370
    25
100
AcDbLine
 10
163.3817189887
 20
140.306533967
 30
0.0
 11
164.0326994986
 21
140.306533967
 31
0.0
  0
LINE
  5
209
330
1F
100
AcDbEntity
  8
0
  6
Continuous
 62
     7
370
    25
100
AcDbLine
 10
152.5326994762
 20
143.0565339521
 30
0.0
 11
152.5326994762
 21
142.8065339111
 31
0.0
  0
LINE
  5
20A
330
1F
100
AcDbEntity
  8
0
  6
Continuous
 62
     7
370
    25
100
AcDbLine
 10
152.5326994762
 20
143.0565339521
 30
0.0
 11
152.8054740794
 21
143.0565339521
 31
0.0
  0
LINE
  5
20B
330
1F
100
AcDbEntity
  8
0
  6
Continuous
 62
     7
370
    25
100
AcDbLine
 10
163.7599248953
 20
143.0565339521
 30
0.0
 11
164.0326994986
 21
143.0565339521
 31
0.0
  0
LINE
  5
20C
330
1F
100
AcDbEntity
  8
0
  6
Continuous
 62
     7
370
    25
100
AcDbLine
 10
164.0326994986
 20
142.8065339111
 30
0.0
 11
164.0326994986
 21
143.0565339521
 31
0.0
  0
LINE
  5
20D
330
1F
100
AcDbEntity
  8
0
  6
Continuous
 62
     7
370
    25
100
AcDbLine
 10
164.2826995395
 20
142.8065339111
 30
0.0
 11
164.0326994986
 21
142.8065339111
 31
0.0
  0
ARC
  5
20E
330
1F
100
AcDbEntity
  8
0
  6
Continuous
 62
     7
370
    25
100
AcDbCircle
 10
164.0326994874
 20
142.806533939
 30
0.0
 40
0.25
100
AcDbArc
 50
0.0
 51
90.0
  0
ARC
  5
20F
330
1F
100
AcDbEntity
  8
0
  6
Continuous
 62
     7
370
    25
100
AcDbCircle
 10
152.5326994874
 20
142.806533939
 30
0.0
 40
0.25
100
AcDbArc
 50
90.0
 51
180.0
  0
LINE
  5
210
330
1F
100
AcDbEntity
  8
0
  6
Continuous
 62
     7
370
    25
100
AcDbLine
 10
152.5326994762
 20
142.8065339111
 30
0.0
 11
152.2826994352
 21
142.8065339111
 31
0.0
  0
LINE
  5
211
330
1F
100
AcDbEntity
  8
0
  6
Continuous
 62
     7
370
    25
100
AcDbLine
 10
164.2826995395
 20
142.8065339111
 30
0.0
 11
164.2826995395
 21
140.306533967
 31
0.0
  0
LINE
  5
212
330
1F
100
AcDbEntity
  8
0
  6
Continuous
 62
     7
370
    25
100
AcDbLine
 10
164.0326994986
 20
140.306533967
 30
0.0
 11
164.2826995395
 21
140.306533967
 31
0.0
  0
LINE
  5
213
330
1F
100
AcDbEntity
  8
0
  6
Continuous
 62
     7
370
    25
100
AcDbLine
 10
152.2826994352
 20
140.306533967
 30
0.0
 11
152.5326994762
 21
140.306533967
 31
0.0
  0
LINE
  5
214
330
1F
100
AcDbEntity
  8
0
  6
Continuous
 62
     7
370
    25
100
AcDbLine
 10
152.2826994352
 20
140.306533967
 30
0.0
 11
152.2826994352
 21
142.8065339111
 31
0.0
  0
ARC
  5
215
330
1F
100
AcDbEntity
  8
0
  6
Continuous
 62
     7
370
    25
100
AcDbCircle
 10
152.5326994874
 20
140.306533939
 30
0.0
 40
0.25
100
AcDbArc
 50
180.0
 51
270.0
  0
LINE
  5
216
330
1F
100
AcDbEntity
  8
0
  6
Continuous
 62
     7
370
    25
100
AcDbLine
 10
152.5326994762
 20
140.306533967
 30
0.0
 11
152.5326994762
 21
140.056533926
 31
0.0
  0
LINE
  5
217
330
1F
100
AcDbEntity
  8
0
  6
Continuous
 62
     7
370
    25
100
AcDbLine
 10
164.0326994986
 20
140.056533926
 30
0.0
 11
164.0326994986
 21
140.306533967
 31
0.0
  0
ARC
  5
218
330
1F
100
AcDbEntity
  8
0
  6
Continuous
 62
     7
370
    25
100
AcDbCircle
 10
164.0326994874
 20
140.306533939
 30
0.0
 40
0.25
100
AcDbArc
 50
270.0
 51
0.0
  0
LINE
  5
219
330
1F
100
AcDbEntity
  8
0
  6
Continuous
 62
     7
370
    25
100
AcDbLine
 10
152.8054740794
 20
140.056533926
 30
0.0
 11
152.5326994762
 21
140.056533926
 31
0.0
  0
LINE
  5
21A
330
1F
100
AcDbEntity
  8
0
  6
Continuous
 62
     7
370
    25
100
AcDbLine
 10
164.0326994986
 20
140.056533926
 30
0.0
 11
163.7599248953
 21
140.056533926
 31
0.0
  0
LINE
  5
21B
330
1F
100
AcDbEntity
  8
0
  6
Continuous
 62
     7
370
    25
100
AcDbLine
 10
138.2826999344
 20
138.2848347545
 30
0.0
 11
138.2826999344
 21
144.8282331236
 31
0.0
  0
LINE
  5
21C
330
1F
100
AcDbEntity
  8
0
  6
Continuous
 62
     7
370
    25
100
AcDbLine
 10
136.1072626479
 20
138.056533831
 30
0.0
 11
138.2826999344
 21
138.2848347545
 31
0.0
  0
LINE
  5
21D
330
1F
100
AcDbEntity
  8
0
  6
Continuous
 62
     7
370
    25
100
AcDbLine
 10
118.2827003814
 20
138.056533831
 30
0.0
 11
136.1072626479
 21
138.056533831
 31
0.0
  0
LINE
  5
21E
330
1F
100
AcDbEntity
  8
0
  6
Continuous
 62
     7
370
    25
100
AcDbLine
 10
136.1072626479
 20
145.056534047
 30
0.0
 11
118.2827003814
 21
145.056534047
 31
0.0
  0
LINE
  5
21F
330
1F
100
AcDbEntity
  8
0
  6
Continuous
 62
     7
370
    25
100
AcDbLine
 10
138.2826999344
 20
144.8282331236
 30
0.0
 11
136.1072626479
 21
145.056534047
 31
0.0
  0
LINE
  5
220
330
1F
100
AcDbEntity
  8
0
  6
Continuous
 62
     7
370
    25
100
AcDbLine
 10
118.2827003814
 20
145.056534047
 30
0.0
 11
118.2827003814
 21
138.056533831
 31
0.0
  0
LINE
  5
221
330
1F
100
AcDbEntity
  8
0
  6
Continuous
 62
     7
370
    25
100
AcDbLine
 10
153.0588971965
 20
143.2775484405
 30
0.0
 11
152.9304883026
 21
143.093406759
 31
0.0
  0
LINE
  5
222
330
1F
100
AcDbEntity
  8
0
  6
Continuous
 62
     7
370
    25
100
AcDbLine
 10
152.9400557794
 20
140.0113162359
 30
0.0
 11
153.0588971965
 21
139.8355194375
 31
0.0
  0
LINE
  5
223
330
1F
100
AcDbEntity
  8
0
  6
Continuous
 62
     7
370
    25
100
AcDbLine
 10
144.8661298074
 20
144.1373365939
 30
0.0
 11
144.8661298074
 21
138.9757312842
 31
0.0
  0
LWPOLYLINE
  5
224
330
1F
100
AcDbEntity
  8
0
  6
Continuous
 62
     7
370
    25
100
AcDbPolyline
 90
       15
 70
   128
 43
0.0
 10
153.0588971965
 20
139.8355194375
 10
152.7294404388
 20
139.800944669
 10
152.349175378
 20
139.7610378459
 10
151.9202892251
 20
139.7160284229
 10
151.4452476569
 20
139.6661753075
 10
150.9267822422
 20
139.6117651144
 10
150.3678750761
 20
139.5531107679
 10
149.7717392214
 20
139.4905494068
 10
149.1418028765
 20
139.4244408708
 10
148.4816879548
 20
139.3551653724
 10
147.7951914586
 20
139.283121052
 10
147.0862612643
 20
139.2087223481
 10
146.358971908
 20
139.1323972035
 10
145.6175068908
 20
139.0545845039
 10
144.8661298074
 20
138.9757312842
  0
LWPOLYLINE
  5
225
330
1F
100
AcDbEntity
  8
0
  6
Continuous
 62
     7
370
    25
100
AcDbPolyline
 90
       15
 70
   128
 43
0.0
 10
144.8661298074
 20
144.1373365939
 10
145.6175068908
 20
144.0584833741
 10
146.358971908
 20
143.9806706745
 10
147.0862612643
 20
143.9043455299
 10
147.7951914586
 20
143.829946826
 10
148.4816879548
 20
143.7579025056
 10
149.1418028765
 20
143.6886270072
 10
149.7717392214
 20
143.6225184713
 10
150.3678750761
 20
143.5599571101
 10
150.9267822422
 20
143.5013027636
 10
151.4452476569
 20
143.4468925705
 10
151.9202892251
 20
143.3970394552
 10
152.349175378
 20
143.3520300321
 10
152.7294404388
 20
143.312123209
 10
153.0588971965
 20
143.2775484405
  0
LWPOLYLINE
  5
226
330
1F
100
AcDbEntity
  8
0
  6
Continuous
 62
     7
370
    25
100
AcDbPolyline
 90
       18
 70
   128
 43
0.0
 10
144.8661298074
 20
138.9757312842
 10
144.2782808609
 20
138.9140395455
 10
143.690473824
 20
138.8523524635
 10
143.1083655499
 20
138.7912630577
 10
142.5375570126
 20
138.7313596912
 10
141.9835374274
 20
138.673218387
 10
141.4516404785
 20
138.6173984043
 10
140.9469828524
 20
138.5644371163
 10
140.4744186022
 20
138.5148441892
 10
140.0384963073
 20
138.4690964602
 10
139.6434106447
 20
138.427634212
 10
139.2929614105
 20
138.3908562835
 10
138.9905218549
 20
138.3591168102
 10
138.7389995672
 20
138.3327210329
 10
138.5408178486
 20
138.3119227372
 10
138.3978803225
 20
138.2969223902
 10
138.3115634836
 20
138.2878638811
 10
138.2826999344
 20
138.2848347545
  0
LWPOLYLINE
  5
227
330
1F
100
AcDbEntity
  8
0
  6
Continuous
 62
     7
370
    25
100
AcDbPolyline
 90
       18
 70
   128
 43
0.0
 10
138.2826999344
 20
144.8282331236
 10
138.3115634836
 20
144.8252039969
 10
138.3978803225
 20
144.8161454879
 10
138.5408178486
 20
144.8011451408
 10
138.7389995672
 20
144.7803468451
 10
138.9905218549
 20
144.7539510678
 10
139.2929614105
 20
144.7222115945
 10
139.6434106447
 20
144.685433666
 10
140.0384963073
 20
144.6439714178
 10
140.4744186022
 20
144.5982236888
 10
140.9469828524
 20
144.5486307617
 10
141.4516404785
 20
144.4956694737
 10
141.9835374274
 20
144.439849491
 10
142.5375570126
 20
144.3817081869
 10
143.1083655499
 20
144.3218048204
 10
143.690473824
 20
144.2607154146
 10
144.2782808609
 20
144.1990283325
 10
144.8661298074
 20
144.1373365939
  0
ARC
  5
228
330
1F
100
AcDbEntity
  8
0
  6
Continuous
 62
     7
370
    25
100
AcDbCircle
 10
158.2826994874
 20
141.556533939
 30
0.0
 40
7.450000000000667
100
AcDbArc
 50
233.0863788866
 51
126.9136211134
  0
ARC
  5
229
330
1F
100
AcDbEntity
  8
0
  6
Continuous
 62
     7
370
    25
100
AcDbCircle
 10
158.2826994874
 20
141.556533939
 30
0.0
 40
7.207531252870791
100
AcDbArc
 50
195.3041237151
 51
238.9797515565
  0
ARC
  5
22A
330
1F
100
AcDbEntity
  8
0
  6
Continuous
 62
     7
370
    25
100
AcDbCircle
 10
158.2826994874
 20
141.556533939
 30
0.0
 40
7.207531252872461
100
AcDbArc
 50
121.0202484435
 51
164.6958762849
  0
ARC
  5
22B
330
1F
100
AcDbEntity
  8
0
  6
Continuous
 62
     7
370
    25
100
AcDbCircle
 10
136.1072626258
 20
210.056533939
 30
0.0
 40
65.0
100
AcDbArc
 50
270.0
 51
286.5000949923
  0
ARC
  5
22C
330
1F
100
AcDbEntity
  8
0
  6
Continuous
 62
     7
370
    25
100
AcDbCircle
 10
136.1072626258
 20
73.056533939
 30
0.0
 40
65.0
100
AcDbArc
 50
73.4999050077
 51
90.0
  0
LINE
  5
22D
330
1F
100
AcDbEntity
  8
0
  6
Continuous
 62
     7
370
    25
100
AcDbLine
 10
145.5326997258
 20
149.556534319
 30
0.0
 11
145.5326997258
 21
145.7435404424
 31
0.0
  0
LINE
  5
22E
330
1F
100
AcDbEntity
  8
0
  6
Continuous
 62
     7
370
    25
100
AcDbLine
 10
145.5326997258
 20
137.3695274357
 30
0.0
 11
145.5326997258
 21
133.556533559
 31
0.0
  0
LINE
  5
22F
330
1F
100
AcDbEntity
  8
0
  6
Continuous
 62
     7
370
    25
100
AcDbLine
 10
145.2826992192
 20
133.8065340657
 30
0.0
 11
145.2826992192
 21
137.4056702021
 31
0.0
  0
LINE
  5
230
330
1F
100
AcDbEntity
  8
0
  6
Continuous
 62
     7
370
    25
100
AcDbLine
 10
145.2826992192
 20
145.7073976759
 30
0.0
 11
145.2826992192
 21
149.3065338124
 31
0.0
  0
ARC
  5
231
330
1F
100
AcDbEntity
  8
0
  6
Continuous
 62
     7
370
    25
100
AcDbCircle
 10
128.2826994874
 20
141.556533939
 30
0.0
 40
4.5
100
AcDbArc
 50
231.057558731
 51
270.0
  0
ARC
  5
232
330
1F
100
AcDbEntity
  8
0
  6
Continuous
 62
     7
370
    25
100
AcDbCircle
 10
128.2826994874
 20
141.556533939
 30
0.0
 40
4.499999999999984
100
AcDbArc
 50
90.0
 51
128.942441269
  0
LINE
  5
233
330
1F
100
AcDbEntity
  8
0
  6
Continuous
 62
     8
370
    25
100
AcDbLine
 10
165.2826997034
 20
134.8284030806
 30
0.0
 11
165.2826997034
 21
139.006533847
 31
0.0
  0
LINE
  5
234
330
1F
100
AcDbEntity
  8
0
  6
Continuous
 62
     8
370
    25
100
AcDbLine
 10
165.2826997034
 20
144.106534031
 30
0.0
 11
165.2826997034
 21
148.2846647974
 31
0.0
  0
LINE
  5
235
330
1F
100
AcDbEntity
  8
0
  6
Continuous
 62
     8
370
    25
100
AcDbLine
 10
151.2826992713
 20
148.2846647974
 30
0.0
 11
151.2826992713
 21
146.8528462116
 31
0.0
  0
LINE
  5
236
330
1F
100
AcDbEntity
  8
0
  6
Continuous
 62
     8
370
    25
100
AcDbLine
 10
151.2826992713
 20
136.2602216665
 30
0.0
 11
151.2826992713
 21
134.8284030806
 31
0.0
  0
LINE
  5
237
330
1F
100
AcDbEntity
  8
0
  6
Continuous
 62
     8
370
    25
100
AcDbLine
 10
165.2826997034
 20
148.2846647974
 30
0.0
 11
161.4818796098
 21
148.2846647974
 31
0.0
  0
LINE
  5
238
330
1F
100
AcDbEntity
  8
0
  6
Continuous
 62
     8
370
    25
100
AcDbLine
 10
155.0835193649
 20
148.2846647974
 30
0.0
 11
151.2826992713
 21
148.2846647974
 31
0.0
  0
LINE
  5
239
330
1F
100
AcDbEntity
  8
0
  6
Continuous
 62
     8
370
    25
100
AcDbLine
 10
151.2826992713
 20
134.8284030806
 30
0.0
 11
155.0835193649
 21
134.8284030806
 31
0.0
  0
LINE
  5
23A
330
1F
100
AcDbEntity
  8
0
  6
Continuous
 62
     8
370
    25
100
AcDbLine
 10
161.4818796098
 20
134.8284030806
 30
0.0
 11
165.2826997034
 21
134.8284030806
 31
0.0
  0
LINE
  5
23B
330
1F
100
AcDbEntity
  8
0
  6
Continuous
 62
     8
370
    25
100
AcDbLine
 10
151.2826992713
 20
148.6804373104
 30
0.0
 11
156.1026766014
 21
148.6804373104
 31
0.0
  0
LINE
  5
23C
330
1F
100
AcDbEntity
  8
0
  6
Continuous
 62
     8
370
    25
100
AcDbLine
 10
160.4627223734
 20
148.6804373104
 30
0.0
 11
165.2826997034
 21
148.6804373104
 31
0.0
  0
LINE
  5
23D
330
1F
100
AcDbEntity
  8
0
  6
Continuous
 62
     8
370
    25
100
AcDbLine
 10
165.2826997034
 20
134.4326305676
 30
0.0
 11
160.4627223734
 21
134.4326305676
 31
0.0
  0
LINE
  5
23E
330
1F
100
AcDbEntity
  8
0
  6
Continuous
 62
     8
370
    25
100
AcDbLine
 10
156.1026766014
 20
134.4326305676
 30
0.0
 11
151.2826992713
 21
134.4326305676
 31
0.0
  0
LINE
  5
23F
330
1F
100
AcDbEntity
  8
0
  6
Continuous
 62
     8
370
    25
100
AcDbLine
 10
139.2827000983
 20
137.0565341327
 30
0.0
 11
139.2827000983
 21
137.9789229955
 31
0.0
  0
LINE
  5
240
330
1F
100
AcDbEntity
  8
0
  6
Continuous
 62
     8
370
    25
100
AcDbLine
 10
139.2827000983
 20
145.1341448825
 30
0.0
 11
139.2827000983
 21
146.0565337453
 31
0.0
  0
LINE
  5
241
330
1F
100
AcDbEntity
  8
0
  6
Continuous
 62
     7
370
     0
100
AcDbLine
 10
177.5315730856
 20
134.1228709088
 30
0.0
 11
168.7826994874
 21
133.8494686088
 31
0.0
  0
LINE
  5
242
330
1F
100
AcDbEntity
  8
0
  6
Continuous
 62
     7
370
     0
100
AcDbLine
 10
177.5315730856
 20
148.9901969693
 30
0.0
 11
168.7826994874
 21
149.2635992692
 31
0.0
  0
LINE
  5
243
330
1F
100
AcDbEntity
  8
0
  6
Continuous
 62
     7
370
     0
100
AcDbLine
 10
168.7826994874
 20
149.985971439
 30
0.0
 11
168.7826994874
 21
133.127096439
 31
0.0
  0
ENDSEC
  0
SECTION
  2
OBJECTS
  0
DICTIONARY
  5
C
330
0
100
AcDbDictionary
281
     1
  3
ACAD_GROUP
350
D
  3
ACAD_LAYOUT
350
1A
  3
ACAD_MLINESTYLE
350
17
  3
ACAD_PLOTSETTINGS
350
19
  3
ACAD_PLOTSTYLENAME
350
E
  3
ACAD_SCALELIST
350
47
  0
DICTIONARY
  5
D
102
{ACAD_REACTORS
330
C
102
}
330
C
100
AcDbDictionary
281
     1
  0
DICTIONARY
  5
1A
102
{ACAD_REACTORS
330
C
102
}
330
C
100
AcDbDictionary
281
     1
  3
Layout1
350
1E
  3
Layout2
350
26
  3
Model
350
22
  0
DICTIONARY
  5
17
102
{ACAD_REACTORS
330
C
102
}
330
C
100
AcDbDictionary
281
     1
  3
Standard
350
18
  0
DICTIONARY
  5
19
102
{ACAD_REACTORS
330
C
102
}
330
C
100
AcDbDictionary
281
     1
  0
ACDBDICTIONARYWDFLT
  5
E
102
{ACAD_REACTORS
330
C
102
}
330
C
100
AcDbDictionary
281
     1
  3
Normal
350
F
100
AcDbDictionaryWithDefault
340
F
  0
DICTIONARY
  5
47
102
{ACAD_REACTORS
330
C
102
}
330
C
100
AcDbDictionary
281
     1
  3
A0
350
48
  3
A1
350
49
  3
A2
350
4A
  3
A3
350
4B
  3
A4
350
4C
  3
A5
350
4D
  3
A6
350
4E
  3
A7
350
4F
  3
A8
350
50
  3
A9
350
51
  3
B0
350
52
  3
B1
350
53
  3
B2
350
54
  3
B3
350
55
  3
B4
350
56
  3
B5
350
57
  3
B6
350
58
  3
B7
350
59
  3
B8
350
5A
  3
B9
350
5B
  3
C0
350
5C
  3
C1
350
5D
  3
C2
350
5E
  3
C3
350
5F
  3
C4
350
60
  3
C5
350
61
  3
C6
350
62
  3
C7
350
63
  3
C8
350
64
  3
C9
350
65
  3
D0
350
66
  3
D1
350
67
  3
D2
350
68
  0
LAYOUT
  5
1E
102
{ACAD_REACTORS
330
1A
102
}
330
1A
100
AcDbPlotSettings
  1

  2
none_device
  4

  6

 40
0.0
 41
0.0
 42
0.0
 43
0.0
 44
0.0
 45
0.0
 46
0.0
 47
0.0
 48
0.0
 49
0.0
140
0.0
141
0.0
142
1.0
143
1.0
 70
   688
 72
     1
 73
     0
 74
     5
  7

 75
    16
147
1.0
148
0.0
149
0.0
100
AcDbLayout
  1
Layout1
 70
     1
 71
     1
 10
0.0
 20
0.0
 11
420.0
 21
297.0
 12
0.0
 22
0.0
 32
0.0
 14
1.0000000000E+20
 24
1.0000000000E+20
 34
1.0000000000E+20
 15
-1.0000000000E+20
 25
-1.0000000000E+20
 35
-1.0000000000E+20
146
0.0
 13
0.0
 23
0.0
 33
0.0
 16
1.0
 26
0.0
 36
0.0
 17
0.0
 27
1.0
 37
0.0
 76
     0
330
1B
  0
LAYOUT
  5
26
102
{ACAD_REACTORS
330
1A
102
}
330
1A
100
AcDbPlotSettings
  1

  2
none_device
  4

  6

 40
0.0
 41
0.0
 42
0.0
 43
0.0
 44
0.0
 45
0.0
 46
0.0
 47
0.0
 48
0.0
 49
0.0
140
0.0
141
0.0
142
1.0
143
1.0
 70
   688
 72
     1
 73
     0
 74
     5
  7

 75
    16
147
1.0
148
0.0
149
0.0
100
AcDbLayout
  1
Layout2
 70
     1
 71
     2
 10
0.0
 20
0.0
 11
0.0
 21
0.0
 12
0.0
 22
0.0
 32
0.0
 14
0.0
 24
0.0
 34
0.0
 15
0.0
 25
0.0
 35
0.0
146
0.0
 13
0.0
 23
0.0
 33
0.0
 16
1.0
 26
0.0
 36
0.0
 17
0.0
 27
1.0
 37
0.0
 76
     0
330
23
  0
LAYOUT
  5
22
102
{ACAD_REACTORS
330
1A
102
}
330
1A
100
AcDbPlotSettings
  1

  2
none_device
  4
Letter_(8.50_x_11.00_Inches)
  6

 40
6.35
 41
6.35
 42
6.35000508
 43
6.35000508
 44
215.9
 45
279.4
 46
0.0
 47
0.0
 48
0.0
 49
0.0
140
0.0
141
0.0
142
1.0
143
1.0
 70
  1712
 72
     1
 73
     0
 74
     0
  7

 75
     0
147
1.0
148
0.0
149
0.0
100
AcDbLayout
  1
Model
 70
     1
 71
     0
 10
0.0
 20
0.0
 11
431.8
 21
279.4
 12
0.0
 22
0.0
 32
0.0
 14
0.0
 24
0.0
 34
0.0
 15
431.8
 25
279.4
 35
0.0
146
0.0
 13
0.0
 23
0.0
 33
0.0
 16
1.0
 26
0.0
 36
0.0
 17
0.0
 27
1.0
 37
0.0
 76
     0
330
1F
331
29
  0
MLINESTYLE
  5
18
102
{ACAD_REACTORS
330
17
102
}
330
17
100
AcDbMlineStyle
  2
Standard
 70
     0
  3

 62
   256
 51
90.0
 52
90.0
 71
     2
 49
0.5
 62
   256
  6
BYLAYER
 49
-0.5
 62
   256
  6
BYLAYER
  0
ACDBPLACEHOLDER
  5
F
102
{ACAD_REACTORS
330
E
102
}
330
E
  0
SCALE
  5
48
102
{ACAD_REACTORS
330
47
102
}
330
47
100
AcDbScale
 70
     0
300
1:1
140
1.0
141
1.0
290
     1
  0
SCALE
  5
49
102
{ACAD_REACTORS
330
47
102
}
330
47
100
AcDbScale
 70
     0
300
1:2
140
1.0
141
2.0
290
     0
  0
SCALE
  5
4A
102
{ACAD_REACTORS
330
47
102
}
330
47
100
AcDbScale
 70
     0
300
1:4
140
1.0
141
4.0
290
     0
  0
SCALE
  5
4B
102
{ACAD_REACTORS
330
47
102
}
330
47
100
AcDbScale
 70
     0
300
1:5
140
1.0
141
5.0
290
     0
  0
SCALE
  5
4C
102
{ACAD_REACTORS
330
47
102
}
330
47
100
AcDbScale
 70
     0
300
1:8
140
1.0
141
8.0
290
     0
  0
SCALE
  5
4D
102
{ACAD_REACTORS
330
47
102
}
330
47
100
AcDbScale
 70
     0
300
1:10
140
1.0
141
10.0
290
     0
  0
SCALE
  5
4E
102
{ACAD_REACTORS
330
47
102
}
330
47
100
AcDbScale
 70
     0
300
1:16
140
1.0
141
16.0
290
     0
  0
SCALE
  5
4F
102
{ACAD_REACTORS
330
47
102
}
330
47
100
AcDbScale
 70
     0
300
1:20
140
1.0
141
20.0
290
     0
  0
SCALE
  5
50
102
{ACAD_REACTORS
330
47
102
}
330
47
100
AcDbScale
 70
     0
300
1:30
140
1.0
141
30.0
290
     0
  0
SCALE
  5
51
102
{ACAD_REACTORS
330
47
102
}
330
47
100
AcDbScale
 70
     0
300
1:40
140
1.0
141
40.0
290
     0
  0
SCALE
  5
52
102
{ACAD_REACTORS
330
47
102
}
330
47
100
AcDbScale
 70
     0
300
1:50
140
1.0
141
50.0
290
     0
  0
SCALE
  5
53
102
{ACAD_REACTORS
330
47
102
}
330
47
100
AcDbScale
 70
     0
300
1:100
140
1.0
141
100.0
290
     0
  0
SCALE
  5
54
102
{ACAD_REACTORS
330
47
102
}
330
47
100
AcDbScale
 70
     0
300
2:1
140
2.0
141
1.0
290
     0
  0
SCALE
  5
55
102
{ACAD_REACTORS
330
47
102
}
330
47
100
AcDbScale
 70
     0
300
4:1
140
4.0
141
1.0
290
     0
  0
SCALE
  5
56
102
{ACAD_REACTORS
330
47
102
}
330
47
100
AcDbScale
 70
     0
300
8:1
140
8.0
141
1.0
290
     0
  0
SCALE
  5
57
102
{ACAD_REACTORS
330
47
102
}
330
47
100
AcDbScale
 70
     0
300
10:1
140
10.0
141
1.0
290
     0
  0
SCALE
  5
58
102
{ACAD_REACTORS
330
47
102
}
330
47
100
AcDbScale
 70
     0
300
100:1
140
100.0
141
1.0
290
     0
  0
SCALE
  5
59
102
{ACAD_REACTORS
330
47
102
}
330
47
100
AcDbScale
 70
     0
300
1/128" = 1'-0"
140
0.0078125
141
12.0
290
     0
  0
SCALE
  5
5A
102
{ACAD_REACTORS
330
47
102
}
330
47
100
AcDbScale
 70
     0
300
1/64" = 1'-0"
140
0.015625
141
12.0
290
     0
  0
SCALE
  5
5B
102
{ACAD_REACTORS
330
47
102
}
330
47
100
AcDbScale
 70
     0
300
1/32" = 1'-0"
140
0.03125
141
12.0
290
     0
  0
SCALE
  5
5C
102
{ACAD_REACTORS
330
47
102
}
330
47
100
AcDbScale
 70
     0
300
1/16" = 1'-0"
140
0.0625
141
12.0
290
     0
  0
SCALE
  5
5D
102
{ACAD_REACTORS
330
47
102
}
330
47
100
AcDbScale
 70
     0
300
3/32" = 1'-0"
140
0.09375
141
12.0
290
     0
  0
SCALE
  5
5E
102
{ACAD_REACTORS
330
47
102
}
330
47
100
AcDbScale
 70
     0
300
1/8" = 1'-0"
140
0.125
141
12.0
290
     0
  0
SCALE
  5
5F
102
{ACAD_REACTORS
330
47
102
}
330
47
100
AcDbScale
 70
     0
300
3/16" = 1'-0"
140
0.1875
141
12.0
290
     0
  0
SCALE
  5
60
102
{ACAD_REACTORS
330
47
102
}
330
47
100
AcDbScale
 70
     0
300
1/4" = 1'-0"
140
0.25
141
12.0
290
     0
  0
SCALE
  5
61
102
{ACAD_REACTORS
330
47
102
}
330
47
100
AcDbScale
 70
     0
300
3/8" = 1'-0"
140
0.375
141
12.0
290
     0
  0
SCALE
  5
62
102
{ACAD_REACTORS
330
47
102
}
330
47
100
AcDbScale
 70
     0
300
1/2" = 1'-0"
140
0.5
141
12.0
290
     0
  0
SCALE
  5
63
102
{ACAD_REACTORS
330
47
102
}
330
47
100
AcDbScale
 70
     0
300
3/4" = 1'-0"
140
0.75
141
12.0
290
     0
  0
SCALE
  5
64
102
{ACAD_REACTORS
330
47
102
}
330
47
100
AcDbScale
 70
     0
300
1" = 1'-0"
140
1.0
141
12.0
290
     0
  0
SCALE
  5
65
102
{ACAD_REACTORS
330
47
102
}
330
47
100
AcDbScale
 70
     0
300
1-1/2" = 1'-0"
140
1.5
141
12.0
290
     0
  0
SCALE
  5
66
102
{ACAD_REACTORS
330
47
102
}
330
47
100
AcDbScale
 70
     0
300
3" = 1'-0"
140
3.0
141
12.0
290
     0
  0
SCALE
  5
67
102
{ACAD_REACTORS
330
47
102
}
330
47
100
AcDbScale
 70
     0
300
6" = 1'-0"
140
6.0
141
12.0
290
     0
  0
SCALE
  5
68
102
{ACAD_REACTORS
330
47
102
}
330
47
100
AcDbScale
 70
     0
300
1'-0" = 1'-0"
140
12.0
141
12.0
290
     0
  0
ENDSEC
  0
EOF
