  0
SECTION
  2
HEADER
  9
$ACADVER
  1
AC1015
  9
$ACADMAINTVER
 70
     6
  9
$DWGCODEPAGE
  3
DOS932
  9
$INSBASE
 10
0.0
 20
0.0
 30
0.0
  9
$EXTMIN
 10
0.0
 20
0.0
 30
0.0
  9
$EXTMAX
 10
431.8
 20
279.4
 30
0.0
  9
$LIMMIN
 10
0.0
 20
0.0
  9
$LIMMAX
 10
431.8
 20
279.4
  9
$ORTHOMODE
 70
     0
  9
$REGENMODE
 70
     1
  9
$FILLMODE
 70
     1
  9
$QTEXTMODE
 70
     0
  9
$MIRRTEXT
 70
     1
  9
$LTSCALE
 40
1.0
  9
$ATTMODE
 70
     1
  9
$TEXTSIZE
 40
3.5
  9
$TRACEWID
 40
1.0
  9
$TEXTSTYLE
  7
Standard
  9
$CLAYER
  8
0
  9
$CELTYPE
  6
ByLayer
  9
$CECOLOR
 62
   256
  9
$CELTSCALE
 40
1.0
  9
$DISPSILH
 70
     0
  9
$DIMSCALE
 40
1.0
  9
$DIMASZ
 40
3.302
  9
$DIMEXO
 40
1.0
  9
$DIMDLI
 40
3.75
  9
$DIMRND
 40
0.0
  9
$DIMDLE
 40
0.0
  9
$DIMEXE
 40
1.0
  9
$DIMTP
 40
0.0
  9
$DIMTM
 40
0.0
  9
$DIMTXT
 40
3.5
  9
$DIMCEN
 40
2.5
  9
$DIMTSZ
 40
0.0
  9
$DIMTOL
 70
     0
  9
$DIMLIM
 70
     0
  9
$DIMTIH
 70
     1
  9
$DIMTOH
 70
     1
  9
$DIMSE1
 70
     0
  9
$DIMSE2
 70
     0
  9
$DIMTAD
 70
     1
  9
$DIMZIN
 70
     1
  9
$DIMBLK
  1

  9
$DIMASO
 70
     1
  9
$DIMSHO
 70
     1
  9
$DIMPOST
  1

  9
$DIMAPOST
  1

  9
$DIMALT
 70
     0
  9
$DIMALTD
 70
     3
  9
$DIMALTF
 40
0.0393700787
  9
$DIMLFAC
 40
1.0
  9
$DIMTOFL
 70
     1
  9
$DIMTVP
 40
0.0
  9
$DIMTIX
 70
     0
  9
$DIMSOXD
 70
     0
  9
$DIMSAH
 70
     0
  9
$DIMBLK1
  1

  9
$DIMBLK2
  1

  9
$DIMSTYLE
  2
ISO-25
  9
$DIMCLRD
 70
     0
  9
$DIMCLRE
 70
     0
  9
$DIMCLRT
 70
     0
  9
$DIMTFAC
 40
1.0
  9
$DIMGAP
 40
1.524
  9
$DIMJUST
 70
     0
  9
$DIMSD1
 70
     0
  9
$DIMSD2
 70
     0
  9
$DIMTOLJ
 70
     0
  9
$DIMTZIN
 70
     1
  9
$DIMALTZ
 70
     0
  9
$DIMALTTZ
 70
     0
  9
$DIMUPT
 70
     0
  9
$DIMDEC
 70
     2
  9
$DIMTDEC
 70
     2
  9
$DIMALTU
 70
     2
  9
$DIMALTTD
 70
     3
  9
$DIMTXSTY
  7
Standard
  9
$DIMAUNIT
 70
     0
  9
$DIMADEC
 70
     2
  9
$DIMALTRND
 40
0.0
  9
$DIMAZIN
 70
     0
  9
$DIMDSEP
 70
    44
  9
$DIMATFIT
 70
     3
  9
$DIMFRAC
 70
     0
  9
$DIMLDRBLK
  1

  9
$DIMLUNIT
 70
     2
  9
$DIMLWD
 70
    -2
  9
$DIMLWE
 70
    -2
  9
$DIMTMOVE
 70
     0
  9
$LUNITS
 70
     2
  9
$LUPREC
 70
     2
  9
$SKETCHINC
 40
1.0
  9
$FILLETRAD
 40
10.0
  9
$AUNITS
 70
     0
  9
$AUPREC
 70
     2
  9
$MENU
  1
.
  9
$ELEVATION
 40
0.0
  9
$PELEVATION
 40
0.0
  9
$THICKNESS
 40
0.0
  9
$LIMCHECK
 70
     0
  9
$CHAMFERA
 40
0.0
  9
$CHAMFERB
 40
0.0
  9
$CHAMFERC
 40
0.0
  9
$CHAMFERD
 40
0.0
  9
$SKPOLY
 70
     0
  9
$TDCREATE
 40
2459279.585247627
  9
$TDUCREATE
 40
2459279.210247627
  9
$TDUPDATE
 40
2459279.585248264
  9
$TDUUPDATE
 40
2459279.210248264
  9
$TDINDWG
 40
0.0000000116
  9
$TDUSRTIMER
 40
0.0000000116
  9
$USRTIMER
 70
     1
  9
$ANGBASE
 50
0.0
  9
$ANGDIR
 70
     0
  9
$PDMODE
 70
     0
  9
$PDSIZE
 40
-1.0
  9
$PLINEWID
 40
0.0
  9
$SPLFRAME
 70
     0
  9
$SPLINETYPE
 70
     6
  9
$SPLINESEGS
 70
     8
  9
$HANDSEED
  5
244
  9
$SURFTAB1
 70
     6
  9
$SURFTAB2
 70
     6
  9
$SURFTYPE
 70
     6
  9
$SURFU
 70
     6
  9
$SURFV
 70
     6
  9
$UCSBASE
  2

  9
$UCSNAME
  2

  9
$UCSORG
 10
0.0
 20
0.0
 30
0.0
  9
$UCSXDIR
 10
1.0
 20
0.0
 30
0.0
  9
$UCSYDIR
 10
0.0
 20
1.0
 30
0.0
  9
$UCSORTHOREF
  2

  9
$UCSORTHOVIEW
 70
     0
  9
$UCSORGTOP
 10
0.0
 20
0.0
 30
0.0
  9
$UCSORGBOTTOM
 10
0.0
 20
0.0
 30
0.0
  9
$UCSORGLEFT
 10
0.0
 20
0.0
 30
0.0
  9
$UCSORGRIGHT
 10
0.0
 20
0.0
 30
0.0
  9
$UCSORGFRONT
 10
0.0
 20
0.0
 30
0.0
  9
$UCSORGBACK
 10
0.0
 20
0.0
 30
0.0
  9
$PUCSBASE
  2

  9
$PUCSNAME
  2

  9
$PUCSORG
 10
0.0
 20
0.0
 30
0.0
  9
$PUCSXDIR
 10
1.0
 20
0.0
 30
0.0
  9
$PUCSYDIR
 10
0.0
 20
1.0
 30
0.0
  9
$PUCSORTHOREF
  2

  9
$PUCSORTHOVIEW
 70
     0
  9
$PUCSORGTOP
 10
0.0
 20
0.0
 30
0.0
  9
$PUCSORGBOTTOM
 10
0.0
 20
0.0
 30
0.0
  9
$PUCSORGLEFT
 10
0.0
 20
0.0
 30
0.0
  9
$PUCSORGRIGHT
 10
0.0
 20
0.0
 30
0.0
  9
$PUCSORGFRONT
 10
0.0
 20
0.0
 30
0.0
  9
$PUCSORGBACK
 10
0.0
 20
0.0
 30
0.0
  9
$USERI1
 70
     0
  9
$USERI2
 70
     0
  9
$USERI3
 70
     0
  9
$USERI4
 70
     0
  9
$USERI5
 70
     0
  9
$USERR1
 40
0.0
  9
$USERR2
 40
0.0
  9
$USERR3
 40
0.0
  9
$USERR4
 40
0.0
  9
$USERR5
 40
0.0
  9
$WORLDVIEW
 70
     1
  9
$SHADEDGE
 70
     3
  9
$SHADEDIF
 70
    70
  9
$TILEMODE
 70
     1
  9
$MAXACTVP
 70
    64
  9
$PINSBASE
 10
0.0
 20
0.0
 30
0.0
  9
$PLIMCHECK
 70
     0
  9
$PEXTMIN
 10
1.0000000000E+20
 20
1.0000000000E+20
 30
1.0000000000E+20
  9
$PEXTMAX
 10
-1.0000000000E+20
 20
-1.0000000000E+20
 30
-1.0000000000E+20
  9
$PLIMMIN
 10
0.0
 20
0.0
  9
$PLIMMAX
 10
420.0
 20
297.0
  9
$UNITMODE
 70
     0
  9
$VISRETAIN
 70
     1
  9
$PLINEGEN
 70
     0
  9
$PSLTSCALE
 70
     1
  9
$TREEDEPTH
 70
  3020
  9
$CMLSTYLE
  2
Standard
  9
$CMLJUST
 70
     0
  9
$CMLSCALE
 40
20.0
  9
$PROXYGRAPHICS
 70
     1
  9
$MEASUREMENT
 70
     1
  9
$CELWEIGHT
370
    -1
  9
$ENDCAPS
280
     0
  9
$JOINSTYLE
280
     0
  9
$LWDISPLAY
290
     1
  9
$INSUNITS
 70
     4
  9
$HYPERLINKBASE
  1

  9
$STYLESHEET
  1

  9
$XEDIT
290
     1
  9
$CEPSNTYPE
380
     0
  9
$PSTYLEMODE
290
     1
  9
$FINGERPRINTGUID
  2
{4D4015DA-9405-456D-9311-1E2376A08C77}
  9
$VERSIONGUID
  2
{FAEB1C32-E019-11D5-929B-00C0DF256EC4}
  9
$EXTNAMES
290
     1
  9
$PSVPSCALE
 40
0.0
  9
$OLESTARTUP
290
     0
  0
ENDSEC
  0
SECTION
  2
CLASSES
  0
CLASS
  1
ACDBDICTIONARYWDFLT
  2
AcDbDictionaryWithDefault
  3
ObjectDBX Classes
 90
        0
280
     0
281
     0
  0
CLASS
  1
VISUALSTYLE
  2
AcDbVisualStyle
  3
ObjectDBX Classes
 90
     4095
280
     0
281
     0
  0
CLASS
  1
MATERIAL
  2
AcDbMaterial
  3
ObjectDBX Classes
 90
     1153
280
     0
281
     0
  0
CLASS
  1
SCALE
  2
AcDbScale
  3
ObjectDBX Classes
 90
     1153
280
     0
281
     0
  0
CLASS
  1
TABLESTYLE
  2
AcDbTableStyle
  3
ObjectDBX Classes
 90
     4095
280
     0
281
     0
  0
CLASS
  1
MLEADERSTYLE
  2
AcDbMLeaderStyle
  3
ACDB_MLEADERSTYLE_CLASS
 90
     4095
280
     0
281
     0
  0
CLASS
  1
SUN
  2
AcDbSun
  3
SCENEOE
 90
     1153
280
     0
281
     0
  0
CLASS
  1
ACDBPLACEHOLDER
  2
AcDbPlaceHolder
  3
ObjectDBX Classes
 90
        0
280
     0
281
     0
  0
CLASS
  1
LAYOUT
  2
AcDbLayout
  3
ObjectDBX Classes
 90
        0
280
     0
281
     0
  0
ENDSEC
  0
SECTION
  2
TABLES
  0
TABLE
  2
VPORT
  5
8
330
0
100
AcDbSymbolTable
 70
     1
  0
VPORT
  5
29
330
8
100
AcDbSymbolTableRecord
100
AcDbViewportTableRecord
  2
*Active
 70
     0
 10
0.0
 20
0.0
 11
1.0
 21
1.0
 12
215.9
 22
139.7
 13
0.0
 23
0.0
 14
10.0
 24
10.0
 15
10.0
 25
10.0
 16
0.0
 26
0.0
 36
1.0
 17
0.0
 27
0.0
 37
0.0
 40
279.4
 41
1.5454545455
 42
50.0
 43
0.0
 44
0.0
 50
0.0
 51
0.0
 71
     0
 72
  2000
 73
     1
 74
     3
 75
     0
 76
     0
 77
     0
 78
     0
281
     0
 65
     1
110
0.0
120
0.0
130
0.0
111
1.0
121
0.0
131
0.0
112
0.0
122
1.0
132
0.0
 79
     0
146
0.0
  0
ENDTAB
  0
TABLE
  2
LTYPE
  5
5
330
0
100
AcDbSymbolTable
 70
     6
  0
LTYPE
  5
14
330
5
100
AcDbSymbolTableRecord
100
AcDbLinetypeTableRecord
  2
ByBlock
 70
     0
  3

 72
    65
 73
     0
 40
0.0
  0
LTYPE
  5
15
330
5
100
AcDbSymbolTableRecord
100
AcDbLinetypeTableRecord
  2
ByLayer
 70
     0
  3

 72
    65
 73
     0
 40
0.0
  0
LTYPE
  5
16
330
5
100
AcDbSymbolTableRecord
100
AcDbLinetypeTableRecord
  2
Continuous
 70
     0
  3
Solid line
 72
    65
 73
     0
 40
0.0
  0
LTYPE
  5
6E
330
5
100
AcDbSymbolTableRecord
100
AcDbLinetypeTableRecord
  2
HIDDEN
 70
     0
  3
Hidden __ __ __ __ __ __ __ __ __ __ __ __ __ __
 72
    65
 73
     2
 40
1.905
 49
1.27
 74
     0
 49
-0.635
 74
     0
  0
LTYPE
  5
6F
330
5
100
AcDbSymbolTableRecord
100
AcDbLinetypeTableRecord
  2
PHANTOM
 70
     0
  3
Phantom ______  __  __  ______  __  __  ______
 72
    65
 73
     6
 40
12.7
 49
6.35
 74
     0
 49
-1.27
 74
     0
 49
1.27
 74
     0
 49
-1.27
 74
     0
 49
1.27
 74
     0
 49
-1.27
 74
     0
  0
LTYPE
  5
70
330
5
100
AcDbSymbolTableRecord
100
AcDbLinetypeTableRecord
  2
CENTER
 70
     0
  3
Center ____ _ ____ _ ____ _ ____ _ ____ _ ____
 72
    65
 73
     4
 40
10.16
 49
6.35
 74
     0
 49
-1.27
 74
     0
 49
1.27
 74
     0
 49
-1.27
 74
     0
  0
LTYPE
  5
71
330
5
100
AcDbSymbolTableRecord
100
AcDbLinetypeTableRecord
  2
CENTERX2
 70
     0
  3
Center (2x) ________  __  ________  __  _____
 72
    65
 73
     4
 40
20.32
 49
12.7
 74
     0
 49
-2.54
 74
     0
 49
2.54
 74
     0
 49
-2.54
 74
     0
  0
LTYPE
  5
72
330
5
100
AcDbSymbolTableRecord
100
AcDbLinetypeTableRecord
  2
DOT2
 70
     0
  3
Dot (.5x) ........................................
 72
    65
 73
     2
 40
0.635
 49
0.0
 74
     0
 49
-0.635
 74
     0
  0
ENDTAB
  0
TABLE
  2
LAYER
  5
2
330
0
100
AcDbSymbolTable
 70
     1
  0
LAYER
  5
10
330
2
100
AcDbSymbolTableRecord
100
AcDbLayerTableRecord
  2
0
 70
     0
 62
     7
  6
Continuous
370
    -3
390
F
  0
ENDTAB
  0
TABLE
  2
STYLE
  5
3
330
0
100
AcDbSymbolTable
 70
     2
  0
STYLE
  5
11
330
3
100
AcDbSymbolTableRecord
100
AcDbTextStyleTableRecord
  2
Standard
 70
     0
 40
0.0
 41
1.0
 50
0.0
 71
     0
 42
3.5
  3
txt
  4
bigfont
  0
STYLE
  5
73
330
3
100
AcDbSymbolTableRecord
100
AcDbTextStyleTableRecord
  2
SLDTEXTSTYLE0
 70
     0
 40
0.0
 41
0.7
 50
0.0
 71
     0
 42
3.5
  3
TXT
  4
bigfont
  0
ENDTAB
  0
TABLE
  2
VIEW
  5
6
330
0
100
AcDbSymbolTable
 70
     0
  0
ENDTAB
  0
TABLE
  2
UCS
  5
7
330
0
100
AcDbSymbolTable
 70
     0
  0
ENDTAB
  0
TABLE
  2
APPID
  5
9
330
0
100
AcDbSymbolTable
 70
     1
  0
APPID
  5
12
330
9
100
AcDbSymbolTableRecord
100
AcDbRegAppTableRecord
  2
ACAD
 70
     0
  0
ENDTAB
  0
TABLE
  2
DIMSTYLE
  5
A
330
0
100
AcDbSymbolTable
 70
     1
100
AcDbDimStyleTable
  0
DIMSTYLE
105
27
330
A
100
AcDbSymbolTableRecord
100
AcDbDimStyleTableRecord
  2
ISO-25
 70
     0
 41
2.5
 42
0.625
 43
3.75
 44
1.25
 73
     0
 74
     0
 77
     1
 78
     8
140
2.5
141
2.5
143
0.0393700787
147
0.625
171
     3
172
     1
178
     0
271
     2
272
     2
274
     3
278
    44
283
     0
284
     8
340
11
  0
ENDTAB
  0
TABLE
  2
BLOCK_RECORD
  5
1
330
0
100
AcDbSymbolTable
 70
     1
  0
BLOCK_RECORD
  5
1F
330
1
100
AcDbSymbolTableRecord
100
AcDbBlockTableRecord
  2
*Model_Space
340
22
  0
BLOCK_RECORD
  5
1B
330
1
100
AcDbSymbolTableRecord
100
AcDbBlockTableRecord
  2
*Paper_Space
340
1E
  0
BLOCK_RECORD
  5
23
330
1
100
AcDbSymbolTableRecord
100
AcDbBlockTableRecord
  2
*Paper_Space0
340
26
  0
ENDTAB
  0
ENDSEC
  0
SECTION
  2
BLOCKS
  0
BLOCK
  5
20
330
1F
100
AcDbEntity
  8
0
100
AcDbBlockBegin
  2
*Model_Space
 70
     0
 10
0.0
 20
0.0
 30
0.0
  3
*Model_Space
  1

  0
ENDBLK
  5
21
330
1F
100
AcDbEntity
  8
0
100
AcDbBlockEnd
  0
BLOCK
  5
1C
330
1B
100
AcDbEntity
 67
     1
  8
0
100
AcDbBlockBegin
  2
*Paper_Space
 70
     0
 10
0.0
 20
0.0
 30
0.0
  3
*Paper_Space
  1

  0
ENDBLK
  5
1D
330
1B
100
AcDbEntity
 67
     1
  8
0
100
AcDbBlockEnd
  0
BLOCK
  5
24
330
23
100
AcDbEntity
  8
0
100
AcDbBlockBegin
  2
*Paper_Space0
 70
     0
 10
0.0
 20
0.0
 30
0.0
  3
*Paper_Space0
  1

  0
ENDBLK
  5
25
330
23
100
AcDbEntity
  8
0
100
AcDbBlockEnd
  0
ENDSEC
  0
SECTION
  2
ENTITIES
  0
MTEXT
  5
74
330
1F
100
AcDbEntity
  8
0
  6
Continuous
 62
     7
370
     0
100
AcDbMText
 10
171.9163028902
 20
123.2040470311
 30
0.0
 40
4.2333333333
 41
0.0
 71
     1
 72
     1
  1
1R-BL1200
  7
SLDTEXTSTYLE0
 73
     1
 44
1.0
  0
LINE
  5
75
330
1F
100
AcDbEntity
  8
0
  6
Continuous
 62
     7
370
    25
100
AcDbLine
 10
162.5902367294
 20
73.6846178961
 30
0.0
 11
163.0902368113
 21
74.184617978
 31
0.0
  0
LINE
  5
76
330
1F
100
AcDbEntity
  8
0
  6
Continuous
 62
     7
370
    25
100
AcDbLine
 10
163.0902368113
 20
93.1846173671
 30
0.0
 11
162.5902367294
 21
93.684617449
 31
0.0
  0
LINE
  5
77
330
1F
100
AcDbEntity
  8
0
  6
Continuous
 62
     7
370
    25
100
AcDbLine
 10
162.5902367294
 20
93.684617449
 30
0.0
 11
160.9722034544
 21
93.684617449
 31
0.0
  0
LINE
  5
78
330
1F
100
AcDbEntity
  8
0
  6
Continuous
 62
     7
370
    25
100
AcDbLine
 10
160.9722034544
 20
73.6846178961
 30
0.0
 11
162.5902367294
 21
73.6846178961
 31
0.0
  0
ARC
  5
79
330
1F
100
AcDbEntity
  8
0
  6
Continuous
 62
     7
370
    25
100
AcDbCircle
 10
162.0902370348
 20
92.6846176726
 30
0.0
 40
1.500000000000024
100
AcDbArc
 50
138.1896851042
 51
180.0
  0
ARC
  5
7A
330
1F
100
AcDbEntity
  8
0
  6
Continuous
 62
     7
370
    25
100
AcDbCircle
 10
162.0902370348
 20
74.6846176726
 30
0.0
 40
1.500000000000014
100
AcDbArc
 50
180.0
 51
221.8103148958
  0
ARC
  5
7B
330
1F
100
AcDbEntity
  8
0
  6
Continuous
 62
     7
370
    25
100
AcDbCircle
 10
144.0902370348
 20
74.6846176726
 30
0.0
 40
1.500000000000014
100
AcDbArc
 50
318.1896851042
 51
0.0
  0
ARC
  5
7C
330
1F
100
AcDbEntity
  8
0
  6
Continuous
 62
     7
370
    25
100
AcDbCircle
 10
144.0902370348
 20
92.6846176726
 30
0.0
 40
1.500000000000024
100
AcDbArc
 50
0.0
 51
41.8103148958
  0
LINE
  5
7D
330
1F
100
AcDbEntity
  8
0
  6
Continuous
 62
     7
370
    25
100
AcDbLine
 10
143.3402368337
 20
73.6846178961
 30
0.0
 11
145.2082706153
 21
73.6846178961
 31
0.0
  0
LINE
  5
7E
330
1F
100
AcDbEntity
  8
0
  6
Continuous
 62
     7
370
    25
100
AcDbLine
 10
145.2082706153
 20
93.684617449
 30
0.0
 11
143.3402368337
 21
93.684617449
 31
0.0
  0
LINE
  5
7F
330
1F
100
AcDbEntity
  8
0
  6
Continuous
 62
     7
370
    25
100
AcDbLine
 10
143.3402368337
 20
93.684617449
 30
0.0
 11
143.0902372584
 21
93.4346178737
 31
0.0
  0
LINE
  5
80
330
1F
100
AcDbEntity
  8
0
  6
Continuous
 62
     7
370
    25
100
AcDbLine
 10
143.0902372584
 20
73.9346174714
 30
0.0
 11
143.3402368337
 21
73.6846178961
 31
0.0
  0
ARC
  5
81
330
1F
100
AcDbEntity
  8
0
  6
Continuous
 62
     7
370
    25
100
AcDbCircle
 10
160.0902370348
 20
92.6846176726
 30
0.0
 40
0.5
100
AcDbArc
 50
270.0
 51
0.0
  0
ARC
  5
82
330
1F
100
AcDbEntity
  8
0
  6
Continuous
 62
     7
370
    25
100
AcDbCircle
 10
146.0902370348
 20
92.6846176726
 30
0.0
 40
0.5
100
AcDbArc
 50
180.0
 51
270.0
  0
ARC
  5
83
330
1F
100
AcDbEntity
  8
0
  6
Continuous
 62
     7
370
    25
100
AcDbCircle
 10
146.0902370348
 20
74.6846176726
 30
0.0
 40
0.5
100
AcDbArc
 50
90.0
 51
180.0
  0
ARC
  5
84
330
1F
100
AcDbEntity
  8
0
  6
Continuous
 62
     7
370
    25
100
AcDbCircle
 10
160.0902370348
 20
74.6846176726
 30
0.0
 40
0.5
100
AcDbArc
 50
0.0
 51
90.0
  0
LINE
  5
85
330
1F
100
AcDbEntity
  8
0
  6
Continuous
 62
     7
370
    25
100
AcDbLine
 10
163.0902368113
 20
76.9402883206
 30
0.0
 11
170.9261111453
 21
77.1851595682
 31
0.0
  0
LINE
  5
86
330
1F
100
AcDbEntity
  8
0
  6
Continuous
 62
     7
370
    25
100
AcDbLine
 10
170.9261111453
 20
90.1840757769
 30
0.0
 11
163.0902368113
 21
90.4289470245
 31
0.0
  0
LINE
  5
87
330
1F
100
AcDbEntity
  8
0
  6
Continuous
 62
     7
370
    25
100
AcDbLine
 10
146.7079160273
 20
92.1846181345
 30
0.0
 11
146.0902368188
 21
92.1846181345
 31
0.0
  0
LINE
  5
88
330
1F
100
AcDbEntity
  8
0
  6
Continuous
 62
     7
370
    25
100
AcDbLine
 10
160.0902372509
 20
92.1846181345
 30
0.0
 11
159.4902368732
 21
92.1846181345
 31
0.0
  0
LINE
  5
89
330
1F
100
AcDbEntity
  8
0
  6
Continuous
 62
     7
370
    25
100
AcDbLine
 10
146.0902368188
 20
75.1846172106
 30
0.0
 11
160.0902372509
 21
75.1846172106
 31
0.0
  0
LINE
  5
8A
330
1F
100
AcDbEntity
  8
0
  6
Continuous
 62
     7
370
    25
100
AcDbLine
 10
170.9261111453
 20
77.1851595682
 30
0.0
 11
173.0902365878
 21
78.4346177433
 31
0.0
  0
LINE
  5
8B
330
1F
100
AcDbEntity
  8
0
  6
Continuous
 62
     7
370
    25
100
AcDbLine
 10
173.0902365878
 20
88.9346176018
 30
0.0
 11
170.9261111453
 21
90.1840757769
 31
0.0
  0
SPLINE
  5
8C
330
1F
100
AcDbEntity
  8
0
  6
Continuous
 62
     7
370
    25
100
AcDbSpline
210
0.0
220
0.0
230
1.0
 70
     8
 71
     3
 72
    13
 73
     9
 74
     0
 42
0.000000001
 43
0.00000001
 40
0.0
 40
0.0
 40
0.0
 40
0.0
 40
0.1666119996278473
 40
0.3332810333364505
 40
0.5159694476909096
 40
0.7023447083309986
 40
0.8787876188413701
 40
1.0
 40
1.0
 40
1.0
 40
1.0
 10
159.4904762230572
 20
92.18712618619548
 30
0.0
 10
159.4466257872156
 20
92.18939045533268
 30
0.0
 10
159.3589099047931
 20
92.19391976870435
 30
0.0
 10
159.2329758613333
 20
92.24915314082477
 30
0.0
 10
159.1211696230231
 20
92.33641066394323
 30
0.0
 10
159.0389683083833
 20
92.45523641481597
 30
0.0
 10
158.9950634333049
 20
92.57670720167538
 30
0.0
 10
158.9932688760717
 20
92.65488320385353
 30
0.0
 10
158.992538089281
 20
92.6867183488642
 30
0.0
  0
SPLINE
  5
8D
330
1F
100
AcDbEntity
  8
0
  6
Continuous
 62
     7
370
    25
100
AcDbSpline
210
0.0
220
0.0
230
1.0
 70
     8
 71
     3
 72
    13
 73
     9
 74
     0
 42
0.000000001
 43
0.00000001
 40
0.0
 40
0.0
 40
0.0
 40
0.0
 40
0.1754141285687179
 40
0.3673219870868909
 40
0.5786632035970406
 40
0.7555664517503052
 40
0.9093028040716595
 40
1.0
 40
1.0
 40
1.0
 40
1.0
 10
147.1898358784374
 20
92.66993591606962
 30
0.0
 10
147.1852270132868
 20
92.62595337381842
 30
0.0
 10
147.1755759234963
 20
92.53385272634682
 30
0.0
 10
147.1108099782857
 20
92.4008735000899
 30
0.0
 10
147.0113986219967
 20
92.29158521764559
 30
0.0
 10
146.8929543759597
 20
92.22252463569237
 30
0.0
 10
146.7908750831513
 20
92.18997595129053
 30
0.0
 10
146.7294959134442
 20
92.18791033086407
 30
0.0
 10
146.7067211404201
 20
92.1871438813244
 30
0.0
  0
LINE
  5
8E
330
1F
100
AcDbEntity
  8
0
  6
Continuous
 62
     7
370
    25
100
AcDbLine
 10
158.9902372569
 20
92.6846172851
 30
0.0
 11
158.9902372569
 21
94.184617531
 31
0.0
  0
LINE
  5
8F
330
1F
100
AcDbEntity
  8
0
  6
Continuous
 62
     7
370
    25
100
AcDbLine
 10
147.1902368128
 20
94.184617531
 30
0.0
 11
147.1902368128
 21
92.6733473507
 31
0.0
  0
LINE
  5
90
330
1F
100
AcDbEntity
  8
0
  6
Continuous
 62
     7
370
    25
100
AcDbLine
 10
160.5402369521
 20
102.184617911
 30
0.0
 11
158.590237005
 21
110.1846173596
 31
0.0
  0
LINE
  5
91
330
1F
100
AcDbEntity
  8
0
  6
Continuous
 62
     7
370
    25
100
AcDbLine
 10
160.0902372509
 20
94.184617531
 30
0.0
 11
160.5402369521
 21
102.184617911
 31
0.0
  0
LINE
  5
92
330
1F
100
AcDbEntity
  8
0
  6
Continuous
 62
     7
370
    25
100
AcDbLine
 10
146.0195806347
 20
95.4407351282
 30
0.0
 11
146.0902368188
 21
94.184617531
 31
0.0
  0
LINE
  5
93
330
1F
100
AcDbEntity
  8
0
  6
Continuous
 62
     7
370
    25
100
AcDbLine
 10
147.5902370646
 20
110.1846173596
 30
0.0
 11
147.3370053343
 21
109.1457195771
 31
0.0
  0
LINE
  5
94
330
1F
100
AcDbEntity
  8
0
  6
Continuous
 62
     7
370
    25
100
AcDbLine
 10
140.3402372733
 20
91.6846180525
 30
0.0
 11
140.0902367666
 21
91.4346175459
 31
0.0
  0
LINE
  5
95
330
1F
100
AcDbEntity
  8
0
  6
Continuous
 62
     7
370
    25
100
AcDbLine
 10
140.0902367666
 20
75.9346177992
 30
0.0
 11
140.3402372733
 21
75.6846172926
 31
0.0
  0
LINE
  5
96
330
1F
100
AcDbEntity
  8
0
  6
Continuous
 62
     7
370
    25
100
AcDbLine
 10
143.0902372584
 20
91.6846180525
 30
0.0
 11
140.3402372733
 21
91.6846180525
 31
0.0
  0
LINE
  5
97
330
1F
100
AcDbEntity
  8
0
  6
Continuous
 62
     7
370
    25
100
AcDbLine
 10
140.3402372733
 20
75.6846172926
 30
0.0
 11
143.0902372584
 21
75.6846172926
 31
0.0
  0
LINE
  5
98
330
1F
100
AcDbEntity
  8
0
  6
Continuous
 62
     7
370
    25
100
AcDbLine
 10
127.5902375117
 20
68.6846180078
 30
0.0
 11
127.5902375117
 21
72.6846177322
 31
0.0
  0
LINE
  5
99
330
1F
100
AcDbEntity
  8
0
  6
Continuous
 62
     7
370
    25
100
AcDbLine
 10
118.5902378991
 20
72.6846177322
 30
0.0
 11
118.5902378991
 21
68.6846180078
 31
0.0
  0
ARC
  5
9A
330
1F
100
AcDbEntity
  8
0
  6
Continuous
 62
     7
370
    25
100
AcDbCircle
 10
134.0902370348
 20
72.6846176726
 30
0.0
 40
6.499999999999972
100
AcDbArc
 50
90.0
 51
180.0
  0
ARC
  5
9B
330
1F
100
AcDbEntity
  8
0
  6
Continuous
 62
     7
370
    25
100
AcDbCircle
 10
134.0902370348
 20
72.6846176726
 30
0.0
 40
15.49999999999996
100
AcDbArc
 50
90.0
 51
180.0
  0
LINE
  5
9C
330
1F
100
AcDbEntity
  8
0
  6
Continuous
 62
     7
370
    25
100
AcDbLine
 10
134.0902376458
 20
79.1846178663
 30
0.0
 11
140.0902367666
 21
79.1846178663
 31
0.0
  0
LINE
  5
9D
330
1F
100
AcDbEntity
  8
0
  6
Continuous
 62
     7
370
    25
100
AcDbLine
 10
140.0902367666
 20
88.1846174789
 30
0.0
 11
134.0902376458
 21
88.1846174789
 31
0.0
  0
LINE
  5
9E
330
1F
100
AcDbEntity
  8
0
  6
Continuous
 62
     7
370
    25
100
AcDbLine
 10
162.5902367294
 20
73.6846178961
 30
0.0
 11
162.5902367294
 21
93.684617449
 31
0.0
  0
LINE
  5
9F
330
1F
100
AcDbEntity
  8
0
  6
Continuous
 62
     7
370
    25
100
AcDbLine
 10
163.0902368113
 20
93.1846173671
 30
0.0
 11
163.0902368113
 21
74.184617978
 31
0.0
  0
LINE
  5
A0
330
1F
100
AcDbEntity
  8
0
  6
Continuous
 62
     7
370
    25
100
AcDbLine
 10
160.9722034544
 20
73.6846178961
 30
0.0
 11
160.9722034544
 21
93.684617449
 31
0.0
  0
SPLINE
  5
A1
330
1F
100
AcDbEntity
  8
0
  6
Continuous
 62
     7
370
    25
100
AcDbSpline
210
0.0
220
0.0
230
1.0
 70
     8
 71
     3
 72
     8
 73
     4
 74
     0
 42
0.000000001
 43
0.00000001
 40
0.0
 40
0.0
 40
0.0
 40
0.0
 40
1.0
 40
1.0
 40
1.0
 40
1.0
 10
160.687438159487
 20
78.28492782107016
 30
0.0
 10
160.6196017419109
 20
78.25356488005939
 30
0.0
 10
160.5902370348331
 20
78.22009671940982
 30
0.0
 10
160.5902370348331
 20
78.18461767256606
 30
0.0
  0
SPLINE
  5
A2
330
1F
100
AcDbEntity
  8
0
  6
Continuous
 62
     7
370
    25
100
AcDbSpline
210
0.0
220
0.0
230
1.0
 70
     8
 71
     3
 72
    12
 73
     8
 74
     0
 42
0.000000001
 43
0.00000001
 40
0.0
 40
0.0
 40
0.0
 40
0.0
 40
0.5000000000000001
 40
0.5000000000000001
 40
0.75
 40
0.75
 40
1.0
 40
1.0
 40
1.0
 40
1.0
 10
160.687438159487
 20
78.28492782107016
 30
0.0
 10
160.7553079194968
 20
78.31630617735226
 30
0.0
 10
160.8313424707506
 20
78.4500146978508
 30
0.0
 10
160.8779870691276
 20
78.72804080751658
 30
0.0
 10
160.8824260656502
 20
78.83488699152053
 30
0.0
 10
160.8666954518574
 20
79.0617684655763
 30
0.0
 10
160.846815021915
 20
79.1819374378809
 30
0.0
 10
160.8193231019351
 20
79.30338708269115
 30
0.0
  0
SPLINE
  5
A3
330
1F
100
AcDbEntity
  8
0
  6
Continuous
 62
     7
370
    25
100
AcDbSpline
210
0.0
220
0.0
230
1.0
 70
     8
 71
     3
 72
    12
 73
     8
 74
     0
 42
0.000000001
 43
0.00000001
 40
0.0
 40
0.0
 40
0.0
 40
0.0
 40
0.5
 40
0.5
 40
0.75
 40
0.75
 40
1.0
 40
1.0
 40
1.0
 40
1.0
 10
160.5902370348331
 20
83.68461767256606
 30
0.0
 10
160.5902370348331
 20
82.95066065040885
 30
0.0
 10
160.5856796398339
 20
82.21768220604604
 30
0.0
 10
160.6128633042131
 20
81.12085809309963
 30
0.0
 10
160.6283129751303
 20
80.75571050452919
 30
0.0
 10
160.6911765766622
 20
80.02692249066514
 30
0.0
 10
160.7382064998305
 20
79.66173173526681
 30
0.0
 10
160.8193231019351
 20
79.30338708269115
 30
0.0
  0
LINE
  5
A4
330
1F
100
AcDbEntity
  8
0
  6
Continuous
 62
     7
370
    25
100
AcDbLine
 10
160.5920939244
 20
84.1030190831
 30
0.0
 11
160.5902368672
 21
83.6846176726
 31
0.0
  0
SPLINE
  5
A5
330
1F
100
AcDbEntity
  8
0
  6
Continuous
 62
     7
370
    25
100
AcDbSpline
210
0.0
220
0.0
230
1.0
 70
     8
 71
     3
 72
    14
 73
    10
 74
     0
 42
0.000000001
 43
0.00000001
 40
0.0
 40
0.0
 40
0.0
 40
0.0
 40
0.25
 40
0.25
 40
0.5
 40
0.5
 40
0.75
 40
0.75
 40
1.0
 40
1.0
 40
1.0
 40
1.0
 10
160.8193231019351
 20
88.06584826244097
 30
0.0
 10
160.8468440896802
 20
88.18742631842667
 30
0.0
 10
160.8667640115166
 20
88.30795105545181
 30
0.0
 10
160.8824310533347
 20
88.53492731455991
 30
0.0
 10
160.8779392215224
 20
88.64189729212609
 30
0.0
 10
160.8466828762388
 20
88.82736284390582
 30
0.0
 10
160.820310292857
 20
88.90624810502464
 30
0.0
 10
160.7574737417127
 20
89.02688589619774
 30
0.0
 10
160.7214341628526
 20
89.06859008664036
 30
0.0
 10
160.687438159487
 20
89.08430752406194
 30
0.0
  0
SPLINE
  5
A6
330
1F
100
AcDbEntity
  8
0
  6
Continuous
 62
     7
370
    25
100
AcDbSpline
210
0.0
220
0.0
230
1.0
 70
     8
 71
     3
 72
     8
 73
     4
 74
     0
 42
0.000000001
 43
0.00000001
 40
0.0
 40
0.0
 40
0.0
 40
0.0
 40
1.0
 40
1.0
 40
1.0
 40
1.0
 10
160.5902370348331
 20
89.18461767256605
 30
0.0
 10
160.5902370348331
 20
89.14913862572229
 30
0.0
 10
160.6196017419109
 20
89.11567046507272
 30
0.0
 10
160.687438159487
 20
89.08430752406194
 30
0.0
  0
LINE
  5
A7
330
1F
100
AcDbEntity
  8
0
  6
Continuous
 62
     7
370
    25
100
AcDbLine
 10
160.5902368672
 20
89.1846176428
 30
0.0
 11
160.5902368672
 21
92.6846172851
 31
0.0
  0
LINE
  5
A8
330
1F
100
AcDbEntity
  8
0
  6
Continuous
 62
     7
370
    25
100
AcDbLine
 10
160.5902368672
 20
74.68461806
 30
0.0
 11
160.5902368672
 21
78.1846177024
 31
0.0
  0
LINE
  5
A9
330
1F
100
AcDbEntity
  8
0
  6
Continuous
 62
     7
370
    25
100
AcDbLine
 10
145.2082706153
 20
83.6846176726
 30
0.0
 11
145.2082706153
 21
73.6846178961
 31
0.0
  0
LINE
  5
AA
330
1F
100
AcDbEntity
  8
0
  6
Continuous
 62
     7
370
    25
100
AcDbLine
 10
145.2082706153
 20
93.684617449
 30
0.0
 11
145.2082706153
 21
83.6846176726
 31
0.0
  0
LINE
  5
AB
330
1F
100
AcDbEntity
  8
0
  6
Continuous
 62
     7
370
    25
100
AcDbLine
 10
145.5902372025
 20
92.6846172851
 30
0.0
 11
145.5902372025
 21
89.1846176428
 31
0.0
  0
SPLINE
  5
AC
330
1F
100
AcDbEntity
  8
0
  6
Continuous
 62
     7
370
    25
100
AcDbSpline
210
0.0
220
0.0
230
1.0
 70
     8
 71
     3
 72
     8
 73
     4
 74
     0
 42
0.000000001
 43
0.00000001
 40
0.0
 40
0.0
 40
0.0
 40
0.0
 40
1.0
 40
1.0
 40
1.0
 40
1.0
 10
145.4930359101792
 20
89.08430752406194
 30
0.0
 10
145.5608723277552
 20
89.11567046507272
 30
0.0
 10
145.5902370348331
 20
89.14913862572229
 30
0.0
 10
145.5902370348331
 20
89.18461767256605
 30
0.0
  0
SPLINE
  5
AD
330
1F
100
AcDbEntity
  8
0
  6
Continuous
 62
     7
370
    25
100
AcDbSpline
210
0.0
220
0.0
230
1.0
 70
     8
 71
     3
 72
    12
 73
     8
 74
     0
 42
0.000000001
 43
0.00000001
 40
0.0
 40
0.0
 40
0.0
 40
0.0
 40
0.4999999999999992
 40
0.4999999999999992
 40
0.7499999999999996
 40
0.7499999999999996
 40
1.0
 40
1.0
 40
1.0
 40
1.0
 10
145.4930359101792
 20
89.08430752406194
 30
0.0
 10
145.4251661501694
 20
89.05292916777985
 30
0.0
 10
145.3491315989156
 20
88.9192206472813
 30
0.0
 10
145.3024870005386
 20
88.64119453761552
 30
0.0
 10
145.298048004016
 20
88.53434835361156
 30
0.0
 10
145.3137786178088
 20
88.30746687955582
 30
0.0
 10
145.3336590477512
 20
88.1872979072512
 30
0.0
 10
145.361150967731
 20
88.06584826244097
 30
0.0
  0
SPLINE
  5
AE
330
1F
100
AcDbEntity
  8
0
  6
Continuous
 62
     7
370
    25
100
AcDbSpline
210
0.0
220
0.0
230
1.0
 70
     8
 71
     3
 72
    12
 73
     8
 74
     0
 42
0.000000001
 43
0.00000001
 40
0.0
 40
0.0
 40
0.0
 40
0.0
 40
0.4999999999999998
 40
0.4999999999999998
 40
0.7499999999999999
 40
0.7499999999999999
 40
1.0
 40
1.0
 40
1.0
 40
1.0
 10
145.5902370348331
 20
83.68461767256603
 30
0.0
 10
145.5902370348331
 20
84.41857469472326
 30
0.0
 10
145.5947944298323
 20
85.15155313908606
 30
0.0
 10
145.5676107654531
 20
86.24837725203248
 30
0.0
 10
145.5521610945359
 20
86.61352484060292
 30
0.0
 10
145.489297493004
 20
87.34231285446695
 30
0.0
 10
145.4422675698357
 20
87.70750360986528
 30
0.0
 10
145.361150967731
 20
88.06584826244097
 30
0.0
  0
LINE
  5
AF
330
1F
100
AcDbEntity
  8
0
  6
Continuous
 62
     7
370
    25
100
AcDbLine
 10
145.5883801453
 20
83.266216262
 30
0.0
 11
145.5902372025
 21
83.6846176726
 31
0.0
  0
SPLINE
  5
B0
330
1F
100
AcDbEntity
  8
0
  6
Continuous
 62
     7
370
    25
100
AcDbSpline
210
0.0
220
0.0
230
1.0
 70
     8
 71
     3
 72
    14
 73
    10
 74
     0
 42
0.000000001
 43
0.00000001
 40
0.0
 40
0.0
 40
0.0
 40
0.0
 40
0.25
 40
0.25
 40
0.5
 40
0.5
 40
0.75
 40
0.75
 40
1.0
 40
1.0
 40
1.0
 40
1.0
 10
145.361150967731
 20
79.30338708269115
 30
0.0
 10
145.333629979986
 20
79.18180902670544
 30
0.0
 10
145.3137100581496
 20
79.0612842896803
 30
0.0
 10
145.2980430163315
 20
78.8343080305722
 30
0.0
 10
145.3025348481438
 20
78.72733805300602
 30
0.0
 10
145.3337911934274
 20
78.5418725012263
 30
0.0
 10
145.3601637768092
 20
78.46298724010747
 30
0.0
 10
145.4230003279535
 20
78.34234944893437
 30
0.0
 10
145.4590399068136
 20
78.30064525849176
 30
0.0
 10
145.4930359101792
 20
78.28492782107016
 30
0.0
  0
SPLINE
  5
B1
330
1F
100
AcDbEntity
  8
0
  6
Continuous
 62
     7
370
    25
100
AcDbSpline
210
0.0
220
0.0
230
1.0
 70
     8
 71
     3
 72
     8
 73
     4
 74
     0
 42
0.000000001
 43
0.00000001
 40
0.0
 40
0.0
 40
0.0
 40
0.0
 40
1.0
 40
1.0
 40
1.0
 40
1.0
 10
145.5902370348331
 20
78.18461767256606
 30
0.0
 10
145.5902370348331
 20
78.22009671940982
 30
0.0
 10
145.5608723277552
 20
78.25356488005939
 30
0.0
 10
145.4930359101792
 20
78.28492782107016
 30
0.0
  0
LINE
  5
B2
330
1F
100
AcDbEntity
  8
0
  6
Continuous
 62
     7
370
    25
100
AcDbLine
 10
145.5902372025
 20
78.1846177024
 30
0.0
 11
145.5902372025
 21
74.68461806
 31
0.0
  0
LINE
  5
B3
330
1F
100
AcDbEntity
  8
0
  6
Continuous
 62
     7
370
    25
100
AcDbLine
 10
143.3402368337
 20
83.6846176726
 30
0.0
 11
143.3402368337
 21
73.6846178961
 31
0.0
  0
LINE
  5
B4
330
1F
100
AcDbEntity
  8
0
  6
Continuous
 62
     7
370
    25
100
AcDbLine
 10
143.3402368337
 20
93.684617449
 30
0.0
 11
143.3402368337
 21
83.6846176726
 31
0.0
  0
LINE
  5
B5
330
1F
100
AcDbEntity
  8
0
  6
Continuous
 62
     7
370
    25
100
AcDbLine
 10
143.0902372584
 20
83.6846176726
 30
0.0
 11
143.0902372584
 21
93.4346178737
 31
0.0
  0
LINE
  5
B6
330
1F
100
AcDbEntity
  8
0
  6
Continuous
 62
     7
370
    25
100
AcDbLine
 10
143.0902372584
 20
73.9346174714
 30
0.0
 11
143.0902372584
 21
83.6846176726
 31
0.0
  0
LWPOLYLINE
  5
B7
330
1F
100
AcDbEntity
  8
0
  6
Continuous
 62
     7
370
    25
100
AcDbPolyline
 90
        9
 70
   128
 43
0.0
 10
160.8193231284
 20
79.3033871059
 10
160.7848357878
 20
79.2937185806
 10
160.7433225497
 20
79.2820798424
 10
160.6955331288
 20
79.2686818358
 10
160.6423303954
 20
79.2537662391
 10
160.5846740775
 20
79.2376017389
 10
160.5236058593
 20
79.220481236
 10
160.4602279611
 20
79.2027125326
 10
160.3956849783
 20
79.1846178663
  0
SPLINE
  5
B8
330
1F
100
AcDbEntity
  8
0
  6
Continuous
 62
     7
370
    25
100
AcDbSpline
210
0.0
220
0.0
230
1.0
 70
     8
 71
     3
 72
    14
 73
    10
 74
     0
 42
0.000000001
 43
0.00000001
 40
0.0
 40
0.0
 40
0.0
 40
0.0
 40
0.2500000000000002
 40
0.2500000000000002
 40
0.5000000000000003
 40
0.5000000000000003
 40
0.7500000000000002
 40
0.7500000000000002
 40
1.0
 40
1.0
 40
1.0
 40
1.0
 10
160.3956851243025
 20
79.18461767256606
 30
0.0
 10
160.2931246064784
 20
79.5504402384119
 30
0.0
 10
160.2298116203275
 20
79.92604815385336
 30
0.0
 10
160.1445939571422
 20
80.67505339312204
 30
0.0
 10
160.1226758624637
 20
81.05053405077105
 30
0.0
 10
160.096902606684
 20
81.8023491894862
 30
0.0
 10
160.0931391212193
 20
82.17868800400153
 30
0.0
 10
160.0898277731135
 20
82.93156490285013
 30
0.0
 10
160.0902370348331
 20
83.3081009604791
 30
0.0
 10
160.0902370348331
 20
83.68461767256606
 30
0.0
  0
LINE
  5
B9
330
1F
100
AcDbEntity
  8
0
  6
Continuous
 62
     7
370
    25
100
AcDbLine
 10
160.5902368672
 20
83.6846176726
 30
0.0
 11
160.0902372509
 21
83.6846176726
 31
0.0
  0
SPLINE
  5
BA
330
1F
100
AcDbEntity
  8
0
  6
Continuous
 62
     7
370
    25
100
AcDbSpline
210
0.0
220
0.0
230
1.0
 70
     8
 71
     3
 72
    14
 73
    10
 74
     0
 42
0.000000001
 43
0.00000001
 40
0.0
 40
0.0
 40
0.0
 40
0.0
 40
0.2499999999999999
 40
0.2499999999999999
 40
0.4999999999999999
 40
0.4999999999999999
 40
0.7499999999999999
 40
0.7499999999999999
 40
1.0
 40
1.0
 40
1.0
 40
1.0
 10
160.0902370348331
 20
83.68461767256605
 30
0.0
 10
160.0902370348331
 20
84.06113438465303
 30
0.0
 10
160.0898277731135
 20
84.43767044228198
 30
0.0
 10
160.0931391212193
 20
85.19054734113055
 30
0.0
 10
160.096902606684
 20
85.5668861556459
 30
0.0
 10
160.1226758624637
 20
86.31870129436106
 30
0.0
 10
160.1445939571422
 20
86.69418195201007
 30
0.0
 10
160.2298116203275
 20
87.44318719127875
 30
0.0
 10
160.2931246064784
 20
87.81879510672019
 30
0.0
 10
160.3956851243025
 20
88.18461767256605
 30
0.0
  0
LWPOLYLINE
  5
BB
330
1F
100
AcDbEntity
  8
0
  6
Continuous
 62
     7
370
    25
100
AcDbPolyline
 90
        9
 70
   128
 43
0.0
 10
160.8193231284
 20
88.0658482392
 10
160.7848357878
 20
88.0755167645
 10
160.7433225497
 20
88.0871555027
 10
160.6955331288
 20
88.1005535093
 10
160.6423303954
 20
88.115469106
 10
160.5846740775
 20
88.1316336063
 10
160.5236058593
 20
88.1487541091
 10
160.4602279611
 20
88.1665228125
 10
160.3956849783
 20
88.1846174789
  0
SPLINE
  5
BC
330
1F
100
AcDbEntity
  8
0
  6
Continuous
 62
     7
370
    25
100
AcDbSpline
210
0.0
220
0.0
230
1.0
 70
     8
 71
     3
 72
    14
 73
    10
 74
     0
 42
0.000000001
 43
0.00000001
 40
0.0
 40
0.0
 40
0.0
 40
0.0
 40
0.2500000000000001
 40
0.2500000000000001
 40
0.5000000000000001
 40
0.5000000000000001
 40
0.7500000000000001
 40
0.7500000000000001
 40
1.0
 40
1.0
 40
1.0
 40
1.0
 10
146.0902370348331
 20
83.68461767256605
 30
0.0
 10
146.0902370348331
 20
83.30810096047908
 30
0.0
 10
146.0906462965527
 20
82.93156490285011
 30
0.0
 10
146.0873349484469
 20
82.17868800400153
 30
0.0
 10
146.0835714629822
 20
81.8023491894862
 30
0.0
 10
146.0577982072025
 20
81.05053405077105
 30
0.0
 10
146.035880112524
 20
80.67505339312203
 30
0.0
 10
145.9506624493387
 20
79.92604815385336
 30
0.0
 10
145.8873494631878
 20
79.5504402384119
 30
0.0
 10
145.7847889453637
 20
79.18461767256606
 30
0.0
  0
LWPOLYLINE
  5
BD
330
1F
100
AcDbEntity
  8
0
  6
Continuous
 62
     7
370
    25
100
AcDbPolyline
 90
        9
 70
   128
 43
0.0
 10
145.7847890913
 20
79.1846178663
 10
145.7202461086
 20
79.2027125326
 10
145.6568682104
 20
79.220481236
 10
145.5957999922
 20
79.2376017389
 10
145.5381436743
 20
79.2537662391
 10
145.4849409409
 20
79.2686818358
 10
145.4371515199
 20
79.2820798424
 10
145.3956382818
 20
79.2937185806
 10
145.3611509412
 20
79.3033871059
  0
LINE
  5
BE
330
1F
100
AcDbEntity
  8
0
  6
Continuous
 62
     7
370
    25
100
AcDbLine
 10
146.0902368188
 20
83.6846176726
 30
0.0
 11
145.5902372025
 21
83.6846176726
 31
0.0
  0
SPLINE
  5
BF
330
1F
100
AcDbEntity
  8
0
  6
Continuous
 62
     7
370
    25
100
AcDbSpline
210
0.0
220
0.0
230
1.0
 70
     8
 71
     3
 72
    14
 73
    10
 74
     0
 42
0.000000001
 43
0.00000001
 40
0.0
 40
0.0
 40
0.0
 40
0.0
 40
0.2500000000000001
 40
0.2500000000000001
 40
0.5000000000000001
 40
0.5000000000000001
 40
0.75
 40
0.75
 40
1.0
 40
1.0
 40
1.0
 40
1.0
 10
145.7847889453637
 20
88.18461767256605
 30
0.0
 10
145.8873494631878
 20
87.81879510672019
 30
0.0
 10
145.9506624493387
 20
87.44318719127875
 30
0.0
 10
146.035880112524
 20
86.69418195201007
 30
0.0
 10
146.0577982072025
 20
86.31870129436105
 30
0.0
 10
146.0835714629822
 20
85.5668861556459
 30
0.0
 10
146.0873349484469
 20
85.19054734113055
 30
0.0
 10
146.0906462965527
 20
84.43767044228197
 30
0.0
 10
146.0902370348331
 20
84.06113438465302
 30
0.0
 10
146.0902370348331
 20
83.68461767256603
 30
0.0
  0
LWPOLYLINE
  5
C0
330
1F
100
AcDbEntity
  8
0
  6
Continuous
 62
     7
370
    25
100
AcDbPolyline
 90
        9
 70
   128
 43
0.0
 10
145.7847890913
 20
88.1846174789
 10
145.7202461086
 20
88.1665228125
 10
145.6568682104
 20
88.1487541091
 10
145.5957999922
 20
88.1316336063
 10
145.5381436743
 20
88.115469106
 10
145.4849409409
 20
88.1005535093
 10
145.4371515199
 20
88.0871555027
 10
145.3956382818
 20
88.0755167645
 10
145.3611509412
 20
88.0658482392
  0
SPLINE
  5
C1
330
1F
100
AcDbEntity
  8
0
  6
Continuous
 62
     7
370
    25
100
AcDbSpline
210
0.0
220
0.0
230
1.0
 70
     8
 71
     3
 72
    14
 73
    10
 74
     0
 42
0.000000001
 43
0.00000001
 40
0.0
 40
0.0
 40
0.0
 40
0.0
 40
0.25
 40
0.25
 40
0.5
 40
0.5
 40
0.75
 40
0.75
 40
1.0
 40
1.0
 40
1.0
 40
1.0
 10
145.9606355352945
 20
78.68461767256606
 30
0.0
 10
145.9221600516729
 20
78.68461767256606
 30
0.0
 10
145.8810711302029
 20
78.69540424354928
 30
0.0
 10
145.8017882827623
 20
78.73833603061442
 30
0.0
 10
145.7645053816519
 20
78.76975353891929
 30
0.0
 10
145.7116996223401
 20
78.86106838449552
 30
0.0
 10
145.6997303622465
 20
78.92229886725978
 30
0.0
 10
145.7197321506187
 20
79.05316222791551
 30
0.0
 10
145.7491886061709
 20
79.12112634225309
 30
0.0
 10
145.7847889453637
 20
79.18461767256606
 30
0.0
  0
ARC
  5
C2
330
1F
100
AcDbEntity
  8
0
  6
Continuous
 62
     7
370
    25
100
AcDbCircle
 10
145.969184279
 20
78.2012479494
 30
0.0
 40
0.4834454273381065
100
AcDbArc
 50
91.0132315313
 51
170.0324555796
  0
SPLINE
  5
C3
330
1F
100
AcDbEntity
  8
0
  6
Continuous
 62
     7
370
    25
100
AcDbSpline
210
0.0
220
0.0
230
1.0
 70
     8
 71
     3
 72
    14
 73
    10
 74
     0
 42
0.000000001
 43
0.00000001
 40
0.0
 40
0.0
 40
0.0
 40
0.0
 40
0.25
 40
0.25
 40
0.5
 40
0.5
 40
0.75
 40
0.75
 40
1.0
 40
1.0
 40
1.0
 40
1.0
 10
160.2198385343717
 20
88.68461767256605
 30
0.0
 10
160.2583140179933
 20
88.68461767256605
 30
0.0
 10
160.2994029394633
 20
88.67383110158283
 30
0.0
 10
160.3786857869038
 20
88.63089931451768
 30
0.0
 10
160.4159686880143
 20
88.5994818062128
 30
0.0
 10
160.4687744473261
 20
88.50816696063659
 30
0.0
 10
160.4807437074197
 20
88.44693647787233
 30
0.0
 10
160.4607419190475
 20
88.3160731172166
 30
0.0
 10
160.4312854634952
 20
88.24810900287902
 30
0.0
 10
160.3956851243025
 20
88.18461767256605
 30
0.0
  0
ARC
  5
C4
330
1F
100
AcDbEntity
  8
0
  6
Continuous
 62
     7
370
    25
100
AcDbCircle
 10
160.2112897907
 20
89.1679873957
 30
0.0
 40
0.4834454273381092
100
AcDbArc
 50
271.0132315312
 51
350.0324555796
  0
SPLINE
  5
C5
330
1F
100
AcDbEntity
  8
0
  6
Continuous
 62
     7
370
    25
100
AcDbSpline
210
0.0
220
0.0
230
1.0
 70
     8
 71
     3
 72
    16
 73
    12
 74
     0
 42
0.000000001
 43
0.00000001
 40
0.0
 40
0.0
 40
0.0
 40
0.0
 40
0.2500000000000049
 40
0.2500000000000049
 40
0.3750000000000051
 40
0.3750000000000051
 40
0.5000000000000052
 40
0.5000000000000052
 40
0.7500000000000026
 40
0.7500000000000026
 40
1.0
 40
1.0
 40
1.0
 40
1.0
 10
145.7847889453637
 20
88.18461767256605
 30
0.0
 10
145.749235015915
 20
88.24802623354425
 30
0.0
 10
145.7199628746864
 20
88.31529353386506
 30
0.0
 10
145.7047503244655
 20
88.4137328450074
 30
0.0
 10
145.7046896562919
 20
88.44620825136269
 30
0.0
 10
145.7149002407693
 20
88.50483345848889
 30
0.0
 10
145.7246835702945
 20
88.53045627004188
 30
0.0
 10
145.7638481188264
 20
88.59866511373733
 30
0.0
 10
145.8017211920997
 20
88.63082786890311
 30
0.0
 10
145.8807941650913
 20
88.67371608801899
 30
0.0
 10
145.9221812976821
 20
88.68461767256605
 30
0.0
 10
145.9606355352945
 20
88.68461767256605
 30
0.0
  0
ARC
  5
C6
330
1F
100
AcDbEntity
  8
0
  6
Continuous
 62
     7
370
    25
100
AcDbCircle
 10
145.969184279
 20
89.1679873957
 30
0.0
 40
0.4834454273381097
100
AcDbArc
 50
189.9675444204
 51
268.9867684687
  0
ARC
  5
C7
330
1F
100
AcDbEntity
  8
0
  6
Continuous
 62
     7
370
    25
100
AcDbCircle
 10
160.2112897907
 20
78.2012479494
 30
0.0
 40
0.483445427338095
100
AcDbArc
 50
9.9675444204
 51
88.9867684688
  0
SPLINE
  5
C8
330
1F
100
AcDbEntity
  8
0
  6
Continuous
 62
     7
370
    25
100
AcDbSpline
210
0.0
220
0.0
230
1.0
 70
     8
 71
     3
 72
    16
 73
    12
 74
     0
 42
0.000000001
 43
0.00000001
 40
0.0
 40
0.0
 40
0.0
 40
0.0
 40
0.2499999999999999
 40
0.2499999999999999
 40
0.3750000000000003
 40
0.3750000000000003
 40
0.5000000000000007
 40
0.5000000000000007
 40
0.7500000000000003
 40
0.7500000000000003
 40
1.0
 40
1.0
 40
1.0
 40
1.0
 10
160.3956851243025
 20
79.18461767256606
 30
0.0
 10
160.4312390537511
 20
79.12120911158786
 30
0.0
 10
160.4605111949798
 20
79.05394181126704
 30
0.0
 10
160.4757237452007
 20
78.95550250012471
 30
0.0
 10
160.4757844133742
 20
78.92302709376942
 30
0.0
 10
160.4655738288969
 20
78.86440188664321
 30
0.0
 10
160.4557904993717
 20
78.83877907509023
 30
0.0
 10
160.4166259508397
 20
78.77057023139477
 30
0.0
 10
160.3787528775665
 20
78.738407476229
 30
0.0
 10
160.2996799045749
 20
78.69551925711312
 30
0.0
 10
160.2582927719841
 20
78.68461767256606
 30
0.0
 10
160.2198385343717
 20
78.68461767256606
 30
0.0
  0
LINE
  5
C9
330
1F
100
AcDbEntity
  8
0
  6
Continuous
 62
     7
370
    25
100
AcDbLine
 10
160.2198387034
 20
78.6846177843
 30
0.0
 11
145.9606353663
 21
78.6846177843
 31
0.0
  0
LINE
  5
CA
330
1F
100
AcDbEntity
  8
0
  6
Continuous
 62
     7
370
    25
100
AcDbLine
 10
145.7847890913
 20
79.1846178663
 30
0.0
 11
160.3956849783
 21
79.1846178663
 31
0.0
  0
ARC
  5
CB
330
1F
100
AcDbEntity
  8
0
  6
Continuous
 62
     7
370
    25
100
AcDbCircle
 10
154.2798874436
 20
82.8795715321
 30
0.0
 40
0.7111999999997926
100
AcDbArc
 50
45.0
 51
315.0
  0
ARC
  5
CC
330
1F
100
AcDbEntity
  8
0
  6
Continuous
 62
     7
370
    25
100
AcDbCircle
 10
154.2798874436
 20
82.8795715321
 30
0.0
 40
1.239109388553857
100
AcDbArc
 50
45.0
 51
315.0
  0
LINE
  5
CD
330
1F
100
AcDbEntity
  8
0
  6
Continuous
 62
     7
370
    25
100
AcDbLine
 10
155.1560699943
 20
82.0033889222
 30
0.0
 11
154.7827818202
 21
82.3766772128
 31
0.0
  0
ARC
  5
CE
330
1F
100
AcDbEntity
  8
0
  6
Continuous
 62
     7
370
    25
100
AcDbCircle
 10
156.9536031207
 20
82.8795715321
 30
0.0
 40
0.7112000000000946
100
AcDbArc
 50
200.9248324276
 51
315.0
  0
LINE
  5
CF
330
1F
100
AcDbEntity
  8
0
  6
Continuous
 62
     7
370
    25
100
AcDbLine
 10
157.4564975224
 20
83.3824658666
 30
0.0
 11
157.8297855802
 21
83.7557541863
 31
0.0
  0
LINE
  5
D0
330
1F
100
AcDbEntity
  8
0
  6
Continuous
 62
     7
370
    25
100
AcDbLine
 10
157.8297855802
 20
82.0033889222
 30
0.0
 11
157.4564975224
 21
82.3766772128
 31
0.0
  0
ELLIPSE
  5
D1
330
1F
100
AcDbEntity
  8
0
  6
Continuous
 62
     7
370
    25
100
AcDbEllipse
 10
150.0392328972
 20
80.0380907886
 30
0.0
 11
2.293035763987575
 21
-1.065814103640150E-12
 31
0.0
210
0.0
220
0.0
230
1.0
 40
0.9533039403
 41
0.8210019969645963
 42
2.320590656625134
  0
ELLIPSE
  5
D2
330
1F
100
AcDbEntity
  8
0
  6
Continuous
 62
     7
370
    25
100
AcDbEllipse
 10
151.6481428937
 20
81.685169685
 30
0.0
 11
0.0678412947923448
 21
0.0
 31
0.0
210
0.0
220
0.0
230
1.0
 40
0.9533039403
 41
3.96259465055478
 42
5.819537698175207
  0
LINE
  5
D3
330
1F
100
AcDbEntity
  8
0
  6
Continuous
 62
     7
370
    25
100
AcDbLine
 10
151.708821976
 20
81.6562469308
 30
0.0
 11
152.3458368963
 21
82.8707845257
 31
0.0
  0
LINE
  5
D4
330
1F
100
AcDbEntity
  8
0
  6
Continuous
 62
     7
370
    25
100
AcDbLine
 10
152.3458368963
 20
82.8707845257
 30
0.0
 11
152.3125166775
 21
82.8517406089
 31
0.0
  0
LINE
  5
D5
330
1F
100
AcDbEntity
  8
0
  6
Continuous
 62
     7
370
    25
100
AcDbLine
 10
151.5197423057
 20
83.1285392823
 30
0.0
 11
150.5120185673
 21
85.9464956638
 31
0.0
  0
LINE
  5
D6
330
1F
100
AcDbEntity
  8
0
  6
Continuous
 62
     7
370
    25
100
AcDbLine
 10
149.566447223
 20
85.9464956638
 30
0.0
 11
148.5589582942
 21
83.1291959812
 31
0.0
  0
ELLIPSE
  5
D7
330
1F
100
AcDbEntity
  8
0
  6
Continuous
 62
     7
370
    25
100
AcDbEllipse
 10
148.0452585098
 20
83.2961432744
 30
0.0
 11
-0.5427303583406342
 21
3.410605131648481E-13
 31
0.0
210
0.0
220
0.0
230
1.0
 40
0.9533039403
 41
1.047197551196545
 42
2.813039483039245
  0
LINE
  5
D8
330
1F
100
AcDbEntity
  8
0
  6
Continuous
 62
     7
370
    25
100
AcDbLine
 10
147.7326288357
 20
82.8707845257
 30
0.0
 11
148.3696436979
 21
81.6562469308
 31
0.0
  0
ELLIPSE
  5
D9
330
1F
100
AcDbEntity
  8
0
  6
Continuous
 62
     7
370
    25
100
AcDbEllipse
 10
148.4303229006
 20
81.685169685
 30
0.0
 11
0.06784129479237322
 21
0.0
 31
0.0
210
0.0
220
0.0
230
1.0
 40
0.9533039403
 41
3.605240262580817
 42
5.462183310226515
  0
LINE
  5
DA
330
1F
100
AcDbEntity
  8
0
  6
Continuous
 62
     7
370
    25
100
AcDbLine
 10
160.3956849783
 20
88.1846174789
 30
0.0
 11
145.7847890913
 21
88.1846174789
 31
0.0
  0
ARC
  5
DB
330
1F
100
AcDbEntity
  8
0
  6
Continuous
 62
     7
370
    25
100
AcDbCircle
 10
156.9536031207
 20
82.8795715321
 30
0.0
 40
0.7112000000000337
100
AcDbArc
 50
45.0
 51
159.0751675723
  0
LINE
  5
DC
330
1F
100
AcDbEntity
  8
0
  6
Continuous
 62
     7
370
    25
100
AcDbLine
 10
157.8297855802
 20
83.1335715093
 30
0.0
 11
156.2893070284
 21
83.1335715093
 31
0.0
  0
LINE
  5
DD
330
1F
100
AcDbEntity
  8
0
  6
Continuous
 62
     7
370
    25
100
AcDbLine
 10
147.7738934107
 20
82.8480730024
 30
0.0
 11
147.7326288357
 21
82.8707845257
 31
0.0
  0
LINE
  5
DE
330
1F
100
AcDbEntity
  8
0
  6
Continuous
 62
     7
370
    25
100
AcDbLine
 10
156.2893070284
 20
82.625571541
 30
0.0
 11
157.8297855802
 21
82.625571541
 31
0.0
  0
LINE
  5
DF
330
1F
100
AcDbEntity
  8
0
  6
Continuous
 62
     7
370
    25
100
AcDbLine
 10
154.7827818202
 20
83.3824658666
 30
0.0
 11
155.1560699943
 21
83.7557541863
 31
0.0
  0
ARC
  5
E0
330
1F
100
AcDbEntity
  8
0
  6
Continuous
 62
     7
370
    25
100
AcDbCircle
 10
156.9536031207
 20
82.8795715321
 30
0.0
 40
1.239109388553847
100
AcDbArc
 50
45.0
 51
315.0
  0
ELLIPSE
  5
E1
330
1F
100
AcDbEntity
  8
0
  6
Continuous
 62
     7
370
    25
100
AcDbEllipse
 10
152.033442121
 20
83.2954865873
 30
0.0
 11
0.5427303583402932
 21
3.552713678800501E-13
 31
0.0
210
0.0
220
0.0
230
1.0
 40
0.9533039404
 41
3.470145824142418
 42
5.252469180527919
  0
LINE
  5
E2
330
1F
100
AcDbEntity
  8
0
  6
Continuous
 62
     7
370
    25
100
AcDbLine
 10
157.8297855802
 20
82.625571541
 30
0.0
 11
157.8297855802
 21
83.1335715093
 31
0.0
  0
ELLIPSE
  5
E3
330
1F
100
AcDbEntity
  8
0
  6
Continuous
 62
     7
370
    25
100
AcDbEllipse
 10
150.0392328972
 20
85.7366234238
 30
0.0
 11
0.5215299537176463
 21
0.0
 31
0.0
210
0.0
220
0.0
230
1.0
 40
0.9533039403
 41
0.4357918987553248
 42
2.705800754834471
  0
ELLIPSE
  5
E4
330
1F
100
AcDbEntity
  8
0
  6
Continuous
 62
     7
370
    25
100
AcDbEllipse
 10
149.7962935538
 20
83.1941514224
 30
0.0
 11
0.06784129479237322
 21
0.0
 31
0.0
210
0.0
220
0.0
230
1.0
 40
0.9533039403
 41
2.798568711307185
 42
4.712388980384703
  0
ELLIPSE
  5
E5
330
1F
100
AcDbEntity
  8
0
  6
Continuous
 62
     7
370
    25
100
AcDbEllipse
 10
150.0392328988
 20
83.842617516
 30
0.0
 11
0.06784129479268586
 21
0.0
 31
0.0
210
0.0
220
0.0
230
1.0
 40
0.9533039403
 41
0.3430239385578901
 42
2.798568711309283
  0
LINE
  5
E6
330
1F
100
AcDbEntity
  8
0
  6
Continuous
 62
     7
370
    25
100
AcDbLine
 10
150.3460613083
 20
83.2159034225
 30
0.0
 11
150.1031218566
 21
83.8643695215
 31
0.0
  0
LINE
  5
E7
330
1F
100
AcDbEntity
  8
0
  6
Continuous
 62
     7
370
    25
100
AcDbLine
 10
149.7962934434
 20
83.1294780555
 30
0.0
 11
150.2821723468
 21
83.1294780555
 31
0.0
  0
LINE
  5
E8
330
1F
100
AcDbEntity
  8
0
  6
Continuous
 62
     7
370
    25
100
AcDbLine
 10
149.9753439337
 20
83.8643695215
 30
0.0
 11
149.732404482
 21
83.2159034225
 31
0.0
  0
ELLIPSE
  5
E9
330
1F
100
AcDbEntity
  8
0
  6
Continuous
 62
     7
370
    25
100
AcDbEllipse
 10
150.2821722409
 20
83.1941514224
 30
0.0
 11
-0.0678412947923448
 21
0.0
 31
0.0
210
0.0
220
0.0
230
1.0
 40
0.9533039403
 41
1.570796326794897
 42
3.484616592149799
  0
LINE
  5
EA
330
1F
100
AcDbEntity
  8
0
  6
Continuous
 62
     7
370
    25
100
AcDbLine
 10
145.9606353663
 20
88.6846175608
 30
0.0
 11
160.2198387034
 21
88.6846175608
 31
0.0
  0
ARC
  5
EB
330
1F
100
AcDbEntity
  8
0
  6
Continuous
 62
     7
370
    25
100
AcDbCircle
 10
160.0902370348
 20
78.1846176726
 30
0.0
 40
0.5
100
AcDbArc
 50
0.0
 51
90.0
  0
ARC
  5
EC
330
1F
100
AcDbEntity
  8
0
  6
Continuous
 62
     7
370
    25
100
AcDbCircle
 10
146.0902370348
 20
78.1846176726
 30
0.0
 40
0.5
100
AcDbArc
 50
90.0
 51
180.0
  0
ARC
  5
ED
330
1F
100
AcDbEntity
  8
0
  6
Continuous
 62
     7
370
    25
100
AcDbCircle
 10
160.0902370348
 20
89.1846176726
 30
0.0
 40
0.5
100
AcDbArc
 50
270.0
 51
0.0
  0
ARC
  5
EE
330
1F
100
AcDbEntity
  8
0
  6
Continuous
 62
     7
370
    25
100
AcDbCircle
 10
146.0902370348
 20
89.1846176726
 30
0.0
 40
0.5
100
AcDbArc
 50
180.0
 51
270.0
  0
LWPOLYLINE
  5
EF
330
1F
100
AcDbEntity
  8
0
  6
Continuous
 62
     7
370
    25
100
AcDbPolyline
 90
        9
 70
   128
 43
0.0
 10
160.0902372509
 20
88.8790623476
 10
160.1877821147
 20
88.8849334051
 10
160.2815788708
 20
88.9023211975
 10
160.3680223696
 20
88.930557501
 10
160.4437905833
 20
88.9685573247
 10
160.505971732
 20
89.0148598892
 10
160.5521769732
 20
89.0676868339
 10
160.5806298092
 20
89.1250069444
 10
160.5902368672
 20
89.1846176428
  0
LINE
  5
F0
330
1F
100
AcDbEntity
  8
0
  6
Continuous
 62
     7
370
    25
100
AcDbLine
 10
160.0902372509
 20
88.6846175608
 30
0.0
 11
160.0902372509
 21
88.8790623476
 31
0.0
  0
LWPOLYLINE
  5
F1
330
1F
100
AcDbEntity
  8
0
  6
Continuous
 62
     7
370
    25
100
AcDbPolyline
 90
        9
 70
   128
 43
0.0
 10
145.5902372025
 20
89.1846176428
 10
145.5998442605
 20
89.1250069444
 10
145.6282970965
 20
89.0676868339
 10
145.6745023377
 20
89.0148598892
 10
145.7366834864
 20
88.9685573247
 10
145.8124517001
 20
88.930557501
 10
145.8988951988
 20
88.9023211975
 10
145.9926919549
 20
88.8849334051
 10
146.0902368188
 20
88.8790623476
  0
LINE
  5
F2
330
1F
100
AcDbEntity
  8
0
  6
Continuous
 62
     7
370
    25
100
AcDbLine
 10
146.0902368188
 20
88.6846175608
 30
0.0
 11
146.0902368188
 21
88.8790623476
 31
0.0
  0
LINE
  5
F3
330
1F
100
AcDbEntity
  8
0
  6
Continuous
 62
     7
370
    25
100
AcDbLine
 10
160.0902372509
 20
78.4901729976
 30
0.0
 11
146.0902368188
 21
78.4901729976
 31
0.0
  0
LINE
  5
F4
330
1F
100
AcDbEntity
  8
0
  6
Continuous
 62
     7
370
    25
100
AcDbLine
 10
146.0902368188
 20
78.4901729976
 30
0.0
 11
146.0902368188
 21
78.6846177843
 31
0.0
  0
LINE
  5
F5
330
1F
100
AcDbEntity
  8
0
  6
Continuous
 62
     7
370
    25
100
AcDbLine
 10
160.0902372509
 20
78.4901729976
 30
0.0
 11
160.0902372509
 21
78.6846177843
 31
0.0
  0
LWPOLYLINE
  5
F6
330
1F
100
AcDbEntity
  8
0
  6
Continuous
 62
     7
370
    25
100
AcDbPolyline
 90
        9
 70
   128
 43
0.0
 10
146.0902368188
 20
78.4901729976
 10
145.9926919549
 20
78.4843019401
 10
145.8988951988
 20
78.4669141476
 10
145.8124517001
 20
78.4386778441
 10
145.7366834864
 20
78.4006780204
 10
145.6745023377
 20
78.354375456
 10
145.6282970965
 20
78.3015485112
 10
145.5998442605
 20
78.2442284007
 10
145.5902372025
 20
78.1846177024
  0
LWPOLYLINE
  5
F7
330
1F
100
AcDbEntity
  8
0
  6
Continuous
 62
     7
370
    25
100
AcDbPolyline
 90
        9
 70
   128
 43
0.0
 10
160.5902368672
 20
78.1846177024
 10
160.5806298092
 20
78.2442284007
 10
160.5521769732
 20
78.3015485112
 10
160.505971732
 20
78.354375456
 10
160.4437905833
 20
78.4006780204
 10
160.3680223696
 20
78.4386778441
 10
160.2815788708
 20
78.4669141476
 10
160.1877821147
 20
78.4843019401
 10
160.0902372509
 20
78.4901729976
  0
LINE
  5
F8
330
1F
100
AcDbEntity
  8
0
  6
Continuous
 62
     7
370
    25
100
AcDbLine
 10
146.0902368188
 20
88.8790623476
 30
0.0
 11
160.0902372509
 21
88.8790623476
 31
0.0
  0
LINE
  5
F9
330
1F
100
AcDbEntity
  8
0
  6
Continuous
 62
     7
370
    25
100
AcDbLine
 10
170.9261111453
 20
83.6846176726
 30
0.0
 11
170.9261111453
 21
77.1851595682
 31
0.0
  0
LINE
  5
FA
330
1F
100
AcDbEntity
  8
0
  6
Continuous
 62
     7
370
    25
100
AcDbLine
 10
170.9261111453
 20
90.1840757769
 30
0.0
 11
170.9261111453
 21
83.6846176726
 31
0.0
  0
LINE
  5
FB
330
1F
100
AcDbEntity
  8
0
  6
Continuous
 62
     7
370
    25
100
AcDbLine
 10
173.0902365878
 20
88.9346176018
 30
0.0
 11
173.0902365878
 21
78.4346177433
 31
0.0
  0
SPLINE
  5
FC
330
1F
100
AcDbEntity
  8
0
  6
Continuous
 62
     7
370
    25
100
AcDbSpline
210
0.0
220
0.0
230
1.0
 70
    11
 71
     3
 72
    26
 73
    22
 74
     0
 42
0.000000001
 43
0.00000001
 40
0.0
 40
0.0
 40
0.0
 40
0.0
 40
0.125
 40
0.125
 40
0.1875
 40
0.1875
 40
0.25
 40
0.25
 40
0.3125
 40
0.3125
 40
0.375
 40
0.375
 40
0.5
 40
0.5
 40
0.625
 40
0.625
 40
0.75
 40
0.75
 40
0.875
 40
0.875
 40
1.0
 40
1.0
 40
1.0
 40
1.0
 10
153.6035560036815
 20
91.68461767256605
 30
0.0
 10
153.6035560036815
 20
91.82373670379488
 30
0.0
 10
153.5507600325325
 20
91.95946440677035
 30
0.0
 10
153.4093044426552
 20
92.11248314326613
 30
0.0
 10
153.3527505062833
 20
92.15398604428667
 30
0.0
 10
153.2272063548399
 20
92.21118593808035
 30
0.0
 10
153.1580547417319
 20
92.22646992682468
 30
0.0
 10
153.0208963669884
 20
92.22624905306104
 30
0.0
 10
152.9517817841823
 20
92.21068899177338
 30
0.0
 10
152.8270220155512
 20
92.15348315727937
 30
0.0
 10
152.7703909272167
 20
92.11173173001241
 30
0.0
 10
152.6302773006938
 20
91.95989086172897
 30
0.0
 10
152.5769567667472
 20
91.8238385344611
 30
0.0
 10
152.5768794081711
 20
91.54570584075775
 30
0.0
 10
152.6305677901928
 20
91.40890383073776
 30
0.0
 10
152.8172626045005
 20
91.2068350270727
 30
0.0
 10
152.953143813864
 20
91.14266526738716
 30
0.0
 10
153.2287749479025
 20
91.14308632018815
 30
0.0
 10
153.3637499863162
 20
91.20735500261146
 30
0.0
 10
153.5495974633822
 20
91.4086325538356
 30
0.0
 10
153.6035560036815
 20
91.54549864133723
 30
0.0
 10
153.6035560036815
 20
91.68461767256605
 30
0.0
  0
SPLINE
  5
FD
330
1F
100
AcDbEntity
  8
0
  6
Continuous
 62
     7
370
    25
100
AcDbSpline
210
0.0
220
0.0
230
1.0
 70
    11
 71
     3
 72
    38
 73
    34
 74
     0
 42
0.000000001
 43
0.00000001
 40
0.0
 40
0.0
 40
0.0
 40
0.0
 40
0.0625
 40
0.0625
 40
0.125
 40
0.125
 40
0.1874999999999999
 40
0.1874999999999999
 40
0.2499999999999999
 40
0.2499999999999999
 40
0.3125
 40
0.3125
 40
0.375
 40
0.375
 40
0.4375000000000001
 40
0.4375000000000001
 40
0.5000000000000001
 40
0.5000000000000001
 40
0.5625000000000001
 40
0.5625000000000001
 40
0.6250000000000001
 40
0.6250000000000001
 40
0.6875000000000001
 40
0.6875000000000001
 40
0.75
 40
0.75
 40
0.8125
 40
0.8125
 40
0.875
 40
0.875
 40
0.9375
 40
0.9375
 40
1.0
 40
1.0
 40
1.0
 40
1.0
 10
152.0902370348331
 20
91.68461767256605
 30
0.0
 10
152.0902370348331
 20
91.55223175765575
 30
0.0
 10
152.1163855859759
 20
91.42234443117704
 30
0.0
 10
152.2168512554337
 20
91.18026543659117
 30
0.0
 10
152.2911361218303
 20
91.06948408253515
 30
0.0
 10
152.475285301565
 20
90.88537680242939
 30
0.0
 10
152.5866609241593
 20
90.81090813113339
 30
0.0
 10
152.8272094286932
 20
90.7110809550047
 30
0.0
 10
152.9589673246806
 20
90.68469303493139
 30
0.0
 10
153.2203560168444
 20
90.68454264124456
 30
0.0
 10
153.3515280874361
 20
90.71048246165459
 30
0.0
 10
153.5939657734359
 20
90.81085009407988
 30
0.0
 10
153.7040199415854
 20
90.88423899722511
 30
0.0
 10
153.8902732589963
 20
91.07038846405466
 30
0.0
 10
153.9636995868895
 20
91.18042698145464
 30
0.0
 10
154.0640643345183
 20
91.42230969854333
 30
0.0
 10
154.0901855988145
 20
91.55358421705465
 30
0.0
 10
154.0902883162998
 20
91.81486486642716
 30
0.0
 10
154.0640446882061
 20
91.94668026994009
 30
0.0
 10
153.9643763314079
 20
92.18746818802157
 30
0.0
 10
153.8900955394394
 20
92.29880038941955
 30
0.0
 10
153.7059087990058
 20
92.48333058461456
 30
0.0
 10
153.5954852249432
 20
92.55751691388834
 30
0.0
 10
153.3531005097033
 20
92.65833817285849
 30
0.0
 10
153.2231763301369
 20
92.68451240216353
 30
0.0
 10
152.9588862206199
 20
92.68472231215044
 30
0.0
 10
152.8286524619579
 20
92.65863458978727
 30
0.0
 10
152.5867597907872
 20
92.55848614580867
 30
0.0
 10
152.4757438653806
 20
92.4841998506435
 30
0.0
 10
152.2915761294006
 20
92.30030775120672
 30
0.0
 10
152.2169774578985
 20
92.1889776006527
 30
0.0
 10
152.1169266443534
 20
91.94848906084407
 30
0.0
 10
152.0902370348331
 20
91.81700358747635
 30
0.0
 10
152.0902370348331
 20
91.68461767256605
 30
0.0
  0
SPLINE
  5
FE
330
1F
100
AcDbEntity
  8
0
  6
Continuous
 62
     7
370
    25
100
AcDbSpline
210
0.0
220
0.0
230
1.0
 70
     8
 71
     3
 72
    15
 73
    11
 74
     0
 42
0.000000001
 43
0.00000001
 40
0.0
 40
0.0
 40
0.0
 40
0.0
 40
0.0081668554937291
 40
0.3321941846999776
 40
0.4756279332062201
 40
0.6866839627273442
 40
0.8457444903091523
 40
0.8967583891412989
 40
0.9909563331444947
 40
1.0
 40
1.0
 40
1.0
 40
1.0
 10
147.9912175334748
 20
111.0346168470417
 30
0.0
 10
147.9907299697937
 20
111.0346144471824
 30
0.0
 10
147.970897879015
 20
111.0345168307499
 30
0.0
 10
147.9426186854971
 20
111.024957562179
 30
0.0
 10
147.9047885172146
 20
110.9875997222381
 30
0.0
 10
147.8782055044099
 20
110.9427316265563
 30
0.0
 10
147.8610345087691
 20
110.8848560596779
 30
0.0
 10
147.8532182860335
 20
110.8341793509395
 30
0.0
 10
147.8512232002447
 20
110.8054853668056
 30
0.0
 10
147.8511574960265
 20
110.7862988835523
 30
0.0
 10
147.8511517405268
 20
110.7846182030474
 30
0.0
  0
LINE
  5
FF
330
1F
100
AcDbEntity
  8
0
  6
Continuous
 62
     7
370
    25
100
AcDbLine
 10
147.9912175335
 20
111.034616847
 30
0.0
 11
158.1892565362
 21
111.034616847
 31
0.0
  0
SPLINE
  5
100
330
1F
100
AcDbEntity
  8
0
  6
Continuous
 62
     7
370
    25
100
AcDbSpline
210
0.0
220
0.0
230
1.0
 70
     8
 71
     3
 72
    15
 73
    11
 74
     0
 42
0.000000001
 43
0.00000001
 40
0.0
 40
0.0
 40
0.0
 40
0.0
 40
0.0090436668555053
 40
0.1032416108587011
 40
0.1542555096908477
 40
0.3133160372726557
 40
0.5243720667937798
 40
0.6678058153000223
 40
0.9918331445062708
 40
0.9999999999999999
 40
0.9999999999999999
 40
0.9999999999999999
 40
0.9999999999999999
 10
158.3293223291394
 20
110.7846182030474
 30
0.0
 10
158.3293165736397
 20
110.7862988835523
 30
0.0
 10
158.3292508694215
 20
110.8054853668056
 30
0.0
 10
158.3272557836327
 20
110.8341793509395
 30
0.0
 10
158.3194395608971
 20
110.8848560596779
 30
0.0
 10
158.3022685652563
 20
110.9427316265563
 30
0.0
 10
158.2756855524516
 20
110.9875997222381
 30
0.0
 10
158.2378553841691
 20
111.024957562179
 30
0.0
 10
158.2095761906512
 20
111.0345168307498
 30
0.0
 10
158.1897440998725
 20
111.0346144471824
 30
0.0
 10
158.1892565361914
 20
111.0346168470417
 30
0.0
  0
LINE
  5
101
330
1F
100
AcDbEntity
  8
0
  6
Continuous
 62
     7
370
    25
100
AcDbLine
 10
158.3293223291
 20
110.784618203
 30
0.0
 11
147.8511517405
 21
110.784618203
 31
0.0
  0
LINE
  5
102
330
1F
100
AcDbEntity
  8
0
  6
Continuous
 62
     7
370
    25
100
AcDbLine
 10
147.8511517405
 20
110.784618203
 30
0.0
 11
147.8511517405
 21
110.1846173596
 31
0.0
  0
LINE
  5
103
330
1F
100
AcDbEntity
  8
0
  6
Continuous
 62
     7
370
    25
100
AcDbLine
 10
158.3293223291
 20
110.1846173596
 30
0.0
 11
158.3293223291
 21
110.784618203
 31
0.0
  0
LINE
  5
104
330
1F
100
AcDbEntity
  8
0
  6
Continuous
 62
     7
370
    25
100
AcDbLine
 10
147.8511517405
 20
110.1846173596
 30
0.0
 11
158.3293223291
 21
110.1846173596
 31
0.0
  0
LINE
  5
105
330
1F
100
AcDbEntity
  8
0
  6
Continuous
 62
     7
370
    25
100
AcDbLine
 10
147.6130116269
 20
110.784618203
 30
0.0
 11
147.8511517405
 21
110.784618203
 31
0.0
  0
SPLINE
  5
106
330
1F
100
AcDbEntity
  8
0
  6
Continuous
 62
     7
370
    25
100
AcDbSpline
210
0.0
220
0.0
230
1.0
 70
     8
 71
     3
 72
    15
 73
    11
 74
     0
 42
0.000000001
 43
0.00000001
 40
0.0
 40
0.0
 40
0.0
 40
0.0
 40
0.0089534934608068
 40
0.0998985020501141
 40
0.1531621750630547
 40
0.3125626131158444
 40
0.524966528186016
 40
0.6689889196484162
 40
0.9919154833883785
 40
0.9999999999999999
 40
0.9999999999999999
 40
0.9999999999999999
 40
0.9999999999999999
 10
147.6130116268751
 20
110.7846182030474
 30
0.0
 10
147.6130272905465
 20
110.7862989108607
 30
0.0
 10
147.6132020577831
 20
110.805051389284
 30
0.0
 10
147.6186327293835
 20
110.8338131499372
 30
0.0
 10
147.6401664194364
 20
110.8847011838014
 30
0.0
 10
147.687873465729
 20
110.9428359330154
 30
0.0
 10
147.7602632738989
 20
110.9875464293825
 30
0.0
 10
147.8621829394653
 20
111.0248237402895
 30
0.0
 10
147.9375390589823
 20
111.0345161010493
 30
0.0
 10
147.9899377630425
 20
111.0346144451154
 30
0.0
 10
147.9912175334748
 20
111.0346168470417
 30
0.0
  0
LINE
  5
107
330
1F
100
AcDbEntity
  8
0
  6
Continuous
 62
     7
370
    25
100
AcDbLine
 10
158.3293223291
 20
110.784618203
 30
0.0
 11
158.5674624428
 21
110.784618203
 31
0.0
  0
SPLINE
  5
108
330
1F
100
AcDbEntity
  8
0
  6
Continuous
 62
     7
370
    25
100
AcDbSpline
210
0.0
220
0.0
230
1.0
 70
     8
 71
     3
 72
    15
 73
    11
 74
     0
 42
0.000000001
 43
0.00000001
 40
0.0
 40
0.0
 40
0.0
 40
0.0
 40
0.0080845166116213
 40
0.3310110803515837
 40
0.4750334718139839
 40
0.6874373868841556
 40
0.8468378249369453
 40
0.9001014979498858
 40
0.9910465065391931
 40
0.9999999999999999
 40
0.9999999999999999
 40
0.9999999999999999
 40
0.9999999999999999
 10
158.1892565361914
 20
111.0346168470417
 30
0.0
 10
158.1905363066237
 20
111.0346144451154
 30
0.0
 10
158.2429350106839
 20
111.0345161010494
 30
0.0
 10
158.3182911302009
 20
111.0248237402895
 30
0.0
 10
158.4202107957673
 20
110.9875464293825
 30
0.0
 10
158.4926006039372
 20
110.9428359330154
 30
0.0
 10
158.5403076502298
 20
110.8847011838014
 30
0.0
 10
158.5618413402827
 20
110.8338131499372
 30
0.0
 10
158.5672720118831
 20
110.8050513892841
 30
0.0
 10
158.5674467791197
 20
110.7862989108607
 30
0.0
 10
158.5674624427911
 20
110.7846182030474
 30
0.0
  0
LINE
  5
109
330
1F
100
AcDbEntity
  8
0
  6
Continuous
 62
     7
370
    25
100
AcDbLine
 10
147.6130116269
 20
110.1846173596
 30
0.0
 11
147.6130116269
 21
110.784618203
 31
0.0
  0
LINE
  5
10A
330
1F
100
AcDbEntity
  8
0
  6
Continuous
 62
     7
370
    25
100
AcDbLine
 10
147.8511517405
 20
110.1846173596
 30
0.0
 11
147.6130116269
 21
110.1846173596
 31
0.0
  0
LINE
  5
10B
330
1F
100
AcDbEntity
  8
0
  6
Continuous
 62
     7
370
    25
100
AcDbLine
 10
158.5674624428
 20
110.784618203
 30
0.0
 11
158.5674624428
 21
110.1846173596
 31
0.0
  0
LINE
  5
10C
330
1F
100
AcDbEntity
  8
0
  6
Continuous
 62
     7
370
    25
100
AcDbLine
 10
158.5674624428
 20
110.1846173596
 30
0.0
 11
158.3293223291
 21
110.1846173596
 31
0.0
  0
LINE
  5
10D
330
1F
100
AcDbEntity
  8
0
  6
Continuous
 62
     7
370
    25
100
AcDbLine
 10
147.0902369827
 20
110.1846173596
 30
0.0
 11
147.0902369827
 21
110.784618203
 31
0.0
  0
LINE
  5
10E
330
1F
100
AcDbEntity
  8
0
  6
Continuous
 62
     7
370
    25
100
AcDbLine
 10
147.0902369827
 20
110.784618203
 30
0.0
 11
147.3402370237
 21
110.784618203
 31
0.0
  0
LINE
  5
10F
330
1F
100
AcDbEntity
  8
0
  6
Continuous
 62
     7
370
    25
100
AcDbLine
 10
147.3402370237
 20
110.784618203
 30
0.0
 11
147.3402370237
 21
110.1846173596
 31
0.0
  0
LINE
  5
110
330
1F
100
AcDbEntity
  8
0
  6
Continuous
 62
     7
370
    25
100
AcDbLine
 10
147.3402370237
 20
110.1846173596
 30
0.0
 11
147.0902369827
 21
110.1846173596
 31
0.0
  0
LINE
  5
111
330
1F
100
AcDbEntity
  8
0
  6
Continuous
 62
     7
370
    25
100
AcDbLine
 10
147.6130116269
 20
110.784618203
 30
0.0
 11
147.3402370237
 21
110.784618203
 31
0.0
  0
LINE
  5
112
330
1F
100
AcDbEntity
  8
0
  6
Continuous
 62
     7
370
    25
100
AcDbLine
 10
147.6130116269
 20
110.1846173596
 30
0.0
 11
147.3402370237
 21
110.1846173596
 31
0.0
  0
ARC
  5
113
330
1F
100
AcDbEntity
  8
0
  6
Continuous
 62
     7
370
    25
100
AcDbCircle
 10
147.3402370348
 20
110.7846176726
 30
0.0
 40
0.25
100
AcDbArc
 50
90.0
 51
180.0
  0
LINE
  5
114
330
1F
100
AcDbEntity
  8
0
  6
Continuous
 62
     7
370
    25
100
AcDbLine
 10
147.3402370237
 20
111.034616847
 30
0.0
 11
147.3402370237
 21
110.784618203
 31
0.0
  0
LINE
  5
115
330
1F
100
AcDbEntity
  8
0
  6
Continuous
 62
     7
370
    25
100
AcDbLine
 10
147.3402370237
 20
111.034616847
 30
0.0
 11
147.9912175335
 21
111.034616847
 31
0.0
  0
LINE
  5
116
330
1F
100
AcDbEntity
  8
0
  6
Continuous
 62
     7
370
    25
100
AcDbLine
 10
158.840237046
 20
110.784618203
 30
0.0
 11
158.840237046
 21
111.034616847
 31
0.0
  0
LINE
  5
117
330
1F
100
AcDbEntity
  8
0
  6
Continuous
 62
     7
370
    25
100
AcDbLine
 10
158.840237046
 20
110.784618203
 30
0.0
 11
158.5674624428
 21
110.784618203
 31
0.0
  0
LINE
  5
118
330
1F
100
AcDbEntity
  8
0
  6
Continuous
 62
     7
370
    25
100
AcDbLine
 10
158.1892565362
 20
111.034616847
 30
0.0
 11
158.840237046
 21
111.034616847
 31
0.0
  0
LINE
  5
119
330
1F
100
AcDbEntity
  8
0
  6
Continuous
 62
     7
370
    25
100
AcDbLine
 10
158.840237046
 20
110.1846173596
 30
0.0
 11
158.840237046
 21
110.784618203
 31
0.0
  0
LINE
  5
11A
330
1F
100
AcDbEntity
  8
0
  6
Continuous
 62
     7
370
    25
100
AcDbLine
 10
158.840237046
 20
110.1846173596
 30
0.0
 11
158.5674624428
 21
110.1846173596
 31
0.0
  0
LINE
  5
11B
330
1F
100
AcDbEntity
  8
0
  6
Continuous
 62
     7
370
    25
100
AcDbLine
 10
158.840237046
 20
110.784618203
 30
0.0
 11
159.090237087
 21
110.784618203
 31
0.0
  0
LINE
  5
11C
330
1F
100
AcDbEntity
  8
0
  6
Continuous
 62
     7
370
    25
100
AcDbLine
 10
159.090237087
 20
110.784618203
 30
0.0
 11
159.090237087
 21
110.1846173596
 31
0.0
  0
LINE
  5
11D
330
1F
100
AcDbEntity
  8
0
  6
Continuous
 62
     7
370
    25
100
AcDbLine
 10
159.090237087
 20
110.1846173596
 30
0.0
 11
158.840237046
 21
110.1846173596
 31
0.0
  0
ARC
  5
11E
330
1F
100
AcDbEntity
  8
0
  6
Continuous
 62
     7
370
    25
100
AcDbCircle
 10
158.8402370348
 20
110.7846176726
 30
0.0
 40
0.2500000000000284
100
AcDbArc
 50
0.0
 51
90.0
  0
LINE
  5
11F
330
1F
100
AcDbEntity
  8
0
  6
Continuous
 62
     7
370
    25
100
AcDbLine
 10
158.0902369231
 20
111.034616847
 30
0.0
 11
158.0902369231
 21
111.0446173888
 31
0.0
  0
LINE
  5
120
330
1F
100
AcDbEntity
  8
0
  6
Continuous
 62
     7
370
    25
100
AcDbLine
 10
148.0902371466
 20
111.0446173888
 30
0.0
 11
158.0902369231
 21
111.0446173888
 31
0.0
  0
LINE
  5
121
330
1F
100
AcDbEntity
  8
0
  6
Continuous
 62
     7
370
    25
100
AcDbLine
 10
148.0902371466
 20
111.034616847
 30
0.0
 11
148.0902371466
 21
111.0446173888
 31
0.0
  0
LINE
  5
122
330
1F
100
AcDbEntity
  8
0
  6
Continuous
 62
     7
370
    25
100
AcDbLine
 10
148.6156902745
 20
102.184617911
 30
0.0
 11
160.5402369521
 21
102.184617911
 31
0.0
  0
SPLINE
  5
123
330
1F
100
AcDbEntity
  8
0
  6
Continuous
 62
     7
370
    25
100
AcDbSpline
210
0.0
220
0.0
230
1.0
 70
     8
 71
     3
 72
     9
 73
     5
 74
     0
 42
0.000000001
 43
0.00000001
 40
0.0
 40
0.0
 40
0.0
 40
0.0
 40
0.4978404435797771
 40
1.0
 40
1.0
 40
1.0
 40
1.0
 10
149.3759009524938
 20
103.1793616902863
 30
0.0
 10
149.2395789302449
 20
103.0228504104954
 30
0.0
 10
148.9657521971882
 20
102.7084700064737
 30
0.0
 10
148.7327130894718
 20
102.3597373480486
 30
0.0
 10
148.6156902745124
 20
102.1846179109846
 30
0.0
  0
LINE
  5
124
330
1F
100
AcDbEntity
  8
0
  6
Continuous
 62
     7
370
    25
100
AcDbLine
 10
147.866434744
 20
110.1846173596
 30
0.0
 11
146.1382963232
 21
103.1793616903
 31
0.0
  0
LINE
  5
125
330
1F
100
AcDbEntity
  8
0
  6
Continuous
 62
     7
370
    25
100
AcDbLine
 10
158.3293223291
 20
110.1846173596
 30
0.0
 11
147.866434744
 21
110.1846173596
 31
0.0
  0
LINE
  5
126
330
1F
100
AcDbEntity
  8
0
  6
Continuous
 62
     7
370
    25
100
AcDbLine
 10
151.0902369398
 20
94.184617531
 30
0.0
 11
160.0902372509
 21
94.184617531
 31
0.0
  0
LINE
  5
127
330
1F
100
AcDbEntity
  8
0
  6
Continuous
 62
     7
370
    25
100
AcDbLine
 10
151.0902369398
 20
94.2224348155
 30
0.0
 11
151.0902369398
 21
94.184617531
 31
0.0
  0
SPLINE
  5
128
330
1F
100
AcDbEntity
  8
0
  6
Continuous
 62
     7
370
    25
100
AcDbSpline
210
0.0
220
0.0
230
1.0
 70
     8
 71
     3
 72
     9
 73
     5
 74
     0
 42
0.000000001
 43
0.00000001
 40
0.0
 40
0.0
 40
0.0
 40
0.0
 40
0.4875149508301391
 40
1.0
 40
1.0
 40
1.0
 40
1.0
 10
150.9342918641624
 20
94.18461753100503
 30
0.0
 10
150.9605984397107
 20
94.18634511257652
 30
0.0
 10
151.0145589910817
 20
94.18988876096836
 30
0.0
 10
151.0645944931173
 20
94.21140702623607
 30
0.0
 10
151.0902369398382
 20
94.22243481546985
 30
0.0
  0
SPLINE
  5
129
330
1F
100
AcDbEntity
  8
0
  6
Continuous
 62
     7
370
    25
100
AcDbSpline
210
0.0
220
0.0
230
1.0
 70
     8
 71
     3
 72
    17
 73
    13
 74
     0
 42
0.000000001
 43
0.00000001
 40
0.0
 40
0.0
 40
0.0
 40
0.0
 40
0.3241697917523345
 40
0.5422758587479237
 40
0.689509089275669
 40
0.7894035981534984
 40
0.8577089567094359
 40
0.9049823628410104
 40
0.9551711781537311
 40
0.9753097815865951
 40
0.991957189245944
 40
1.0
 40
1.0
 40
1.0
 40
1.0
 10
148.6156902745124
 20
102.1846179109846
 30
0.0
 10
148.7584054229866
 20
101.272004258268
 30
0.0
 10
148.9971413621893
 20
99.74537110236284
 30
0.0
 10
149.3767291076898
 20
97.81859818499416
 30
0.0
 10
149.6858629567041
 20
96.53096276090167
 30
0.0
 10
149.9419769710964
 20
95.67181104494546
 30
0.0
 10
150.1562878268124
 20
95.0983433571862
 30
0.0
 10
150.3595218925359
 20
94.67681099740658
 30
0.0
 10
150.5440678583252
 20
94.3963191342116
 30
0.0
 10
150.7301378358861
 20
94.24076893952501
 30
0.0
 10
150.8453491928497
 20
94.19015952338613
 30
0.0
 10
150.9124378197454
 20
94.18597925025482
 30
0.0
 10
150.9342918641624
 20
94.18461753100502
 30
0.0
  0
SPLINE
  5
12A
330
1F
100
AcDbEntity
  8
0
  6
Continuous
 62
     7
370
    25
100
AcDbSpline
210
0.0
220
0.0
230
1.0
 70
     8
 71
     3
 72
    14
 73
    10
 74
     0
 42
0.000000001
 43
0.00000001
 40
0.0
 40
0.0
 40
0.0
 40
0.0
 40
0.1576094553927752
 40
0.315238234353942
 40
0.4726925966125388
 40
0.6301651045756322
 40
0.790731299294198
 40
0.9513051076307096
 40
1.0
 40
1.0
 40
1.0
 40
1.0
 10
146.5902369007227
 20
94.18461753100502
 30
0.0
 10
146.5236658444293
 20
94.39811920825201
 30
0.0
 10
146.3905155699569
 20
94.82514873893098
 30
0.0
 10
146.0619493949649
 20
95.41039619844177
 30
0.0
 10
145.6485592222115
 20
95.93255072590485
 30
0.0
 10
145.1528843950078
 20
96.38152893998446
 30
0.0
 10
144.5865946327026
 20
96.74081111315644
 30
0.0
 10
144.1103440177967
 20
96.94537685552947
 30
0.0
 10
143.8301493667721
 20
97.02617160029875
 30
0.0
 10
143.7649506613371
 20
97.0449717906152
 30
0.0
  0
LWPOLYLINE
  5
12B
330
1F
100
AcDbEntity
  8
0
  6
Continuous
 62
     7
370
    25
100
AcDbPolyline
 90
        4
 70
   128
 43
0.0
 10
143.7649506613
 20
97.0449717906
 10
141.8476284951
 20
97.5653315154
 10
139.9204650432
 20
98.0883622733
 10
137.9851934969
 20
98.6135928151
  0
SPLINE
  5
12C
330
1F
100
AcDbEntity
  8
0
  6
Continuous
 62
     7
370
    25
100
AcDbSpline
210
0.0
220
0.0
230
1.0
 70
     8
 71
     3
 72
    11
 73
     7
 74
     0
 42
0.000000001
 43
0.00000001
 40
0.0
 40
0.0
 40
0.0
 40
0.0
 40
0.2488465959137647
 40
0.4976945924499491
 40
0.7488461206779728
 40
1.0
 40
1.0
 40
1.0
 40
1.0
 10
130.9148001953718
 20
99.9367926460539
 30
0.0
 10
131.5092361446494
 20
99.8672684902093
 30
0.0
 10
132.698111388962
 20
99.72821978720633
 30
0.0
 10
134.4728357740415
 20
99.42789010116661
 30
0.0
 10
136.2394166737992
 20
99.06598175285052
 30
0.0
 10
137.4032660733716
 20
98.7643895982313
 30
0.0
 10
137.9851934969184
 20
98.6135928151046
 30
0.0
  0
LINE
  5
12D
330
1F
100
AcDbEntity
  8
0
  6
Continuous
 62
     7
370
    25
100
AcDbLine
 10
130.9148001954
 20
99.9367926461
 30
0.0
 11
130.9148001954
 21
103.1793616903
 31
0.0
  0
LINE
  5
12E
330
1F
100
AcDbEntity
  8
0
  6
Continuous
 62
     7
370
    25
100
AcDbLine
 10
130.9148001954
 20
103.1793616903
 30
0.0
 11
149.3759009525
 21
103.1793616903
 31
0.0
  0
LINE
  5
12F
330
1F
100
AcDbEntity
  8
0
  6
Continuous
 62
     7
370
    25
100
AcDbLine
 10
150.9342918642
 20
94.184617531
 30
0.0
 11
146.5902369007
 21
94.184617531
 31
0.0
  0
LINE
  5
130
330
1F
100
AcDbEntity
  8
0
  6
Continuous
 62
     7
370
    25
100
AcDbLine
 10
151.0902369398
 20
94.2224348155
 30
0.0
 11
151.0834375866
 21
94.184617531
 31
0.0
  0
LINE
  5
131
330
1F
100
AcDbEntity
  8
0
  6
Continuous
 62
     7
370
    25
100
AcDbLine
 10
151.0902369398
 20
94.184617531
 30
0.0
 11
151.0834375866
 21
94.184617531
 31
0.0
  0
LINE
  5
132
330
1F
100
AcDbEntity
  8
0
  6
Continuous
 62
     7
370
    25
100
AcDbLine
 10
151.0834375866
 20
94.184617531
 30
0.0
 11
150.9342918642
 21
94.184617531
 31
0.0
  0
LINE
  5
133
330
1F
100
AcDbEntity
  8
0
  6
Continuous
 62
     7
370
    25
100
AcDbLine
 10
113.0902379289
 20
112.1846176875
 30
0.0
 11
130.9148001954
 21
112.1846176875
 31
0.0
  0
LINE
  5
134
330
1F
100
AcDbEntity
  8
0
  6
Continuous
 62
     7
370
    25
100
AcDbLine
 10
130.9148001954
 20
112.1846176875
 30
0.0
 11
130.9148001954
 21
103.1793616903
 31
0.0
  0
LINE
  5
135
330
1F
100
AcDbEntity
  8
0
  6
Continuous
 62
     7
370
    25
100
AcDbLine
 10
126.198569639
 20
100.1846175832
 30
0.0
 11
118.0902368858
 21
100.1846175832
 31
0.0
  0
ARC
  5
136
330
1F
100
AcDbEntity
  8
0
  6
Continuous
 62
     7
370
    25
100
AcDbCircle
 10
118.0902370348
 20
105.1846176726
 30
0.0
 40
5.0
100
AcDbArc
 50
180.0
 51
270.0
  0
LINE
  5
137
330
1F
100
AcDbEntity
  8
0
  6
Continuous
 62
     7
370
    25
100
AcDbLine
 10
113.0902379289
 20
105.1846184027
 30
0.0
 11
113.0902379289
 21
112.1846176875
 31
0.0
  0
ARC
  5
138
330
1F
100
AcDbEntity
  8
0
  6
Continuous
 62
     7
370
    25
100
AcDbCircle
 10
126.1985691771
 20
55.1844884184
 30
0.0
 40
45.00012925418374
100
AcDbArc
 50
83.9840777705
 51
90.0
  0
LINE
  5
139
330
1F
100
AcDbEntity
  8
0
  6
Continuous
 62
     7
370
    25
100
AcDbLine
 10
130.9148001954
 20
112.1846176875
 30
0.0
 11
133.0902374819
 21
112.1846176875
 31
0.0
  0
LINE
  5
13A
330
1F
100
AcDbEntity
  8
0
  6
Continuous
 62
     7
370
    25
100
AcDbLine
 10
133.0902374819
 20
112.1846176875
 30
0.0
 11
133.0902374819
 21
110.2035734993
 31
0.0
  0
ARC
  5
13B
330
1F
100
AcDbEntity
  8
0
  6
Continuous
 62
     7
370
    25
100
AcDbCircle
 10
139.0902370348
 20
110.2035731959
 30
0.0
 40
6.000000000000005
100
AcDbArc
 50
180.0
 51
275.5801667845
  0
ARC
  5
13C
330
1F
100
AcDbEntity
  8
0
  6
Continuous
 62
     7
370
    25
100
AcDbCircle
 10
138.7012834706
 20
114.1846176726
 30
0.0
 40
10.00000000000848
100
AcDbArc
 50
275.5801667845
 51
336.4218215217
  0
LINE
  5
13D
330
1F
100
AcDbEntity
  8
0
  6
Continuous
 62
     7
370
    25
100
AcDbLine
 10
146.5902369007
 20
94.184617531
 30
0.0
 11
146.0902368188
 21
94.184617531
 31
0.0
  0
LINE
  5
13E
330
1F
100
AcDbEntity
  8
0
  6
Continuous
 62
     7
370
    25
100
AcDbLine
 10
147.8511517405
 20
110.1846173596
 30
0.0
 11
147.866434744
 21
110.1846173596
 31
0.0
  0
LINE
  5
13F
330
1F
100
AcDbEntity
  8
0
  6
Continuous
 62
     7
370
    25
100
AcDbLine
 10
140.0902367666
 20
83.6846176726
 30
0.0
 11
140.0902367666
 21
91.4346175459
 31
0.0
  0
LINE
  5
140
330
1F
100
AcDbEntity
  8
0
  6
Continuous
 62
     7
370
    25
100
AcDbLine
 10
140.0902367666
 20
75.9346177992
 30
0.0
 11
140.0902367666
 21
83.6846176726
 31
0.0
  0
LINE
  5
141
330
1F
100
AcDbEntity
  8
0
  6
Continuous
 62
     7
370
    25
100
AcDbLine
 10
140.3402372733
 20
83.6846176726
 30
0.0
 11
140.3402372733
 21
75.6846172926
 31
0.0
  0
LINE
  5
142
330
1F
100
AcDbEntity
  8
0
  6
Continuous
 62
     7
370
    25
100
AcDbLine
 10
140.3402372733
 20
91.6846180525
 30
0.0
 11
140.3402372733
 21
83.6846176726
 31
0.0
  0
LINE
  5
143
330
1F
100
AcDbEntity
  8
0
  6
Continuous
 62
     7
370
    25
100
AcDbLine
 10
123.0902377054
 20
68.6846180078
 30
0.0
 11
118.5902378991
 21
68.6846180078
 31
0.0
  0
LINE
  5
144
330
1F
100
AcDbEntity
  8
0
  6
Continuous
 62
     7
370
    25
100
AcDbLine
 10
127.5902375117
 20
68.6846180078
 30
0.0
 11
123.0902377054
 21
68.6846180078
 31
0.0
  0
SPLINE
  5
145
330
1F
100
AcDbEntity
  8
0
  6
Continuous
 62
     8
370
    25
100
AcDbSpline
210
0.0
220
0.0
230
1.0
 70
     8
 71
     3
 72
    11
 73
     7
 74
     0
 42
0.000000001
 43
0.00000001
 40
0.0
 40
0.0
 40
0.0
 40
0.0
 40
0.1198441334940601
 40
0.3649707355539814
 40
0.6103443370299418
 40
1.0
 40
1.0
 40
1.0
 40
1.0
 10
160.8193231284377
 20
88.06584823921669
 30
0.0
 10
160.7883388463087
 20
87.9103633100597
 30
0.0
 10
160.693979982762
 20
87.43685286522177
 30
0.0
 10
160.6241975965855
 20
86.63003947904103
 30
0.0
 10
160.5892105035124
 20
85.46419771275119
 30
0.0
 10
160.5909974495306
 20
84.62063278775165
 30
0.0
 10
160.5920939244088
 20
84.10301908313642
 30
0.0
  0
SPLINE
  5
146
330
1F
100
AcDbEntity
  8
0
  6
Continuous
 62
     8
370
    25
100
AcDbSpline
210
0.0
220
0.0
230
1.0
 70
     8
 71
     3
 72
    11
 73
     7
 74
     0
 42
0.000000001
 43
0.00000001
 40
0.0
 40
0.0
 40
0.0
 40
0.0
 40
0.1198441334940601
 40
0.3649707355539814
 40
0.6103443370299418
 40
1.0
 40
1.0
 40
1.0
 40
1.0
 10
145.3611509412285
 20
79.30338710591542
 30
0.0
 10
145.3921352233575
 20
79.45887203507242
 30
0.0
 10
145.4864940869042
 20
79.93238247991034
 30
0.0
 10
145.5562764730807
 20
80.73919586609108
 30
0.0
 10
145.5912635661538
 20
81.90503763238092
 30
0.0
 10
145.5894766201356
 20
82.74860255738047
 30
0.0
 10
145.5883801452574
 20
83.26621626199568
 30
0.0
  0
LINE
  5
147
330
1F
100
AcDbEntity
  8
0
  6
Continuous
 62
     8
370
    25
100
AcDbLine
 10
160.0902372509
 20
88.8790623476
 30
0.0
 11
160.0902372509
 21
92.1846181345
 31
0.0
  0
LINE
  5
148
330
1F
100
AcDbEntity
  8
0
  6
Continuous
 62
     8
370
    25
100
AcDbLine
 10
146.0902368188
 20
92.1846181345
 30
0.0
 11
146.0902368188
 21
88.8790623476
 31
0.0
  0
LINE
  5
149
330
1F
100
AcDbEntity
  8
0
  6
Continuous
 62
     8
370
    25
100
AcDbLine
 10
146.0902368188
 20
78.4901729976
 30
0.0
 11
146.0902368188
 21
75.1846172106
 31
0.0
  0
LINE
  5
14A
330
1F
100
AcDbEntity
  8
0
  6
Continuous
 62
     8
370
    25
100
AcDbLine
 10
160.0902372509
 20
75.1846172106
 30
0.0
 11
160.0902372509
 21
78.4901729976
 31
0.0
  0
SPLINE
  5
14B
330
1F
100
AcDbEntity
  8
0
  6
Continuous
 62
     8
370
    25
100
AcDbSpline
210
0.0
220
0.0
230
1.0
 70
     8
 71
     3
 72
    31
 73
    27
 74
     0
 42
0.000000001
 43
0.00000001
 40
0.0
 40
0.0
 40
0.0
 40
0.0
 40
0.0401469674686242
 40
0.0814986026226104
 40
0.1230168016889695
 40
0.1655416012274912
 40
0.2131130161285811
 40
0.2616996828497939
 40
0.3186667233940659
 40
0.3479437321399341
 40
0.3772159140049192
 40
0.4187751004512731
 40
0.4612875549783683
 40
0.5032031450453729
 40
0.5465043050002475
 40
0.5837432916969165
 40
0.6217090261095588
 40
0.6775256579079723
 40
0.734862360906015
 40
0.7907485712470934
 40
0.8195217853075434
 40
0.8482899200809866
 40
0.8930370735445798
 40
0.9390657783783559
 40
0.9835421349504135
 40
1.0
 40
1.0
 40
1.0
 40
1.0
 10
159.4902368731555
 20
92.18461813450205
 30
0.0
 10
159.4789182080919
 20
92.17699943116139
 30
0.0
 10
159.4559412450882
 20
92.16153341429363
 30
0.0
 10
159.2712645378802
 20
92.03831330180788
 30
0.0
 10
158.9806845475233
 20
91.84829023442218
 30
0.0
 10
158.5697445855228
 20
91.58775522945119
 30
0.0
 10
158.0371124584574
 20
91.26595072276105
 30
0.0
 10
157.3486678567362
 20
90.88009124451602
 30
0.0
 10
156.6567118686923
 20
90.53592226058034
 30
0.0
 10
156.0107932599461
 20
90.2618809190277
 30
0.0
 10
155.4206072743355
 20
90.04479447263616
 30
0.0
 10
154.7127142677689
 20
89.8392448060135
 30
0.0
 10
153.8826183190855
 20
89.68980735116796
 30
0.0
 10
153.0158195539937
 20
89.6422253255153
 30
0.0
 10
152.1867559591206
 20
89.7056902622426
 30
0.0
 10
151.4109672248384
 20
89.85592744543663
 30
0.0
 10
150.5939050612947
 20
90.09395894309989
 30
0.0
 10
149.71992537325
 20
90.44088576264679
 30
0.0
 10
148.8461092921499
 20
90.87106945888095
 30
0.0
 10
148.2071122150714
 20
91.23009300311473
 30
0.0
 10
147.7635186203125
 20
91.49522838696842
 30
0.0
 10
147.408585238587
 20
91.71497856915836
 30
0.0
 10
147.0652640042011
 20
91.93552792675501
 30
0.0
 10
146.8086062088093
 20
92.10514481816355
 30
0.0
 10
146.6855285326946
 20
92.187774234939
 30
0.0
 10
146.7031551999095
 20
92.17594888397701
 30
0.0
 10
146.7079160272833
 20
92.1727549475466
 30
0.0
  0
SPLINE
  5
14C
330
1F
100
AcDbEntity
  8
0
  6
Continuous
 62
     8
370
    25
100
AcDbSpline
210
0.0
220
0.0
230
1.0
 70
     8
 71
     3
 72
    31
 73
    27
 74
     0
 42
0.000000001
 43
0.00000001
 40
0.0
 40
0.0
 40
0.0
 40
0.0
 40
0.0148210566466454
 40
0.0619108786813931
 40
0.1074455066899998
 40
0.154342074548709
 40
0.2108203590328918
 40
0.2689848173338092
 40
0.3245691015009363
 40
0.353116802941412
 40
0.3816579138779144
 40
0.4179574127613481
 40
0.454999010202526
 40
0.4952942461141884
 40
0.5372057403442616
 40
0.5775812190257532
 40
0.619138190658019
 40
0.6474898119195819
 40
0.6758477225739482
 40
0.7341551700649505
 40
0.7822816910649438
 40
0.8313532509707088
 40
0.8736398241975869
 40
0.9168634838215617
 40
0.9578466218450228
 40
1.0
 40
1.0
 40
1.0
 40
1.0
 10
147.2047416962442
 20
92.67343955159532
 30
0.0
 10
147.2007987865974
 20
92.67647794990002
 30
0.0
 10
147.1843283684207
 20
92.689170021276
 30
0.0
 10
147.2950816761114
 20
92.6037327654738
 30
0.0
 10
147.5325975455796
 20
92.42342981741464
 30
0.0
 10
147.9182044612136
 20
92.13869138357947
 30
0.0
 10
148.460983003997
 20
91.75672335452806
 30
0.0
 10
149.158767599815
 20
91.30524226290392
 30
0.0
 10
149.8345808961431
 20
90.92212267619756
 30
0.0
 10
150.4211506578267
 20
90.63830892224841
 30
0.0
 10
150.9364129456397
 20
90.42217332624799
 30
0.0
 10
151.5339119129617
 20
90.22130564813857
 30
0.0
 10
152.2400010886632
 20
90.06281947333062
 30
0.0
 10
153.0113747082199
 20
89.99272276489093
 30
0.0
 10
153.8082238011817
 20
90.04102377216404
 30
0.0
 10
154.5841637664345
 20
90.20072541921884
 30
0.0
 10
155.2330594431254
 20
90.41682750133981
 30
0.0
 10
155.7741069843832
 20
90.64509464090243
 30
0.0
 10
156.3718095854928
 20
90.93530995472142
 30
0.0
 10
157.0091555802424
 20
91.29921169593858
 30
0.0
 10
157.6485531356529
 20
91.71047828591155
 30
0.0
 10
158.1365957952906
 20
92.04906648267033
 30
0.0
 10
158.5184175581175
 20
92.32694977833633
 30
0.0
 10
158.784736639501
 20
92.52695835298194
 30
0.0
 10
158.9575130347145
 20
92.65931470558752
 30
0.0
 10
158.979227298569
 20
92.6761043143997
 30
0.0
 10
158.9902372568604
 20
92.68461728513586
 30
0.0
  0
LINE
  5
14D
330
1F
100
AcDbEntity
  8
0
  6
Continuous
 62
     8
370
    25
100
AcDbLine
 10
123.0902377054
 20
72.6846177322
 30
0.0
 11
118.5902378991
 21
72.6846177322
 31
0.0
  0
LINE
  5
14E
330
1F
100
AcDbEntity
  8
0
  6
Continuous
 62
     8
370
    25
100
AcDbLine
 10
127.5902375117
 20
72.6846177322
 30
0.0
 11
123.0902377054
 21
72.6846177322
 31
0.0
  0
LINE
  5
14F
330
1F
100
AcDbEntity
  8
0
  6
Continuous
 62
     8
370
    25
100
AcDbLine
 10
134.0902376458
 20
83.6846176726
 30
0.0
 11
134.0902376458
 21
88.1846174789
 31
0.0
  0
LINE
  5
150
330
1F
100
AcDbEntity
  8
0
  6
Continuous
 62
     8
370
    25
100
AcDbLine
 10
134.0902376458
 20
79.1846178663
 30
0.0
 11
134.0902376458
 21
83.6846176726
 31
0.0
  0
LINE
  5
151
330
1F
100
AcDbEntity
  8
0
  6
Continuous
 62
     7
370
     0
100
AcDbLine
 10
172.3900522666
 20
78.0303658082
 30
0.0
 11
163.5902370348
 21
77.7553715822
 31
0.0
  0
LINE
  5
152
330
1F
100
AcDbEntity
  8
0
  6
Continuous
 62
     7
370
     0
100
AcDbLine
 10
172.3900522666
 20
89.338869537
 30
0.0
 11
163.5902370348
 21
89.613863763
 31
0.0
  0
LINE
  5
153
330
1F
100
AcDbEntity
  8
0
  6
Continuous
 62
     7
370
     0
100
AcDbLine
 10
163.5902370348
 20
90.4133219761
 30
0.0
 11
163.5902370348
 21
76.955913369
 31
0.0
  0
LINE
  5
154
330
1F
100
AcDbEntity
  8
0
  6
Continuous
 62
     7
370
    25
100
AcDbLine
 10
210.8851161283
 20
91.7586498153
 30
0.0
 11
210.8851161283
 21
94.184617531
 31
0.0
  0
LINE
  5
155
330
1F
100
AcDbEntity
  8
0
  6
Continuous
 62
     7
370
    25
100
AcDbLine
 10
199.0851156842
 20
94.184617531
 30
0.0
 11
199.0851156842
 21
92.6827117991
 31
0.0
  0
ARC
  5
156
330
1F
100
AcDbEntity
  8
0
  6
Continuous
 62
     7
370
    25
100
AcDbCircle
 10
199.2851159063
 20
92.2263601029
 30
0.0
 40
0.5000000000000135
100
AcDbArc
 50
113.64497808
 51
180.007858636
  0
ARC
  5
157
330
1F
100
AcDbEntity
  8
0
  6
Continuous
 62
     7
370
    25
100
AcDbCircle
 10
210.2351159063
 20
110.7846176726
 30
0.0
 40
0.25
100
AcDbArc
 50
0.0
 51
90.0
  0
ARC
  5
158
330
1F
100
AcDbEntity
  8
0
  6
Continuous
 62
     7
370
    25
100
AcDbCircle
 10
199.7351159063
 20
110.7846176726
 30
0.0
 40
0.25
100
AcDbArc
 50
90.0
 51
180.0
  0
LINE
  5
159
330
1F
100
AcDbEntity
  8
0
  6
Continuous
 62
     7
370
    25
100
AcDbLine
 10
210.4851158764
 20
110.1846173596
 30
0.0
 11
210.4851158764
 21
110.784618203
 31
0.0
  0
LINE
  5
15A
330
1F
100
AcDbEntity
  8
0
  6
Continuous
 62
     7
370
    25
100
AcDbLine
 10
199.4851159361
 20
110.784618203
 30
0.0
 11
199.4851159361
 21
110.1846173596
 31
0.0
  0
LINE
  5
15B
330
1F
100
AcDbEntity
  8
0
  6
Continuous
 62
     7
370
    25
100
AcDbLine
 10
212.4351158236
 20
102.184617911
 30
0.0
 11
210.4851158764
 21
110.1846173596
 31
0.0
  0
LINE
  5
15C
330
1F
100
AcDbEntity
  8
0
  6
Continuous
 62
     7
370
    25
100
AcDbLine
 10
199.4851159361
 20
110.1846173596
 30
0.0
 11
197.535115989
 21
102.184617911
 31
0.0
  0
LINE
  5
15D
330
1F
100
AcDbEntity
  8
0
  6
Continuous
 62
     7
370
    25
100
AcDbLine
 10
197.535115989
 20
102.184617911
 30
0.0
 11
197.9851156902
 21
94.184617531
 31
0.0
  0
LINE
  5
15E
330
1F
100
AcDbEntity
  8
0
  6
Continuous
 62
     7
370
    25
100
AcDbLine
 10
211.9851161223
 20
94.184617531
 30
0.0
 11
212.4351158236
 21
102.184617911
 31
0.0
  0
LINE
  5
15F
330
1F
100
AcDbEntity
  8
0
  6
Continuous
 62
     7
370
    25
100
AcDbLine
 10
209.4851157125
 20
72.6846177322
 30
0.0
 11
209.4851157125
 21
74.7543322113
 31
0.0
  0
LINE
  5
160
330
1F
100
AcDbEntity
  8
0
  6
Continuous
 62
     7
370
    25
100
AcDbLine
 10
200.4851161
 20
74.7543322113
 30
0.0
 11
200.4851161
 21
72.6846177322
 31
0.0
  0
LINE
  5
161
330
1F
100
AcDbEntity
  8
0
  6
Continuous
 62
     7
370
    25
100
AcDbLine
 10
209.4851157125
 20
68.6846180078
 30
0.0
 11
209.4851157125
 21
72.6846177322
 31
0.0
  0
LINE
  5
162
330
1F
100
AcDbEntity
  8
0
  6
Continuous
 62
     7
370
    25
100
AcDbLine
 10
200.4851161
 20
72.6846177322
 30
0.0
 11
200.4851161
 21
68.6846180078
 31
0.0
  0
CIRCLE
  5
163
330
1F
100
AcDbEntity
  8
0
  6
Continuous
 62
     7
370
    25
100
AcDbCircle
 10
204.9851159063
 20
83.6846176726
 30
0.0
 40
6.499458213160068
  0
CIRCLE
  5
164
330
1F
100
AcDbEntity
  8
0
  6
Continuous
 62
     7
370
    25
100
AcDbCircle
 10
204.9851159063
 20
83.6846176726
 30
0.0
 40
5.25
  0
CIRCLE
  5
165
330
1F
100
AcDbEntity
  8
0
  6
Continuous
 62
     7
370
    25
100
AcDbCircle
 10
204.9851159063
 20
83.6846176726
 30
0.0
 40
4.5
  0
CIRCLE
  5
166
330
1F
100
AcDbEntity
  8
0
  6
Continuous
 62
     7
370
    25
100
AcDbCircle
 10
204.9851159063
 20
83.6846176726
 30
0.0
 40
4.0
  0
CIRCLE
  5
167
330
1F
100
AcDbEntity
  8
0
  6
Continuous
 62
     7
370
    25
100
AcDbCircle
 10
204.9851159063
 20
83.6846176726
 30
0.0
 40
6.744329303562324
  0
CIRCLE
  5
168
330
1F
100
AcDbEntity
  8
0
  6
Continuous
 62
     7
370
    25
100
AcDbCircle
 10
204.9851159063
 20
83.6846176726
 30
0.0
 40
9.999999999999972
  0
CIRCLE
  5
169
330
1F
100
AcDbEntity
  8
0
  6
Continuous
 62
     7
370
    25
100
AcDbCircle
 10
204.9851159063
 20
83.6846176726
 30
0.0
 40
9.5
  0
CIRCLE
  5
16A
330
1F
100
AcDbEntity
  8
0
  6
Continuous
 62
     7
370
    25
100
AcDbCircle
 10
204.9851159063
 20
83.6846176726
 30
0.0
 40
2.999999999999972
  0
SPLINE
  5
16B
330
1F
100
AcDbEntity
  8
0
  6
Continuous
 62
     7
370
    25
100
AcDbSpline
210
0.0
220
0.0
230
1.0
 70
     8
 71
     3
 72
    13
 73
     9
 74
     0
 42
0.000000001
 43
0.00000001
 40
0.0
 40
0.0
 40
0.0
 40
0.0
 40
0.0718680280326739
 40
0.299263643077089
 40
0.528841584314296
 40
0.7608724351670312
 40
0.991827969806919
 40
0.9999999999999999
 40
0.9999999999999999
 40
0.9999999999999999
 40
0.9999999999999999
 10
199.1673966367083
 20
91.79409595251428
 30
0.0
 10
199.167312888478
 20
91.82913478571528
 30
0.0
 10
199.1669641548176
 20
91.97503900988757
 30
0.0
 10
199.1478494119545
 20
92.21520871900074
 30
0.0
 10
199.1185137460358
 20
92.4746718259351
 30
0.0
 10
199.0938025713321
 20
92.63381579872228
 30
0.0
 10
199.0822637288702
 20
92.70186271114292
 30
0.0
 10
199.0853267266069
 20
92.6833446422025
 30
0.0
 10
199.0854314025777
 20
92.6827117991482
 30
0.0
  0
SPLINE
  5
16C
330
1F
100
AcDbEntity
  8
0
  6
Continuous
 62
     7
370
    25
100
AcDbSpline
210
0.0
220
0.0
230
1.0
 70
    24
 71
     3
 72
    14
 73
    10
 74
     0
 42
0.000000001
 43
0.00000001
 40
0.0
 40
0.0
 40
0.0
 40
0.0
 40
0.0686783537768138
 40
0.2932170497282056
 40
0.2935200239703272
 40
0.5073355948525435
 40
0.7069536501822122
 40
0.9001970470938867
 40
1.0
 40
1.0
 40
1.0
 40
1.0
 10
198.7851157281833
 20
91.68461805254566
 30
0.0
 10
198.7851157281833
 20
91.7034702485286
 30
0.0
 10
198.7851157281833
 20
91.7839582768961
 30
0.0
 10
198.7851157281835
 20
91.86364284523474
 30
0.0
 10
198.7851157281831
 20
91.97286222275059
 30
0.0
 10
198.7851157281834
 20
92.06955235178819
 30
0.0
 10
198.7851157281833
 20
92.17113718817176
 30
0.0
 10
198.7851157281833
 20
92.22468849994154
 30
0.0
 10
198.7851157281833
 20
92.22048180607672
 30
0.0
 10
198.7851157281833
 20
92.21904913008558
 30
0.0
  0
SPLINE
  5
16D
330
1F
100
AcDbEntity
  8
0
  6
Continuous
 62
     7
370
    25
100
AcDbSpline
210
0.0
220
0.0
230
1.0
 70
    24
 71
     3
 72
     9
 73
     5
 74
     0
 42
0.000000001
 43
0.00000001
 40
0.0
 40
0.0
 40
0.0
 40
0.0
 40
0.2165176317845731
 40
1.0
 40
1.0
 40
1.0
 40
1.0
 10
198.7851157281833
 20
91.52113741308796
 30
0.0
 10
198.7851157281833
 20
91.53214240721039
 30
0.0
 10
198.7851157281833
 20
91.58296964946187
 30
0.0
 10
198.7851157281833
 20
91.6399639909229
 30
0.0
 10
198.7851157281833
 20
91.68461805254566
 30
0.0
  0
LINE
  5
16E
330
1F
100
AcDbEntity
  8
0
  6
Continuous
 62
     7
370
    25
100
AcDbLine
 10
206.2351158783
 20
110.1846173596
 30
0.0
 11
206.2351158783
 21
110.784618203
 31
0.0
  0
LINE
  5
16F
330
1F
100
AcDbEntity
  8
0
  6
Continuous
 62
     7
370
    25
100
AcDbLine
 10
206.2351158783
 20
110.784618203
 30
0.0
 11
206.4851159193
 21
110.784618203
 31
0.0
  0
LINE
  5
170
330
1F
100
AcDbEntity
  8
0
  6
Continuous
 62
     7
370
    25
100
AcDbLine
 10
206.4851159193
 20
110.784618203
 30
0.0
 11
206.4851159193
 21
110.1846173596
 31
0.0
  0
LINE
  5
171
330
1F
100
AcDbEntity
  8
0
  6
Continuous
 62
     7
370
    25
100
AcDbLine
 10
206.4851159193
 20
110.1846173596
 30
0.0
 11
206.2351158783
 21
110.1846173596
 31
0.0
  0
LINE
  5
172
330
1F
100
AcDbEntity
  8
0
  6
Continuous
 62
     7
370
    25
100
AcDbLine
 10
206.2351158783
 20
110.784618203
 30
0.0
 11
206.2351158783
 21
111.034616847
 31
0.0
  0
ARC
  5
173
330
1F
100
AcDbEntity
  8
0
  6
Continuous
 62
     7
370
    25
100
AcDbCircle
 10
206.2351159063
 20
110.7846176726
 30
0.0
 40
0.25
100
AcDbArc
 50
0.0
 51
90.0
  0
LINE
  5
174
330
1F
100
AcDbEntity
  8
0
  6
Continuous
 62
     7
370
    25
100
AcDbLine
 10
206.2351158783
 20
110.784618203
 30
0.0
 11
203.7351159342
 21
110.784618203
 31
0.0
  0
LINE
  5
175
330
1F
100
AcDbEntity
  8
0
  6
Continuous
 62
     7
370
    25
100
AcDbLine
 10
203.7351159342
 20
111.034616847
 30
0.0
 11
203.7351159342
 21
110.784618203
 31
0.0
  0
LINE
  5
176
330
1F
100
AcDbEntity
  8
0
  6
Continuous
 62
     7
370
    25
100
AcDbLine
 10
203.7351159342
 20
111.034616847
 30
0.0
 11
206.2351158783
 21
111.034616847
 31
0.0
  0
LINE
  5
177
330
1F
100
AcDbEntity
  8
0
  6
Continuous
 62
     7
370
    25
100
AcDbLine
 10
203.7351159342
 20
110.784618203
 30
0.0
 11
203.7351159342
 21
110.1846173596
 31
0.0
  0
LINE
  5
178
330
1F
100
AcDbEntity
  8
0
  6
Continuous
 62
     7
370
    25
100
AcDbLine
 10
206.2351158783
 20
110.1846173596
 30
0.0
 11
203.7351159342
 21
110.1846173596
 31
0.0
  0
LINE
  5
179
330
1F
100
AcDbEntity
  8
0
  6
Continuous
 62
     7
370
    25
100
AcDbLine
 10
203.4851158932
 20
110.1846173596
 30
0.0
 11
203.4851158932
 21
110.784618203
 31
0.0
  0
LINE
  5
17A
330
1F
100
AcDbEntity
  8
0
  6
Continuous
 62
     7
370
    25
100
AcDbLine
 10
203.4851158932
 20
110.784618203
 30
0.0
 11
203.7351159342
 21
110.784618203
 31
0.0
  0
LINE
  5
17B
330
1F
100
AcDbEntity
  8
0
  6
Continuous
 62
     7
370
    25
100
AcDbLine
 10
203.7351159342
 20
110.1846173596
 30
0.0
 11
203.4851158932
 21
110.1846173596
 31
0.0
  0
ARC
  5
17C
330
1F
100
AcDbEntity
  8
0
  6
Continuous
 62
     7
370
    25
100
AcDbCircle
 10
203.7351159063
 20
110.7846176726
 30
0.0
 40
0.25
100
AcDbArc
 50
90.0
 51
180.0
  0
SPLINE
  5
17D
330
1F
100
AcDbEntity
  8
0
  6
Continuous
 62
     7
370
    25
100
AcDbSpline
210
0.0
220
0.0
230
1.0
 70
     8
 71
     3
 72
    15
 73
    11
 74
     0
 42
0.000000001
 43
0.00000001
 40
0.0
 40
0.0
 40
0.0
 40
0.0
 40
0.0081668554937291
 40
0.3321941846999776
 40
0.4756279332062201
 40
0.6866839627273442
 40
0.8457444903091523
 40
0.8967583891412989
 40
0.9909563331444947
 40
1.0
 40
1.0
 40
1.0
 40
1.0
 10
206.2351158783125
 20
111.0346168470417
 30
0.0
 10
206.2365533526158
 20
111.0346144471824
 30
0.0
 10
206.2950239113964
 20
111.0345168307499
 30
0.0
 10
206.3794492510008
 20
111.0249575621789
 30
0.0
 10
206.4940288801535
 20
110.9875997222381
 30
0.0
 10
206.5753989789863
 20
110.9427316265563
 30
0.0
 10
206.6284186527244
 20
110.8848560596779
 30
0.0
 10
206.6526201471665
 20
110.8341793509394
 30
0.0
 10
206.6588096647288
 20
110.8054853668056
 30
0.0
 10
206.6590113356118
 20
110.7862988835523
 30
0.0
 10
206.6590290013986
 20
110.7846182030474
 30
0.0
  0
LINE
  5
17E
330
1F
100
AcDbEntity
  8
0
  6
Continuous
 62
     7
370
    25
100
AcDbLine
 10
206.4851159193
 20
110.784618203
 30
0.0
 11
206.6590290014
 21
110.784618203
 31
0.0
  0
LINE
  5
17F
330
1F
100
AcDbEntity
  8
0
  6
Continuous
 62
     7
370
    25
100
AcDbLine
 10
203.3112028111
 20
110.784618203
 30
0.0
 11
203.4851158932
 21
110.784618203
 31
0.0
  0
SPLINE
  5
180
330
1F
100
AcDbEntity
  8
0
  6
Continuous
 62
     7
370
    25
100
AcDbSpline
210
0.0
220
0.0
230
1.0
 70
     8
 71
     3
 72
    15
 73
    11
 74
     0
 42
0.000000001
 43
0.00000001
 40
0.0
 40
0.0
 40
0.0
 40
0.0
 40
0.0090436668555053
 40
0.1032416108587011
 40
0.1542555096908477
 40
0.3133160372726557
 40
0.5243720667937798
 40
0.6678058153000223
 40
0.9918331445062708
 40
0.9999999999999999
 40
0.9999999999999999
 40
0.9999999999999999
 40
0.9999999999999999
 10
203.3112028111058
 20
110.7846182030474
 30
0.0
 10
203.3112204768925
 20
110.7862988835523
 30
0.0
 10
203.3114221477756
 20
110.8054853668056
 30
0.0
 10
203.3176116653378
 20
110.8341793509395
 30
0.0
 10
203.3418131597799
 20
110.8848560596779
 30
0.0
 10
203.3948328335181
 20
110.9427316265563
 30
0.0
 10
203.4762029323509
 20
110.9875997222381
 30
0.0
 10
203.5907825615036
 20
111.0249575621789
 30
0.0
 10
203.6752079011079
 20
111.0345168307498
 30
0.0
 10
203.7336784598886
 20
111.0346144471824
 30
0.0
 10
203.7351159341919
 20
111.0346168470417
 30
0.0
  0
LINE
  5
181
330
1F
100
AcDbEntity
  8
0
  6
Continuous
 62
     7
370
    25
100
AcDbLine
 10
206.6590290014
 20
110.784618203
 30
0.0
 11
206.6590290014
 21
110.1846173596
 31
0.0
  0
LINE
  5
182
330
1F
100
AcDbEntity
  8
0
  6
Continuous
 62
     7
370
    25
100
AcDbLine
 10
206.6590290014
 20
110.1846173596
 30
0.0
 11
206.4851159193
 21
110.1846173596
 31
0.0
  0
LINE
  5
183
330
1F
100
AcDbEntity
  8
0
  6
Continuous
 62
     7
370
    25
100
AcDbLine
 10
203.3112028111
 20
110.1846173596
 30
0.0
 11
203.3112028111
 21
110.784618203
 31
0.0
  0
LINE
  5
184
330
1F
100
AcDbEntity
  8
0
  6
Continuous
 62
     7
370
    25
100
AcDbLine
 10
203.4851158932
 20
110.1846173596
 30
0.0
 11
203.3112028111
 21
110.1846173596
 31
0.0
  0
LINE
  5
185
330
1F
100
AcDbEntity
  8
0
  6
Continuous
 62
     7
370
    25
100
AcDbLine
 10
206.2351158783
 20
111.034616847
 30
0.0
 11
210.2351158355
 21
111.034616847
 31
0.0
  0
LINE
  5
186
330
1F
100
AcDbEntity
  8
0
  6
Continuous
 62
     7
370
    25
100
AcDbLine
 10
199.735115977
 20
111.034616847
 30
0.0
 11
203.7351159342
 21
111.034616847
 31
0.0
  0
LINE
  5
187
330
1F
100
AcDbEntity
  8
0
  6
Continuous
 62
     7
370
    25
100
AcDbLine
 10
206.6590290014
 20
110.1846173596
 30
0.0
 11
210.4851158764
 21
110.1846173596
 31
0.0
  0
LINE
  5
188
330
1F
100
AcDbEntity
  8
0
  6
Continuous
 62
     7
370
    25
100
AcDbLine
 10
199.4851159361
 20
110.1846173596
 30
0.0
 11
203.3112028111
 21
110.1846173596
 31
0.0
  0
LINE
  5
189
330
1F
100
AcDbEntity
  8
0
  6
Continuous
 62
     7
370
    25
100
AcDbLine
 10
205.5851159348
 20
111.034616847
 30
0.0
 11
205.5851159348
 21
111.0446173888
 31
0.0
  0
LINE
  5
18A
330
1F
100
AcDbEntity
  8
0
  6
Continuous
 62
     7
370
    25
100
AcDbLine
 10
204.3851158778
 20
111.034616847
 30
0.0
 11
204.3851158778
 21
111.0446173888
 31
0.0
  0
LINE
  5
18B
330
1F
100
AcDbEntity
  8
0
  6
Continuous
 62
     7
370
    25
100
AcDbLine
 10
204.3851158778
 20
111.0446173888
 30
0.0
 11
205.5851159348
 21
111.0446173888
 31
0.0
  0
LINE
  5
18C
330
1F
100
AcDbEntity
  8
0
  6
Continuous
 62
     7
370
    25
100
AcDbLine
 10
197.535115989
 20
102.184617911
 30
0.0
 11
212.4351158236
 21
102.184617911
 31
0.0
  0
LINE
  5
18D
330
1F
100
AcDbEntity
  8
0
  6
Continuous
 62
     7
370
    25
100
AcDbLine
 10
197.9851156902
 20
94.184617531
 30
0.0
 11
211.9851161223
 21
94.184617531
 31
0.0
  0
LINE
  5
18E
330
1F
100
AcDbEntity
  8
0
  6
Continuous
 62
     7
370
    25
100
AcDbLine
 10
208.2568150908
 20
112.1846176875
 30
0.0
 11
208.2568150908
 21
111.034616847
 31
0.0
  0
LINE
  5
18F
330
1F
100
AcDbEntity
  8
0
  6
Continuous
 62
     7
370
    25
100
AcDbLine
 10
208.2568150908
 20
112.1846176875
 30
0.0
 11
208.4851160143
 21
112.1846176875
 31
0.0
  0
LINE
  5
190
330
1F
100
AcDbEntity
  8
0
  6
Continuous
 62
     7
370
    25
100
AcDbLine
 10
208.4851160143
 20
111.034616847
 30
0.0
 11
208.4851160143
 21
112.1846176875
 31
0.0
  0
LINE
  5
191
330
1F
100
AcDbEntity
  8
0
  6
Continuous
 62
     7
370
    25
100
AcDbLine
 10
201.4851157982
 20
112.1846176875
 30
0.0
 11
201.4851157982
 21
111.034616847
 31
0.0
  0
LINE
  5
192
330
1F
100
AcDbEntity
  8
0
  6
Continuous
 62
     7
370
    25
100
AcDbLine
 10
201.4851157982
 20
112.1846176875
 30
0.0
 11
201.7134167217
 21
112.1846176875
 31
0.0
  0
LINE
  5
193
330
1F
100
AcDbEntity
  8
0
  6
Continuous
 62
     7
370
    25
100
AcDbLine
 10
201.7134167217
 20
112.1846176875
 30
0.0
 11
201.7134167217
 21
111.034616847
 31
0.0
  0
LINE
  5
194
330
1F
100
AcDbEntity
  8
0
  6
Continuous
 62
     7
370
    25
100
AcDbLine
 10
201.7134167217
 20
112.1846176875
 30
0.0
 11
208.2568150908
 21
112.1846176875
 31
0.0
  0
LINE
  5
195
330
1F
100
AcDbEntity
  8
0
  6
Continuous
 62
     7
370
    25
100
AcDbLine
 10
209.4851157125
 20
68.6846180078
 30
0.0
 11
200.4851161
 21
68.6846180078
 31
0.0
  0
LINE
  5
196
330
1F
100
AcDbEntity
  8
0
  6
Continuous
 62
     8
370
    25
100
AcDbLine
 10
210.4851158764
 20
110.784618203
 30
0.0
 11
206.6590290014
 21
110.784618203
 31
0.0
  0
LINE
  5
197
330
1F
100
AcDbEntity
  8
0
  6
Continuous
 62
     8
370
    25
100
AcDbLine
 10
203.3112028111
 20
110.784618203
 30
0.0
 11
199.4851159361
 21
110.784618203
 31
0.0
  0
LINE
  5
198
330
1F
100
AcDbEntity
  8
0
  6
Continuous
 62
     8
370
    25
100
AcDbLine
 10
209.4851157125
 20
72.6846177322
 30
0.0
 11
200.4851161
 21
72.6846177322
 31
0.0
  0
LINE
  5
199
330
1F
100
AcDbEntity
  8
0
  6
Continuous
 62
     7
370
    25
100
AcDbLine
 10
162.5902367294
 20
151.0873652601
 30
0.0
 11
160.9722034544
 21
151.0873652601
 31
0.0
  0
LINE
  5
19A
330
1F
100
AcDbEntity
  8
0
  6
Continuous
 62
     7
370
    25
100
AcDbLine
 10
160.9722034544
 20
131.0873657072
 30
0.0
 11
162.5902367294
 21
131.0873657072
 31
0.0
  0
LINE
  5
19B
330
1F
100
AcDbEntity
  8
0
  6
Continuous
 62
     7
370
    25
100
AcDbLine
 10
143.3402368337
 20
151.0873652601
 30
0.0
 11
143.0902372584
 21
150.8373656848
 31
0.0
  0
LINE
  5
19C
330
1F
100
AcDbEntity
  8
0
  6
Continuous
 62
     7
370
    25
100
AcDbLine
 10
143.0902372584
 20
131.3373652825
 30
0.0
 11
143.3402368337
 21
131.0873657072
 31
0.0
  0
ARC
  5
19D
330
1F
100
AcDbEntity
  8
0
  6
Continuous
 62
     7
370
    25
100
AcDbCircle
 10
144.0902370348
 20
132.0873654837
 30
0.0
 40
1.500000000000014
100
AcDbArc
 50
318.1896851042
 51
0.0
  0
ARC
  5
19E
330
1F
100
AcDbEntity
  8
0
  6
Continuous
 62
     7
370
    25
100
AcDbCircle
 10
144.0902370348
 20
150.0873654837
 30
0.0
 40
1.500000000000014
100
AcDbArc
 50
0.0
 51
41.8103148958
  0
ARC
  5
19F
330
1F
100
AcDbEntity
  8
0
  6
Continuous
 62
     7
370
    25
100
AcDbCircle
 10
162.0902370348
 20
150.0873654837
 30
0.0
 40
1.500000000000014
100
AcDbArc
 50
138.1896851042
 51
180.0
  0
ARC
  5
1A0
330
1F
100
AcDbEntity
  8
0
  6
Continuous
 62
     7
370
    25
100
AcDbCircle
 10
162.0902370348
 20
132.0873654837
 30
0.0
 40
1.500000000000014
100
AcDbArc
 50
180.0
 51
221.8103148958
  0
LINE
  5
1A1
330
1F
100
AcDbEntity
  8
0
  6
Continuous
 62
     7
370
    25
100
AcDbLine
 10
162.5902367294
 20
131.0873657072
 30
0.0
 11
163.0902368113
 21
131.5873657891
 31
0.0
  0
LINE
  5
1A2
330
1F
100
AcDbEntity
  8
0
  6
Continuous
 62
     7
370
    25
100
AcDbLine
 10
163.0902368113
 20
150.5873651782
 30
0.0
 11
162.5902367294
 21
151.0873652601
 31
0.0
  0
LINE
  5
1A3
330
1F
100
AcDbEntity
  8
0
  6
Continuous
 62
     7
370
    25
100
AcDbLine
 10
143.3402368337
 20
131.0873657072
 30
0.0
 11
145.2082706153
 21
131.0873657072
 31
0.0
  0
LINE
  5
1A4
330
1F
100
AcDbEntity
  8
0
  6
Continuous
 62
     7
370
    25
100
AcDbLine
 10
145.2082706153
 20
151.0873652601
 30
0.0
 11
143.3402368337
 21
151.0873652601
 31
0.0
  0
LINE
  5
1A5
330
1F
100
AcDbEntity
  8
0
  6
Continuous
 62
     7
370
    25
100
AcDbLine
 10
163.0902368113
 20
134.3430361317
 30
0.0
 11
170.9261111453
 21
134.5879073793
 31
0.0
  0
LINE
  5
1A6
330
1F
100
AcDbEntity
  8
0
  6
Continuous
 62
     7
370
    25
100
AcDbLine
 10
170.9261111453
 20
147.586823588
 30
0.0
 11
163.0902368113
 21
147.8316948356
 31
0.0
  0
LINE
  5
1A7
330
1F
100
AcDbEntity
  8
0
  6
Continuous
 62
     7
370
    25
100
AcDbLine
 10
170.9261111453
 20
134.5879073793
 30
0.0
 11
173.0902365878
 21
135.8373655544
 31
0.0
  0
LINE
  5
1A8
330
1F
100
AcDbEntity
  8
0
  6
Continuous
 62
     7
370
    25
100
AcDbLine
 10
173.0902365878
 20
146.3373654129
 30
0.0
 11
170.9261111453
 21
147.586823588
 31
0.0
  0
LINE
  5
1A9
330
1F
100
AcDbEntity
  8
0
  6
Continuous
 62
     7
370
    25
100
AcDbLine
 10
143.0902372584
 20
149.0873658636
 30
0.0
 11
140.3402372733
 21
149.0873658636
 31
0.0
  0
LINE
  5
1AA
330
1F
100
AcDbEntity
  8
0
  6
Continuous
 62
     7
370
    25
100
AcDbLine
 10
140.3402372733
 20
133.0873651037
 30
0.0
 11
143.0902372584
 21
133.0873651037
 31
0.0
  0
LINE
  5
1AB
330
1F
100
AcDbEntity
  8
0
  6
Continuous
 62
     7
370
    25
100
AcDbLine
 10
140.3402372733
 20
149.0873658636
 30
0.0
 11
140.0902367666
 21
148.837365357
 31
0.0
  0
LINE
  5
1AC
330
1F
100
AcDbEntity
  8
0
  6
Continuous
 62
     7
370
    25
100
AcDbLine
 10
140.0902367666
 20
133.3373656103
 30
0.0
 11
140.3402372733
 21
133.0873651037
 31
0.0
  0
LINE
  5
1AD
330
1F
100
AcDbEntity
  8
0
  6
Continuous
 62
     7
370
    25
100
AcDbLine
 10
134.0902376458
 20
136.5873656774
 30
0.0
 11
140.0902367666
 21
136.5873656774
 31
0.0
  0
LINE
  5
1AE
330
1F
100
AcDbEntity
  8
0
  6
Continuous
 62
     7
370
    25
100
AcDbLine
 10
140.0902367666
 20
145.58736529
 30
0.0
 11
134.0902376458
 21
145.58736529
 31
0.0
  0
LINE
  5
1AF
330
1F
100
AcDbEntity
  8
0
  6
Continuous
 62
     7
370
    25
100
AcDbLine
 10
134.0902376458
 20
145.58736529
 30
0.0
 11
123.0902377054
 21
145.58736529
 31
0.0
  0
LINE
  5
1B0
330
1F
100
AcDbEntity
  8
0
  6
Continuous
 62
     7
370
    25
100
AcDbLine
 10
123.0902377054
 20
136.5873656774
 30
0.0
 11
134.0902376458
 21
136.5873656774
 31
0.0
  0
LINE
  5
1B1
330
1F
100
AcDbEntity
  8
0
  6
Continuous
 62
     7
370
    25
100
AcDbLine
 10
160.9722034544
 20
131.0873657072
 30
0.0
 11
160.9722034544
 21
151.0873652601
 31
0.0
  0
LINE
  5
1B2
330
1F
100
AcDbEntity
  8
0
  6
Continuous
 62
     7
370
    25
100
AcDbLine
 10
162.5902367294
 20
131.0873657072
 30
0.0
 11
162.5902367294
 21
151.0873652601
 31
0.0
  0
LINE
  5
1B3
330
1F
100
AcDbEntity
  8
0
  6
Continuous
 62
     7
370
    25
100
AcDbLine
 10
143.0902372584
 20
131.3373652825
 30
0.0
 11
143.0902372584
 21
136.4368662776
 31
0.0
  0
LINE
  5
1B4
330
1F
100
AcDbEntity
  8
0
  6
Continuous
 62
     7
370
    25
100
AcDbLine
 10
143.0902372584
 20
145.7378646897
 30
0.0
 11
143.0902372584
 21
150.8373656848
 31
0.0
  0
LINE
  5
1B5
330
1F
100
AcDbEntity
  8
0
  6
Continuous
 62
     7
370
    25
100
AcDbLine
 10
143.3402368337
 20
151.0873652601
 30
0.0
 11
143.3402368337
 21
145.7860448005
 31
0.0
  0
LINE
  5
1B6
330
1F
100
AcDbEntity
  8
0
  6
Continuous
 62
     7
370
    25
100
AcDbLine
 10
143.3402368337
 20
136.3886861669
 30
0.0
 11
143.3402368337
 21
131.0873657072
 31
0.0
  0
LINE
  5
1B7
330
1F
100
AcDbEntity
  8
0
  6
Continuous
 62
     7
370
    25
100
AcDbLine
 10
145.2082706153
 20
151.0873652601
 30
0.0
 11
145.2082706153
 21
146.1784016879
 31
0.0
  0
LINE
  5
1B8
330
1F
100
AcDbEntity
  8
0
  6
Continuous
 62
     7
370
    25
100
AcDbLine
 10
145.2082706153
 20
135.9963292794
 30
0.0
 11
145.2082706153
 21
131.0873657072
 31
0.0
  0
SPLINE
  5
1B9
330
1F
100
AcDbEntity
  8
0
  6
Continuous
 62
     7
370
    25
100
AcDbSpline
210
0.0
220
0.0
230
1.0
 70
     8
 71
     3
 72
    12
 73
     8
 74
     0
 42
0.000000001
 43
0.00000001
 40
0.0
 40
0.0
 40
0.0
 40
0.0
 40
0.2500000000000001
 40
0.2500000000000001
 40
0.5000000000000001
 40
0.5000000000000001
 40
1.0
 40
1.0
 40
1.0
 40
1.0
 10
145.361150967731
 20
149.849826663416
 30
0.0
 10
145.4422675698357
 20
149.8843318012761
 30
0.0
 10
145.489297493004
 20
149.9171768725766
 30
0.0
 10
145.5521610945359
 20
149.9755294008232
 30
0.0
 10
145.5676107654531
 20
150.0011837644518
 30
0.0
 10
145.5947944298323
 20
150.0642830171916
 30
0.0
 10
145.5902370348331
 20
150.0873654836662
 30
0.0
 10
145.5902370348331
 20
150.0873654836662
 30
0.0
  0
SPLINE
  5
1BA
330
1F
100
AcDbEntity
  8
0
  6
Continuous
 62
     7
370
    25
100
AcDbSpline
210
0.0
220
0.0
230
1.0
 70
     8
 71
     3
 72
    14
 73
    10
 74
     0
 42
0.000000001
 43
0.00000001
 40
0.0
 40
0.0
 40
0.0
 40
0.0
 40
0.25
 40
0.25
 40
0.5
 40
0.5
 40
0.75
 40
0.75
 40
1.0
 40
1.0
 40
1.0
 40
1.0
 10
145.361150967731
 20
149.849826663416
 30
0.0
 10
145.333629979986
 20
149.8381198678705
 30
0.0
 10
145.3137100581496
 20
149.8060779147889
 30
0.0
 10
145.2980430163315
 20
149.7067541641239
 30
0.0
 10
145.3025348481438
 20
149.6389307213431
 30
0.0
 10
145.3337911934274
 20
149.4764891039303
 30
0.0
 10
145.3601637768092
 20
149.3820437071946
 30
0.0
 10
145.4230003279535
 20
149.173814599598
 30
0.0
 10
145.4590399068136
 20
149.0612162067149
 30
0.0
 10
145.4930359101792
 20
148.9414598131148
 30
0.0
  0
SPLINE
  5
1BB
330
1F
100
AcDbEntity
  8
0
  6
Continuous
 62
     7
370
    25
100
AcDbSpline
210
0.0
220
0.0
230
1.0
 70
     8
 71
     3
 72
     8
 73
     4
 74
     0
 42
0.000000001
 43
0.00000001
 40
0.0
 40
0.0
 40
0.0
 40
0.0
 40
1.0
 40
1.0
 40
1.0
 40
1.0
 10
145.5902370348331
 20
148.2112689080537
 30
0.0
 10
145.5902370348331
 20
148.4586983648487
 30
0.0
 10
145.5608723277552
 20
148.702495113756
 30
0.0
 10
145.4930359101792
 20
148.9414598131148
 30
0.0
  0
LINE
  5
1BC
330
1F
100
AcDbEntity
  8
0
  6
Continuous
 62
     7
370
    25
100
AcDbLine
 10
145.5902372025
 20
148.2112688551
 30
0.0
 11
145.5902372025
 21
146.2657141106
 31
0.0
  0
LINE
  5
1BD
330
1F
100
AcDbEntity
  8
0
  6
Continuous
 62
     7
370
    25
100
AcDbLine
 10
145.5902372025
 20
135.9090168567
 30
0.0
 11
145.5902372025
 21
133.9634621123
 31
0.0
  0
SPLINE
  5
1BE
330
1F
100
AcDbEntity
  8
0
  6
Continuous
 62
     7
370
    25
100
AcDbSpline
210
0.0
220
0.0
230
1.0
 70
     8
 71
     3
 72
     8
 73
     4
 74
     0
 42
0.000000001
 43
0.00000001
 40
0.0
 40
0.0
 40
0.0
 40
0.0
 40
1.0
 40
1.0
 40
1.0
 40
1.0
 10
145.4930359101792
 20
133.2332711542176
 30
0.0
 10
145.5608723277552
 20
133.4722358535764
 30
0.0
 10
145.5902370348331
 20
133.7160326024837
 30
0.0
 10
145.5902370348331
 20
133.9634620592787
 30
0.0
  0
SPLINE
  5
1BF
330
1F
100
AcDbEntity
  8
0
  6
Continuous
 62
     7
370
    25
100
AcDbSpline
210
0.0
220
0.0
230
1.0
 70
     8
 71
     3
 72
    12
 73
     8
 74
     0
 42
0.000000001
 43
0.00000001
 40
0.0
 40
0.0
 40
0.0
 40
0.0
 40
0.4999999999999992
 40
0.4999999999999992
 40
0.7499999999999996
 40
0.7499999999999996
 40
1.0
 40
1.0
 40
1.0
 40
1.0
 10
145.4930359101792
 20
133.2332711542176
 30
0.0
 10
145.4251661501694
 20
132.9941890007695
 30
0.0
 10
145.3491315989156
 20
132.7784188935927
 30
0.0
 10
145.3024870005386
 20
132.5353243008888
 30
0.0
 10
145.298048004016
 20
132.4676590254127
 30
0.0
 10
145.3137786178088
 20
132.368505909256
 30
0.0
 10
145.3336590477512
 20
132.3365987347028
 30
0.0
 10
145.361150967731
 20
132.3249043039164
 30
0.0
  0
SPLINE
  5
1C0
330
1F
100
AcDbEntity
  8
0
  6
Continuous
 62
     7
370
    25
100
AcDbSpline
210
0.0
220
0.0
230
1.0
 70
     8
 71
     3
 72
    12
 73
     8
 74
     0
 42
0.000000001
 43
0.00000001
 40
0.0
 40
0.0
 40
0.0
 40
0.0
 40
0.4999999999999998
 40
0.4999999999999998
 40
0.7499999999999999
 40
0.7499999999999999
 40
1.0
 40
1.0
 40
1.0
 40
1.0
 10
145.5902370348331
 20
132.0873654836662
 30
0.0
 10
145.5902370348331
 20
132.0873654836662
 30
0.0
 10
145.5947944298323
 20
132.1104479501408
 30
0.0
 10
145.5676107654531
 20
132.1735472028806
 30
0.0
 10
145.5521610945359
 20
132.1992015665092
 30
0.0
 10
145.489297493004
 20
132.2575540947558
 30
0.0
 10
145.4422675698357
 20
132.2903991660563
 30
0.0
 10
145.361150967731
 20
132.3249043039164
 30
0.0
  0
SPLINE
  5
1C1
330
1F
100
AcDbEntity
  8
0
  6
Continuous
 62
     7
370
    25
100
AcDbSpline
210
0.0
220
0.0
230
1.0
 70
     8
 71
     3
 72
    12
 73
     8
 74
     0
 42
0.000000001
 43
0.00000001
 40
0.0
 40
0.0
 40
0.0
 40
0.0
 40
0.25
 40
0.25
 40
0.5
 40
0.5
 40
1.0
 40
1.0
 40
1.0
 40
1.0
 10
160.8193231019351
 20
132.3249043039164
 30
0.0
 10
160.7382064998305
 20
132.2903991660563
 30
0.0
 10
160.6911765766622
 20
132.2575540947558
 30
0.0
 10
160.6283129751303
 20
132.1992015665092
 30
0.0
 10
160.6128633042131
 20
132.1735472028806
 30
0.0
 10
160.5856796398339
 20
132.1104479501408
 30
0.0
 10
160.5902370348331
 20
132.0873654836662
 30
0.0
 10
160.5902370348331
 20
132.0873654836662
 30
0.0
  0
SPLINE
  5
1C2
330
1F
100
AcDbEntity
  8
0
  6
Continuous
 62
     7
370
    25
100
AcDbSpline
210
0.0
220
0.0
230
1.0
 70
     8
 71
     3
 72
    14
 73
    10
 74
     0
 42
0.000000001
 43
0.00000001
 40
0.0
 40
0.0
 40
0.0
 40
0.0
 40
0.25
 40
0.25
 40
0.5
 40
0.5
 40
0.75
 40
0.75
 40
1.0
 40
1.0
 40
1.0
 40
1.0
 10
160.8193231019351
 20
132.3249043039164
 30
0.0
 10
160.8468440896802
 20
132.3366110994619
 30
0.0
 10
160.8667640115166
 20
132.3686530525435
 30
0.0
 10
160.8824310533347
 20
132.4679768032085
 30
0.0
 10
160.8779392215224
 20
132.5358002459893
 30
0.0
 10
160.8466828762388
 20
132.6982418634021
 30
0.0
 10
160.820310292857
 20
132.7926872601379
 30
0.0
 10
160.7574737417127
 20
133.0009163677344
 30
0.0
 10
160.7214341628526
 20
133.1135147606175
 30
0.0
 10
160.687438159487
 20
133.2332711542176
 30
0.0
  0
SPLINE
  5
1C3
330
1F
100
AcDbEntity
  8
0
  6
Continuous
 62
     7
370
    25
100
AcDbSpline
210
0.0
220
0.0
230
1.0
 70
     8
 71
     3
 72
     8
 73
     4
 74
     0
 42
0.000000001
 43
0.00000001
 40
0.0
 40
0.0
 40
0.0
 40
0.0
 40
1.0
 40
1.0
 40
1.0
 40
1.0
 10
160.5902370348331
 20
133.9634620592787
 30
0.0
 10
160.5902370348331
 20
133.7160326024837
 30
0.0
 10
160.6196017419109
 20
133.4722358535764
 30
0.0
 10
160.687438159487
 20
133.2332711542176
 30
0.0
  0
LINE
  5
1C4
330
1F
100
AcDbEntity
  8
0
  6
Continuous
 62
     7
370
    25
100
AcDbLine
 10
160.5902368672
 20
133.9634621123
 30
0.0
 11
160.5902368672
 21
148.2112688551
 31
0.0
  0
SPLINE
  5
1C5
330
1F
100
AcDbEntity
  8
0
  6
Continuous
 62
     7
370
    25
100
AcDbSpline
210
0.0
220
0.0
230
1.0
 70
     8
 71
     3
 72
     8
 73
     4
 74
     0
 42
0.000000001
 43
0.00000001
 40
0.0
 40
0.0
 40
0.0
 40
0.0
 40
1.0
 40
1.0
 40
1.0
 40
1.0
 10
160.687438159487
 20
148.9414598131148
 30
0.0
 10
160.6196017419109
 20
148.702495113756
 30
0.0
 10
160.5902370348331
 20
148.4586983648487
 30
0.0
 10
160.5902370348331
 20
148.2112689080537
 30
0.0
  0
SPLINE
  5
1C6
330
1F
100
AcDbEntity
  8
0
  6
Continuous
 62
     7
370
    25
100
AcDbSpline
210
0.0
220
0.0
230
1.0
 70
     8
 71
     3
 72
    12
 73
     8
 74
     0
 42
0.000000001
 43
0.00000001
 40
0.0
 40
0.0
 40
0.0
 40
0.0
 40
0.4999999999999992
 40
0.4999999999999992
 40
0.7499999999999996
 40
0.7499999999999996
 40
1.0
 40
1.0
 40
1.0
 40
1.0
 10
160.687438159487
 20
148.9414598131148
 30
0.0
 10
160.7553079194968
 20
149.1805419665629
 30
0.0
 10
160.8313424707506
 20
149.3963120737397
 30
0.0
 10
160.8779870691276
 20
149.6394066664436
 30
0.0
 10
160.8824260656502
 20
149.7070719419197
 30
0.0
 10
160.8666954518574
 20
149.8062250580764
 30
0.0
 10
160.846815021915
 20
149.8381322326296
 30
0.0
 10
160.8193231019351
 20
149.849826663416
 30
0.0
  0
SPLINE
  5
1C7
330
1F
100
AcDbEntity
  8
0
  6
Continuous
 62
     7
370
    25
100
AcDbSpline
210
0.0
220
0.0
230
1.0
 70
     8
 71
     3
 72
    12
 73
     8
 74
     0
 42
0.000000001
 43
0.00000001
 40
0.0
 40
0.0
 40
0.0
 40
0.0
 40
0.5000000000000002
 40
0.5000000000000002
 40
0.7500000000000001
 40
0.7500000000000001
 40
1.0
 40
1.0
 40
1.0
 40
1.0
 10
160.5902370348331
 20
150.0873654836662
 30
0.0
 10
160.5902370348331
 20
150.0873654836662
 30
0.0
 10
160.5856796398339
 20
150.0642830171916
 30
0.0
 10
160.6128633042131
 20
150.0011837644518
 30
0.0
 10
160.6283129751303
 20
149.9755294008232
 30
0.0
 10
160.6911765766622
 20
149.9171768725766
 30
0.0
 10
160.7382064998305
 20
149.8843318012761
 30
0.0
 10
160.8193231019351
 20
149.849826663416
 30
0.0
  0
LINE
  5
1C8
330
1F
100
AcDbEntity
  8
0
  6
Continuous
 62
     7
370
    25
100
AcDbLine
 10
163.0902368113
 20
150.5873651782
 30
0.0
 11
163.0902368113
 21
131.5873657891
 31
0.0
  0
ARC
  5
1C9
330
1F
100
AcDbEntity
  8
0
  6
Continuous
 62
     7
370
    25
100
AcDbCircle
 10
160.1369192695
 20
148.2702443396
 30
0.0
 40
0.4571377824698775
100
AcDbArc
 50
264.1388497305
 51
352.5875946393
  0
ARC
  5
1CA
330
1F
100
AcDbEntity
  8
0
  6
Continuous
 62
     7
370
    25
100
AcDbCircle
 10
160.1369192695
 20
133.9044866277
 30
0.0
 40
0.4571377824698493
100
AcDbArc
 50
7.4124053607
 51
95.8611502695
  0
ARC
  5
1CB
330
1F
100
AcDbEntity
  8
0
  6
Continuous
 62
     7
370
    25
100
AcDbCircle
 10
146.0435548002
 20
148.2702443396
 30
0.0
 40
0.4571377824698463
100
AcDbArc
 50
187.4124053607
 51
275.8611502695
  0
ARC
  5
1CC
330
1F
100
AcDbEntity
  8
0
  6
Continuous
 62
     7
370
    25
100
AcDbCircle
 10
146.0435548002
 20
133.9044866277
 30
0.0
 40
0.4571377824698378
100
AcDbArc
 50
84.1388497305
 51
172.5875946393
  0
LINE
  5
1CD
330
1F
100
AcDbEntity
  8
0
  6
Continuous
 62
     7
370
    25
100
AcDbLine
 10
170.9261111453
 20
147.586823588
 30
0.0
 11
170.9261111453
 21
134.5879073793
 31
0.0
  0
LINE
  5
1CE
330
1F
100
AcDbEntity
  8
0
  6
Continuous
 62
     7
370
    25
100
AcDbLine
 10
173.0902365878
 20
146.3373654129
 30
0.0
 11
173.0902365878
 21
135.8373655544
 31
0.0
  0
LWPOLYLINE
  5
1CF
330
1F
100
AcDbEntity
  8
0
  6
Continuous
 62
     7
370
    25
100
AcDbPolyline
 90
        9
 70
   128
 43
0.0
 10
145.4930359967
 20
148.9414602125
 10
145.5161681868
 20
148.9486779624
 10
145.5522802196
 20
148.9599460343
 10
145.6003183037
 20
148.9749356711
 10
145.6588794015
 20
148.99320822
 10
145.7262526735
 20
149.0142309645
 10
145.8004707008
 20
149.0373892316
 10
145.8793662958
 20
149.0620068813
 10
145.9606353663
 20
149.0873658636
  0
SPLINE
  5
1D0
330
1F
100
AcDbEntity
  8
0
  6
Continuous
 62
     7
370
    25
100
AcDbSpline
210
0.0
220
0.0
230
1.0
 70
     8
 71
     3
 72
     8
 73
     4
 74
     0
 42
0.000000001
 43
0.00000001
 40
0.0
 40
0.0
 40
0.0
 40
0.0
 40
1.0
 40
1.0
 40
1.0
 40
1.0
 10
145.9606355352945
 20
149.0873654836662
 30
0.0
 10
146.049644230683
 20
148.8021097260364
 30
0.0
 10
146.0902370348331
 20
148.5096917761545
 30
0.0
 10
146.0902370348331
 20
148.2112689080537
 30
0.0
  0
LINE
  5
1D1
330
1F
100
AcDbEntity
  8
0
  6
Continuous
 62
     7
370
    25
100
AcDbLine
 10
145.5902372025
 20
148.2112688551
 30
0.0
 11
146.0902368188
 21
148.2112688551
 31
0.0
  0
SPLINE
  5
1D2
330
1F
100
AcDbEntity
  8
0
  6
Continuous
 62
     7
370
    25
100
AcDbSpline
210
0.0
220
0.0
230
1.0
 70
     8
 71
     3
 72
     8
 73
     4
 74
     0
 42
0.000000001
 43
0.00000001
 40
0.0
 40
0.0
 40
0.0
 40
0.0
 40
1.0
 40
1.0
 40
1.0
 40
1.0
 10
160.0902370348331
 20
148.2112689080537
 30
0.0
 10
160.0902370348331
 20
148.5096917761545
 30
0.0
 10
160.1308298389833
 20
148.8021097260364
 30
0.0
 10
160.2198385343717
 20
149.0873654836662
 30
0.0
  0
LWPOLYLINE
  5
1D3
330
1F
100
AcDbEntity
  8
0
  6
Continuous
 62
     7
370
    25
100
AcDbPolyline
 90
        9
 70
   128
 43
0.0
 10
160.2198387034
 20
149.0873658636
 10
160.3011077739
 20
149.0620068813
 10
160.3800033688
 20
149.0373892316
 10
160.4542213961
 20
149.0142309645
 10
160.5215946682
 20
148.99320822
 10
160.580155766
 20
148.9749356711
 10
160.62819385
 20
148.9599460343
 10
160.6643058829
 20
148.9486779624
 10
160.687438073
 20
148.9414602125
  0
LINE
  5
1D4
330
1F
100
AcDbEntity
  8
0
  6
Continuous
 62
     7
370
    25
100
AcDbLine
 10
160.0902372509
 20
148.2112688551
 30
0.0
 11
160.5902368672
 21
148.2112688551
 31
0.0
  0
SPLINE
  5
1D5
330
1F
100
AcDbEntity
  8
0
  6
Continuous
 62
     7
370
    25
100
AcDbSpline
210
0.0
220
0.0
230
1.0
 70
     8
 71
     3
 72
     8
 73
     4
 74
     0
 42
0.000000001
 43
0.00000001
 40
0.0
 40
0.0
 40
0.0
 40
0.0
 40
1.0
 40
1.0
 40
1.0
 40
1.0
 10
146.0902370348331
 20
133.9634620592787
 30
0.0
 10
146.0902370348331
 20
133.665039191178
 30
0.0
 10
146.049644230683
 20
133.372621241296
 30
0.0
 10
145.9606355352945
 20
133.0873654836662
 30
0.0
  0
LWPOLYLINE
  5
1D6
330
1F
100
AcDbEntity
  8
0
  6
Continuous
 62
     7
370
    25
100
AcDbPolyline
 90
        9
 70
   128
 43
0.0
 10
145.9606353663
 20
133.0873651037
 10
145.8793662958
 20
133.1127240861
 10
145.8004707008
 20
133.1373417357
 10
145.7262526735
 20
133.1605000028
 10
145.6588794015
 20
133.1815227473
 10
145.6003183037
 20
133.1997952962
 10
145.5522802196
 20
133.2147849331
 10
145.5161681868
 20
133.2260530049
 10
145.4930359967
 20
133.2332707548
  0
LINE
  5
1D7
330
1F
100
AcDbEntity
  8
0
  6
Continuous
 62
     7
370
    25
100
AcDbLine
 10
145.5902372025
 20
133.9634621123
 30
0.0
 11
146.0902368188
 21
133.9634621123
 31
0.0
  0
LWPOLYLINE
  5
1D8
330
1F
100
AcDbEntity
  8
0
  6
Continuous
 62
     7
370
    25
100
AcDbPolyline
 90
        9
 70
   128
 43
0.0
 10
160.687438073
 20
133.2332707548
 10
160.6643058829
 20
133.2260530049
 10
160.62819385
 20
133.2147849331
 10
160.580155766
 20
133.1997952962
 10
160.5215946682
 20
133.1815227473
 10
160.4542213961
 20
133.1605000028
 10
160.3800033688
 20
133.1373417357
 10
160.3011077739
 20
133.1127240861
 10
160.2198387034
 20
133.0873651037
  0
SPLINE
  5
1D9
330
1F
100
AcDbEntity
  8
0
  6
Continuous
 62
     7
370
    25
100
AcDbSpline
210
0.0
220
0.0
230
1.0
 70
     8
 71
     3
 72
     8
 73
     4
 74
     0
 42
0.000000001
 43
0.00000001
 40
0.0
 40
0.0
 40
0.0
 40
0.0
 40
1.0
 40
1.0
 40
1.0
 40
1.0
 10
160.2198385343717
 20
133.0873654836662
 30
0.0
 10
160.1308298389833
 20
133.372621241296
 30
0.0
 10
160.0902370348331
 20
133.665039191178
 30
0.0
 10
160.0902370348331
 20
133.9634620592787
 30
0.0
  0
LINE
  5
1DA
330
1F
100
AcDbEntity
  8
0
  6
Continuous
 62
     7
370
    25
100
AcDbLine
 10
160.5902368672
 20
133.9634621123
 30
0.0
 11
160.0902372509
 21
133.9634621123
 31
0.0
  0
LINE
  5
1DB
330
1F
100
AcDbEntity
  8
0
  6
Continuous
 62
     7
370
    25
100
AcDbLine
 10
146.0902368188
 20
147.8154963421
 30
0.0
 11
146.0902368188
 21
148.2112688551
 31
0.0
  0
LINE
  5
1DC
330
1F
100
AcDbEntity
  8
0
  6
Continuous
 62
     7
370
    25
100
AcDbLine
 10
160.0902372509
 20
147.8154963421
 30
0.0
 11
160.0902372509
 21
148.2112688551
 31
0.0
  0
LINE
  5
1DD
330
1F
100
AcDbEntity
  8
0
  6
Continuous
 62
     7
370
    25
100
AcDbLine
 10
146.0902368188
 20
133.9634621123
 30
0.0
 11
146.0902368188
 21
134.3592346253
 31
0.0
  0
LINE
  5
1DE
330
1F
100
AcDbEntity
  8
0
  6
Continuous
 62
     7
370
    25
100
AcDbLine
 10
160.0902372509
 20
133.9634621123
 30
0.0
 11
160.0902372509
 21
134.3592346253
 31
0.0
  0
ARC
  5
1DF
330
1F
100
AcDbEntity
  8
0
  6
Continuous
 62
     7
370
    25
100
AcDbCircle
 10
145.788617168
 20
150.0666726615
 30
0.0
 40
0.4793220025378311
100
AcDbArc
 50
206.8978733264
 51
269.5424057934
  0
SPLINE
  5
1E0
330
1F
100
AcDbEntity
  8
0
  6
Continuous
 62
     7
370
    25
100
AcDbSpline
210
0.0
220
0.0
230
1.0
 70
     8
 71
     3
 72
    14
 73
    10
 74
     0
 42
0.000000001
 43
0.00000001
 40
0.0
 40
0.0
 40
0.0
 40
0.0
 40
0.25
 40
0.25
 40
0.5
 40
0.5
 40
0.75
 40
0.75
 40
1.0
 40
1.0
 40
1.0
 40
1.0
 10
145.9606355352945
 20
149.0873654836662
 30
0.0
 10
145.9221600516729
 20
149.1490187478937
 30
0.0
 10
145.8810711302029
 20
149.2072026931666
 30
0.0
 10
145.8017882827623
 20
149.3208680146336
 30
0.0
 10
145.7645053816519
 20
149.3745446133333
 30
0.0
 10
145.7116996223401
 20
149.47453464578
 30
0.0
 10
145.6997303622465
 20
149.5189391460029
 30
0.0
 10
145.7197321506187
 20
149.5749990014967
 30
0.0
 10
145.7491886061709
 20
149.5873654836662
 30
0.0
 10
145.7847889453637
 20
149.5873654836662
 30
0.0
  0
ARC
  5
1E1
330
1F
100
AcDbEntity
  8
0
  6
Continuous
 62
     7
370
    25
100
AcDbCircle
 10
160.3918569016
 20
132.1080583058
 30
0.0
 40
0.4793220025378311
100
AcDbArc
 50
26.8978733264
 51
89.5424057934
  0
SPLINE
  5
1E2
330
1F
100
AcDbEntity
  8
0
  6
Continuous
 62
     7
370
    25
100
AcDbSpline
210
0.0
220
0.0
230
1.0
 70
     8
 71
     3
 72
    14
 73
    10
 74
     0
 42
0.000000001
 43
0.00000001
 40
0.0
 40
0.0
 40
0.0
 40
0.0
 40
0.25
 40
0.25
 40
0.5
 40
0.5
 40
0.75
 40
0.75
 40
1.0
 40
1.0
 40
1.0
 40
1.0
 10
160.2198385343717
 20
133.0873654836662
 30
0.0
 10
160.2583140179933
 20
133.0257122194387
 30
0.0
 10
160.2994029394633
 20
132.9675282741658
 30
0.0
 10
160.3786857869038
 20
132.8538629526988
 30
0.0
 10
160.4159686880143
 20
132.8001863539991
 30
0.0
 10
160.4687744473261
 20
132.7001963215525
 30
0.0
 10
160.4807437074197
 20
132.6557918213295
 30
0.0
 10
160.4607419190475
 20
132.5997319658357
 30
0.0
 10
160.4312854634952
 20
132.5873654836662
 30
0.0
 10
160.3956851243025
 20
132.5873654836662
 30
0.0
  0
SPLINE
  5
1E3
330
1F
100
AcDbEntity
  8
0
  6
Continuous
 62
     7
370
    25
100
AcDbSpline
210
0.0
220
0.0
230
1.0
 70
     8
 71
     3
 72
    16
 73
    12
 74
     0
 42
0.000000001
 43
0.00000001
 40
0.0
 40
0.0
 40
0.0
 40
0.0
 40
0.2500000000000011
 40
0.2500000000000011
 40
0.3749999999999992
 40
0.3749999999999992
 40
0.4999999999999974
 40
0.4999999999999974
 40
0.7499999999999987
 40
0.7499999999999987
 40
1.0
 40
1.0
 40
1.0
 40
1.0
 10
160.3956851243025
 20
149.5873654836662
 30
0.0
 10
160.4312390537511
 20
149.5873654836662
 30
0.0
 10
160.4605111949798
 20
149.5752337332504
 30
0.0
 10
160.4757237452007
 20
149.533212026971
 30
0.0
 10
160.4757844133742
 20
149.5149976574644
 30
0.0
 10
160.4655738288969
 20
149.4730606449379
 30
0.0
 10
160.4557904993717
 20
149.4500330814436
 30
0.0
 10
160.4166259508397
 20
149.3756244026716
 30
0.0
 10
160.3787528775665
 20
149.3209665264891
 30
0.0
 10
160.2996799045749
 20
149.2075974533104
 30
0.0
 10
160.2582927719841
 20
149.1489847032061
 30
0.0
 10
160.2198385343717
 20
149.0873654836662
 30
0.0
  0
ARC
  5
1E4
330
1F
100
AcDbEntity
  8
0
  6
Continuous
 62
     7
370
    25
100
AcDbCircle
 10
160.3918569016
 20
150.0666726615
 30
0.0
 40
0.4793220025378311
100
AcDbArc
 50
270.4575942066
 51
333.1021266736
  0
SPLINE
  5
1E5
330
1F
100
AcDbEntity
  8
0
  6
Continuous
 62
     7
370
    25
100
AcDbSpline
210
0.0
220
0.0
230
1.0
 70
     8
 71
     3
 72
    16
 73
    12
 74
     0
 42
0.000000001
 43
0.00000001
 40
0.0
 40
0.0
 40
0.0
 40
0.0
 40
0.2500000000000049
 40
0.2500000000000049
 40
0.3750000000000051
 40
0.3750000000000051
 40
0.5000000000000052
 40
0.5000000000000052
 40
0.7500000000000026
 40
0.7500000000000026
 40
1.0
 40
1.0
 40
1.0
 40
1.0
 10
145.7847889453637
 20
132.5873654836662
 30
0.0
 10
145.749235015915
 20
132.5873654836662
 30
0.0
 10
145.7199628746864
 20
132.599497234082
 30
0.0
 10
145.7047503244655
 20
132.6415189403614
 30
0.0
 10
145.7046896562919
 20
132.659733309868
 30
0.0
 10
145.7149002407693
 20
132.7016703223946
 30
0.0
 10
145.7246835702945
 20
132.7246978858888
 30
0.0
 10
145.7638481188264
 20
132.7991065646608
 30
0.0
 10
145.8017211920997
 20
132.8537644408433
 30
0.0
 10
145.8807941650913
 20
132.9671335140221
 30
0.0
 10
145.9221812976821
 20
133.0257462641263
 30
0.0
 10
145.9606355352945
 20
133.0873654836662
 30
0.0
  0
ARC
  5
1E6
330
1F
100
AcDbEntity
  8
0
  6
Continuous
 62
     7
370
    25
100
AcDbCircle
 10
145.788617168
 20
132.1080583058
 30
0.0
 40
0.4793220025378311
100
AcDbArc
 50
90.4575942066
 51
153.1021266736
  0
LINE
  5
1E7
330
1F
100
AcDbEntity
  8
0
  6
Continuous
 62
     7
370
    25
100
AcDbLine
 10
160.2198387034
 20
149.0873658636
 30
0.0
 11
145.9606353663
 21
149.0873658636
 31
0.0
  0
LINE
  5
1E8
330
1F
100
AcDbEntity
  8
0
  6
Continuous
 62
     7
370
    25
100
AcDbLine
 10
145.7847890913
 20
149.5873659456
 30
0.0
 11
160.3956849783
 21
149.5873659456
 31
0.0
  0
LINE
  5
1E9
330
1F
100
AcDbEntity
  8
0
  6
Continuous
 62
     7
370
    25
100
AcDbLine
 10
145.9606353663
 20
133.0873651037
 30
0.0
 11
160.2198387034
 21
133.0873651037
 31
0.0
  0
LINE
  5
1EA
330
1F
100
AcDbEntity
  8
0
  6
Continuous
 62
     7
370
    25
100
AcDbLine
 10
160.3956849783
 20
132.5873650217
 30
0.0
 11
145.7847890913
 21
132.5873650217
 31
0.0
  0
ARC
  5
1EB
330
1F
100
AcDbEntity
  8
0
  6
Continuous
 62
     7
370
    25
100
AcDbCircle
 10
146.0902370348
 20
150.0873654837
 30
0.0
 40
0.5
100
AcDbArc
 50
180.0
 51
270.0
  0
ARC
  5
1EC
330
1F
100
AcDbEntity
  8
0
  6
Continuous
 62
     7
370
    25
100
AcDbCircle
 10
160.0902370348
 20
150.0873654837
 30
0.0
 40
0.5
100
AcDbArc
 50
270.0
 51
0.0
  0
ARC
  5
1ED
330
1F
100
AcDbEntity
  8
0
  6
Continuous
 62
     7
370
    25
100
AcDbCircle
 10
160.0902370348
 20
132.0873654837
 30
0.0
 40
0.5
100
AcDbArc
 50
0.0
 51
90.0
  0
ARC
  5
1EE
330
1F
100
AcDbEntity
  8
0
  6
Continuous
 62
     7
370
    25
100
AcDbCircle
 10
146.0902370348
 20
132.0873654837
 30
0.0
 40
0.5
100
AcDbArc
 50
90.0
 51
180.0
  0
SPLINE
  5
1EF
330
1F
100
AcDbEntity
  8
0
  6
Continuous
 62
     7
370
    25
100
AcDbSpline
210
0.0
220
0.0
230
1.0
 70
     8
 71
     3
 72
    15
 73
    11
 74
     0
 42
0.000000001
 43
0.00000001
 40
0.0
 40
0.0
 40
0.0
 40
0.0
 40
0.0090436668555053
 40
0.1032416108587011
 40
0.1542555096908477
 40
0.3133160372726557
 40
0.5243720667937798
 40
0.6678058153000223
 40
0.9918331445062708
 40
0.9999999999999999
 40
0.9999999999999999
 40
0.9999999999999999
 40
0.9999999999999999
 10
147.8511517405268
 20
142.7612785788126
 30
0.0
 10
147.8511574960265
 20
142.7612609130259
 30
0.0
 10
147.8512232002447
 20
142.7610592421428
 30
0.0
 10
147.8532182860335
 20
142.7548697245805
 30
0.0
 10
147.8610345087691
 20
142.7306682301385
 30
0.0
 10
147.8782055044099
 20
142.6776485564003
 30
0.0
 10
147.9047885172146
 20
142.5962784575675
 30
0.0
 10
147.9426186854971
 20
142.4816988284148
 30
0.0
 10
147.970897879015
 20
142.3972734888105
 30
0.0
 10
147.9907299697937
 20
142.3388029300298
 30
0.0
 10
147.9912175334748
 20
142.3373654557265
 30
0.0
  0
ARC
  5
1F0
330
1F
100
AcDbEntity
  8
0
  6
Continuous
 62
     7
370
    25
100
AcDbCircle
 10
153.0902370348
 20
141.0873654837
 30
0.0
 40
5.50000000000002
100
AcDbArc
 50
17.7189318734
 51
162.2810681266
  0
SPLINE
  5
1F1
330
1F
100
AcDbEntity
  8
0
  6
Continuous
 62
     7
370
    25
100
AcDbSpline
210
0.0
220
0.0
230
1.0
 70
     8
 71
     3
 72
    15
 73
    11
 74
     0
 42
0.000000001
 43
0.00000001
 40
0.0
 40
0.0
 40
0.0
 40
0.0
 40
0.0081668554937291
 40
0.3321941846999776
 40
0.4756279332062201
 40
0.6866839627273442
 40
0.8457444903091523
 40
0.8967583891412989
 40
0.9909563331444947
 40
1.0
 40
1.0
 40
1.0
 40
1.0
 10
158.1892565361914
 20
142.3373654557265
 30
0.0
 10
158.1897440998725
 20
142.3388029300298
 30
0.0
 10
158.2095761906512
 20
142.3972734888105
 30
0.0
 10
158.2378553841691
 20
142.4816988284148
 30
0.0
 10
158.2756855524516
 20
142.5962784575675
 30
0.0
 10
158.3022685652563
 20
142.6776485564003
 30
0.0
 10
158.3194395608971
 20
142.7306682301385
 30
0.0
 10
158.3272557836327
 20
142.7548697245805
 30
0.0
 10
158.3292508694215
 20
142.7610592421428
 30
0.0
 10
158.3293165736397
 20
142.7612609130259
 30
0.0
 10
158.3293223291394
 20
142.7612785788126
 30
0.0
  0
ARC
  5
1F2
330
1F
100
AcDbEntity
  8
0
  6
Continuous
 62
     7
370
    25
100
AcDbCircle
 10
153.0902370348
 20
141.0873654837
 30
0.0
 40
5.250000000000009
100
AcDbArc
 50
13.774146998
 51
166.225853002
  0
SPLINE
  5
1F3
330
1F
100
AcDbEntity
  8
0
  6
Continuous
 62
     7
370
    25
100
AcDbSpline
210
0.0
220
0.0
230
1.0
 70
     8
 71
     3
 72
    15
 73
    11
 74
     0
 42
0.000000001
 43
0.00000001
 40
0.0
 40
0.0
 40
0.0
 40
0.0
 40
0.0089534934608068
 40
0.0998985020501141
 40
0.1531621750630547
 40
0.3125626131158444
 40
0.524966528186016
 40
0.6689889196484162
 40
0.9919154833883785
 40
0.9999999999999999
 40
0.9999999999999999
 40
0.9999999999999999
 40
0.9999999999999999
 10
158.5674624427911
 20
142.5873654967047
 30
0.0
 10
158.5674467791197
 20
142.5873547109354
 30
0.0
 10
158.5672720118831
 20
142.5872343688368
 30
0.0
 10
158.5618413402827
 20
142.5835157776103
 30
0.0
 10
158.5403076502298
 20
142.5688051960508
 30
0.0
 10
158.4926006039372
 20
142.5363558244398
 30
0.0
 10
158.4202107957673
 20
142.4877723466253
 30
0.0
 10
158.3182911302009
 20
142.4204009532731
 30
0.0
 10
158.2429350106839
 20
142.3715895760067
 30
0.0
 10
158.1905363066237
 20
142.338181406955
 30
0.0
 10
158.1892565361914
 20
142.3373654557265
 30
0.0
  0
ARC
  5
1F4
330
1F
100
AcDbEntity
  8
0
  6
Continuous
 62
     7
370
    25
100
AcDbCircle
 10
158.5674626099
 20
142.8373654837
 30
0.0
 40
0.2500000000000213
100
AcDbArc
 50
197.7189318734
 51
270.0
  0
SPLINE
  5
1F5
330
1F
100
AcDbEntity
  8
0
  6
Continuous
 62
     7
370
    25
100
AcDbSpline
210
0.0
220
0.0
230
1.0
 70
     8
 71
     3
 72
    15
 73
    11
 74
     0
 42
0.000000001
 43
0.00000001
 40
0.0
 40
0.0
 40
0.0
 40
0.0
 40
0.0080845166116213
 40
0.3310110803515837
 40
0.4750334718139839
 40
0.6874373868841556
 40
0.8468378249369453
 40
0.9001014979498858
 40
0.9910465065391931
 40
0.9999999999999999
 40
0.9999999999999999
 40
0.9999999999999999
 40
0.9999999999999999
 10
147.9912175334748
 20
142.3373654557265
 30
0.0
 10
147.9899377630425
 20
142.338181406955
 30
0.0
 10
147.9375390589823
 20
142.3715895760067
 30
0.0
 10
147.8621829394653
 20
142.4204009532731
 30
0.0
 10
147.7602632738989
 20
142.4877723466253
 30
0.0
 10
147.687873465729
 20
142.5363558244398
 30
0.0
 10
147.6401664194364
 20
142.5688051960508
 30
0.0
 10
147.6186327293835
 20
142.5835157776103
 30
0.0
 10
147.6132020577831
 20
142.5872343688368
 30
0.0
 10
147.6130272905465
 20
142.5873547109354
 30
0.0
 10
147.6130116268751
 20
142.5873654967047
 30
0.0
  0
ARC
  5
1F6
330
1F
100
AcDbEntity
  8
0
  6
Continuous
 62
     7
370
    25
100
AcDbCircle
 10
147.6130114598
 20
142.8373654837
 30
0.0
 40
0.25
100
AcDbArc
 50
270.0
 51
342.2810681266
  0
SPLINE
  5
1F7
330
1F
100
AcDbEntity
  8
0
  6
Continuous
 62
     7
370
    25
100
AcDbSpline
210
0.0
220
0.0
230
1.0
 70
     8
 71
     3
 72
    15
 73
    11
 74
     0
 42
0.000000001
 43
0.00000001
 40
0.0
 40
0.0
 40
0.0
 40
0.0
 40
0.0081668554937291
 40
0.3321941846999776
 40
0.4756279332062201
 40
0.6866839627273442
 40
0.8457444903091523
 40
0.8967583891412989
 40
0.9909563331444947
 40
1.0
 40
1.0
 40
1.0
 40
1.0
 10
147.9912175334748
 20
139.8373655116059
 30
0.0
 10
147.9907299697937
 20
139.8359280373026
 30
0.0
 10
147.970897879015
 20
139.7774574785219
 30
0.0
 10
147.9426186854971
 20
139.6930321389176
 30
0.0
 10
147.9047885172146
 20
139.5784525097649
 30
0.0
 10
147.8782055044099
 20
139.4970824109321
 30
0.0
 10
147.8610345087691
 20
139.4440627371939
 30
0.0
 10
147.8532182860335
 20
139.4198612427519
 30
0.0
 10
147.8512232002447
 20
139.4136717251896
 30
0.0
 10
147.8511574960265
 20
139.4134700543065
 30
0.0
 10
147.8511517405268
 20
139.4134523885198
 30
0.0
  0
ARC
  5
1F8
330
1F
100
AcDbEntity
  8
0
  6
Continuous
 62
     7
370
    25
100
AcDbCircle
 10
153.0902370348
 20
141.0873654837
 30
0.0
 40
5.250000000000009
100
AcDbArc
 50
193.774146998
 51
346.225853002
  0
SPLINE
  5
1F9
330
1F
100
AcDbEntity
  8
0
  6
Continuous
 62
     7
370
    25
100
AcDbSpline
210
0.0
220
0.0
230
1.0
 70
     8
 71
     3
 72
    15
 73
    11
 74
     0
 42
0.000000001
 43
0.00000001
 40
0.0
 40
0.0
 40
0.0
 40
0.0
 40
0.0090436668555053
 40
0.1032416108587011
 40
0.1542555096908477
 40
0.3133160372726557
 40
0.5243720667937798
 40
0.6678058153000223
 40
0.9918331445062708
 40
0.9999999999999999
 40
0.9999999999999999
 40
0.9999999999999999
 40
0.9999999999999999
 10
158.3293223291394
 20
139.4134523885198
 30
0.0
 10
158.3293165736397
 20
139.4134700543065
 30
0.0
 10
158.3292508694215
 20
139.4136717251897
 30
0.0
 10
158.3272557836327
 20
139.4198612427519
 30
0.0
 10
158.3194395608971
 20
139.4440627371939
 30
0.0
 10
158.3022685652563
 20
139.4970824109321
 30
0.0
 10
158.2756855524516
 20
139.5784525097649
 30
0.0
 10
158.2378553841691
 20
139.6930321389176
 30
0.0
 10
158.2095761906512
 20
139.7774574785219
 30
0.0
 10
158.1897440998725
 20
139.8359280373026
 30
0.0
 10
158.1892565361914
 20
139.8373655116059
 30
0.0
  0
ARC
  5
1FA
330
1F
100
AcDbEntity
  8
0
  6
Continuous
 62
     7
370
    25
100
AcDbCircle
 10
153.0902370348
 20
141.0873654837
 30
0.0
 40
5.500000000000029
100
AcDbArc
 50
197.7189318734
 51
342.2810681266
  0
ARC
  5
1FB
330
1F
100
AcDbEntity
  8
0
  6
Continuous
 62
     7
370
    25
100
AcDbCircle
 10
158.5674626099
 20
139.3373654837
 30
0.0
 40
0.2500000000000126
100
AcDbArc
 50
90.0
 51
162.2810681266
  0
SPLINE
  5
1FC
330
1F
100
AcDbEntity
  8
0
  6
Continuous
 62
     7
370
    25
100
AcDbSpline
210
0.0
220
0.0
230
1.0
 70
     8
 71
     3
 72
    15
 73
    11
 74
     0
 42
0.000000001
 43
0.00000001
 40
0.0
 40
0.0
 40
0.0
 40
0.0
 40
0.0080845166116213
 40
0.3310110803515837
 40
0.4750334718139839
 40
0.6874373868841556
 40
0.8468378249369453
 40
0.9001014979498858
 40
0.9910465065391931
 40
0.9999999999999999
 40
0.9999999999999999
 40
0.9999999999999999
 40
0.9999999999999999
 10
158.1892565361914
 20
139.8373655116059
 30
0.0
 10
158.1905363066237
 20
139.8365495603774
 30
0.0
 10
158.2429350106839
 20
139.8031413913257
 30
0.0
 10
158.3182911302009
 20
139.7543300140592
 30
0.0
 10
158.4202107957673
 20
139.6869586207071
 30
0.0
 10
158.4926006039372
 20
139.6383751428926
 30
0.0
 10
158.5403076502298
 20
139.6059257712816
 30
0.0
 10
158.5618413402827
 20
139.5912151897221
 30
0.0
 10
158.5672720118831
 20
139.5874965984956
 30
0.0
 10
158.5674467791197
 20
139.587376256397
 30
0.0
 10
158.5674624427911
 20
139.5873654706277
 30
0.0
  0
ARC
  5
1FD
330
1F
100
AcDbEntity
  8
0
  6
Continuous
 62
     7
370
    25
100
AcDbCircle
 10
147.6130114598
 20
139.3373654837
 30
0.0
 40
0.25
100
AcDbArc
 50
17.7189318734
 51
90.0
  0
SPLINE
  5
1FE
330
1F
100
AcDbEntity
  8
0
  6
Continuous
 62
     7
370
    25
100
AcDbSpline
210
0.0
220
0.0
230
1.0
 70
     8
 71
     3
 72
    15
 73
    11
 74
     0
 42
0.000000001
 43
0.00000001
 40
0.0
 40
0.0
 40
0.0
 40
0.0
 40
0.0089534934608068
 40
0.0998985020501141
 40
0.1531621750630547
 40
0.3125626131158444
 40
0.524966528186016
 40
0.6689889196484162
 40
0.9919154833883785
 40
0.9999999999999999
 40
0.9999999999999999
 40
0.9999999999999999
 40
0.9999999999999999
 10
147.6130116268751
 20
139.5873654706277
 30
0.0
 10
147.6130272905465
 20
139.587376256397
 30
0.0
 10
147.6132020577831
 20
139.5874965984956
 30
0.0
 10
147.6186327293835
 20
139.5912151897221
 30
0.0
 10
147.6401664194364
 20
139.6059257712816
 30
0.0
 10
147.687873465729
 20
139.6383751428926
 30
0.0
 10
147.7602632738989
 20
139.6869586207071
 30
0.0
 10
147.8621829394653
 20
139.7543300140592
 30
0.0
 10
147.9375390589823
 20
139.8031413913257
 30
0.0
 10
147.9899377630425
 20
139.8365495603774
 30
0.0
 10
147.9912175334748
 20
139.8373655116059
 30
0.0
  0
LINE
  5
1FF
330
1F
100
AcDbEntity
  8
0
  6
Continuous
 62
     7
370
    25
100
AcDbLine
 10
148.0902371466
 20
140.4873654552
 30
0.0
 11
158.0902369231
 21
140.4873654552
 31
0.0
  0
LINE
  5
200
330
1F
100
AcDbEntity
  8
0
  6
Continuous
 62
     7
370
    25
100
AcDbLine
 10
148.0902371466
 20
141.6873655122
 30
0.0
 11
148.0902371466
 21
140.4873654552
 31
0.0
  0
LINE
  5
201
330
1F
100
AcDbEntity
  8
0
  6
Continuous
 62
     7
370
    25
100
AcDbLine
 10
158.0902369231
 20
140.4873654552
 30
0.0
 11
158.0902369231
 21
141.6873655122
 31
0.0
  0
LINE
  5
202
330
1F
100
AcDbEntity
  8
0
  6
Continuous
 62
     7
370
    25
100
AcDbLine
 10
158.0902369231
 20
141.6873655122
 30
0.0
 11
148.0902371466
 21
141.6873655122
 31
0.0
  0
LINE
  5
203
330
1F
100
AcDbEntity
  8
0
  6
Continuous
 62
     7
370
    25
100
AcDbLine
 10
147.3402370237
 20
139.8373655116
 30
0.0
 11
147.9912175335
 21
139.8373655116
 31
0.0
  0
LINE
  5
204
330
1F
100
AcDbEntity
  8
0
  6
Continuous
 62
     7
370
    25
100
AcDbLine
 10
147.3402370237
 20
142.3373654557
 30
0.0
 11
147.3402370237
 21
139.8373655116
 31
0.0
  0
LINE
  5
205
330
1F
100
AcDbEntity
  8
0
  6
Continuous
 62
     7
370
    25
100
AcDbLine
 10
147.9912175335
 20
142.3373654557
 30
0.0
 11
147.3402370237
 21
142.3373654557
 31
0.0
  0
LINE
  5
206
330
1F
100
AcDbEntity
  8
0
  6
Continuous
 62
     7
370
    25
100
AcDbLine
 10
158.840237046
 20
142.3373654557
 30
0.0
 11
158.1892565362
 21
142.3373654557
 31
0.0
  0
LINE
  5
207
330
1F
100
AcDbEntity
  8
0
  6
Continuous
 62
     7
370
    25
100
AcDbLine
 10
158.840237046
 20
139.8373655116
 30
0.0
 11
158.840237046
 21
142.3373654557
 31
0.0
  0
LINE
  5
208
330
1F
100
AcDbEntity
  8
0
  6
Continuous
 62
     7
370
    25
100
AcDbLine
 10
158.1892565362
 20
139.8373655116
 30
0.0
 11
158.840237046
 21
139.8373655116
 31
0.0
  0
LINE
  5
209
330
1F
100
AcDbEntity
  8
0
  6
Continuous
 62
     7
370
    25
100
AcDbLine
 10
147.3402370237
 20
142.5873654967
 30
0.0
 11
147.3402370237
 21
142.3373654557
 31
0.0
  0
LINE
  5
20A
330
1F
100
AcDbEntity
  8
0
  6
Continuous
 62
     7
370
    25
100
AcDbLine
 10
147.3402370237
 20
142.5873654967
 30
0.0
 11
147.6130116269
 21
142.5873654967
 31
0.0
  0
LINE
  5
20B
330
1F
100
AcDbEntity
  8
0
  6
Continuous
 62
     7
370
    25
100
AcDbLine
 10
158.5674624428
 20
142.5873654967
 30
0.0
 11
158.840237046
 21
142.5873654967
 31
0.0
  0
LINE
  5
20C
330
1F
100
AcDbEntity
  8
0
  6
Continuous
 62
     7
370
    25
100
AcDbLine
 10
158.840237046
 20
142.3373654557
 30
0.0
 11
158.840237046
 21
142.5873654967
 31
0.0
  0
LINE
  5
20D
330
1F
100
AcDbEntity
  8
0
  6
Continuous
 62
     7
370
    25
100
AcDbLine
 10
159.090237087
 20
142.3373654557
 30
0.0
 11
158.840237046
 21
142.3373654557
 31
0.0
  0
ARC
  5
20E
330
1F
100
AcDbEntity
  8
0
  6
Continuous
 62
     7
370
    25
100
AcDbCircle
 10
158.8402370348
 20
142.3373654837
 30
0.0
 40
0.2500000000000284
100
AcDbArc
 50
0.0
 51
90.0
  0
ARC
  5
20F
330
1F
100
AcDbEntity
  8
0
  6
Continuous
 62
     7
370
    25
100
AcDbCircle
 10
147.3402370348
 20
142.3373654837
 30
0.0
 40
0.25
100
AcDbArc
 50
90.0
 51
180.0
  0
LINE
  5
210
330
1F
100
AcDbEntity
  8
0
  6
Continuous
 62
     7
370
    25
100
AcDbLine
 10
147.3402370237
 20
142.3373654557
 30
0.0
 11
147.0902369827
 21
142.3373654557
 31
0.0
  0
LINE
  5
211
330
1F
100
AcDbEntity
  8
0
  6
Continuous
 62
     7
370
    25
100
AcDbLine
 10
159.090237087
 20
142.3373654557
 30
0.0
 11
159.090237087
 21
139.8373655116
 31
0.0
  0
LINE
  5
212
330
1F
100
AcDbEntity
  8
0
  6
Continuous
 62
     7
370
    25
100
AcDbLine
 10
158.840237046
 20
139.8373655116
 30
0.0
 11
159.090237087
 21
139.8373655116
 31
0.0
  0
LINE
  5
213
330
1F
100
AcDbEntity
  8
0
  6
Continuous
 62
     7
370
    25
100
AcDbLine
 10
147.0902369827
 20
139.8373655116
 30
0.0
 11
147.3402370237
 21
139.8373655116
 31
0.0
  0
LINE
  5
214
330
1F
100
AcDbEntity
  8
0
  6
Continuous
 62
     7
370
    25
100
AcDbLine
 10
147.0902369827
 20
139.8373655116
 30
0.0
 11
147.0902369827
 21
142.3373654557
 31
0.0
  0
ARC
  5
215
330
1F
100
AcDbEntity
  8
0
  6
Continuous
 62
     7
370
    25
100
AcDbCircle
 10
147.3402370348
 20
139.8373654837
 30
0.0
 40
0.25
100
AcDbArc
 50
180.0
 51
270.0
  0
LINE
  5
216
330
1F
100
AcDbEntity
  8
0
  6
Continuous
 62
     7
370
    25
100
AcDbLine
 10
147.3402370237
 20
139.8373655116
 30
0.0
 11
147.3402370237
 21
139.5873654706
 31
0.0
  0
LINE
  5
217
330
1F
100
AcDbEntity
  8
0
  6
Continuous
 62
     7
370
    25
100
AcDbLine
 10
158.840237046
 20
139.5873654706
 30
0.0
 11
158.840237046
 21
139.8373655116
 31
0.0
  0
ARC
  5
218
330
1F
100
AcDbEntity
  8
0
  6
Continuous
 62
     7
370
    25
100
AcDbCircle
 10
158.8402370348
 20
139.8373654837
 30
0.0
 40
0.2500000000000284
100
AcDbArc
 50
270.0
 51
0.0
  0
LINE
  5
219
330
1F
100
AcDbEntity
  8
0
  6
Continuous
 62
     7
370
    25
100
AcDbLine
 10
147.6130116269
 20
139.5873654706
 30
0.0
 11
147.3402370237
 21
139.5873654706
 31
0.0
  0
LINE
  5
21A
330
1F
100
AcDbEntity
  8
0
  6
Continuous
 62
     7
370
    25
100
AcDbLine
 10
158.840237046
 20
139.5873654706
 30
0.0
 11
158.5674624428
 21
139.5873654706
 31
0.0
  0
LINE
  5
21B
330
1F
100
AcDbEntity
  8
0
  6
Continuous
 62
     7
370
    25
100
AcDbLine
 10
133.0902374819
 20
137.8156662991
 30
0.0
 11
133.0902374819
 21
144.3590646682
 31
0.0
  0
LINE
  5
21C
330
1F
100
AcDbEntity
  8
0
  6
Continuous
 62
     7
370
    25
100
AcDbLine
 10
130.9148001954
 20
137.5873653756
 30
0.0
 11
133.0902374819
 21
137.8156662991
 31
0.0
  0
LINE
  5
21D
330
1F
100
AcDbEntity
  8
0
  6
Continuous
 62
     7
370
    25
100
AcDbLine
 10
113.0902379289
 20
137.5873653756
 30
0.0
 11
130.9148001954
 21
137.5873653756
 31
0.0
  0
LINE
  5
21E
330
1F
100
AcDbEntity
  8
0
  6
Continuous
 62
     7
370
    25
100
AcDbLine
 10
130.9148001954
 20
144.5873655917
 30
0.0
 11
113.0902379289
 21
144.5873655917
 31
0.0
  0
LINE
  5
21F
330
1F
100
AcDbEntity
  8
0
  6
Continuous
 62
     7
370
    25
100
AcDbLine
 10
133.0902374819
 20
144.3590646682
 30
0.0
 11
130.9148001954
 21
144.5873655917
 31
0.0
  0
LINE
  5
220
330
1F
100
AcDbEntity
  8
0
  6
Continuous
 62
     7
370
    25
100
AcDbLine
 10
113.0902379289
 20
144.5873655917
 30
0.0
 11
113.0902379289
 21
137.5873653756
 31
0.0
  0
LINE
  5
221
330
1F
100
AcDbEntity
  8
0
  6
Continuous
 62
     7
370
    25
100
AcDbLine
 10
147.866434744
 20
142.8083799852
 30
0.0
 11
147.73802585
 21
142.6242383037
 31
0.0
  0
LINE
  5
222
330
1F
100
AcDbEntity
  8
0
  6
Continuous
 62
     7
370
    25
100
AcDbLine
 10
147.7475933268
 20
139.5421477806
 30
0.0
 11
147.866434744
 21
139.3663509821
 31
0.0
  0
LINE
  5
223
330
1F
100
AcDbEntity
  8
0
  6
Continuous
 62
     7
370
    25
100
AcDbLine
 10
139.6736673549
 20
143.6681681385
 30
0.0
 11
139.6736673549
 21
138.5065628288
 31
0.0
  0
LWPOLYLINE
  5
224
330
1F
100
AcDbEntity
  8
0
  6
Continuous
 62
     7
370
    25
100
AcDbPolyline
 90
       15
 70
   128
 43
0.0
 10
147.866434744
 20
139.3663509821
 10
147.5369779862
 20
139.3317762136
 10
147.1567129254
 20
139.2918693906
 10
146.7278267726
 20
139.2468599675
 10
146.2527852043
 20
139.1970068522
 10
145.7343197897
 20
139.1425966591
 10
145.1754126236
 20
139.0839423125
 10
144.5792767688
 20
139.0213809514
 10
143.9493404239
 20
138.9552724155
 10
143.2892255023
 20
138.8859969171
 10
142.6027290061
 20
138.8139525967
 10
141.8937988117
 20
138.7395538928
 10
141.1665094554
 20
138.6632287482
 10
140.4250444382
 20
138.5854160486
 10
139.6736673549
 20
138.5065628288
  0
LWPOLYLINE
  5
225
330
1F
100
AcDbEntity
  8
0
  6
Continuous
 62
     7
370
    25
100
AcDbPolyline
 90
       15
 70
   128
 43
0.0
 10
139.6736673549
 20
143.6681681385
 10
140.4250444382
 20
143.5893149188
 10
141.1665094554
 20
143.5115022192
 10
141.8937988117
 20
143.4351770745
 10
142.6027290061
 20
143.3607783707
 10
143.2892255023
 20
143.2887340503
 10
143.9493404239
 20
143.2194585519
 10
144.5792767688
 20
143.1533500159
 10
145.1754126236
 20
143.0907886548
 10
145.7343197897
 20
143.0321343083
 10
146.2527852043
 20
142.9777241152
 10
146.7278267726
 20
142.9278709998
 10
147.1567129254
 20
142.8828615768
 10
147.5369779862
 20
142.8429547537
 10
147.866434744
 20
142.8083799852
  0
LWPOLYLINE
  5
226
330
1F
100
AcDbEntity
  8
0
  6
Continuous
 62
     7
370
    25
100
AcDbPolyline
 90
       18
 70
   128
 43
0.0
 10
139.6736673549
 20
138.5065628288
 10
139.0858184084
 20
138.4448710902
 10
138.4980113715
 20
138.3831840081
 10
137.9159030974
 20
138.3220946023
 10
137.3450945601
 20
138.2621912358
 10
136.7910749748
 20
138.2040499316
 10
136.259178026
 20
138.148229949
 10
135.7545203998
 20
138.095268661
 10
135.2819561496
 20
138.0456757339
 10
134.8460338548
 20
137.9999280048
 10
134.4509481922
 20
137.9584657566
 10
134.1004989579
 20
137.9216878282
 10
133.7980594024
 20
137.8899483548
 10
133.5465371147
 20
137.8635525776
 10
133.3483553961
 20
137.8427542819
 10
133.20541787
 20
137.8277539348
 10
133.1191010311
 20
137.8186954258
 10
133.0902374819
 20
137.8156662991
  0
LWPOLYLINE
  5
227
330
1F
100
AcDbEntity
  8
0
  6
Continuous
 62
     7
370
    25
100
AcDbPolyline
 90
       18
 70
   128
 43
0.0
 10
133.0902374819
 20
144.3590646682
 10
133.1191010311
 20
144.3560355415
 10
133.20541787
 20
144.3469770325
 10
133.3483553961
 20
144.3319766855
 10
133.5465371147
 20
144.3111783897
 10
133.7980594024
 20
144.2847826125
 10
134.1004989579
 20
144.2530431392
 10
134.4509481922
 20
144.2162652107
 10
134.8460338548
 20
144.1748029625
 10
135.2819561496
 20
144.1290552335
 10
135.7545203998
 20
144.0794623064
 10
136.259178026
 20
144.0265010184
 10
136.7910749748
 20
143.9706810357
 10
137.3450945601
 20
143.9125397315
 10
137.9159030974
 20
143.852636365
 10
138.4980113715
 20
143.7915469592
 10
139.0858184084
 20
143.7298598772
 10
139.6736673549
 20
143.6681681385
  0
ARC
  5
228
330
1F
100
AcDbEntity
  8
0
  6
Continuous
 62
     7
370
    25
100
AcDbCircle
 10
153.0902370348
 20
141.0873654837
 30
0.0
 40
7.450000000000667
100
AcDbArc
 50
233.0863788866
 51
126.9136211134
  0
ARC
  5
229
330
1F
100
AcDbEntity
  8
0
  6
Continuous
 62
     7
370
    25
100
AcDbCircle
 10
153.0902370348
 20
141.0873654837
 30
0.0
 40
7.207531252870806
100
AcDbArc
 50
195.3041237151
 51
238.9797515565
  0
ARC
  5
22A
330
1F
100
AcDbEntity
  8
0
  6
Continuous
 62
     7
370
    25
100
AcDbCircle
 10
153.0902370348
 20
141.0873654837
 30
0.0
 40
7.207531252872454
100
AcDbArc
 50
121.0202484435
 51
164.6958762849
  0
ARC
  5
22B
330
1F
100
AcDbEntity
  8
0
  6
Continuous
 62
     7
370
    25
100
AcDbCircle
 10
130.9148001733
 20
209.5873654837
 30
0.0
 40
65.0
100
AcDbArc
 50
270.0
 51
286.5000949923
  0
ARC
  5
22C
330
1F
100
AcDbEntity
  8
0
  6
Continuous
 62
     7
370
    25
100
AcDbCircle
 10
130.9148001733
 20
72.5873654837
 30
0.0
 40
65.0
100
AcDbArc
 50
73.4999050077
 51
90.0
  0
LINE
  5
22D
330
1F
100
AcDbEntity
  8
0
  6
Continuous
 62
     7
370
    25
100
AcDbLine
 10
140.3402372733
 20
149.0873658636
 30
0.0
 11
140.3402372733
 21
145.274371987
 31
0.0
  0
LINE
  5
22E
330
1F
100
AcDbEntity
  8
0
  6
Continuous
 62
     7
370
    25
100
AcDbLine
 10
140.3402372733
 20
136.9003589803
 30
0.0
 11
140.3402372733
 21
133.0873651037
 31
0.0
  0
LINE
  5
22F
330
1F
100
AcDbEntity
  8
0
  6
Continuous
 62
     7
370
    25
100
AcDbLine
 10
140.0902367666
 20
133.3373656103
 30
0.0
 11
140.0902367666
 21
136.9365017468
 31
0.0
  0
LINE
  5
230
330
1F
100
AcDbEntity
  8
0
  6
Continuous
 62
     7
370
    25
100
AcDbLine
 10
140.0902367666
 20
145.2382292205
 30
0.0
 11
140.0902367666
 21
148.837365357
 31
0.0
  0
ARC
  5
231
330
1F
100
AcDbEntity
  8
0
  6
Continuous
 62
     7
370
    25
100
AcDbCircle
 10
123.0902370348
 20
141.0873654837
 30
0.0
 40
4.5
100
AcDbArc
 50
231.057558731
 51
270.0
  0
ARC
  5
232
330
1F
100
AcDbEntity
  8
0
  6
Continuous
 62
     7
370
    25
100
AcDbCircle
 10
123.0902370348
 20
141.0873654837
 30
0.0
 40
4.499999999999984
100
AcDbArc
 50
90.0
 51
128.942441269
  0
LINE
  5
233
330
1F
100
AcDbEntity
  8
0
  6
Continuous
 62
     8
370
    25
100
AcDbLine
 10
160.0902372509
 20
134.3592346253
 30
0.0
 11
160.0902372509
 21
138.5373653917
 31
0.0
  0
LINE
  5
234
330
1F
100
AcDbEntity
  8
0
  6
Continuous
 62
     8
370
    25
100
AcDbLine
 10
160.0902372509
 20
143.6373655757
 30
0.0
 11
160.0902372509
 21
147.8154963421
 31
0.0
  0
LINE
  5
235
330
1F
100
AcDbEntity
  8
0
  6
Continuous
 62
     8
370
    25
100
AcDbLine
 10
146.0902368188
 20
147.8154963421
 30
0.0
 11
146.0902368188
 21
146.3836777562
 31
0.0
  0
LINE
  5
236
330
1F
100
AcDbEntity
  8
0
  6
Continuous
 62
     8
370
    25
100
AcDbLine
 10
146.0902368188
 20
135.7910532111
 30
0.0
 11
146.0902368188
 21
134.3592346253
 31
0.0
  0
LINE
  5
237
330
1F
100
AcDbEntity
  8
0
  6
Continuous
 62
     8
370
    25
100
AcDbLine
 10
160.0902372509
 20
147.8154963421
 30
0.0
 11
156.2894171573
 21
147.8154963421
 31
0.0
  0
LINE
  5
238
330
1F
100
AcDbEntity
  8
0
  6
Continuous
 62
     8
370
    25
100
AcDbLine
 10
149.8910569124
 20
147.8154963421
 30
0.0
 11
146.0902368188
 21
147.8154963421
 31
0.0
  0
LINE
  5
239
330
1F
100
AcDbEntity
  8
0
  6
Continuous
 62
     8
370
    25
100
AcDbLine
 10
146.0902368188
 20
134.3592346253
 30
0.0
 11
149.8910569124
 21
134.3592346253
 31
0.0
  0
LINE
  5
23A
330
1F
100
AcDbEntity
  8
0
  6
Continuous
 62
     8
370
    25
100
AcDbLine
 10
156.2894171573
 20
134.3592346253
 30
0.0
 11
160.0902372509
 21
134.3592346253
 31
0.0
  0
LINE
  5
23B
330
1F
100
AcDbEntity
  8
0
  6
Continuous
 62
     8
370
    25
100
AcDbLine
 10
146.0902368188
 20
148.2112688551
 30
0.0
 11
150.9102141488
 21
148.2112688551
 31
0.0
  0
LINE
  5
23C
330
1F
100
AcDbEntity
  8
0
  6
Continuous
 62
     8
370
    25
100
AcDbLine
 10
155.2702599209
 20
148.2112688551
 30
0.0
 11
160.0902372509
 21
148.2112688551
 31
0.0
  0
LINE
  5
23D
330
1F
100
AcDbEntity
  8
0
  6
Continuous
 62
     8
370
    25
100
AcDbLine
 10
160.0902372509
 20
133.9634621123
 30
0.0
 11
155.2702599209
 21
133.9634621123
 31
0.0
  0
LINE
  5
23E
330
1F
100
AcDbEntity
  8
0
  6
Continuous
 62
     8
370
    25
100
AcDbLine
 10
150.9102141488
 20
133.9634621123
 30
0.0
 11
146.0902368188
 21
133.9634621123
 31
0.0
  0
LINE
  5
23F
330
1F
100
AcDbEntity
  8
0
  6
Continuous
 62
     8
370
    25
100
AcDbLine
 10
134.0902376458
 20
136.5873656774
 30
0.0
 11
134.0902376458
 21
137.5097545402
 31
0.0
  0
LINE
  5
240
330
1F
100
AcDbEntity
  8
0
  6
Continuous
 62
     8
370
    25
100
AcDbLine
 10
134.0902376458
 20
144.6649764271
 30
0.0
 11
134.0902376458
 21
145.58736529
 31
0.0
  0
LINE
  5
241
330
1F
100
AcDbEntity
  8
0
  6
Continuous
 62
     7
370
     0
100
AcDbLine
 10
172.3900522666
 20
135.4331136193
 30
0.0
 11
163.5902370348
 21
135.1581193933
 31
0.0
  0
LINE
  5
242
330
1F
100
AcDbEntity
  8
0
  6
Continuous
 62
     7
370
     0
100
AcDbLine
 10
172.3900522666
 20
146.7416173481
 30
0.0
 11
163.5902370348
 21
147.0166115741
 31
0.0
  0
LINE
  5
243
330
1F
100
AcDbEntity
  8
0
  6
Continuous
 62
     7
370
     0
100
AcDbLine
 10
163.5902370348
 20
147.8160697872
 30
0.0
 11
163.5902370348
 21
134.3586611801
 31
0.0
  0
ENDSEC
  0
SECTION
  2
OBJECTS
  0
DICTIONARY
  5
C
330
0
100
AcDbDictionary
281
     1
  3
ACAD_GROUP
350
D
  3
ACAD_LAYOUT
350
1A
  3
ACAD_MLINESTYLE
350
17
  3
ACAD_PLOTSETTINGS
350
19
  3
ACAD_PLOTSTYLENAME
350
E
  3
ACAD_SCALELIST
350
47
  0
DICTIONARY
  5
D
102
{ACAD_REACTORS
330
C
102
}
330
C
100
AcDbDictionary
281
     1
  0
DICTIONARY
  5
1A
102
{ACAD_REACTORS
330
C
102
}
330
C
100
AcDbDictionary
281
     1
  3
Layout1
350
1E
  3
Layout2
350
26
  3
Model
350
22
  0
DICTIONARY
  5
17
102
{ACAD_REACTORS
330
C
102
}
330
C
100
AcDbDictionary
281
     1
  3
Standard
350
18
  0
DICTIONARY
  5
19
102
{ACAD_REACTORS
330
C
102
}
330
C
100
AcDbDictionary
281
     1
  0
ACDBDICTIONARYWDFLT
  5
E
102
{ACAD_REACTORS
330
C
102
}
330
C
100
AcDbDictionary
281
     1
  3
Normal
350
F
100
AcDbDictionaryWithDefault
340
F
  0
DICTIONARY
  5
47
102
{ACAD_REACTORS
330
C
102
}
330
C
100
AcDbDictionary
281
     1
  3
A0
350
48
  3
A1
350
49
  3
A2
350
4A
  3
A3
350
4B
  3
A4
350
4C
  3
A5
350
4D
  3
A6
350
4E
  3
A7
350
4F
  3
A8
350
50
  3
A9
350
51
  3
B0
350
52
  3
B1
350
53
  3
B2
350
54
  3
B3
350
55
  3
B4
350
56
  3
B5
350
57
  3
B6
350
58
  3
B7
350
59
  3
B8
350
5A
  3
B9
350
5B
  3
C0
350
5C
  3
C1
350
5D
  3
C2
350
5E
  3
C3
350
5F
  3
C4
350
60
  3
C5
350
61
  3
C6
350
62
  3
C7
350
63
  3
C8
350
64
  3
C9
350
65
  3
D0
350
66
  3
D1
350
67
  3
D2
350
68
  0
LAYOUT
  5
1E
102
{ACAD_REACTORS
330
1A
102
}
330
1A
100
AcDbPlotSettings
  1

  2
none_device
  4

  6

 40
0.0
 41
0.0
 42
0.0
 43
0.0
 44
0.0
 45
0.0
 46
0.0
 47
0.0
 48
0.0
 49
0.0
140
0.0
141
0.0
142
1.0
143
1.0
 70
   688
 72
     1
 73
     0
 74
     5
  7

 75
    16
147
1.0
148
0.0
149
0.0
100
AcDbLayout
  1
Layout1
 70
     1
 71
     1
 10
0.0
 20
0.0
 11
420.0
 21
297.0
 12
0.0
 22
0.0
 32
0.0
 14
1.0000000000E+20
 24
1.0000000000E+20
 34
1.0000000000E+20
 15
-1.0000000000E+20
 25
-1.0000000000E+20
 35
-1.0000000000E+20
146
0.0
 13
0.0
 23
0.0
 33
0.0
 16
1.0
 26
0.0
 36
0.0
 17
0.0
 27
1.0
 37
0.0
 76
     0
330
1B
  0
LAYOUT
  5
26
102
{ACAD_REACTORS
330
1A
102
}
330
1A
100
AcDbPlotSettings
  1

  2
none_device
  4

  6

 40
0.0
 41
0.0
 42
0.0
 43
0.0
 44
0.0
 45
0.0
 46
0.0
 47
0.0
 48
0.0
 49
0.0
140
0.0
141
0.0
142
1.0
143
1.0
 70
   688
 72
     1
 73
     0
 74
     5
  7

 75
    16
147
1.0
148
0.0
149
0.0
100
AcDbLayout
  1
Layout2
 70
     1
 71
     2
 10
0.0
 20
0.0
 11
0.0
 21
0.0
 12
0.0
 22
0.0
 32
0.0
 14
0.0
 24
0.0
 34
0.0
 15
0.0
 25
0.0
 35
0.0
146
0.0
 13
0.0
 23
0.0
 33
0.0
 16
1.0
 26
0.0
 36
0.0
 17
0.0
 27
1.0
 37
0.0
 76
     0
330
23
  0
LAYOUT
  5
22
102
{ACAD_REACTORS
330
1A
102
}
330
1A
100
AcDbPlotSettings
  1

  2
none_device
  4
Letter_(8.50_x_11.00_Inches)
  6

 40
6.35
 41
6.35
 42
6.35000508
 43
6.35000508
 44
215.9
 45
279.4
 46
0.0
 47
0.0
 48
0.0
 49
0.0
140
0.0
141
0.0
142
1.0
143
1.0
 70
  1712
 72
     1
 73
     0
 74
     0
  7

 75
     0
147
1.0
148
0.0
149
0.0
100
AcDbLayout
  1
Model
 70
     1
 71
     0
 10
0.0
 20
0.0
 11
431.8
 21
279.4
 12
0.0
 22
0.0
 32
0.0
 14
0.0
 24
0.0
 34
0.0
 15
431.8
 25
279.4
 35
0.0
146
0.0
 13
0.0
 23
0.0
 33
0.0
 16
1.0
 26
0.0
 36
0.0
 17
0.0
 27
1.0
 37
0.0
 76
     0
330
1F
331
29
  0
MLINESTYLE
  5
18
102
{ACAD_REACTORS
330
17
102
}
330
17
100
AcDbMlineStyle
  2
Standard
 70
     0
  3

 62
   256
 51
90.0
 52
90.0
 71
     2
 49
0.5
 62
   256
  6
BYLAYER
 49
-0.5
 62
   256
  6
BYLAYER
  0
ACDBPLACEHOLDER
  5
F
102
{ACAD_REACTORS
330
E
102
}
330
E
  0
SCALE
  5
48
102
{ACAD_REACTORS
330
47
102
}
330
47
100
AcDbScale
 70
     0
300
1:1
140
1.0
141
1.0
290
     1
  0
SCALE
  5
49
102
{ACAD_REACTORS
330
47
102
}
330
47
100
AcDbScale
 70
     0
300
1:2
140
1.0
141
2.0
290
     0
  0
SCALE
  5
4A
102
{ACAD_REACTORS
330
47
102
}
330
47
100
AcDbScale
 70
     0
300
1:4
140
1.0
141
4.0
290
     0
  0
SCALE
  5
4B
102
{ACAD_REACTORS
330
47
102
}
330
47
100
AcDbScale
 70
     0
300
1:5
140
1.0
141
5.0
290
     0
  0
SCALE
  5
4C
102
{ACAD_REACTORS
330
47
102
}
330
47
100
AcDbScale
 70
     0
300
1:8
140
1.0
141
8.0
290
     0
  0
SCALE
  5
4D
102
{ACAD_REACTORS
330
47
102
}
330
47
100
AcDbScale
 70
     0
300
1:10
140
1.0
141
10.0
290
     0
  0
SCALE
  5
4E
102
{ACAD_REACTORS
330
47
102
}
330
47
100
AcDbScale
 70
     0
300
1:16
140
1.0
141
16.0
290
     0
  0
SCALE
  5
4F
102
{ACAD_REACTORS
330
47
102
}
330
47
100
AcDbScale
 70
     0
300
1:20
140
1.0
141
20.0
290
     0
  0
SCALE
  5
50
102
{ACAD_REACTORS
330
47
102
}
330
47
100
AcDbScale
 70
     0
300
1:30
140
1.0
141
30.0
290
     0
  0
SCALE
  5
51
102
{ACAD_REACTORS
330
47
102
}
330
47
100
AcDbScale
 70
     0
300
1:40
140
1.0
141
40.0
290
     0
  0
SCALE
  5
52
102
{ACAD_REACTORS
330
47
102
}
330
47
100
AcDbScale
 70
     0
300
1:50
140
1.0
141
50.0
290
     0
  0
SCALE
  5
53
102
{ACAD_REACTORS
330
47
102
}
330
47
100
AcDbScale
 70
     0
300
1:100
140
1.0
141
100.0
290
     0
  0
SCALE
  5
54
102
{ACAD_REACTORS
330
47
102
}
330
47
100
AcDbScale
 70
     0
300
2:1
140
2.0
141
1.0
290
     0
  0
SCALE
  5
55
102
{ACAD_REACTORS
330
47
102
}
330
47
100
AcDbScale
 70
     0
300
4:1
140
4.0
141
1.0
290
     0
  0
SCALE
  5
56
102
{ACAD_REACTORS
330
47
102
}
330
47
100
AcDbScale
 70
     0
300
8:1
140
8.0
141
1.0
290
     0
  0
SCALE
  5
57
102
{ACAD_REACTORS
330
47
102
}
330
47
100
AcDbScale
 70
     0
300
10:1
140
10.0
141
1.0
290
     0
  0
SCALE
  5
58
102
{ACAD_REACTORS
330
47
102
}
330
47
100
AcDbScale
 70
     0
300
100:1
140
100.0
141
1.0
290
     0
  0
SCALE
  5
59
102
{ACAD_REACTORS
330
47
102
}
330
47
100
AcDbScale
 70
     0
300
1/128" = 1'-0"
140
0.0078125
141
12.0
290
     0
  0
SCALE
  5
5A
102
{ACAD_REACTORS
330
47
102
}
330
47
100
AcDbScale
 70
     0
300
1/64" = 1'-0"
140
0.015625
141
12.0
290
     0
  0
SCALE
  5
5B
102
{ACAD_REACTORS
330
47
102
}
330
47
100
AcDbScale
 70
     0
300
1/32" = 1'-0"
140
0.03125
141
12.0
290
     0
  0
SCALE
  5
5C
102
{ACAD_REACTORS
330
47
102
}
330
47
100
AcDbScale
 70
     0
300
1/16" = 1'-0"
140
0.0625
141
12.0
290
     0
  0
SCALE
  5
5D
102
{ACAD_REACTORS
330
47
102
}
330
47
100
AcDbScale
 70
     0
300
3/32" = 1'-0"
140
0.09375
141
12.0
290
     0
  0
SCALE
  5
5E
102
{ACAD_REACTORS
330
47
102
}
330
47
100
AcDbScale
 70
     0
300
1/8" = 1'-0"
140
0.125
141
12.0
290
     0
  0
SCALE
  5
5F
102
{ACAD_REACTORS
330
47
102
}
330
47
100
AcDbScale
 70
     0
300
3/16" = 1'-0"
140
0.1875
141
12.0
290
     0
  0
SCALE
  5
60
102
{ACAD_REACTORS
330
47
102
}
330
47
100
AcDbScale
 70
     0
300
1/4" = 1'-0"
140
0.25
141
12.0
290
     0
  0
SCALE
  5
61
102
{ACAD_REACTORS
330
47
102
}
330
47
100
AcDbScale
 70
     0
300
3/8" = 1'-0"
140
0.375
141
12.0
290
     0
  0
SCALE
  5
62
102
{ACAD_REACTORS
330
47
102
}
330
47
100
AcDbScale
 70
     0
300
1/2" = 1'-0"
140
0.5
141
12.0
290
     0
  0
SCALE
  5
63
102
{ACAD_REACTORS
330
47
102
}
330
47
100
AcDbScale
 70
     0
300
3/4" = 1'-0"
140
0.75
141
12.0
290
     0
  0
SCALE
  5
64
102
{ACAD_REACTORS
330
47
102
}
330
47
100
AcDbScale
 70
     0
300
1" = 1'-0"
140
1.0
141
12.0
290
     0
  0
SCALE
  5
65
102
{ACAD_REACTORS
330
47
102
}
330
47
100
AcDbScale
 70
     0
300
1-1/2" = 1'-0"
140
1.5
141
12.0
290
     0
  0
SCALE
  5
66
102
{ACAD_REACTORS
330
47
102
}
330
47
100
AcDbScale
 70
     0
300
3" = 1'-0"
140
3.0
141
12.0
290
     0
  0
SCALE
  5
67
102
{ACAD_REACTORS
330
47
102
}
330
47
100
AcDbScale
 70
     0
300
6" = 1'-0"
140
6.0
141
12.0
290
     0
  0
SCALE
  5
68
102
{ACAD_REACTORS
330
47
102
}
330
47
100
AcDbScale
 70
     0
300
1'-0" = 1'-0"
140
12.0
141
12.0
290
     0
  0
ENDSEC
  0
EOF
