  0
SECTION
  2
HEADER
  9
$ACADVER
  1
AC1015
  9
$ACADMAINTVER
 70
     6
  9
$DWGCODEPAGE
  3
DOS932
  9
$INSBASE
 10
0.0
 20
0.0
 30
0.0
  9
$EXTMIN
 10
0.0
 20
0.0
 30
0.0
  9
$EXTMAX
 10
431.8
 20
279.4
 30
0.0
  9
$LIMMIN
 10
0.0
 20
0.0
  9
$LIMMAX
 10
431.8
 20
279.4
  9
$ORTHOMODE
 70
     0
  9
$REGENMODE
 70
     1
  9
$FILLMODE
 70
     1
  9
$QTEXTMODE
 70
     0
  9
$MIRRTEXT
 70
     1
  9
$LTSCALE
 40
1.0
  9
$ATTMODE
 70
     1
  9
$TEXTSIZE
 40
3.5
  9
$TRACEWID
 40
1.0
  9
$TEXTSTYLE
  7
Standard
  9
$CLAYER
  8
0
  9
$CELTYPE
  6
ByLayer
  9
$CECOLOR
 62
   256
  9
$CELTSCALE
 40
1.0
  9
$DISPSILH
 70
     0
  9
$DIMSCALE
 40
1.0
  9
$DIMASZ
 40
3.302
  9
$DIMEXO
 40
1.0
  9
$DIMDLI
 40
3.75
  9
$DIMRND
 40
0.0
  9
$DIMDLE
 40
0.0
  9
$DIMEXE
 40
1.0
  9
$DIMTP
 40
0.0
  9
$DIMTM
 40
0.0
  9
$DIMTXT
 40
3.5
  9
$DIMCEN
 40
2.5
  9
$DIMTSZ
 40
0.0
  9
$DIMTOL
 70
     0
  9
$DIMLIM
 70
     0
  9
$DIMTIH
 70
     1
  9
$DIMTOH
 70
     1
  9
$DIMSE1
 70
     0
  9
$DIMSE2
 70
     0
  9
$DIMTAD
 70
     1
  9
$DIMZIN
 70
     1
  9
$DIMBLK
  1

  9
$DIMASO
 70
     1
  9
$DIMSHO
 70
     1
  9
$DIMPOST
  1

  9
$DIMAPOST
  1

  9
$DIMALT
 70
     0
  9
$DIMALTD
 70
     3
  9
$DIMALTF
 40
0.0393700787
  9
$DIMLFAC
 40
1.0
  9
$DIMTOFL
 70
     1
  9
$DIMTVP
 40
0.0
  9
$DIMTIX
 70
     0
  9
$DIMSOXD
 70
     0
  9
$DIMSAH
 70
     0
  9
$DIMBLK1
  1

  9
$DIMBLK2
  1

  9
$DIMSTYLE
  2
ISO-25
  9
$DIMCLRD
 70
     0
  9
$DIMCLRE
 70
     0
  9
$DIMCLRT
 70
     0
  9
$DIMTFAC
 40
1.0
  9
$DIMGAP
 40
1.524
  9
$DIMJUST
 70
     0
  9
$DIMSD1
 70
     0
  9
$DIMSD2
 70
     0
  9
$DIMTOLJ
 70
     0
  9
$DIMTZIN
 70
     1
  9
$DIMALTZ
 70
     0
  9
$DIMALTTZ
 70
     0
  9
$DIMUPT
 70
     0
  9
$DIMDEC
 70
     2
  9
$DIMTDEC
 70
     2
  9
$DIMALTU
 70
     2
  9
$DIMALTTD
 70
     3
  9
$DIMTXSTY
  7
Standard
  9
$DIMAUNIT
 70
     0
  9
$DIMADEC
 70
     2
  9
$DIMALTRND
 40
0.0
  9
$DIMAZIN
 70
     0
  9
$DIMDSEP
 70
    44
  9
$DIMATFIT
 70
     3
  9
$DIMFRAC
 70
     0
  9
$DIMLDRBLK
  1

  9
$DIMLUNIT
 70
     2
  9
$DIMLWD
 70
    -2
  9
$DIMLWE
 70
    -2
  9
$DIMTMOVE
 70
     0
  9
$LUNITS
 70
     2
  9
$LUPREC
 70
     2
  9
$SKETCHINC
 40
1.0
  9
$FILLETRAD
 40
10.0
  9
$AUNITS
 70
     0
  9
$AUPREC
 70
     2
  9
$MENU
  1
.
  9
$ELEVATION
 40
0.0
  9
$PELEVATION
 40
0.0
  9
$THICKNESS
 40
0.0
  9
$LIMCHECK
 70
     0
  9
$CHAMFERA
 40
0.0
  9
$CHAMFERB
 40
0.0
  9
$CHAMFERC
 40
0.0
  9
$CHAMFERD
 40
0.0
  9
$SKPOLY
 70
     0
  9
$TDCREATE
 40
2459279.58417794
  9
$TDUCREATE
 40
2459279.20917794
  9
$TDUPDATE
 40
2459279.584178797
  9
$TDUUPDATE
 40
2459279.209178797
  9
$TDINDWG
 40
0.0000000116
  9
$TDUSRTIMER
 40
0.0000000116
  9
$USRTIMER
 70
     1
  9
$ANGBASE
 50
0.0
  9
$ANGDIR
 70
     0
  9
$PDMODE
 70
     0
  9
$PDSIZE
 40
-1.0
  9
$PLINEWID
 40
0.0
  9
$SPLFRAME
 70
     0
  9
$SPLINETYPE
 70
     6
  9
$SPLINESEGS
 70
     8
  9
$HANDSEED
  5
243
  9
$SURFTAB1
 70
     6
  9
$SURFTAB2
 70
     6
  9
$SURFTYPE
 70
     6
  9
$SURFU
 70
     6
  9
$SURFV
 70
     6
  9
$UCSBASE
  2

  9
$UCSNAME
  2

  9
$UCSORG
 10
0.0
 20
0.0
 30
0.0
  9
$UCSXDIR
 10
1.0
 20
0.0
 30
0.0
  9
$UCSYDIR
 10
0.0
 20
1.0
 30
0.0
  9
$UCSORTHOREF
  2

  9
$UCSORTHOVIEW
 70
     0
  9
$UCSORGTOP
 10
0.0
 20
0.0
 30
0.0
  9
$UCSORGBOTTOM
 10
0.0
 20
0.0
 30
0.0
  9
$UCSORGLEFT
 10
0.0
 20
0.0
 30
0.0
  9
$UCSORGRIGHT
 10
0.0
 20
0.0
 30
0.0
  9
$UCSORGFRONT
 10
0.0
 20
0.0
 30
0.0
  9
$UCSORGBACK
 10
0.0
 20
0.0
 30
0.0
  9
$PUCSBASE
  2

  9
$PUCSNAME
  2

  9
$PUCSORG
 10
0.0
 20
0.0
 30
0.0
  9
$PUCSXDIR
 10
1.0
 20
0.0
 30
0.0
  9
$PUCSYDIR
 10
0.0
 20
1.0
 30
0.0
  9
$PUCSORTHOREF
  2

  9
$PUCSORTHOVIEW
 70
     0
  9
$PUCSORGTOP
 10
0.0
 20
0.0
 30
0.0
  9
$PUCSORGBOTTOM
 10
0.0
 20
0.0
 30
0.0
  9
$PUCSORGLEFT
 10
0.0
 20
0.0
 30
0.0
  9
$PUCSORGRIGHT
 10
0.0
 20
0.0
 30
0.0
  9
$PUCSORGFRONT
 10
0.0
 20
0.0
 30
0.0
  9
$PUCSORGBACK
 10
0.0
 20
0.0
 30
0.0
  9
$USERI1
 70
     0
  9
$USERI2
 70
     0
  9
$USERI3
 70
     0
  9
$USERI4
 70
     0
  9
$USERI5
 70
     0
  9
$USERR1
 40
0.0
  9
$USERR2
 40
0.0
  9
$USERR3
 40
0.0
  9
$USERR4
 40
0.0
  9
$USERR5
 40
0.0
  9
$WORLDVIEW
 70
     1
  9
$SHADEDGE
 70
     3
  9
$SHADEDIF
 70
    70
  9
$TILEMODE
 70
     1
  9
$MAXACTVP
 70
    64
  9
$PINSBASE
 10
0.0
 20
0.0
 30
0.0
  9
$PLIMCHECK
 70
     0
  9
$PEXTMIN
 10
1.0000000000E+20
 20
1.0000000000E+20
 30
1.0000000000E+20
  9
$PEXTMAX
 10
-1.0000000000E+20
 20
-1.0000000000E+20
 30
-1.0000000000E+20
  9
$PLIMMIN
 10
0.0
 20
0.0
  9
$PLIMMAX
 10
420.0
 20
297.0
  9
$UNITMODE
 70
     0
  9
$VISRETAIN
 70
     1
  9
$PLINEGEN
 70
     0
  9
$PSLTSCALE
 70
     1
  9
$TREEDEPTH
 70
  3020
  9
$CMLSTYLE
  2
Standard
  9
$CMLJUST
 70
     0
  9
$CMLSCALE
 40
20.0
  9
$PROXYGRAPHICS
 70
     1
  9
$MEASUREMENT
 70
     1
  9
$CELWEIGHT
370
    -1
  9
$ENDCAPS
280
     0
  9
$JOINSTYLE
280
     0
  9
$LWDISPLAY
290
     1
  9
$INSUNITS
 70
     4
  9
$HYPERLINKBASE
  1

  9
$STYLESHEET
  1

  9
$XEDIT
290
     1
  9
$CEPSNTYPE
380
     0
  9
$PSTYLEMODE
290
     1
  9
$FINGERPRINTGUID
  2
{D3B2C364-456C-444F-A964-ECF8A5A50432}
  9
$VERSIONGUID
  2
{FAEB1C32-E019-11D5-929B-00C0DF256EC4}
  9
$EXTNAMES
290
     1
  9
$PSVPSCALE
 40
0.0
  9
$OLESTARTUP
290
     0
  0
ENDSEC
  0
SECTION
  2
CLASSES
  0
CLASS
  1
ACDBDICTIONARYWDFLT
  2
AcDbDictionaryWithDefault
  3
ObjectDBX Classes
 90
        0
280
     0
281
     0
  0
CLASS
  1
VISUALSTYLE
  2
AcDbVisualStyle
  3
ObjectDBX Classes
 90
     4095
280
     0
281
     0
  0
CLASS
  1
MATERIAL
  2
AcDbMaterial
  3
ObjectDBX Classes
 90
     1153
280
     0
281
     0
  0
CLASS
  1
SCALE
  2
AcDbScale
  3
ObjectDBX Classes
 90
     1153
280
     0
281
     0
  0
CLASS
  1
TABLESTYLE
  2
AcDbTableStyle
  3
ObjectDBX Classes
 90
     4095
280
     0
281
     0
  0
CLASS
  1
MLEADERSTYLE
  2
AcDbMLeaderStyle
  3
ACDB_MLEADERSTYLE_CLASS
 90
     4095
280
     0
281
     0
  0
CLASS
  1
SUN
  2
AcDbSun
  3
SCENEOE
 90
     1153
280
     0
281
     0
  0
CLASS
  1
ACDBPLACEHOLDER
  2
AcDbPlaceHolder
  3
ObjectDBX Classes
 90
        0
280
     0
281
     0
  0
CLASS
  1
LAYOUT
  2
AcDbLayout
  3
ObjectDBX Classes
 90
        0
280
     0
281
     0
  0
ENDSEC
  0
SECTION
  2
TABLES
  0
TABLE
  2
VPORT
  5
8
330
0
100
AcDbSymbolTable
 70
     1
  0
VPORT
  5
29
330
8
100
AcDbSymbolTableRecord
100
AcDbViewportTableRecord
  2
*Active
 70
     0
 10
0.0
 20
0.0
 11
1.0
 21
1.0
 12
215.9
 22
139.7
 13
0.0
 23
0.0
 14
10.0
 24
10.0
 15
10.0
 25
10.0
 16
0.0
 26
0.0
 36
1.0
 17
0.0
 27
0.0
 37
0.0
 40
279.4
 41
1.5454545455
 42
50.0
 43
0.0
 44
0.0
 50
0.0
 51
0.0
 71
     0
 72
  2000
 73
     1
 74
     3
 75
     0
 76
     0
 77
     0
 78
     0
281
     0
 65
     1
110
0.0
120
0.0
130
0.0
111
1.0
121
0.0
131
0.0
112
0.0
122
1.0
132
0.0
 79
     0
146
0.0
  0
ENDTAB
  0
TABLE
  2
LTYPE
  5
5
330
0
100
AcDbSymbolTable
 70
     6
  0
LTYPE
  5
14
330
5
100
AcDbSymbolTableRecord
100
AcDbLinetypeTableRecord
  2
ByBlock
 70
     0
  3

 72
    65
 73
     0
 40
0.0
  0
LTYPE
  5
15
330
5
100
AcDbSymbolTableRecord
100
AcDbLinetypeTableRecord
  2
ByLayer
 70
     0
  3

 72
    65
 73
     0
 40
0.0
  0
LTYPE
  5
16
330
5
100
AcDbSymbolTableRecord
100
AcDbLinetypeTableRecord
  2
Continuous
 70
     0
  3
Solid line
 72
    65
 73
     0
 40
0.0
  0
LTYPE
  5
6E
330
5
100
AcDbSymbolTableRecord
100
AcDbLinetypeTableRecord
  2
HIDDEN
 70
     0
  3
Hidden __ __ __ __ __ __ __ __ __ __ __ __ __ __
 72
    65
 73
     2
 40
1.905
 49
1.27
 74
     0
 49
-0.635
 74
     0
  0
LTYPE
  5
6F
330
5
100
AcDbSymbolTableRecord
100
AcDbLinetypeTableRecord
  2
PHANTOM
 70
     0
  3
Phantom ______  __  __  ______  __  __  ______
 72
    65
 73
     6
 40
12.7
 49
6.35
 74
     0
 49
-1.27
 74
     0
 49
1.27
 74
     0
 49
-1.27
 74
     0
 49
1.27
 74
     0
 49
-1.27
 74
     0
  0
LTYPE
  5
70
330
5
100
AcDbSymbolTableRecord
100
AcDbLinetypeTableRecord
  2
CENTER
 70
     0
  3
Center ____ _ ____ _ ____ _ ____ _ ____ _ ____
 72
    65
 73
     4
 40
10.16
 49
6.35
 74
     0
 49
-1.27
 74
     0
 49
1.27
 74
     0
 49
-1.27
 74
     0
  0
LTYPE
  5
71
330
5
100
AcDbSymbolTableRecord
100
AcDbLinetypeTableRecord
  2
CENTERX2
 70
     0
  3
Center (2x) ________  __  ________  __  _____
 72
    65
 73
     4
 40
20.32
 49
12.7
 74
     0
 49
-2.54
 74
     0
 49
2.54
 74
     0
 49
-2.54
 74
     0
  0
LTYPE
  5
72
330
5
100
AcDbSymbolTableRecord
100
AcDbLinetypeTableRecord
  2
DOT2
 70
     0
  3
Dot (.5x) ........................................
 72
    65
 73
     2
 40
0.635
 49
0.0
 74
     0
 49
-0.635
 74
     0
  0
ENDTAB
  0
TABLE
  2
LAYER
  5
2
330
0
100
AcDbSymbolTable
 70
     1
  0
LAYER
  5
10
330
2
100
AcDbSymbolTableRecord
100
AcDbLayerTableRecord
  2
0
 70
     0
 62
     7
  6
Continuous
370
    -3
390
F
  0
ENDTAB
  0
TABLE
  2
STYLE
  5
3
330
0
100
AcDbSymbolTable
 70
     2
  0
STYLE
  5
11
330
3
100
AcDbSymbolTableRecord
100
AcDbTextStyleTableRecord
  2
Standard
 70
     0
 40
0.0
 41
1.0
 50
0.0
 71
     0
 42
3.5
  3
txt
  4
bigfont
  0
STYLE
  5
73
330
3
100
AcDbSymbolTableRecord
100
AcDbTextStyleTableRecord
  2
SLDTEXTSTYLE0
 70
     0
 40
0.0
 41
0.7
 50
0.0
 71
     0
 42
3.5
  3
TXT
  4
bigfont
  0
ENDTAB
  0
TABLE
  2
VIEW
  5
6
330
0
100
AcDbSymbolTable
 70
     0
  0
ENDTAB
  0
TABLE
  2
UCS
  5
7
330
0
100
AcDbSymbolTable
 70
     0
  0
ENDTAB
  0
TABLE
  2
APPID
  5
9
330
0
100
AcDbSymbolTable
 70
     1
  0
APPID
  5
12
330
9
100
AcDbSymbolTableRecord
100
AcDbRegAppTableRecord
  2
ACAD
 70
     0
  0
ENDTAB
  0
TABLE
  2
DIMSTYLE
  5
A
330
0
100
AcDbSymbolTable
 70
     1
100
AcDbDimStyleTable
  0
DIMSTYLE
105
27
330
A
100
AcDbSymbolTableRecord
100
AcDbDimStyleTableRecord
  2
ISO-25
 70
     0
 41
2.5
 42
0.625
 43
3.75
 44
1.25
 73
     0
 74
     0
 77
     1
 78
     8
140
2.5
141
2.5
143
0.0393700787
147
0.625
171
     3
172
     1
178
     0
271
     2
272
     2
274
     3
278
    44
283
     0
284
     8
340
11
  0
ENDTAB
  0
TABLE
  2
BLOCK_RECORD
  5
1
330
0
100
AcDbSymbolTable
 70
     1
  0
BLOCK_RECORD
  5
1F
330
1
100
AcDbSymbolTableRecord
100
AcDbBlockTableRecord
  2
*Model_Space
340
22
  0
BLOCK_RECORD
  5
1B
330
1
100
AcDbSymbolTableRecord
100
AcDbBlockTableRecord
  2
*Paper_Space
340
1E
  0
BLOCK_RECORD
  5
23
330
1
100
AcDbSymbolTableRecord
100
AcDbBlockTableRecord
  2
*Paper_Space0
340
26
  0
ENDTAB
  0
ENDSEC
  0
SECTION
  2
BLOCKS
  0
BLOCK
  5
20
330
1F
100
AcDbEntity
  8
0
100
AcDbBlockBegin
  2
*Model_Space
 70
     0
 10
0.0
 20
0.0
 30
0.0
  3
*Model_Space
  1

  0
ENDBLK
  5
21
330
1F
100
AcDbEntity
  8
0
100
AcDbBlockEnd
  0
BLOCK
  5
1C
330
1B
100
AcDbEntity
 67
     1
  8
0
100
AcDbBlockBegin
  2
*Paper_Space
 70
     0
 10
0.0
 20
0.0
 30
0.0
  3
*Paper_Space
  1

  0
ENDBLK
  5
1D
330
1B
100
AcDbEntity
 67
     1
  8
0
100
AcDbBlockEnd
  0
BLOCK
  5
24
330
23
100
AcDbEntity
  8
0
100
AcDbBlockBegin
  2
*Paper_Space0
 70
     0
 10
0.0
 20
0.0
 30
0.0
  3
*Paper_Space0
  1

  0
ENDBLK
  5
25
330
23
100
AcDbEntity
  8
0
100
AcDbBlockEnd
  0
ENDSEC
  0
SECTION
  2
ENTITIES
  0
MTEXT
  5
74
330
1F
100
AcDbEntity
  8
0
  6
Continuous
 62
     7
370
     0
100
AcDbMText
 10
171.9163028902
 20
123.2040470311
 30
0.0
 40
4.2333333333
 41
0.0
 71
     1
 72
     1
  1
1R-BL1100
  7
SLDTEXTSTYLE0
 73
     1
 44
1.0
  0
LINE
  5
75
330
1F
100
AcDbEntity
  8
0
  6
Continuous
 62
     7
370
    25
100
AcDbLine
 10
143.1733038451
 20
69.741258027
 30
0.0
 11
145.0413376267
 21
69.741258027
 31
0.0
  0
LINE
  5
76
330
1F
100
AcDbEntity
  8
0
  6
Continuous
 62
     7
370
    25
100
AcDbLine
 10
145.0413376267
 20
89.74125758
 30
0.0
 11
143.1733038451
 21
89.74125758
 31
0.0
  0
LINE
  5
77
330
1F
100
AcDbEntity
  8
0
  6
Continuous
 62
     7
370
    25
100
AcDbLine
 10
162.4233037408
 20
89.74125758
 30
0.0
 11
160.8052704658
 21
89.74125758
 31
0.0
  0
LINE
  5
78
330
1F
100
AcDbEntity
  8
0
  6
Continuous
 62
     7
370
    25
100
AcDbLine
 10
160.8052704658
 20
69.741258027
 30
0.0
 11
162.4233037408
 21
69.741258027
 31
0.0
  0
ARC
  5
79
330
1F
100
AcDbEntity
  8
0
  6
Continuous
 62
     7
370
    25
100
AcDbCircle
 10
161.9233040462
 20
88.7412578035
 30
0.0
 40
1.5
100
AcDbArc
 50
138.1896851042
 51
180.0
  0
ARC
  5
7A
330
1F
100
AcDbEntity
  8
0
  6
Continuous
 62
     7
370
    25
100
AcDbCircle
 10
161.9233040462
 20
70.7412578035
 30
0.0
 40
1.5
100
AcDbArc
 50
180.0
 51
221.8103148958
  0
ARC
  5
7B
330
1F
100
AcDbEntity
  8
0
  6
Continuous
 62
     7
370
    25
100
AcDbCircle
 10
143.9233040462
 20
70.7412578035
 30
0.0
 40
1.500000000000014
100
AcDbArc
 50
318.1896851042
 51
0.0
  0
ARC
  5
7C
330
1F
100
AcDbEntity
  8
0
  6
Continuous
 62
     7
370
    25
100
AcDbCircle
 10
143.9233040462
 20
88.7412578035
 30
0.0
 40
1.500000000000014
100
AcDbArc
 50
0.0
 51
41.8103148958
  0
LINE
  5
7D
330
1F
100
AcDbEntity
  8
0
  6
Continuous
 62
     7
370
    25
100
AcDbLine
 10
143.1733038451
 20
89.74125758
 30
0.0
 11
142.9233042698
 21
89.4912580046
 31
0.0
  0
LINE
  5
7E
330
1F
100
AcDbEntity
  8
0
  6
Continuous
 62
     7
370
    25
100
AcDbLine
 10
142.9233042698
 20
69.9912576023
 30
0.0
 11
143.1733038451
 21
69.741258027
 31
0.0
  0
LINE
  5
7F
330
1F
100
AcDbEntity
  8
0
  6
Continuous
 62
     7
370
    25
100
AcDbLine
 10
162.4233037408
 20
69.741258027
 30
0.0
 11
162.9233038227
 21
70.2412581089
 31
0.0
  0
LINE
  5
80
330
1F
100
AcDbEntity
  8
0
  6
Continuous
 62
     7
370
    25
100
AcDbLine
 10
162.9233038227
 20
89.241257498
 30
0.0
 11
162.4233037408
 21
89.74125758
 31
0.0
  0
ARC
  5
81
330
1F
100
AcDbEntity
  8
0
  6
Continuous
 62
     7
370
    25
100
AcDbCircle
 10
159.9233040462
 20
88.7412578035
 30
0.0
 40
0.5
100
AcDbArc
 50
270.0
 51
0.0
  0
ARC
  5
82
330
1F
100
AcDbEntity
  8
0
  6
Continuous
 62
     7
370
    25
100
AcDbCircle
 10
145.9233040462
 20
88.7412578035
 30
0.0
 40
0.5000000000000284
100
AcDbArc
 50
180.0
 51
270.0
  0
ARC
  5
83
330
1F
100
AcDbEntity
  8
0
  6
Continuous
 62
     7
370
    25
100
AcDbCircle
 10
145.9233040462
 20
70.7412578035
 30
0.0
 40
0.5000000000000284
100
AcDbArc
 50
90.0
 51
180.0
  0
ARC
  5
84
330
1F
100
AcDbEntity
  8
0
  6
Continuous
 62
     7
370
    25
100
AcDbCircle
 10
159.9233040462
 20
70.7412578035
 30
0.0
 40
0.5
100
AcDbArc
 50
0.0
 51
90.0
  0
LINE
  5
85
330
1F
100
AcDbEntity
  8
0
  6
Continuous
 62
     7
370
    25
100
AcDbLine
 10
146.5409830387
 20
88.2412582654
 30
0.0
 11
145.9233038302
 21
88.2412582654
 31
0.0
  0
LINE
  5
86
330
1F
100
AcDbEntity
  8
0
  6
Continuous
 62
     7
370
    25
100
AcDbLine
 10
159.9233042623
 20
88.2412582654
 30
0.0
 11
159.3233038846
 21
88.2412582654
 31
0.0
  0
LINE
  5
87
330
1F
100
AcDbEntity
  8
0
  6
Continuous
 62
     7
370
    25
100
AcDbLine
 10
145.9233038302
 20
71.2412573415
 30
0.0
 11
159.9233042623
 21
71.2412573415
 31
0.0
  0
SPLINE
  5
88
330
1F
100
AcDbEntity
  8
0
  6
Continuous
 62
     7
370
    25
100
AcDbSpline
210
0.0
220
0.0
230
1.0
 70
     8
 71
     3
 72
    13
 73
     9
 74
     0
 42
0.000000001
 43
0.00000001
 40
0.0
 40
0.0
 40
0.0
 40
0.0
 40
0.1666119996278473
 40
0.3332810333364505
 40
0.5159694476909096
 40
0.7023447083309986
 40
0.8787876188413701
 40
1.0
 40
1.0
 40
1.0
 40
1.0
 10
159.3235432344669
 20
88.24376631709765
 30
0.0
 10
159.2796927986253
 20
88.24603058623484
 30
0.0
 10
159.1919769162028
 20
88.2505598996065
 30
0.0
 10
159.066042872743
 20
88.30579327172694
 30
0.0
 10
158.9542366344328
 20
88.3930507948454
 30
0.0
 10
158.872035319793
 20
88.51187654571814
 30
0.0
 10
158.8281304447146
 20
88.63334733257756
 30
0.0
 10
158.8263358874814
 20
88.7115233347557
 30
0.0
 10
158.8256051006907
 20
88.74335847976636
 30
0.0
  0
SPLINE
  5
89
330
1F
100
AcDbEntity
  8
0
  6
Continuous
 62
     7
370
    25
100
AcDbSpline
210
0.0
220
0.0
230
1.0
 70
     8
 71
     3
 72
    13
 73
     9
 74
     0
 42
0.000000001
 43
0.00000001
 40
0.0
 40
0.0
 40
0.0
 40
0.0
 40
0.1754141285687179
 40
0.3673219870868909
 40
0.5786632035970406
 40
0.7555664517503052
 40
0.9093028040716595
 40
1.0
 40
1.0
 40
1.0
 40
1.0
 10
147.0229028898471
 20
88.72657604697179
 30
0.0
 10
147.0182940246965
 20
88.68259350472059
 30
0.0
 10
147.008642934906
 20
88.59049285724899
 30
0.0
 10
146.9438769896954
 20
88.45751363099205
 30
0.0
 10
146.8444656334064
 20
88.34822534854776
 30
0.0
 10
146.7260213873694
 20
88.27916476659453
 30
0.0
 10
146.6239420945611
 20
88.2466160821927
 30
0.0
 10
146.5625629248539
 20
88.24455046176624
 30
0.0
 10
146.5397881518298
 20
88.24378401222657
 30
0.0
  0
LINE
  5
8A
330
1F
100
AcDbEntity
  8
0
  6
Continuous
 62
     7
370
    25
100
AcDbLine
 10
158.8233042683
 20
88.741257416
 30
0.0
 11
158.8233042683
 21
90.2412576619
 31
0.0
  0
LINE
  5
8B
330
1F
100
AcDbEntity
  8
0
  6
Continuous
 62
     7
370
    25
100
AcDbLine
 10
147.0233038242
 20
90.2412576619
 30
0.0
 11
147.0233038242
 21
88.7299874816
 31
0.0
  0
LINE
  5
8C
330
1F
100
AcDbEntity
  8
0
  6
Continuous
 62
     7
370
    25
100
AcDbLine
 10
162.9233038227
 20
74.6888202633
 30
0.0
 11
171.568355913
 21
74.9589783158
 31
0.0
  0
LINE
  5
8D
330
1F
100
AcDbEntity
  8
0
  6
Continuous
 62
     7
370
    25
100
AcDbLine
 10
171.568355913
 20
84.5235372912
 30
0.0
 11
162.9233038227
 21
84.7936953436
 31
0.0
  0
LINE
  5
8E
330
1F
100
AcDbEntity
  8
0
  6
Continuous
 62
     7
370
    25
100
AcDbLine
 10
171.568355913
 20
74.9589783158
 30
0.0
 11
172.9233035992
 21
75.7412576135
 31
0.0
  0
LINE
  5
8F
330
1F
100
AcDbEntity
  8
0
  6
Continuous
 62
     7
370
    25
100
AcDbLine
 10
172.9233035992
 20
83.7412579935
 30
0.0
 11
171.568355913
 21
84.5235372912
 31
0.0
  0
LINE
  5
90
330
1F
100
AcDbEntity
  8
0
  6
Continuous
 62
     7
370
    25
100
AcDbLine
 10
160.3733039635
 20
98.2412580419
 30
0.0
 11
158.4233040164
 21
106.2412574905
 31
0.0
  0
LINE
  5
91
330
1F
100
AcDbEntity
  8
0
  6
Continuous
 62
     7
370
    25
100
AcDbLine
 10
159.9233042623
 20
90.2412576619
 30
0.0
 11
160.3733039635
 21
98.2412580419
 31
0.0
  0
LINE
  5
92
330
1F
100
AcDbEntity
  8
0
  6
Continuous
 62
     7
370
    25
100
AcDbLine
 10
145.8526476461
 20
91.4973752591
 30
0.0
 11
145.9233038302
 21
90.2412576619
 31
0.0
  0
LINE
  5
93
330
1F
100
AcDbEntity
  8
0
  6
Continuous
 62
     7
370
    25
100
AcDbLine
 10
147.423304076
 20
106.2412574905
 30
0.0
 11
147.1700723457
 21
105.202359708
 31
0.0
  0
LINE
  5
94
330
1F
100
AcDbEntity
  8
0
  6
Continuous
 62
     7
370
    25
100
AcDbLine
 10
140.1733042847
 20
87.7412581834
 30
0.0
 11
139.923303778
 21
87.4912576768
 31
0.0
  0
LINE
  5
95
330
1F
100
AcDbEntity
  8
0
  6
Continuous
 62
     7
370
    25
100
AcDbLine
 10
139.923303778
 20
71.9912579301
 30
0.0
 11
140.1733042847
 21
71.7412574235
 31
0.0
  0
LINE
  5
96
330
1F
100
AcDbEntity
  8
0
  6
Continuous
 62
     7
370
    25
100
AcDbLine
 10
142.9233042698
 20
87.7412581834
 30
0.0
 11
140.1733042847
 21
87.7412581834
 31
0.0
  0
LINE
  5
97
330
1F
100
AcDbEntity
  8
0
  6
Continuous
 62
     7
370
    25
100
AcDbLine
 10
140.1733042847
 20
71.7412574235
 30
0.0
 11
142.9233042698
 21
71.7412574235
 31
0.0
  0
LINE
  5
98
330
1F
100
AcDbEntity
  8
0
  6
Continuous
 62
     7
370
    25
100
AcDbLine
 10
127.4233045231
 20
64.7412581387
 30
0.0
 11
127.4233045231
 21
68.7412578631
 31
0.0
  0
LINE
  5
99
330
1F
100
AcDbEntity
  8
0
  6
Continuous
 62
     7
370
    25
100
AcDbLine
 10
118.4233049105
 20
68.7412578631
 30
0.0
 11
118.4233049105
 21
64.7412581387
 31
0.0
  0
ARC
  5
9A
330
1F
100
AcDbEntity
  8
0
  6
Continuous
 62
     7
370
    25
100
AcDbCircle
 10
133.9233040462
 20
68.7412578035
 30
0.0
 40
6.499999999999986
100
AcDbArc
 50
90.0
 51
180.0
  0
ARC
  5
9B
330
1F
100
AcDbEntity
  8
0
  6
Continuous
 62
     7
370
    25
100
AcDbCircle
 10
133.9233040462
 20
68.7412578035
 30
0.0
 40
15.49999999999999
100
AcDbArc
 50
90.0
 51
180.0
  0
LINE
  5
9C
330
1F
100
AcDbEntity
  8
0
  6
Continuous
 62
     7
370
    25
100
AcDbLine
 10
133.9233046572
 20
75.2412579972
 30
0.0
 11
139.923303778
 21
75.2412579972
 31
0.0
  0
LINE
  5
9D
330
1F
100
AcDbEntity
  8
0
  6
Continuous
 62
     7
370
    25
100
AcDbLine
 10
139.923303778
 20
84.2412576098
 30
0.0
 11
133.9233046572
 21
84.2412576098
 31
0.0
  0
LINE
  5
9E
330
1F
100
AcDbEntity
  8
0
  6
Continuous
 62
     7
370
    25
100
AcDbLine
 10
145.0413376267
 20
79.7412578035
 30
0.0
 11
145.0413376267
 21
69.741258027
 31
0.0
  0
LINE
  5
9F
330
1F
100
AcDbEntity
  8
0
  6
Continuous
 62
     7
370
    25
100
AcDbLine
 10
145.0413376267
 20
89.74125758
 30
0.0
 11
145.0413376267
 21
79.7412578035
 31
0.0
  0
LINE
  5
A0
330
1F
100
AcDbEntity
  8
0
  6
Continuous
 62
     7
370
    25
100
AcDbLine
 10
143.1733038451
 20
79.7412578035
 30
0.0
 11
143.1733038451
 21
69.741258027
 31
0.0
  0
LINE
  5
A1
330
1F
100
AcDbEntity
  8
0
  6
Continuous
 62
     7
370
    25
100
AcDbLine
 10
143.1733038451
 20
89.74125758
 30
0.0
 11
143.1733038451
 21
79.7412578035
 31
0.0
  0
LINE
  5
A2
330
1F
100
AcDbEntity
  8
0
  6
Continuous
 62
     7
370
    25
100
AcDbLine
 10
160.8052704658
 20
69.741258027
 30
0.0
 11
160.8052704658
 21
89.74125758
 31
0.0
  0
LINE
  5
A3
330
1F
100
AcDbEntity
  8
0
  6
Continuous
 62
     7
370
    25
100
AcDbLine
 10
162.4233037408
 20
69.741258027
 30
0.0
 11
162.4233037408
 21
89.74125758
 31
0.0
  0
SPLINE
  5
A4
330
1F
100
AcDbEntity
  8
0
  6
Continuous
 62
     7
370
    25
100
AcDbSpline
210
0.0
220
0.0
230
1.0
 70
     8
 71
     3
 72
     8
 73
     4
 74
     0
 42
0.000000001
 43
0.00000001
 40
0.0
 40
0.0
 40
0.0
 40
0.0
 40
1.0
 40
1.0
 40
1.0
 40
1.0
 10
160.5205051708967
 20
74.34156795197234
 30
0.0
 10
160.4526687533206
 20
74.31020501096154
 30
0.0
 10
160.4233040462428
 20
74.27673685031199
 30
0.0
 10
160.4233040462428
 20
74.24125780346822
 30
0.0
  0
SPLINE
  5
A5
330
1F
100
AcDbEntity
  8
0
  6
Continuous
 62
     7
370
    25
100
AcDbSpline
210
0.0
220
0.0
230
1.0
 70
     8
 71
     3
 72
    12
 73
     8
 74
     0
 42
0.000000001
 43
0.00000001
 40
0.0
 40
0.0
 40
0.0
 40
0.0
 40
0.5000000000000001
 40
0.5000000000000001
 40
0.75
 40
0.75
 40
1.0
 40
1.0
 40
1.0
 40
1.0
 10
160.5205051708967
 20
74.34156795197234
 30
0.0
 10
160.5883749309065
 20
74.37294630825441
 30
0.0
 10
160.6644094821603
 20
74.50665482875297
 30
0.0
 10
160.7110540805373
 20
74.78468093841875
 30
0.0
 10
160.7154930770599
 20
74.89152712242272
 30
0.0
 10
160.6997624632671
 20
75.11840859647846
 30
0.0
 10
160.6798820333247
 20
75.23857756878307
 30
0.0
 10
160.6523901133448
 20
75.36002721359333
 30
0.0
  0
SPLINE
  5
A6
330
1F
100
AcDbEntity
  8
0
  6
Continuous
 62
     7
370
    25
100
AcDbSpline
210
0.0
220
0.0
230
1.0
 70
     8
 71
     3
 72
    12
 73
     8
 74
     0
 42
0.000000001
 43
0.00000001
 40
0.0
 40
0.0
 40
0.0
 40
0.0
 40
0.5
 40
0.5
 40
0.75
 40
0.75
 40
1.0
 40
1.0
 40
1.0
 40
1.0
 10
160.4233040462428
 20
79.74125780346823
 30
0.0
 10
160.4233040462428
 20
79.007300781311
 30
0.0
 10
160.4187466512436
 20
78.27432233694822
 30
0.0
 10
160.4459303156229
 20
77.1774982240018
 30
0.0
 10
160.46137998654
 20
76.81235063543136
 30
0.0
 10
160.5242435880719
 20
76.08356262156732
 30
0.0
 10
160.5712735112402
 20
75.718371866169
 30
0.0
 10
160.6523901133448
 20
75.36002721359333
 30
0.0
  0
LINE
  5
A7
330
1F
100
AcDbEntity
  8
0
  6
Continuous
 62
     7
370
    25
100
AcDbLine
 10
160.4251609358
 20
80.159659214
 30
0.0
 11
160.4233038786
 21
79.7412578035
 31
0.0
  0
SPLINE
  5
A8
330
1F
100
AcDbEntity
  8
0
  6
Continuous
 62
     7
370
    25
100
AcDbSpline
210
0.0
220
0.0
230
1.0
 70
     8
 71
     3
 72
    14
 73
    10
 74
     0
 42
0.000000001
 43
0.00000001
 40
0.0
 40
0.0
 40
0.0
 40
0.0
 40
0.25
 40
0.25
 40
0.5
 40
0.5
 40
0.75
 40
0.75
 40
1.0
 40
1.0
 40
1.0
 40
1.0
 10
160.6523901133448
 20
84.12248839334313
 30
0.0
 10
160.6799111010899
 20
84.24406644932884
 30
0.0
 10
160.6998310229263
 20
84.36459118635396
 30
0.0
 10
160.7154980647444
 20
84.59156744546208
 30
0.0
 10
160.711006232932
 20
84.69853742302824
 30
0.0
 10
160.6797498876485
 20
84.88400297480797
 30
0.0
 10
160.6533773042667
 20
84.96288823592681
 30
0.0
 10
160.5905407531224
 20
85.0835260270999
 30
0.0
 10
160.5545011742623
 20
85.12523021754251
 30
0.0
 10
160.5205051708967
 20
85.14094765496412
 30
0.0
  0
SPLINE
  5
A9
330
1F
100
AcDbEntity
  8
0
  6
Continuous
 62
     7
370
    25
100
AcDbSpline
210
0.0
220
0.0
230
1.0
 70
     8
 71
     3
 72
     8
 73
     4
 74
     0
 42
0.000000001
 43
0.00000001
 40
0.0
 40
0.0
 40
0.0
 40
0.0
 40
1.0
 40
1.0
 40
1.0
 40
1.0
 10
160.4233040462428
 20
85.24125780346823
 30
0.0
 10
160.4233040462428
 20
85.20577875662445
 30
0.0
 10
160.4526687533206
 20
85.17231059597489
 30
0.0
 10
160.5205051708967
 20
85.14094765496412
 30
0.0
  0
LINE
  5
AA
330
1F
100
AcDbEntity
  8
0
  6
Continuous
 62
     7
370
    25
100
AcDbLine
 10
160.4233038786
 20
85.2412577737
 30
0.0
 11
160.4233038786
 21
88.741257416
 31
0.0
  0
LINE
  5
AB
330
1F
100
AcDbEntity
  8
0
  6
Continuous
 62
     7
370
    25
100
AcDbLine
 10
160.4233038786
 20
70.7412581909
 30
0.0
 11
160.4233038786
 21
74.2412578333
 31
0.0
  0
LINE
  5
AC
330
1F
100
AcDbEntity
  8
0
  6
Continuous
 62
     7
370
    25
100
AcDbLine
 10
145.4233042139
 20
88.741257416
 30
0.0
 11
145.4233042139
 21
85.2412577737
 31
0.0
  0
SPLINE
  5
AD
330
1F
100
AcDbEntity
  8
0
  6
Continuous
 62
     7
370
    25
100
AcDbSpline
210
0.0
220
0.0
230
1.0
 70
     8
 71
     3
 72
     8
 73
     4
 74
     0
 42
0.000000001
 43
0.00000001
 40
0.0
 40
0.0
 40
0.0
 40
0.0
 40
1.0
 40
1.0
 40
1.0
 40
1.0
 10
145.3261029215889
 20
85.14094765496412
 30
0.0
 10
145.3939393391649
 20
85.17231059597489
 30
0.0
 10
145.4233040462428
 20
85.20577875662445
 30
0.0
 10
145.4233040462428
 20
85.24125780346823
 30
0.0
  0
SPLINE
  5
AE
330
1F
100
AcDbEntity
  8
0
  6
Continuous
 62
     7
370
    25
100
AcDbSpline
210
0.0
220
0.0
230
1.0
 70
     8
 71
     3
 72
    12
 73
     8
 74
     0
 42
0.000000001
 43
0.00000001
 40
0.0
 40
0.0
 40
0.0
 40
0.0
 40
0.4999999999999992
 40
0.4999999999999992
 40
0.7499999999999996
 40
0.7499999999999996
 40
1.0
 40
1.0
 40
1.0
 40
1.0
 10
145.3261029215889
 20
85.14094765496412
 30
0.0
 10
145.2582331615791
 20
85.10956929868202
 30
0.0
 10
145.1821986103253
 20
84.97586077818347
 30
0.0
 10
145.1355540119483
 20
84.69783466851769
 30
0.0
 10
145.1311150154257
 20
84.59098848451373
 30
0.0
 10
145.1468456292185
 20
84.36410701045799
 30
0.0
 10
145.1667260591609
 20
84.24393803815337
 30
0.0
 10
145.1942179791407
 20
84.12248839334313
 30
0.0
  0
SPLINE
  5
AF
330
1F
100
AcDbEntity
  8
0
  6
Continuous
 62
     7
370
    25
100
AcDbSpline
210
0.0
220
0.0
230
1.0
 70
     8
 71
     3
 72
    12
 73
     8
 74
     0
 42
0.000000001
 43
0.00000001
 40
0.0
 40
0.0
 40
0.0
 40
0.0
 40
0.4999999999999998
 40
0.4999999999999998
 40
0.7499999999999999
 40
0.7499999999999999
 40
1.0
 40
1.0
 40
1.0
 40
1.0
 10
145.4233040462428
 20
79.7412578034682
 30
0.0
 10
145.4233040462428
 20
80.47521482562541
 30
0.0
 10
145.427861441242
 20
81.20819326998824
 30
0.0
 10
145.4006777768628
 20
82.30501738293465
 30
0.0
 10
145.3852281059456
 20
82.67016497150507
 30
0.0
 10
145.3223645044137
 20
83.39895298536914
 30
0.0
 10
145.2753345812454
 20
83.76414374076745
 30
0.0
 10
145.1942179791407
 20
84.12248839334313
 30
0.0
  0
LINE
  5
B0
330
1F
100
AcDbEntity
  8
0
  6
Continuous
 62
     7
370
    25
100
AcDbLine
 10
145.4214471567
 20
79.3228563929
 30
0.0
 11
145.4233042139
 21
79.7412578035
 31
0.0
  0
SPLINE
  5
B1
330
1F
100
AcDbEntity
  8
0
  6
Continuous
 62
     7
370
    25
100
AcDbSpline
210
0.0
220
0.0
230
1.0
 70
     8
 71
     3
 72
    14
 73
    10
 74
     0
 42
0.000000001
 43
0.00000001
 40
0.0
 40
0.0
 40
0.0
 40
0.0
 40
0.25
 40
0.25
 40
0.5
 40
0.5
 40
0.75
 40
0.75
 40
1.0
 40
1.0
 40
1.0
 40
1.0
 10
145.1942179791407
 20
75.36002721359333
 30
0.0
 10
145.1666969913957
 20
75.2384491576076
 30
0.0
 10
145.1467770695593
 20
75.11792442058247
 30
0.0
 10
145.1311100277412
 20
74.89094816147437
 30
0.0
 10
145.1356018595535
 20
74.78397818390819
 30
0.0
 10
145.1668582048371
 20
74.59851263212846
 30
0.0
 10
145.1932307882189
 20
74.51962737100963
 30
0.0
 10
145.2560673393632
 20
74.39898957983654
 30
0.0
 10
145.2921069182233
 20
74.35728538939392
 30
0.0
 10
145.3261029215889
 20
74.34156795197232
 30
0.0
  0
SPLINE
  5
B2
330
1F
100
AcDbEntity
  8
0
  6
Continuous
 62
     7
370
    25
100
AcDbSpline
210
0.0
220
0.0
230
1.0
 70
     8
 71
     3
 72
     8
 73
     4
 74
     0
 42
0.000000001
 43
0.00000001
 40
0.0
 40
0.0
 40
0.0
 40
0.0
 40
1.0
 40
1.0
 40
1.0
 40
1.0
 10
145.4233040462428
 20
74.24125780346822
 30
0.0
 10
145.4233040462428
 20
74.27673685031199
 30
0.0
 10
145.3939393391649
 20
74.31020501096154
 30
0.0
 10
145.3261029215889
 20
74.34156795197234
 30
0.0
  0
LINE
  5
B3
330
1F
100
AcDbEntity
  8
0
  6
Continuous
 62
     7
370
    25
100
AcDbLine
 10
145.4233042139
 20
74.2412578333
 30
0.0
 11
145.4233042139
 21
70.7412581909
 31
0.0
  0
LINE
  5
B4
330
1F
100
AcDbEntity
  8
0
  6
Continuous
 62
     7
370
    25
100
AcDbLine
 10
142.9233042698
 20
79.7412578035
 30
0.0
 11
142.9233042698
 21
89.4912580046
 31
0.0
  0
LINE
  5
B5
330
1F
100
AcDbEntity
  8
0
  6
Continuous
 62
     7
370
    25
100
AcDbLine
 10
142.9233042698
 20
69.9912576023
 30
0.0
 11
142.9233042698
 21
79.7412578035
 31
0.0
  0
LINE
  5
B6
330
1F
100
AcDbEntity
  8
0
  6
Continuous
 62
     7
370
    25
100
AcDbLine
 10
162.9233038227
 20
89.241257498
 30
0.0
 11
162.9233038227
 21
70.2412581089
 31
0.0
  0
LWPOLYLINE
  5
B7
330
1F
100
AcDbEntity
  8
0
  6
Continuous
 62
     7
370
    25
100
AcDbPolyline
 90
        9
 70
   128
 43
0.0
 10
160.6523901398
 20
75.3600272368
 10
160.6179027992
 20
75.3503587115
 10
160.5763895611
 20
75.3387199733
 10
160.5286001402
 20
75.3253219667
 10
160.4753974068
 20
75.31040637
 10
160.4177410889
 20
75.2942418698
 10
160.3566728707
 20
75.2771213669
 10
160.2932949725
 20
75.2593526635
 10
160.2287519898
 20
75.2412579972
  0
SPLINE
  5
B8
330
1F
100
AcDbEntity
  8
0
  6
Continuous
 62
     7
370
    25
100
AcDbSpline
210
0.0
220
0.0
230
1.0
 70
     8
 71
     3
 72
    14
 73
    10
 74
     0
 42
0.000000001
 43
0.00000001
 40
0.0
 40
0.0
 40
0.0
 40
0.0
 40
0.2500000000000002
 40
0.2500000000000002
 40
0.5000000000000003
 40
0.5000000000000003
 40
0.7500000000000002
 40
0.7500000000000002
 40
1.0
 40
1.0
 40
1.0
 40
1.0
 10
160.2287521357122
 20
75.24125780346822
 30
0.0
 10
160.1261916178881
 20
75.60708036931408
 30
0.0
 10
160.0628786317372
 20
75.98268828475553
 30
0.0
 10
159.9776609685519
 20
76.73169352402422
 30
0.0
 10
159.9557428738734
 20
77.10717418167322
 30
0.0
 10
159.9299696180937
 20
77.85898932038836
 30
0.0
 10
159.926206132629
 20
78.23532813490371
 30
0.0
 10
159.9228947845232
 20
78.98820503375228
 30
0.0
 10
159.9233040462428
 20
79.36474109138125
 30
0.0
 10
159.9233040462428
 20
79.74125780346823
 30
0.0
  0
LINE
  5
B9
330
1F
100
AcDbEntity
  8
0
  6
Continuous
 62
     7
370
    25
100
AcDbLine
 10
160.4233038786
 20
79.7412578035
 30
0.0
 11
159.9233042623
 21
79.7412578035
 31
0.0
  0
SPLINE
  5
BA
330
1F
100
AcDbEntity
  8
0
  6
Continuous
 62
     7
370
    25
100
AcDbSpline
210
0.0
220
0.0
230
1.0
 70
     8
 71
     3
 72
    14
 73
    10
 74
     0
 42
0.000000001
 43
0.00000001
 40
0.0
 40
0.0
 40
0.0
 40
0.0
 40
0.2500000000000001
 40
0.2500000000000001
 40
0.5000000000000001
 40
0.5000000000000001
 40
0.7500000000000001
 40
0.7500000000000001
 40
1.0
 40
1.0
 40
1.0
 40
1.0
 10
145.9233040462428
 20
79.74125780346822
 30
0.0
 10
145.9233040462428
 20
79.36474109138125
 30
0.0
 10
145.9237133079624
 20
78.98820503375228
 30
0.0
 10
145.9204019598565
 20
78.2353281349037
 30
0.0
 10
145.9166384743919
 20
77.85898932038835
 30
0.0
 10
145.8908652186122
 20
77.1071741816732
 30
0.0
 10
145.8689471239337
 20
76.73169352402421
 30
0.0
 10
145.7837294607484
 20
75.98268828475553
 30
0.0
 10
145.7204164745975
 20
75.60708036931408
 30
0.0
 10
145.6178559567734
 20
75.24125780346822
 30
0.0
  0
LWPOLYLINE
  5
BB
330
1F
100
AcDbEntity
  8
0
  6
Continuous
 62
     7
370
    25
100
AcDbPolyline
 90
        9
 70
   128
 43
0.0
 10
145.6178561027
 20
75.2412579972
 10
145.55331312
 20
75.2593526635
 10
145.4899352218
 20
75.2771213669
 10
145.4288670036
 20
75.2942418698
 10
145.3712106857
 20
75.31040637
 10
145.3180079523
 20
75.3253219667
 10
145.2702185313
 20
75.3387199733
 10
145.2287052932
 20
75.3503587115
 10
145.1942179526
 20
75.3600272368
  0
LINE
  5
BC
330
1F
100
AcDbEntity
  8
0
  6
Continuous
 62
     7
370
    25
100
AcDbLine
 10
145.9233038302
 20
79.7412578035
 30
0.0
 11
145.4233042139
 21
79.7412578035
 31
0.0
  0
SPLINE
  5
BD
330
1F
100
AcDbEntity
  8
0
  6
Continuous
 62
     7
370
    25
100
AcDbSpline
210
0.0
220
0.0
230
1.0
 70
     8
 71
     3
 72
    14
 73
    10
 74
     0
 42
0.000000001
 43
0.00000001
 40
0.0
 40
0.0
 40
0.0
 40
0.0
 40
0.2499999999999999
 40
0.2499999999999999
 40
0.4999999999999999
 40
0.4999999999999999
 40
0.7499999999999999
 40
0.7499999999999999
 40
1.0
 40
1.0
 40
1.0
 40
1.0
 10
159.9233040462428
 20
79.74125780346822
 30
0.0
 10
159.9233040462428
 20
80.11777451555518
 30
0.0
 10
159.9228947845232
 20
80.49431057318415
 30
0.0
 10
159.926206132629
 20
81.24718747203273
 30
0.0
 10
159.9299696180937
 20
81.62352628654808
 30
0.0
 10
159.9557428738734
 20
82.37534142526322
 30
0.0
 10
159.9776609685519
 20
82.75082208291224
 30
0.0
 10
160.0628786317372
 20
83.49982732218092
 30
0.0
 10
160.1261916178881
 20
83.87543523762237
 30
0.0
 10
160.2287521357122
 20
84.24125780346822
 30
0.0
  0
LWPOLYLINE
  5
BE
330
1F
100
AcDbEntity
  8
0
  6
Continuous
 62
     7
370
    25
100
AcDbPolyline
 90
        9
 70
   128
 43
0.0
 10
160.6523901398
 20
84.1224883701
 10
160.6179027992
 20
84.1321568954
 10
160.5763895611
 20
84.1437956336
 10
160.5286001402
 20
84.1571936402
 10
160.4753974068
 20
84.1721092369
 10
160.4177410889
 20
84.1882737372
 10
160.3566728707
 20
84.20539424
 10
160.2932949725
 20
84.2231629435
 10
160.2287519898
 20
84.2412576098
  0
SPLINE
  5
BF
330
1F
100
AcDbEntity
  8
0
  6
Continuous
 62
     7
370
    25
100
AcDbSpline
210
0.0
220
0.0
230
1.0
 70
     8
 71
     3
 72
    14
 73
    10
 74
     0
 42
0.000000001
 43
0.00000001
 40
0.0
 40
0.0
 40
0.0
 40
0.0
 40
0.2500000000000001
 40
0.2500000000000001
 40
0.5000000000000001
 40
0.5000000000000001
 40
0.75
 40
0.75
 40
1.0
 40
1.0
 40
1.0
 40
1.0
 10
145.6178559567734
 20
84.24125780346822
 30
0.0
 10
145.7204164745975
 20
83.87543523762237
 30
0.0
 10
145.7837294607484
 20
83.4998273221809
 30
0.0
 10
145.8689471239337
 20
82.75082208291222
 30
0.0
 10
145.8908652186122
 20
82.37534142526322
 30
0.0
 10
145.9166384743919
 20
81.62352628654808
 30
0.0
 10
145.9204019598565
 20
81.24718747203272
 30
0.0
 10
145.9237133079624
 20
80.49431057318414
 30
0.0
 10
145.9233040462428
 20
80.11777451555518
 30
0.0
 10
145.9233040462428
 20
79.7412578034682
 30
0.0
  0
LWPOLYLINE
  5
C0
330
1F
100
AcDbEntity
  8
0
  6
Continuous
 62
     7
370
    25
100
AcDbPolyline
 90
        9
 70
   128
 43
0.0
 10
145.6178561027
 20
84.2412576098
 10
145.55331312
 20
84.2231629435
 10
145.4899352218
 20
84.20539424
 10
145.4288670036
 20
84.1882737372
 10
145.3712106857
 20
84.1721092369
 10
145.3180079523
 20
84.1571936402
 10
145.2702185313
 20
84.1437956336
 10
145.2287052932
 20
84.1321568954
 10
145.1942179526
 20
84.1224883701
  0
SPLINE
  5
C1
330
1F
100
AcDbEntity
  8
0
  6
Continuous
 62
     7
370
    25
100
AcDbSpline
210
0.0
220
0.0
230
1.0
 70
     8
 71
     3
 72
    14
 73
    10
 74
     0
 42
0.000000001
 43
0.00000001
 40
0.0
 40
0.0
 40
0.0
 40
0.0
 40
0.25
 40
0.25
 40
0.5
 40
0.5
 40
0.75
 40
0.75
 40
1.0
 40
1.0
 40
1.0
 40
1.0
 10
145.7937025467042
 20
74.74125780346822
 30
0.0
 10
145.7552270630826
 20
74.74125780346822
 30
0.0
 10
145.7141381416126
 20
74.75204437445144
 30
0.0
 10
145.634855294172
 20
74.79497616151659
 30
0.0
 10
145.5975723930616
 20
74.82639366982147
 30
0.0
 10
145.5447666337498
 20
74.91770851539768
 30
0.0
 10
145.5327973736562
 20
74.97893899816194
 30
0.0
 10
145.5527991620284
 20
75.10980235881767
 30
0.0
 10
145.5822556175806
 20
75.17776647315526
 30
0.0
 10
145.6178559567734
 20
75.24125780346822
 30
0.0
  0
ARC
  5
C2
330
1F
100
AcDbEntity
  8
0
  6
Continuous
 62
     7
370
    25
100
AcDbCircle
 10
145.8022512904
 20
74.2578880803
 30
0.0
 40
0.4834454273381065
100
AcDbArc
 50
91.0132315313
 51
170.0324555796
  0
SPLINE
  5
C3
330
1F
100
AcDbEntity
  8
0
  6
Continuous
 62
     7
370
    25
100
AcDbSpline
210
0.0
220
0.0
230
1.0
 70
     8
 71
     3
 72
    14
 73
    10
 74
     0
 42
0.000000001
 43
0.00000001
 40
0.0
 40
0.0
 40
0.0
 40
0.0
 40
0.25
 40
0.25
 40
0.5
 40
0.5
 40
0.75
 40
0.75
 40
1.0
 40
1.0
 40
1.0
 40
1.0
 10
160.0529055457814
 20
84.74125780346823
 30
0.0
 10
160.091381029403
 20
84.74125780346823
 30
0.0
 10
160.132469950873
 20
84.730471232485
 30
0.0
 10
160.2117527983135
 20
84.68753944541984
 30
0.0
 10
160.249035699424
 20
84.65612193711497
 30
0.0
 10
160.3018414587358
 20
84.56480709153875
 30
0.0
 10
160.3138107188294
 20
84.5035766087745
 30
0.0
 10
160.2938089304573
 20
84.37271324811877
 30
0.0
 10
160.2643524749049
 20
84.30474913378119
 30
0.0
 10
160.2287521357122
 20
84.24125780346822
 30
0.0
  0
ARC
  5
C4
330
1F
100
AcDbEntity
  8
0
  6
Continuous
 62
     7
370
    25
100
AcDbCircle
 10
160.0443568021
 20
85.2246275266
 30
0.0
 40
0.4834454273380945
100
AcDbArc
 50
271.0132315312
 51
350.0324555796
  0
SPLINE
  5
C5
330
1F
100
AcDbEntity
  8
0
  6
Continuous
 62
     7
370
    25
100
AcDbSpline
210
0.0
220
0.0
230
1.0
 70
     8
 71
     3
 72
    16
 73
    12
 74
     0
 42
0.000000001
 43
0.00000001
 40
0.0
 40
0.0
 40
0.0
 40
0.0
 40
0.2500000000000049
 40
0.2500000000000049
 40
0.3750000000000051
 40
0.3750000000000051
 40
0.5000000000000052
 40
0.5000000000000052
 40
0.7500000000000026
 40
0.7500000000000026
 40
1.0
 40
1.0
 40
1.0
 40
1.0
 10
145.6178559567734
 20
84.24125780346822
 30
0.0
 10
145.5823020273247
 20
84.30466636444642
 30
0.0
 10
145.5530298860961
 20
84.37193366476724
 30
0.0
 10
145.5378173358752
 20
84.47037297590958
 30
0.0
 10
145.5377566677016
 20
84.50284838226486
 30
0.0
 10
145.547967252179
 20
84.56147358939106
 30
0.0
 10
145.5577505817042
 20
84.58709640094405
 30
0.0
 10
145.5969151302361
 20
84.6553052446395
 30
0.0
 10
145.6347882035094
 20
84.68746799980526
 30
0.0
 10
145.713861176501
 20
84.73035621892116
 30
0.0
 10
145.7552483090918
 20
84.74125780346823
 30
0.0
 10
145.7937025467042
 20
84.74125780346823
 30
0.0
  0
ARC
  5
C6
330
1F
100
AcDbEntity
  8
0
  6
Continuous
 62
     7
370
    25
100
AcDbCircle
 10
145.8022512904
 20
85.2246275266
 30
0.0
 40
0.4834454273381065
100
AcDbArc
 50
189.9675444204
 51
268.9867684687
  0
ARC
  5
C7
330
1F
100
AcDbEntity
  8
0
  6
Continuous
 62
     7
370
    25
100
AcDbCircle
 10
160.0443568021
 20
74.2578880803
 30
0.0
 40
0.4834454273380945
100
AcDbArc
 50
9.9675444204
 51
88.9867684688
  0
SPLINE
  5
C8
330
1F
100
AcDbEntity
  8
0
  6
Continuous
 62
     7
370
    25
100
AcDbSpline
210
0.0
220
0.0
230
1.0
 70
     8
 71
     3
 72
    16
 73
    12
 74
     0
 42
0.000000001
 43
0.00000001
 40
0.0
 40
0.0
 40
0.0
 40
0.0
 40
0.2499999999999999
 40
0.2499999999999999
 40
0.3750000000000003
 40
0.3750000000000003
 40
0.5000000000000007
 40
0.5000000000000007
 40
0.7500000000000003
 40
0.7500000000000003
 40
1.0
 40
1.0
 40
1.0
 40
1.0
 10
160.2287521357122
 20
75.24125780346822
 30
0.0
 10
160.2643060651608
 20
75.17784924249001
 30
0.0
 10
160.2935782063895
 20
75.11058194216922
 30
0.0
 10
160.3087907566104
 20
75.01214263102688
 30
0.0
 10
160.3088514247839
 20
74.97966722467159
 30
0.0
 10
160.2986408403066
 20
74.92104201754537
 30
0.0
 10
160.2888575107814
 20
74.8954192059924
 30
0.0
 10
160.2496929622494
 20
74.82721036229695
 30
0.0
 10
160.2118198889762
 20
74.79504760713117
 30
0.0
 10
160.1327469159846
 20
74.75215938801529
 30
0.0
 10
160.0913597833938
 20
74.74125780346822
 30
0.0
 10
160.0529055457814
 20
74.74125780346822
 30
0.0
  0
LINE
  5
C9
330
1F
100
AcDbEntity
  8
0
  6
Continuous
 62
     7
370
    25
100
AcDbLine
 10
160.0529057148
 20
74.7412579152
 30
0.0
 11
145.7937023777
 21
74.7412579152
 31
0.0
  0
LINE
  5
CA
330
1F
100
AcDbEntity
  8
0
  6
Continuous
 62
     7
370
    25
100
AcDbLine
 10
145.6178561027
 20
75.2412579972
 30
0.0
 11
160.2287519898
 21
75.2412579972
 31
0.0
  0
ARC
  5
CB
330
1F
100
AcDbEntity
  8
0
  6
Continuous
 62
     7
370
    25
100
AcDbCircle
 10
154.112954455
 20
78.936211663
 30
0.0
 40
0.7111999999997725
100
AcDbArc
 50
45.0
 51
315.0
  0
ARC
  5
CC
330
1F
100
AcDbEntity
  8
0
  6
Continuous
 62
     7
370
    25
100
AcDbCircle
 10
154.112954455
 20
78.936211663
 30
0.0
 40
1.239109388553836
100
AcDbArc
 50
45.0
 51
315.0
  0
ARC
  5
CD
330
1F
100
AcDbEntity
  8
0
  6
Continuous
 62
     7
370
    25
100
AcDbCircle
 10
156.7866701321
 20
78.936211663
 30
0.0
 40
0.7112000000000946
100
AcDbArc
 50
200.9248324276
 51
315.0
  0
LINE
  5
CE
330
1F
100
AcDbEntity
  8
0
  6
Continuous
 62
     7
370
    25
100
AcDbLine
 10
157.6628525916
 20
79.1902116402
 30
0.0
 11
156.1223740398
 21
79.1902116402
 31
0.0
  0
LINE
  5
CF
330
1F
100
AcDbEntity
  8
0
  6
Continuous
 62
     7
370
    25
100
AcDbLine
 10
157.2895645338
 20
79.4391059975
 30
0.0
 11
157.6628525916
 21
79.8123943172
 31
0.0
  0
LINE
  5
D0
330
1F
100
AcDbEntity
  8
0
  6
Continuous
 62
     7
370
    25
100
AcDbLine
 10
157.6628525916
 20
78.0600290531
 30
0.0
 11
157.2895645338
 21
78.4333173437
 31
0.0
  0
ELLIPSE
  5
D1
330
1F
100
AcDbEntity
  8
0
  6
Continuous
 62
     7
370
    25
100
AcDbEllipse
 10
149.8722999086
 20
76.0947309195
 30
0.0
 11
2.293035763987575
 21
-1.065814103640150E-12
 31
0.0
210
0.0
220
0.0
230
1.0
 40
0.9533039403
 41
0.8210019969646007
 42
2.320590656625134
  0
ELLIPSE
  5
D2
330
1F
100
AcDbEntity
  8
0
  6
Continuous
 62
     7
370
    25
100
AcDbEllipse
 10
151.4812099051
 20
77.7418098159
 30
0.0
 11
0.06784129479237322
 21
0.0
 31
0.0
210
0.0
220
0.0
230
1.0
 40
0.9533039403
 41
3.962594650555098
 42
5.819537698174755
  0
LINE
  5
D3
330
1F
100
AcDbEntity
  8
0
  6
Continuous
 62
     7
370
    25
100
AcDbLine
 10
151.5418889874
 20
77.7128870617
 30
0.0
 11
152.1789039077
 21
78.9274246566
 31
0.0
  0
LINE
  5
D4
330
1F
100
AcDbEntity
  8
0
  6
Continuous
 62
     7
370
    25
100
AcDbLine
 10
152.1789039077
 20
78.9274246566
 30
0.0
 11
152.145583689
 21
78.9083807398
 31
0.0
  0
LINE
  5
D5
330
1F
100
AcDbEntity
  8
0
  6
Continuous
 62
     7
370
    25
100
AcDbLine
 10
151.3528093171
 20
79.1851794132
 30
0.0
 11
150.3450855787
 21
82.0031357947
 31
0.0
  0
LINE
  5
D6
330
1F
100
AcDbEntity
  8
0
  6
Continuous
 62
     7
370
    25
100
AcDbLine
 10
149.3995142344
 20
82.0031357947
 30
0.0
 11
148.3920253056
 21
79.1858361121
 31
0.0
  0
ELLIPSE
  5
D7
330
1F
100
AcDbEntity
  8
0
  6
Continuous
 62
     7
370
    25
100
AcDbEllipse
 10
147.8783255212
 20
79.3527834053
 30
0.0
 11
-0.5427303583406342
 21
3.552713678800501E-13
 31
0.0
210
0.0
220
0.0
230
1.0
 40
0.9533039403
 41
1.047197551196544
 42
2.813039483039298
  0
LINE
  5
D8
330
1F
100
AcDbEntity
  8
0
  6
Continuous
 62
     7
370
    25
100
AcDbLine
 10
147.5656958471
 20
78.9274246566
 30
0.0
 11
148.2027107093
 21
77.7128870617
 31
0.0
  0
ELLIPSE
  5
D9
330
1F
100
AcDbEntity
  8
0
  6
Continuous
 62
     7
370
    25
100
AcDbEllipse
 10
148.263389912
 20
77.7418098159
 30
0.0
 11
0.06784129479237322
 21
0.0
 31
0.0
210
0.0
220
0.0
230
1.0
 40
0.9533039403
 41
3.605240262580709
 42
5.462183310226406
  0
LINE
  5
DA
330
1F
100
AcDbEntity
  8
0
  6
Continuous
 62
     7
370
    25
100
AcDbLine
 10
160.2287519898
 20
84.2412576098
 30
0.0
 11
145.6178561027
 21
84.2412576098
 31
0.0
  0
ARC
  5
DB
330
1F
100
AcDbEntity
  8
0
  6
Continuous
 62
     7
370
    25
100
AcDbCircle
 10
156.7866701321
 20
78.936211663
 30
0.0
 40
0.7112000000000337
100
AcDbArc
 50
45.0
 51
159.0751675723
  0
LINE
  5
DC
330
1F
100
AcDbEntity
  8
0
  6
Continuous
 62
     7
370
    25
100
AcDbLine
 10
147.6069604221
 20
78.9047131333
 30
0.0
 11
147.5656958471
 21
78.9274246566
 31
0.0
  0
LINE
  5
DD
330
1F
100
AcDbEntity
  8
0
  6
Continuous
 62
     7
370
    25
100
AcDbLine
 10
156.1223740398
 20
78.6822116719
 30
0.0
 11
157.6628525916
 21
78.6822116719
 31
0.0
  0
LINE
  5
DE
330
1F
100
AcDbEntity
  8
0
  6
Continuous
 62
     7
370
    25
100
AcDbLine
 10
154.6158488316
 20
79.4391059975
 30
0.0
 11
154.9891370057
 21
79.8123943172
 31
0.0
  0
ELLIPSE
  5
DF
330
1F
100
AcDbEntity
  8
0
  6
Continuous
 62
     7
370
    25
100
AcDbEllipse
 10
151.8665091325
 20
79.3521267182
 30
0.0
 11
0.5427303583402932
 21
3.410605131648481E-13
 31
0.0
210
0.0
220
0.0
230
1.0
 40
0.9533039404
 41
3.470145824142453
 42
5.252469180527948
  0
ARC
  5
E0
330
1F
100
AcDbEntity
  8
0
  6
Continuous
 62
     7
370
    25
100
AcDbCircle
 10
156.7866701321
 20
78.936211663
 30
0.0
 40
1.239109388553847
100
AcDbArc
 50
45.0
 51
315.0
  0
LINE
  5
E1
330
1F
100
AcDbEntity
  8
0
  6
Continuous
 62
     7
370
    25
100
AcDbLine
 10
154.9891370057
 20
78.0600290531
 30
0.0
 11
154.6158488316
 21
78.4333173437
 31
0.0
  0
ELLIPSE
  5
E2
330
1F
100
AcDbEntity
  8
0
  6
Continuous
 62
     7
370
    25
100
AcDbEllipse
 10
149.8722999086
 20
81.7932635547
 30
0.0
 11
0.5215299537176747
 21
0.0
 31
0.0
210
0.0
220
0.0
230
1.0
 40
0.9533039403
 41
0.4357918987553227
 42
2.70580075483445
  0
LINE
  5
E3
330
1F
100
AcDbEntity
  8
0
  6
Continuous
 62
     7
370
    25
100
AcDbLine
 10
157.6628525916
 20
78.6822116719
 30
0.0
 11
157.6628525916
 21
79.1902116402
 31
0.0
  0
LINE
  5
E4
330
1F
100
AcDbEntity
  8
0
  6
Continuous
 62
     7
370
    25
100
AcDbLine
 10
145.7937023777
 20
84.7412576917
 30
0.0
 11
160.0529057148
 21
84.7412576917
 31
0.0
  0
ELLIPSE
  5
E5
330
1F
100
AcDbEntity
  8
0
  6
Continuous
 62
     7
370
    25
100
AcDbEllipse
 10
149.6293605652
 20
79.2507915533
 30
0.0
 11
0.06784129479237322
 21
0.0
 31
0.0
210
0.0
220
0.0
230
1.0
 40
0.9533039403
 41
2.798568711307392
 42
4.712388980384703
  0
ELLIPSE
  5
E6
330
1F
100
AcDbEntity
  8
0
  6
Continuous
 62
     7
370
    25
100
AcDbEllipse
 10
149.8722999102
 20
79.8992576469
 30
0.0
 11
0.06784129479268586
 21
0.0
 31
0.0
210
0.0
220
0.0
230
1.0
 40
0.9533039403
 41
0.3430239385580274
 42
2.798568711309146
  0
LINE
  5
E7
330
1F
100
AcDbEntity
  8
0
  6
Continuous
 62
     7
370
    25
100
AcDbLine
 10
150.1791283197
 20
79.2725435534
 30
0.0
 11
149.936188868
 21
79.9210096524
 31
0.0
  0
LINE
  5
E8
330
1F
100
AcDbEntity
  8
0
  6
Continuous
 62
     7
370
    25
100
AcDbLine
 10
149.6293604548
 20
79.1861181864
 30
0.0
 11
150.1152393582
 21
79.1861181864
 31
0.0
  0
LINE
  5
E9
330
1F
100
AcDbEntity
  8
0
  6
Continuous
 62
     7
370
    25
100
AcDbLine
 10
149.8084109451
 20
79.9210096524
 30
0.0
 11
149.5654714934
 21
79.2725435534
 31
0.0
  0
ELLIPSE
  5
EA
330
1F
100
AcDbEntity
  8
0
  6
Continuous
 62
     7
370
    25
100
AcDbEllipse
 10
150.1152392523
 20
79.2507915533
 30
0.0
 11
-0.0678412947923448
 21
0.0
 31
0.0
210
0.0
220
0.0
230
1.0
 40
0.9533039403
 41
1.570796326794897
 42
3.484616592149316
  0
ARC
  5
EB
330
1F
100
AcDbEntity
  8
0
  6
Continuous
 62
     7
370
    25
100
AcDbCircle
 10
159.9233040462
 20
74.2412578035
 30
0.0
 40
0.5
100
AcDbArc
 50
0.0
 51
90.0
  0
ARC
  5
EC
330
1F
100
AcDbEntity
  8
0
  6
Continuous
 62
     7
370
    25
100
AcDbCircle
 10
145.9233040462
 20
74.2412578035
 30
0.0
 40
0.5000000000000284
100
AcDbArc
 50
90.0
 51
180.0
  0
ARC
  5
ED
330
1F
100
AcDbEntity
  8
0
  6
Continuous
 62
     7
370
    25
100
AcDbCircle
 10
145.9233040462
 20
85.2412578035
 30
0.0
 40
0.5000000000000284
100
AcDbArc
 50
180.0
 51
270.0
  0
ARC
  5
EE
330
1F
100
AcDbEntity
  8
0
  6
Continuous
 62
     7
370
    25
100
AcDbCircle
 10
159.9233040462
 20
85.2412578035
 30
0.0
 40
0.5
100
AcDbArc
 50
270.0
 51
0.0
  0
LWPOLYLINE
  5
EF
330
1F
100
AcDbEntity
  8
0
  6
Continuous
 62
     7
370
    25
100
AcDbPolyline
 90
        9
 70
   128
 43
0.0
 10
159.9233042623
 20
84.9357024785
 10
160.0208491261
 20
84.941573536
 10
160.1146458822
 20
84.9589613284
 10
160.201089381
 20
84.9871976319
 10
160.2768575947
 20
85.0251974556
 10
160.3390387434
 20
85.0715000201
 10
160.3852439846
 20
85.1243269648
 10
160.4136968206
 20
85.1816470753
 10
160.4233038786
 20
85.2412577737
  0
LINE
  5
F0
330
1F
100
AcDbEntity
  8
0
  6
Continuous
 62
     7
370
    25
100
AcDbLine
 10
159.9233042623
 20
84.7412576917
 30
0.0
 11
159.9233042623
 21
84.9357024785
 31
0.0
  0
LWPOLYLINE
  5
F1
330
1F
100
AcDbEntity
  8
0
  6
Continuous
 62
     7
370
    25
100
AcDbPolyline
 90
        9
 70
   128
 43
0.0
 10
145.4233042139
 20
85.2412577737
 10
145.4329112719
 20
85.1816470753
 10
145.4613641079
 20
85.1243269648
 10
145.5075693491
 20
85.0715000201
 10
145.5697504978
 20
85.0251974556
 10
145.6455187115
 20
84.9871976319
 10
145.7319622102
 20
84.9589613284
 10
145.8257589664
 20
84.941573536
 10
145.9233038302
 20
84.9357024785
  0
LWPOLYLINE
  5
F2
330
1F
100
AcDbEntity
  8
0
  6
Continuous
 62
     7
370
    25
100
AcDbPolyline
 90
        9
 70
   128
 43
0.0
 10
145.9233038302
 20
74.5468131285
 10
145.8257589664
 20
74.540942071
 10
145.7319622102
 20
74.5235542785
 10
145.6455187115
 20
74.495317975
 10
145.5697504978
 20
74.4573181513
 10
145.5075693491
 20
74.4110155869
 10
145.4613641079
 20
74.3581886421
 10
145.4329112719
 20
74.3008685316
 10
145.4233042139
 20
74.2412578333
  0
LINE
  5
F3
330
1F
100
AcDbEntity
  8
0
  6
Continuous
 62
     7
370
    25
100
AcDbLine
 10
145.9233038302
 20
84.7412576917
 30
0.0
 11
145.9233038302
 21
84.9357024785
 31
0.0
  0
LINE
  5
F4
330
1F
100
AcDbEntity
  8
0
  6
Continuous
 62
     7
370
    25
100
AcDbLine
 10
159.9233042623
 20
74.5468131285
 30
0.0
 11
145.9233038302
 21
74.5468131285
 31
0.0
  0
LINE
  5
F5
330
1F
100
AcDbEntity
  8
0
  6
Continuous
 62
     7
370
    25
100
AcDbLine
 10
145.9233038302
 20
74.5468131285
 30
0.0
 11
145.9233038302
 21
74.7412579152
 31
0.0
  0
LINE
  5
F6
330
1F
100
AcDbEntity
  8
0
  6
Continuous
 62
     7
370
    25
100
AcDbLine
 10
159.9233042623
 20
74.5468131285
 30
0.0
 11
159.9233042623
 21
74.7412579152
 31
0.0
  0
LWPOLYLINE
  5
F7
330
1F
100
AcDbEntity
  8
0
  6
Continuous
 62
     7
370
    25
100
AcDbPolyline
 90
        9
 70
   128
 43
0.0
 10
160.4233038786
 20
74.2412578333
 10
160.4136968206
 20
74.3008685316
 10
160.3852439846
 20
74.3581886421
 10
160.3390387434
 20
74.4110155869
 10
160.2768575947
 20
74.4573181513
 10
160.201089381
 20
74.495317975
 10
160.1146458822
 20
74.5235542785
 10
160.0208491261
 20
74.540942071
 10
159.9233042623
 20
74.5468131285
  0
LINE
  5
F8
330
1F
100
AcDbEntity
  8
0
  6
Continuous
 62
     7
370
    25
100
AcDbLine
 10
145.9233038302
 20
84.9357024785
 30
0.0
 11
159.9233042623
 21
84.9357024785
 31
0.0
  0
SPLINE
  5
F9
330
1F
100
AcDbEntity
  8
0
  6
Continuous
 62
     7
370
    25
100
AcDbSpline
210
0.0
220
0.0
230
1.0
 70
    11
 71
     3
 72
    26
 73
    22
 74
     0
 42
0.000000001
 43
0.00000001
 40
0.0
 40
0.0
 40
0.0
 40
0.0
 40
0.125
 40
0.125
 40
0.1875
 40
0.1875
 40
0.25
 40
0.25
 40
0.3125
 40
0.3125
 40
0.375
 40
0.375
 40
0.5
 40
0.5
 40
0.625
 40
0.625
 40
0.75
 40
0.75
 40
0.875
 40
0.875
 40
1.0
 40
1.0
 40
1.0
 40
1.0
 10
153.4366230150912
 20
87.74125780346823
 30
0.0
 10
153.4366230150912
 20
87.88037683469705
 30
0.0
 10
153.3838270439422
 20
88.01610453767253
 30
0.0
 10
153.2423714540649
 20
88.1691232741683
 30
0.0
 10
153.185817517693
 20
88.21062617518884
 30
0.0
 10
153.0602733662496
 20
88.2678260689825
 30
0.0
 10
152.9911217531416
 20
88.28311005772684
 30
0.0
 10
152.8539633783981
 20
88.2828891839632
 30
0.0
 10
152.784848795592
 20
88.26732912267555
 30
0.0
 10
152.6600890269609
 20
88.21012328818153
 30
0.0
 10
152.6034579386264
 20
88.16837186091459
 30
0.0
 10
152.4633443121035
 20
88.01653099263115
 30
0.0
 10
152.4100237781569
 20
87.88047866536327
 30
0.0
 10
152.4099464195808
 20
87.60234597165991
 30
0.0
 10
152.4636348016025
 20
87.46554396163992
 30
0.0
 10
152.6503296159102
 20
87.26347515797487
 30
0.0
 10
152.7862108252737
 20
87.19930539828933
 30
0.0
 10
153.0618419593122
 20
87.19972645109033
 30
0.0
 10
153.1968169977259
 20
87.26399513351365
 30
0.0
 10
153.3826644747919
 20
87.46527268473777
 30
0.0
 10
153.4366230150912
 20
87.60213877223941
 30
0.0
 10
153.4366230150912
 20
87.74125780346823
 30
0.0
  0
SPLINE
  5
FA
330
1F
100
AcDbEntity
  8
0
  6
Continuous
 62
     7
370
    25
100
AcDbSpline
210
0.0
220
0.0
230
1.0
 70
    11
 71
     3
 72
    38
 73
    34
 74
     0
 42
0.000000001
 43
0.00000001
 40
0.0
 40
0.0
 40
0.0
 40
0.0
 40
0.0625
 40
0.0625
 40
0.125
 40
0.125
 40
0.1874999999999999
 40
0.1874999999999999
 40
0.2499999999999999
 40
0.2499999999999999
 40
0.3125
 40
0.3125
 40
0.375
 40
0.375
 40
0.4375000000000001
 40
0.4375000000000001
 40
0.5000000000000001
 40
0.5000000000000001
 40
0.5625000000000001
 40
0.5625000000000001
 40
0.6250000000000001
 40
0.6250000000000001
 40
0.6875000000000001
 40
0.6875000000000001
 40
0.75
 40
0.75
 40
0.8125
 40
0.8125
 40
0.875
 40
0.875
 40
0.9375
 40
0.9375
 40
1.0
 40
1.0
 40
1.0
 40
1.0
 10
151.9233040462428
 20
87.74125780346823
 30
0.0
 10
151.9233040462428
 20
87.60887188855791
 30
0.0
 10
151.9494525973856
 20
87.47898456207922
 30
0.0
 10
152.0499182668434
 20
87.23690556749334
 30
0.0
 10
152.12420313324
 20
87.12612421343732
 30
0.0
 10
152.3083523129747
 20
86.94201693333154
 30
0.0
 10
152.419727935569
 20
86.86754826203557
 30
0.0
 10
152.6602764401028
 20
86.76772108590686
 30
0.0
 10
152.7920343360903
 20
86.74133316583355
 30
0.0
 10
153.0534230282541
 20
86.74118277214673
 30
0.0
 10
153.1845950988458
 20
86.76712259255677
 30
0.0
 10
153.4270327848456
 20
86.86749022498205
 30
0.0
 10
153.5370869529951
 20
86.94087912812728
 30
0.0
 10
153.723340270406
 20
87.12702859495681
 30
0.0
 10
153.7967665982992
 20
87.23706711235683
 30
0.0
 10
153.897131345928
 20
87.4789498294455
 30
0.0
 10
153.9232526102242
 20
87.61022434795682
 30
0.0
 10
153.9233553277095
 20
87.87150499732934
 30
0.0
 10
153.8971116996158
 20
88.00332040084226
 30
0.0
 10
153.7974433428176
 20
88.24410831892372
 30
0.0
 10
153.7231625508491
 20
88.35544052032172
 30
0.0
 10
153.5389758104155
 20
88.53997071551673
 30
0.0
 10
153.4285522363529
 20
88.6141570447905
 30
0.0
 10
153.186167521113
 20
88.71497830376066
 30
0.0
 10
153.0562433415465
 20
88.74115253306569
 30
0.0
 10
152.7919532320296
 20
88.74136244305261
 30
0.0
 10
152.6617194733676
 20
88.71527472068944
 30
0.0
 10
152.4198268021969
 20
88.61512627671082
 30
0.0
 10
152.3088108767903
 20
88.54083998154567
 30
0.0
 10
152.1246431408103
 20
88.3569478821089
 30
0.0
 10
152.0500444693082
 20
88.24561773155486
 30
0.0
 10
151.9499936557631
 20
88.00512919174625
 30
0.0
 10
151.9233040462428
 20
87.87364371837853
 30
0.0
 10
151.9233040462428
 20
87.74125780346822
 30
0.0
  0
LINE
  5
FB
330
1F
100
AcDbEntity
  8
0
  6
Continuous
 62
     7
370
    25
100
AcDbLine
 10
171.568355913
 20
79.7412578035
 30
0.0
 11
171.568355913
 21
74.9589783158
 31
0.0
  0
LINE
  5
FC
330
1F
100
AcDbEntity
  8
0
  6
Continuous
 62
     7
370
    25
100
AcDbLine
 10
171.568355913
 20
84.5235372912
 30
0.0
 11
171.568355913
 21
79.7412578035
 31
0.0
  0
LINE
  5
FD
330
1F
100
AcDbEntity
  8
0
  6
Continuous
 62
     7
370
    25
100
AcDbLine
 10
172.9233035992
 20
83.7412579935
 30
0.0
 11
172.9233035992
 21
75.7412576135
 31
0.0
  0
SPLINE
  5
FE
330
1F
100
AcDbEntity
  8
0
  6
Continuous
 62
     7
370
    25
100
AcDbSpline
210
0.0
220
0.0
230
1.0
 70
     8
 71
     3
 72
    15
 73
    11
 74
     0
 42
0.000000001
 43
0.00000001
 40
0.0
 40
0.0
 40
0.0
 40
0.0
 40
0.0081668554937291
 40
0.3321941846999776
 40
0.4756279332062201
 40
0.6866839627273442
 40
0.8457444903091523
 40
0.8967583891412989
 40
0.9909563331444947
 40
1.0
 40
1.0
 40
1.0
 40
1.0
 10
147.8242845448845
 20
107.0912569779439
 30
0.0
 10
147.8237969812034
 20
107.0912545780846
 30
0.0
 10
147.8039648904247
 20
107.0911569616521
 30
0.0
 10
147.7756856969068
 20
107.0815976930811
 30
0.0
 10
147.7378555286243
 20
107.0442398531403
 30
0.0
 10
147.7112725158196
 20
106.9993717574584
 30
0.0
 10
147.6941015201788
 20
106.9414961905801
 30
0.0
 10
147.6862852974432
 20
106.8908194818416
 30
0.0
 10
147.6842902116544
 20
106.8621254977077
 30
0.0
 10
147.6842245074362
 20
106.8429390144545
 30
0.0
 10
147.6842187519365
 20
106.8412583339496
 30
0.0
  0
LINE
  5
FF
330
1F
100
AcDbEntity
  8
0
  6
Continuous
 62
     7
370
    25
100
AcDbLine
 10
147.8242845449
 20
107.0912569779
 30
0.0
 11
158.0223235476
 21
107.0912569779
 31
0.0
  0
SPLINE
  5
100
330
1F
100
AcDbEntity
  8
0
  6
Continuous
 62
     7
370
    25
100
AcDbSpline
210
0.0
220
0.0
230
1.0
 70
     8
 71
     3
 72
    15
 73
    11
 74
     0
 42
0.000000001
 43
0.00000001
 40
0.0
 40
0.0
 40
0.0
 40
0.0
 40
0.0090436668555053
 40
0.1032416108587011
 40
0.1542555096908477
 40
0.3133160372726557
 40
0.5243720667937798
 40
0.6678058153000223
 40
0.9918331445062708
 40
0.9999999999999999
 40
0.9999999999999999
 40
0.9999999999999999
 40
0.9999999999999999
 10
158.1623893405491
 20
106.8412583339496
 30
0.0
 10
158.1623835850494
 20
106.8429390144545
 30
0.0
 10
158.1623178808312
 20
106.8621254977078
 30
0.0
 10
158.1603227950424
 20
106.8908194818416
 30
0.0
 10
158.1525065723068
 20
106.9414961905801
 30
0.0
 10
158.135335576666
 20
106.9993717574584
 30
0.0
 10
158.1087525638613
 20
107.0442398531403
 30
0.0
 10
158.0709223955788
 20
107.0815976930811
 30
0.0
 10
158.0426432020609
 20
107.091156961652
 30
0.0
 10
158.0228111112821
 20
107.0912545780846
 30
0.0
 10
158.0223235476011
 20
107.0912569779439
 30
0.0
  0
LINE
  5
101
330
1F
100
AcDbEntity
  8
0
  6
Continuous
 62
     7
370
    25
100
AcDbLine
 10
158.1623893405
 20
106.8412583339
 30
0.0
 11
147.6842187519
 21
106.8412583339
 31
0.0
  0
LINE
  5
102
330
1F
100
AcDbEntity
  8
0
  6
Continuous
 62
     7
370
    25
100
AcDbLine
 10
147.6842187519
 20
106.8412583339
 30
0.0
 11
147.6842187519
 21
106.2412574905
 31
0.0
  0
LINE
  5
103
330
1F
100
AcDbEntity
  8
0
  6
Continuous
 62
     7
370
    25
100
AcDbLine
 10
158.1623893405
 20
106.2412574905
 30
0.0
 11
158.1623893405
 21
106.8412583339
 31
0.0
  0
LINE
  5
104
330
1F
100
AcDbEntity
  8
0
  6
Continuous
 62
     7
370
    25
100
AcDbLine
 10
147.6842187519
 20
106.2412574905
 30
0.0
 11
158.1623893405
 21
106.2412574905
 31
0.0
  0
LINE
  5
105
330
1F
100
AcDbEntity
  8
0
  6
Continuous
 62
     7
370
    25
100
AcDbLine
 10
147.4460786383
 20
106.8412583339
 30
0.0
 11
147.6842187519
 21
106.8412583339
 31
0.0
  0
SPLINE
  5
106
330
1F
100
AcDbEntity
  8
0
  6
Continuous
 62
     7
370
    25
100
AcDbSpline
210
0.0
220
0.0
230
1.0
 70
     8
 71
     3
 72
    15
 73
    11
 74
     0
 42
0.000000001
 43
0.00000001
 40
0.0
 40
0.0
 40
0.0
 40
0.0
 40
0.0089534934608068
 40
0.0998985020501141
 40
0.1531621750630547
 40
0.3125626131158444
 40
0.524966528186016
 40
0.6689889196484162
 40
0.9919154833883785
 40
0.9999999999999999
 40
0.9999999999999999
 40
0.9999999999999999
 40
0.9999999999999999
 10
147.4460786382848
 20
106.8412583339496
 30
0.0
 10
147.4460943019562
 20
106.8429390417629
 30
0.0
 10
147.4462690691928
 20
106.8616915201862
 30
0.0
 10
147.4516997407932
 20
106.8904532808393
 30
0.0
 10
147.4732334308461
 20
106.9413413147035
 30
0.0
 10
147.5209404771387
 20
106.9994760639175
 30
0.0
 10
147.5933302853086
 20
107.0441865602846
 30
0.0
 10
147.695249950875
 20
107.0814638711917
 30
0.0
 10
147.770606070392
 20
107.0911562319515
 30
0.0
 10
147.8230047744522
 20
107.0912545760175
 30
0.0
 10
147.8242845448845
 20
107.0912569779439
 30
0.0
  0
LINE
  5
107
330
1F
100
AcDbEntity
  8
0
  6
Continuous
 62
     7
370
    25
100
AcDbLine
 10
158.1623893405
 20
106.8412583339
 30
0.0
 11
158.4005294542
 21
106.8412583339
 31
0.0
  0
SPLINE
  5
108
330
1F
100
AcDbEntity
  8
0
  6
Continuous
 62
     7
370
    25
100
AcDbSpline
210
0.0
220
0.0
230
1.0
 70
     8
 71
     3
 72
    15
 73
    11
 74
     0
 42
0.000000001
 43
0.00000001
 40
0.0
 40
0.0
 40
0.0
 40
0.0
 40
0.0080845166116213
 40
0.3310110803515837
 40
0.4750334718139839
 40
0.6874373868841556
 40
0.8468378249369453
 40
0.9001014979498858
 40
0.9910465065391931
 40
0.9999999999999999
 40
0.9999999999999999
 40
0.9999999999999999
 40
0.9999999999999999
 10
158.0223235476011
 20
107.0912569779439
 30
0.0
 10
158.0236033180334
 20
107.0912545760175
 30
0.0
 10
158.0760020220936
 20
107.0911562319516
 30
0.0
 10
158.1513581416106
 20
107.0814638711916
 30
0.0
 10
158.253277807177
 20
107.0441865602847
 30
0.0
 10
158.3256676153469
 20
106.9994760639175
 30
0.0
 10
158.3733746616395
 20
106.9413413147035
 30
0.0
 10
158.3949083516924
 20
106.8904532808393
 30
0.0
 10
158.4003390232928
 20
106.8616915201863
 30
0.0
 10
158.4005137905294
 20
106.8429390417629
 30
0.0
 10
158.4005294542008
 20
106.8412583339496
 30
0.0
  0
LINE
  5
109
330
1F
100
AcDbEntity
  8
0
  6
Continuous
 62
     7
370
    25
100
AcDbLine
 10
147.4460786383
 20
106.2412574905
 30
0.0
 11
147.4460786383
 21
106.8412583339
 31
0.0
  0
LINE
  5
10A
330
1F
100
AcDbEntity
  8
0
  6
Continuous
 62
     7
370
    25
100
AcDbLine
 10
147.6842187519
 20
106.2412574905
 30
0.0
 11
147.4460786383
 21
106.2412574905
 31
0.0
  0
LINE
  5
10B
330
1F
100
AcDbEntity
  8
0
  6
Continuous
 62
     7
370
    25
100
AcDbLine
 10
158.4005294542
 20
106.8412583339
 30
0.0
 11
158.4005294542
 21
106.2412574905
 31
0.0
  0
LINE
  5
10C
330
1F
100
AcDbEntity
  8
0
  6
Continuous
 62
     7
370
    25
100
AcDbLine
 10
158.4005294542
 20
106.2412574905
 30
0.0
 11
158.1623893405
 21
106.2412574905
 31
0.0
  0
LINE
  5
10D
330
1F
100
AcDbEntity
  8
0
  6
Continuous
 62
     7
370
    25
100
AcDbLine
 10
146.9233039941
 20
106.2412574905
 30
0.0
 11
146.9233039941
 21
106.8412583339
 31
0.0
  0
LINE
  5
10E
330
1F
100
AcDbEntity
  8
0
  6
Continuous
 62
     7
370
    25
100
AcDbLine
 10
146.9233039941
 20
106.8412583339
 30
0.0
 11
147.1733040351
 21
106.8412583339
 31
0.0
  0
LINE
  5
10F
330
1F
100
AcDbEntity
  8
0
  6
Continuous
 62
     7
370
    25
100
AcDbLine
 10
147.1733040351
 20
106.8412583339
 30
0.0
 11
147.1733040351
 21
106.2412574905
 31
0.0
  0
LINE
  5
110
330
1F
100
AcDbEntity
  8
0
  6
Continuous
 62
     7
370
    25
100
AcDbLine
 10
147.1733040351
 20
106.2412574905
 30
0.0
 11
146.9233039941
 21
106.2412574905
 31
0.0
  0
ARC
  5
111
330
1F
100
AcDbEntity
  8
0
  6
Continuous
 62
     7
370
    25
100
AcDbCircle
 10
147.1733040462
 20
106.8412578035
 30
0.0
 40
0.25
100
AcDbArc
 50
90.0
 51
180.0
  0
LINE
  5
112
330
1F
100
AcDbEntity
  8
0
  6
Continuous
 62
     7
370
    25
100
AcDbLine
 10
147.1733040351
 20
107.0912569779
 30
0.0
 11
147.1733040351
 21
106.8412583339
 31
0.0
  0
LINE
  5
113
330
1F
100
AcDbEntity
  8
0
  6
Continuous
 62
     7
370
    25
100
AcDbLine
 10
147.4460786383
 20
106.8412583339
 30
0.0
 11
147.1733040351
 21
106.8412583339
 31
0.0
  0
LINE
  5
114
330
1F
100
AcDbEntity
  8
0
  6
Continuous
 62
     7
370
    25
100
AcDbLine
 10
147.4460786383
 20
106.2412574905
 30
0.0
 11
147.1733040351
 21
106.2412574905
 31
0.0
  0
LINE
  5
115
330
1F
100
AcDbEntity
  8
0
  6
Continuous
 62
     7
370
    25
100
AcDbLine
 10
147.1733040351
 20
107.0912569779
 30
0.0
 11
147.8242845449
 21
107.0912569779
 31
0.0
  0
LINE
  5
116
330
1F
100
AcDbEntity
  8
0
  6
Continuous
 62
     7
370
    25
100
AcDbLine
 10
158.6733040574
 20
106.8412583339
 30
0.0
 11
158.6733040574
 21
107.0912569779
 31
0.0
  0
LINE
  5
117
330
1F
100
AcDbEntity
  8
0
  6
Continuous
 62
     7
370
    25
100
AcDbLine
 10
158.6733040574
 20
106.8412583339
 30
0.0
 11
158.4005294542
 21
106.8412583339
 31
0.0
  0
LINE
  5
118
330
1F
100
AcDbEntity
  8
0
  6
Continuous
 62
     7
370
    25
100
AcDbLine
 10
158.0223235476
 20
107.0912569779
 30
0.0
 11
158.6733040574
 21
107.0912569779
 31
0.0
  0
LINE
  5
119
330
1F
100
AcDbEntity
  8
0
  6
Continuous
 62
     7
370
    25
100
AcDbLine
 10
158.6733040574
 20
106.2412574905
 30
0.0
 11
158.6733040574
 21
106.8412583339
 31
0.0
  0
LINE
  5
11A
330
1F
100
AcDbEntity
  8
0
  6
Continuous
 62
     7
370
    25
100
AcDbLine
 10
158.6733040574
 20
106.8412583339
 30
0.0
 11
158.9233040984
 21
106.8412583339
 31
0.0
  0
LINE
  5
11B
330
1F
100
AcDbEntity
  8
0
  6
Continuous
 62
     7
370
    25
100
AcDbLine
 10
158.9233040984
 20
106.8412583339
 30
0.0
 11
158.9233040984
 21
106.2412574905
 31
0.0
  0
LINE
  5
11C
330
1F
100
AcDbEntity
  8
0
  6
Continuous
 62
     7
370
    25
100
AcDbLine
 10
158.9233040984
 20
106.2412574905
 30
0.0
 11
158.6733040574
 21
106.2412574905
 31
0.0
  0
LINE
  5
11D
330
1F
100
AcDbEntity
  8
0
  6
Continuous
 62
     7
370
    25
100
AcDbLine
 10
158.6733040574
 20
106.2412574905
 30
0.0
 11
158.4005294542
 21
106.2412574905
 31
0.0
  0
ARC
  5
11E
330
1F
100
AcDbEntity
  8
0
  6
Continuous
 62
     7
370
    25
100
AcDbCircle
 10
158.6733040462
 20
106.8412578035
 30
0.0
 40
0.25
100
AcDbArc
 50
0.0
 51
90.0
  0
LINE
  5
11F
330
1F
100
AcDbEntity
  8
0
  6
Continuous
 62
     7
370
    25
100
AcDbLine
 10
157.9233039345
 20
107.0912569779
 30
0.0
 11
157.9233039345
 21
107.1012575198
 31
0.0
  0
LINE
  5
120
330
1F
100
AcDbEntity
  8
0
  6
Continuous
 62
     7
370
    25
100
AcDbLine
 10
147.923304158
 20
107.0912569779
 30
0.0
 11
147.923304158
 21
107.1012575198
 31
0.0
  0
LINE
  5
121
330
1F
100
AcDbEntity
  8
0
  6
Continuous
 62
     7
370
    25
100
AcDbLine
 10
147.923304158
 20
107.1012575198
 30
0.0
 11
157.9233039345
 21
107.1012575198
 31
0.0
  0
LINE
  5
122
330
1F
100
AcDbEntity
  8
0
  6
Continuous
 62
     7
370
    25
100
AcDbLine
 10
148.4487572859
 20
98.2412580419
 30
0.0
 11
160.3733039635
 21
98.2412580419
 31
0.0
  0
SPLINE
  5
123
330
1F
100
AcDbEntity
  8
0
  6
Continuous
 62
     7
370
    25
100
AcDbSpline
210
0.0
220
0.0
230
1.0
 70
     8
 71
     3
 72
     9
 73
     5
 74
     0
 42
0.000000001
 43
0.00000001
 40
0.0
 40
0.0
 40
0.0
 40
0.0
 40
0.4978404435797771
 40
1.0
 40
1.0
 40
1.0
 40
1.0
 10
149.2089679639035
 20
99.23600182118844
 30
0.0
 10
149.0726459416546
 20
99.07949054139753
 30
0.0
 10
148.7988192085979
 20
98.7651101373759
 30
0.0
 10
148.5657801008816
 20
98.41637747895079
 30
0.0
 10
148.4487572859221
 20
98.2412580418868
 30
0.0
  0
LINE
  5
124
330
1F
100
AcDbEntity
  8
0
  6
Continuous
 62
     7
370
    25
100
AcDbLine
 10
147.6995017554
 20
106.2412574905
 30
0.0
 11
145.9713633347
 21
99.2360018212
 31
0.0
  0
LINE
  5
125
330
1F
100
AcDbEntity
  8
0
  6
Continuous
 62
     7
370
    25
100
AcDbLine
 10
158.1623893405
 20
106.2412574905
 30
0.0
 11
147.6995017554
 21
106.2412574905
 31
0.0
  0
LINE
  5
126
330
1F
100
AcDbEntity
  8
0
  6
Continuous
 62
     7
370
    25
100
AcDbLine
 10
150.9233039512
 20
90.2412576619
 30
0.0
 11
159.9233042623
 21
90.2412576619
 31
0.0
  0
LINE
  5
127
330
1F
100
AcDbEntity
  8
0
  6
Continuous
 62
     7
370
    25
100
AcDbLine
 10
150.9233039512
 20
90.2790749464
 30
0.0
 11
150.9233039512
 21
90.2412576619
 31
0.0
  0
SPLINE
  5
128
330
1F
100
AcDbEntity
  8
0
  6
Continuous
 62
     7
370
    25
100
AcDbSpline
210
0.0
220
0.0
230
1.0
 70
     8
 71
     3
 72
     9
 73
     5
 74
     0
 42
0.000000001
 43
0.00000001
 40
0.0
 40
0.0
 40
0.0
 40
0.0
 40
0.4875149508301391
 40
1.0
 40
1.0
 40
1.0
 40
1.0
 10
150.7673588755721
 20
90.24125766190718
 30
0.0
 10
150.7936654511204
 20
90.2429852434787
 30
0.0
 10
150.8476260024914
 20
90.24652889187053
 30
0.0
 10
150.897661504527
 20
90.26804715713826
 30
0.0
 10
150.9233039512479
 20
90.27907494637202
 30
0.0
  0
SPLINE
  5
129
330
1F
100
AcDbEntity
  8
0
  6
Continuous
 62
     7
370
    25
100
AcDbSpline
210
0.0
220
0.0
230
1.0
 70
     8
 71
     3
 72
    17
 73
    13
 74
     0
 42
0.000000001
 43
0.00000001
 40
0.0
 40
0.0
 40
0.0
 40
0.0
 40
0.3241697917523345
 40
0.5422758587479237
 40
0.689509089275669
 40
0.7894035981534984
 40
0.8577089567094359
 40
0.9049823628410104
 40
0.9551711781537311
 40
0.9753097815865951
 40
0.991957189245944
 40
1.0
 40
1.0
 40
1.0
 40
1.0
 10
148.4487572859221
 20
98.2412580418868
 30
0.0
 10
148.5914724343963
 20
97.32864438917018
 30
0.0
 10
148.830208373599
 20
95.802011233265
 30
0.0
 10
149.2097961190995
 20
93.87523831589631
 30
0.0
 10
149.5189299681138
 20
92.58760289180384
 30
0.0
 10
149.775043982506
 20
91.72845117584761
 30
0.0
 10
149.9893548382221
 20
91.15498348808838
 30
0.0
 10
150.1925889039456
 20
90.73345112830874
 30
0.0
 10
150.377134869735
 20
90.45295926511376
 30
0.0
 10
150.5632048472958
 20
90.2974090704272
 30
0.0
 10
150.6784162042593
 20
90.24679965428831
 30
0.0
 10
150.7455048311551
 20
90.24261938115698
 30
0.0
 10
150.7673588755721
 20
90.24125766190718
 30
0.0
  0
SPLINE
  5
12A
330
1F
100
AcDbEntity
  8
0
  6
Continuous
 62
     7
370
    25
100
AcDbSpline
210
0.0
220
0.0
230
1.0
 70
     8
 71
     3
 72
    14
 73
    10
 74
     0
 42
0.000000001
 43
0.00000001
 40
0.0
 40
0.0
 40
0.0
 40
0.0
 40
0.1576094553927752
 40
0.315238234353942
 40
0.4726925966125388
 40
0.6301651045756322
 40
0.790731299294198
 40
0.9513051076307096
 40
1.0
 40
1.0
 40
1.0
 40
1.0
 10
146.4233039121324
 20
90.24125766190718
 30
0.0
 10
146.356732855839
 20
90.45475933915418
 30
0.0
 10
146.2235825813666
 20
90.88178886983316
 30
0.0
 10
145.8950164063746
 20
91.46703632934394
 30
0.0
 10
145.4816262336211
 20
91.989190856807
 30
0.0
 10
144.9859514064175
 20
92.43816907088663
 30
0.0
 10
144.4196616441123
 20
92.79745124405859
 30
0.0
 10
143.9434110292064
 20
93.00201698643166
 30
0.0
 10
143.6632163781818
 20
93.08281173120092
 30
0.0
 10
143.5980176727467
 20
93.10161192151736
 30
0.0
  0
LWPOLYLINE
  5
12B
330
1F
100
AcDbEntity
  8
0
  6
Continuous
 62
     7
370
    25
100
AcDbPolyline
 90
        4
 70
   128
 43
0.0
 10
143.5980176727
 20
93.1016119215
 10
141.6806955065
 20
93.6219716463
 10
139.7535320546
 20
94.1450024042
 10
137.8182605083
 20
94.670232946
  0
SPLINE
  5
12C
330
1F
100
AcDbEntity
  8
0
  6
Continuous
 62
     7
370
    25
100
AcDbSpline
210
0.0
220
0.0
230
1.0
 70
     8
 71
     3
 72
    11
 73
     7
 74
     0
 42
0.000000001
 43
0.00000001
 40
0.0
 40
0.0
 40
0.0
 40
0.0
 40
0.2488465959137647
 40
0.4976945924499491
 40
0.7488461206779728
 40
1.0
 40
1.0
 40
1.0
 40
1.0
 10
130.7478672067815
 20
95.99343277695607
 30
0.0
 10
131.3423031560591
 20
95.92390862111147
 30
0.0
 10
132.5311784003717
 20
95.78485991810851
 30
0.0
 10
134.3059027854512
 20
95.48453023206878
 30
0.0
 10
136.0724836852089
 20
95.12262188375267
 30
0.0
 10
137.2363330847813
 20
94.82102972913347
 30
0.0
 10
137.8182605083281
 20
94.67023294600676
 30
0.0
  0
LINE
  5
12D
330
1F
100
AcDbEntity
  8
0
  6
Continuous
 62
     7
370
    25
100
AcDbLine
 10
130.7478672068
 20
95.993432777
 30
0.0
 11
130.7478672068
 21
99.2360018212
 31
0.0
  0
LINE
  5
12E
330
1F
100
AcDbEntity
  8
0
  6
Continuous
 62
     7
370
    25
100
AcDbLine
 10
130.7478672068
 20
99.2360018212
 30
0.0
 11
149.2089679639
 21
99.2360018212
 31
0.0
  0
LINE
  5
12F
330
1F
100
AcDbEntity
  8
0
  6
Continuous
 62
     7
370
    25
100
AcDbLine
 10
150.7673588756
 20
90.2412576619
 30
0.0
 11
146.4233039121
 21
90.2412576619
 31
0.0
  0
LINE
  5
130
330
1F
100
AcDbEntity
  8
0
  6
Continuous
 62
     7
370
    25
100
AcDbLine
 10
150.9233039512
 20
90.2790749464
 30
0.0
 11
150.916504598
 21
90.2412576619
 31
0.0
  0
LINE
  5
131
330
1F
100
AcDbEntity
  8
0
  6
Continuous
 62
     7
370
    25
100
AcDbLine
 10
150.9233039512
 20
90.2412576619
 30
0.0
 11
150.916504598
 21
90.2412576619
 31
0.0
  0
LINE
  5
132
330
1F
100
AcDbEntity
  8
0
  6
Continuous
 62
     7
370
    25
100
AcDbLine
 10
150.916504598
 20
90.2412576619
 30
0.0
 11
150.7673588756
 21
90.2412576619
 31
0.0
  0
LINE
  5
133
330
1F
100
AcDbEntity
  8
0
  6
Continuous
 62
     7
370
    25
100
AcDbLine
 10
112.9233049403
 20
108.2412578184
 30
0.0
 11
130.7478672068
 21
108.2412578184
 31
0.0
  0
LINE
  5
134
330
1F
100
AcDbEntity
  8
0
  6
Continuous
 62
     7
370
    25
100
AcDbLine
 10
130.7478672068
 20
108.2412578184
 30
0.0
 11
130.7478672068
 21
99.2360018212
 31
0.0
  0
LINE
  5
135
330
1F
100
AcDbEntity
  8
0
  6
Continuous
 62
     7
370
    25
100
AcDbLine
 10
126.0316366504
 20
96.2412577141
 30
0.0
 11
117.9233038972
 21
96.2412577141
 31
0.0
  0
ARC
  5
136
330
1F
100
AcDbEntity
  8
0
  6
Continuous
 62
     7
370
    25
100
AcDbCircle
 10
117.9233040462
 20
101.2412578035
 30
0.0
 40
5.000000000000014
100
AcDbArc
 50
180.0
 51
270.0
  0
LINE
  5
137
330
1F
100
AcDbEntity
  8
0
  6
Continuous
 62
     7
370
    25
100
AcDbLine
 10
112.9233049403
 20
101.2412585336
 30
0.0
 11
112.9233049403
 21
108.2412578184
 31
0.0
  0
ARC
  5
138
330
1F
100
AcDbEntity
  8
0
  6
Continuous
 62
     7
370
    25
100
AcDbCircle
 10
126.0316361885
 20
51.2411285493
 30
0.0
 40
45.00012925418374
100
AcDbArc
 50
83.9840777705
 51
90.0
  0
LINE
  5
139
330
1F
100
AcDbEntity
  8
0
  6
Continuous
 62
     7
370
    25
100
AcDbLine
 10
130.7478672068
 20
108.2412578184
 30
0.0
 11
132.9233044933
 21
108.2412578184
 31
0.0
  0
LINE
  5
13A
330
1F
100
AcDbEntity
  8
0
  6
Continuous
 62
     7
370
    25
100
AcDbLine
 10
132.9233044933
 20
108.2412578184
 30
0.0
 11
132.9233044933
 21
106.2602136302
 31
0.0
  0
ARC
  5
13B
330
1F
100
AcDbEntity
  8
0
  6
Continuous
 62
     7
370
    25
100
AcDbCircle
 10
138.9233040462
 20
106.2602133268
 30
0.0
 40
6.000000000000005
100
AcDbArc
 50
180.0
 51
275.5801667845
  0
ARC
  5
13C
330
1F
100
AcDbEntity
  8
0
  6
Continuous
 62
     7
370
    25
100
AcDbCircle
 10
138.534350482
 20
110.2412578035
 30
0.0
 40
10.00000000000848
100
AcDbArc
 50
275.5801667845
 51
336.4218215217
  0
LINE
  5
13D
330
1F
100
AcDbEntity
  8
0
  6
Continuous
 62
     7
370
    25
100
AcDbLine
 10
146.4233039121
 20
90.2412576619
 30
0.0
 11
145.9233038302
 21
90.2412576619
 31
0.0
  0
LINE
  5
13E
330
1F
100
AcDbEntity
  8
0
  6
Continuous
 62
     7
370
    25
100
AcDbLine
 10
147.6842187519
 20
106.2412574905
 30
0.0
 11
147.6995017554
 21
106.2412574905
 31
0.0
  0
LINE
  5
13F
330
1F
100
AcDbEntity
  8
0
  6
Continuous
 62
     7
370
    25
100
AcDbLine
 10
139.923303778
 20
79.7412578035
 30
0.0
 11
139.923303778
 21
87.4912576768
 31
0.0
  0
LINE
  5
140
330
1F
100
AcDbEntity
  8
0
  6
Continuous
 62
     7
370
    25
100
AcDbLine
 10
139.923303778
 20
71.9912579301
 30
0.0
 11
139.923303778
 21
79.7412578035
 31
0.0
  0
LINE
  5
141
330
1F
100
AcDbEntity
  8
0
  6
Continuous
 62
     7
370
    25
100
AcDbLine
 10
140.1733042847
 20
79.7412578035
 30
0.0
 11
140.1733042847
 21
71.7412574235
 31
0.0
  0
LINE
  5
142
330
1F
100
AcDbEntity
  8
0
  6
Continuous
 62
     7
370
    25
100
AcDbLine
 10
140.1733042847
 20
87.7412581834
 30
0.0
 11
140.1733042847
 21
79.7412578035
 31
0.0
  0
LINE
  5
143
330
1F
100
AcDbEntity
  8
0
  6
Continuous
 62
     7
370
    25
100
AcDbLine
 10
122.9233047168
 20
64.7412581387
 30
0.0
 11
118.4233049105
 21
64.7412581387
 31
0.0
  0
LINE
  5
144
330
1F
100
AcDbEntity
  8
0
  6
Continuous
 62
     7
370
    25
100
AcDbLine
 10
127.4233045231
 20
64.7412581387
 30
0.0
 11
122.9233047168
 21
64.7412581387
 31
0.0
  0
SPLINE
  5
145
330
1F
100
AcDbEntity
  8
0
  6
Continuous
 62
     8
370
    25
100
AcDbSpline
210
0.0
220
0.0
230
1.0
 70
     8
 71
     3
 72
    11
 73
     7
 74
     0
 42
0.000000001
 43
0.00000001
 40
0.0
 40
0.0
 40
0.0
 40
0.0
 40
0.1198441334940601
 40
0.3649707355539814
 40
0.6103443370299418
 40
1.0
 40
1.0
 40
1.0
 40
1.0
 10
160.6523901398474
 20
84.12248837011884
 30
0.0
 10
160.6214058577184
 20
83.96700344096186
 30
0.0
 10
160.5270469941717
 20
83.49349299612393
 30
0.0
 10
160.4572646079952
 20
82.68667960994321
 30
0.0
 10
160.4222775149221
 20
81.52083784365335
 30
0.0
 10
160.4240644609403
 20
80.67727291865381
 30
0.0
 10
160.4251609358185
 20
80.15965921403858
 30
0.0
  0
SPLINE
  5
146
330
1F
100
AcDbEntity
  8
0
  6
Continuous
 62
     8
370
    25
100
AcDbSpline
210
0.0
220
0.0
230
1.0
 70
     8
 71
     3
 72
    11
 73
     7
 74
     0
 42
0.000000001
 43
0.00000001
 40
0.0
 40
0.0
 40
0.0
 40
0.0
 40
0.1198441334940601
 40
0.3649707355539814
 40
0.6103443370299418
 40
1.0
 40
1.0
 40
1.0
 40
1.0
 10
145.1942179526382
 20
75.36002723681759
 30
0.0
 10
145.2252022347672
 20
75.51551216597458
 30
0.0
 10
145.3195610983139
 20
75.9890226108125
 30
0.0
 10
145.3893434844904
 20
76.79583599699325
 30
0.0
 10
145.4243305775635
 20
77.96167776328309
 30
0.0
 10
145.4225436315453
 20
78.80524268828263
 30
0.0
 10
145.4214471566671
 20
79.32285639289785
 30
0.0
  0
LINE
  5
147
330
1F
100
AcDbEntity
  8
0
  6
Continuous
 62
     8
370
    25
100
AcDbLine
 10
159.9233042623
 20
84.9357024785
 30
0.0
 11
159.9233042623
 21
88.2412582654
 31
0.0
  0
LINE
  5
148
330
1F
100
AcDbEntity
  8
0
  6
Continuous
 62
     8
370
    25
100
AcDbLine
 10
145.9233038302
 20
88.2412582654
 30
0.0
 11
145.9233038302
 21
84.9357024785
 31
0.0
  0
LINE
  5
149
330
1F
100
AcDbEntity
  8
0
  6
Continuous
 62
     8
370
    25
100
AcDbLine
 10
145.9233038302
 20
74.5468131285
 30
0.0
 11
145.9233038302
 21
71.2412573415
 31
0.0
  0
LINE
  5
14A
330
1F
100
AcDbEntity
  8
0
  6
Continuous
 62
     8
370
    25
100
AcDbLine
 10
159.9233042623
 20
71.2412573415
 30
0.0
 11
159.9233042623
 21
74.5468131285
 31
0.0
  0
SPLINE
  5
14B
330
1F
100
AcDbEntity
  8
0
  6
Continuous
 62
     8
370
    25
100
AcDbSpline
210
0.0
220
0.0
230
1.0
 70
     8
 71
     3
 72
    31
 73
    27
 74
     0
 42
0.000000001
 43
0.00000001
 40
0.0
 40
0.0
 40
0.0
 40
0.0
 40
0.0401469674686242
 40
0.0814986026226104
 40
0.1230168016889695
 40
0.1655416012274912
 40
0.2131130161285811
 40
0.2616996828497939
 40
0.3186667233940659
 40
0.3479437321399341
 40
0.3772159140049192
 40
0.4187751004512731
 40
0.4612875549783683
 40
0.5032031450453729
 40
0.5465043050002475
 40
0.5837432916969165
 40
0.6217090261095588
 40
0.6775256579079723
 40
0.734862360906015
 40
0.7907485712470934
 40
0.8195217853075434
 40
0.8482899200809866
 40
0.8930370735445798
 40
0.9390657783783559
 40
0.9835421349504135
 40
1.0
 40
1.0
 40
1.0
 40
1.0
 10
159.3233038845652
 20
88.24125826540421
 30
0.0
 10
159.3119852195016
 20
88.23363956206356
 30
0.0
 10
159.2890082564979
 20
88.21817354519578
 30
0.0
 10
159.1043315492899
 20
88.09495343271006
 30
0.0
 10
158.8137515589329
 20
87.90493036532435
 30
0.0
 10
158.4028115969325
 20
87.64439536035336
 30
0.0
 10
157.8701794698671
 20
87.3225908536632
 30
0.0
 10
157.1817348681459
 20
86.93673137541819
 30
0.0
 10
156.489778880102
 20
86.59256239148252
 30
0.0
 10
155.8438602713558
 20
86.31852104992987
 30
0.0
 10
155.2536742857452
 20
86.10143460353832
 30
0.0
 10
154.5457812791786
 20
85.89588493691566
 30
0.0
 10
153.7156853304952
 20
85.74644748207012
 30
0.0
 10
152.8488865654034
 20
85.69886545641748
 30
0.0
 10
152.0198229705303
 20
85.76233039314477
 30
0.0
 10
151.2440342362481
 20
85.9125675763388
 30
0.0
 10
150.4269720727044
 20
86.15059907400206
 30
0.0
 10
149.5529923846597
 20
86.49752589354897
 30
0.0
 10
148.6791763035596
 20
86.92770958978313
 30
0.0
 10
148.0401792264811
 20
87.28673313401688
 30
0.0
 10
147.5965856317221
 20
87.5518685178706
 30
0.0
 10
147.2416522499967
 20
87.77161870006053
 30
0.0
 10
146.8983310156108
 20
87.99216805765717
 30
0.0
 10
146.641673220219
 20
88.16178494906572
 30
0.0
 10
146.5185955441043
 20
88.24441436584117
 30
0.0
 10
146.5362222113192
 20
88.23258901487918
 30
0.0
 10
146.540983038693
 20
88.22939507844876
 30
0.0
  0
SPLINE
  5
14C
330
1F
100
AcDbEntity
  8
0
  6
Continuous
 62
     8
370
    25
100
AcDbSpline
210
0.0
220
0.0
230
1.0
 70
     8
 71
     3
 72
    31
 73
    27
 74
     0
 42
0.000000001
 43
0.00000001
 40
0.0
 40
0.0
 40
0.0
 40
0.0
 40
0.0148210566466454
 40
0.0619108786813931
 40
0.1074455066899998
 40
0.154342074548709
 40
0.2108203590328918
 40
0.2689848173338092
 40
0.3245691015009363
 40
0.353116802941412
 40
0.3816579138779144
 40
0.4179574127613481
 40
0.454999010202526
 40
0.4952942461141884
 40
0.5372057403442616
 40
0.5775812190257532
 40
0.619138190658019
 40
0.6474898119195819
 40
0.6758477225739482
 40
0.7341551700649505
 40
0.7822816910649438
 40
0.8313532509707088
 40
0.8736398241975869
 40
0.9168634838215617
 40
0.9578466218450228
 40
1.0
 40
1.0
 40
1.0
 40
1.0
 10
147.0378087076539
 20
88.73007968249749
 30
0.0
 10
147.0338657980071
 20
88.73311808080217
 30
0.0
 10
147.0173953798304
 20
88.74581015217817
 30
0.0
 10
147.128148687521
 20
88.66037289637596
 30
0.0
 10
147.3656645569893
 20
88.48006994831681
 30
0.0
 10
147.7512714726233
 20
88.19533151448164
 30
0.0
 10
148.2940500154067
 20
87.81336348543023
 30
0.0
 10
148.9918346112246
 20
87.36188239380607
 30
0.0
 10
149.6676479075528
 20
86.97876280709974
 30
0.0
 10
150.2542176692365
 20
86.6949490531506
 30
0.0
 10
150.7694799570494
 20
86.47881345715014
 30
0.0
 10
151.3669789243714
 20
86.27794577904075
 30
0.0
 10
152.0730681000729
 20
86.11945960423279
 30
0.0
 10
152.8444417196296
 20
86.0493628957931
 30
0.0
 10
153.6412908125914
 20
86.0976639030662
 30
0.0
 10
154.4172307778442
 20
86.25736555012101
 30
0.0
 10
155.0661264545351
 20
86.47346763224198
 30
0.0
 10
155.6071739957929
 20
86.7017347718046
 30
0.0
 10
156.2048765969025
 20
86.99195008562359
 30
0.0
 10
156.8422225916521
 20
87.35585182684075
 30
0.0
 10
157.4816201470626
 20
87.76711841681372
 30
0.0
 10
157.9696628067004
 20
88.10570661357251
 30
0.0
 10
158.3514845695272
 20
88.38358990923851
 30
0.0
 10
158.6178036509107
 20
88.58359848388412
 30
0.0
 10
158.7905800461241
 20
88.7159548364897
 30
0.0
 10
158.8122943099787
 20
88.73274444530186
 30
0.0
 10
158.8233042682701
 20
88.74125741603802
 30
0.0
  0
LINE
  5
14D
330
1F
100
AcDbEntity
  8
0
  6
Continuous
 62
     8
370
    25
100
AcDbLine
 10
122.9233047168
 20
68.7412578631
 30
0.0
 11
118.4233049105
 21
68.7412578631
 31
0.0
  0
LINE
  5
14E
330
1F
100
AcDbEntity
  8
0
  6
Continuous
 62
     8
370
    25
100
AcDbLine
 10
127.4233045231
 20
68.7412578631
 30
0.0
 11
122.9233047168
 21
68.7412578631
 31
0.0
  0
LINE
  5
14F
330
1F
100
AcDbEntity
  8
0
  6
Continuous
 62
     8
370
    25
100
AcDbLine
 10
133.9233046572
 20
79.7412578035
 30
0.0
 11
133.9233046572
 21
84.2412576098
 31
0.0
  0
LINE
  5
150
330
1F
100
AcDbEntity
  8
0
  6
Continuous
 62
     8
370
    25
100
AcDbLine
 10
133.9233046572
 20
75.2412579972
 30
0.0
 11
133.9233046572
 21
79.7412578035
 31
0.0
  0
LINE
  5
151
330
1F
100
AcDbEntity
  8
0
  6
Continuous
 62
     7
370
     0
100
AcDbLine
 10
172.4655126586
 20
75.4769518226
 30
0.0
 11
162.9233040462
 21
75.1787578035
 31
0.0
  0
LINE
  5
152
330
1F
100
AcDbEntity
  8
0
  6
Continuous
 62
     7
370
     0
100
AcDbLine
 10
172.4655126586
 20
84.0055637843
 30
0.0
 11
162.9233040462
 21
84.3037578035
 31
0.0
  0
LINE
  5
153
330
1F
100
AcDbEntity
  8
0
  6
Continuous
 62
     7
370
     0
100
AcDbLine
 10
162.9233040462
 20
84.7936953035
 30
0.0
 11
162.9233040462
 21
74.6888203035
 31
0.0
  0
LINE
  5
154
330
1F
100
AcDbEntity
  8
0
  6
Continuous
 62
     7
370
    25
100
AcDbLine
 10
219.3290060024
 20
87.8152899462
 30
0.0
 11
219.3290060024
 21
90.2412576619
 31
0.0
  0
LINE
  5
155
330
1F
100
AcDbEntity
  8
0
  6
Continuous
 62
     7
370
    25
100
AcDbLine
 10
207.5290055583
 20
90.2412576619
 30
0.0
 11
207.5290055583
 21
88.7393519301
 31
0.0
  0
ARC
  5
156
330
1F
100
AcDbEntity
  8
0
  6
Continuous
 62
     7
370
    25
100
AcDbCircle
 10
207.7290057803
 20
88.2830002338
 30
0.0
 40
0.4999999999999851
100
AcDbArc
 50
113.64497808
 51
180.007858636
  0
ARC
  5
157
330
1F
100
AcDbEntity
  8
0
  6
Continuous
 62
     7
370
    25
100
AcDbCircle
 10
218.6790057803
 20
106.8412578035
 30
0.0
 40
0.2500000000000284
100
AcDbArc
 50
0.0
 51
90.0
  0
ARC
  5
158
330
1F
100
AcDbEntity
  8
0
  6
Continuous
 62
     7
370
    25
100
AcDbCircle
 10
208.1790057803
 20
106.8412578035
 30
0.0
 40
0.25
100
AcDbArc
 50
90.0
 51
180.0
  0
LINE
  5
159
330
1F
100
AcDbEntity
  8
0
  6
Continuous
 62
     7
370
    25
100
AcDbLine
 10
218.9290057505
 20
106.2412574905
 30
0.0
 11
218.9290057505
 21
106.8412583339
 31
0.0
  0
LINE
  5
15A
330
1F
100
AcDbEntity
  8
0
  6
Continuous
 62
     7
370
    25
100
AcDbLine
 10
207.9290058101
 20
106.8412583339
 30
0.0
 11
207.9290058101
 21
106.2412574905
 31
0.0
  0
LINE
  5
15B
330
1F
100
AcDbEntity
  8
0
  6
Continuous
 62
     7
370
    25
100
AcDbLine
 10
220.8790056976
 20
98.2412580419
 30
0.0
 11
218.9290057505
 21
106.2412574905
 31
0.0
  0
LINE
  5
15C
330
1F
100
AcDbEntity
  8
0
  6
Continuous
 62
     7
370
    25
100
AcDbLine
 10
207.9290058101
 20
106.2412574905
 30
0.0
 11
205.979005863
 21
98.2412580419
 31
0.0
  0
LINE
  5
15D
330
1F
100
AcDbEntity
  8
0
  6
Continuous
 62
     7
370
    25
100
AcDbLine
 10
205.979005863
 20
98.2412580419
 30
0.0
 11
206.4290055643
 21
90.2412576619
 31
0.0
  0
LINE
  5
15E
330
1F
100
AcDbEntity
  8
0
  6
Continuous
 62
     7
370
    25
100
AcDbLine
 10
220.4290059964
 20
90.2412576619
 30
0.0
 11
220.8790056976
 21
98.2412580419
 31
0.0
  0
LINE
  5
15F
330
1F
100
AcDbEntity
  8
0
  6
Continuous
 62
     7
370
    25
100
AcDbLine
 10
217.9290055866
 20
68.7412578631
 30
0.0
 11
217.9290055866
 21
70.8109723422
 31
0.0
  0
LINE
  5
160
330
1F
100
AcDbEntity
  8
0
  6
Continuous
 62
     7
370
    25
100
AcDbLine
 10
208.9290059741
 20
70.8109723422
 30
0.0
 11
208.9290059741
 21
68.7412578631
 31
0.0
  0
LINE
  5
161
330
1F
100
AcDbEntity
  8
0
  6
Continuous
 62
     7
370
    25
100
AcDbLine
 10
217.9290055866
 20
64.7412581387
 30
0.0
 11
217.9290055866
 21
68.7412578631
 31
0.0
  0
LINE
  5
162
330
1F
100
AcDbEntity
  8
0
  6
Continuous
 62
     7
370
    25
100
AcDbLine
 10
208.9290059741
 20
68.7412578631
 30
0.0
 11
208.9290059741
 21
64.7412581387
 31
0.0
  0
CIRCLE
  5
163
330
1F
100
AcDbEntity
  8
0
  6
Continuous
 62
     7
370
    25
100
AcDbCircle
 10
213.4290057803
 20
79.7412578035
 30
0.0
 40
4.782279626857616
  0
CIRCLE
  5
164
330
1F
100
AcDbEntity
  8
0
  6
Continuous
 62
     7
370
    25
100
AcDbCircle
 10
213.4290057803
 20
79.7412578035
 30
0.0
 40
4.0
  0
CIRCLE
  5
165
330
1F
100
AcDbEntity
  8
0
  6
Continuous
 62
     7
370
    25
100
AcDbCircle
 10
213.4290057803
 20
79.7412578035
 30
0.0
 40
3.199999999999989
  0
CIRCLE
  5
166
330
1F
100
AcDbEntity
  8
0
  6
Continuous
 62
     7
370
    25
100
AcDbCircle
 10
213.4290057803
 20
79.7412578035
 30
0.0
 40
3.0
  0
CIRCLE
  5
167
330
1F
100
AcDbEntity
  8
0
  6
Continuous
 62
     7
370
    25
100
AcDbCircle
 10
213.4290057803
 20
79.7412578035
 30
0.0
 40
5.052437499999996
  0
CIRCLE
  5
168
330
1F
100
AcDbEntity
  8
0
  6
Continuous
 62
     7
370
    25
100
AcDbCircle
 10
213.4290057803
 20
79.7412578035
 30
0.0
 40
10.0
  0
CIRCLE
  5
169
330
1F
100
AcDbEntity
  8
0
  6
Continuous
 62
     7
370
    25
100
AcDbCircle
 10
213.4290057803
 20
79.7412578035
 30
0.0
 40
9.500000000000028
  0
SPLINE
  5
16A
330
1F
100
AcDbEntity
  8
0
  6
Continuous
 62
     7
370
    25
100
AcDbSpline
210
0.0
220
0.0
230
1.0
 70
     8
 71
     3
 72
    13
 73
     9
 74
     0
 42
0.000000001
 43
0.00000001
 40
0.0
 40
0.0
 40
0.0
 40
0.0
 40
0.0718680280326739
 40
0.299263643077089
 40
0.528841584314296
 40
0.7608724351670312
 40
0.991827969806919
 40
0.9999999999999999
 40
0.9999999999999999
 40
0.9999999999999999
 40
0.9999999999999999
 10
207.6112865108029
 20
87.85073608341645
 30
0.0
 10
207.6112027625726
 20
87.88577491661745
 30
0.0
 10
207.6108540289122
 20
88.03167914078975
 30
0.0
 10
207.5917392860491
 20
88.27184884990292
 30
0.0
 10
207.5624036201305
 20
88.53131195683729
 30
0.0
 10
207.5376924454267
 20
88.69045592962446
 30
0.0
 10
207.5261536029648
 20
88.75850284204509
 30
0.0
 10
207.5292166007015
 20
88.73998477310467
 30
0.0
 10
207.5293212766723
 20
88.73935193005036
 30
0.0
  0
SPLINE
  5
16B
330
1F
100
AcDbEntity
  8
0
  6
Continuous
 62
     7
370
    25
100
AcDbSpline
210
0.0
220
0.0
230
1.0
 70
    24
 71
     3
 72
    14
 73
    10
 74
     0
 42
0.000000001
 43
0.00000001
 40
0.0
 40
0.0
 40
0.0
 40
0.0
 40
0.0686783537768138
 40
0.2932170497282056
 40
0.2935200239703272
 40
0.5073355948525435
 40
0.7069536501822122
 40
0.9001970470938867
 40
1.0
 40
1.0
 40
1.0
 40
1.0
 10
207.2290056022779
 20
87.74125818344783
 30
0.0
 10
207.2290056022779
 20
87.7601103794308
 30
0.0
 10
207.2290056022779
 20
87.84059840779828
 30
0.0
 10
207.2290056022781
 20
87.92028297613692
 30
0.0
 10
207.2290056022777
 20
88.02950235365277
 30
0.0
 10
207.229005602278
 20
88.12619248269039
 30
0.0
 10
207.2290056022779
 20
88.22777731907394
 30
0.0
 10
207.2290056022779
 20
88.28132863084372
 30
0.0
 10
207.2290056022779
 20
88.27712193697892
 30
0.0
 10
207.2290056022779
 20
88.27568926098775
 30
0.0
  0
SPLINE
  5
16C
330
1F
100
AcDbEntity
  8
0
  6
Continuous
 62
     7
370
    25
100
AcDbSpline
210
0.0
220
0.0
230
1.0
 70
    24
 71
     3
 72
     9
 73
     5
 74
     0
 42
0.000000001
 43
0.00000001
 40
0.0
 40
0.0
 40
0.0
 40
0.0
 40
0.2165176317845731
 40
1.0
 40
1.0
 40
1.0
 40
1.0
 10
207.2290056022779
 20
87.57777754399012
 30
0.0
 10
207.2290056022779
 20
87.58878253811255
 30
0.0
 10
207.2290056022779
 20
87.63960978036405
 30
0.0
 10
207.2290056022779
 20
87.69660412182508
 30
0.0
 10
207.2290056022779
 20
87.74125818344783
 30
0.0
  0
LINE
  5
16D
330
1F
100
AcDbEntity
  8
0
  6
Continuous
 62
     7
370
    25
100
AcDbLine
 10
214.6790057524
 20
106.8412583339
 30
0.0
 11
214.6790057524
 21
107.0912569779
 31
0.0
  0
ARC
  5
16E
330
1F
100
AcDbEntity
  8
0
  6
Continuous
 62
     7
370
    25
100
AcDbCircle
 10
214.6790057803
 20
106.8412578035
 30
0.0
 40
0.25
100
AcDbArc
 50
0.0
 51
90.0
  0
LINE
  5
16F
330
1F
100
AcDbEntity
  8
0
  6
Continuous
 62
     7
370
    25
100
AcDbLine
 10
214.6790057524
 20
106.8412583339
 30
0.0
 11
214.9290057934
 21
106.8412583339
 31
0.0
  0
LINE
  5
170
330
1F
100
AcDbEntity
  8
0
  6
Continuous
 62
     7
370
    25
100
AcDbLine
 10
214.6790057524
 20
106.2412574905
 30
0.0
 11
214.6790057524
 21
106.8412583339
 31
0.0
  0
LINE
  5
171
330
1F
100
AcDbEntity
  8
0
  6
Continuous
 62
     7
370
    25
100
AcDbLine
 10
214.9290057934
 20
106.8412583339
 30
0.0
 11
214.9290057934
 21
106.2412574905
 31
0.0
  0
LINE
  5
172
330
1F
100
AcDbEntity
  8
0
  6
Continuous
 62
     7
370
    25
100
AcDbLine
 10
214.9290057934
 20
106.2412574905
 30
0.0
 11
214.6790057524
 21
106.2412574905
 31
0.0
  0
LINE
  5
173
330
1F
100
AcDbEntity
  8
0
  6
Continuous
 62
     7
370
    25
100
AcDbLine
 10
214.6790057524
 20
106.8412583339
 30
0.0
 11
212.1790058083
 21
106.8412583339
 31
0.0
  0
LINE
  5
174
330
1F
100
AcDbEntity
  8
0
  6
Continuous
 62
     7
370
    25
100
AcDbLine
 10
212.1790058083
 20
107.0912569779
 30
0.0
 11
212.1790058083
 21
106.8412583339
 31
0.0
  0
LINE
  5
175
330
1F
100
AcDbEntity
  8
0
  6
Continuous
 62
     7
370
    25
100
AcDbLine
 10
212.1790058083
 20
107.0912569779
 30
0.0
 11
214.6790057524
 21
107.0912569779
 31
0.0
  0
LINE
  5
176
330
1F
100
AcDbEntity
  8
0
  6
Continuous
 62
     7
370
    25
100
AcDbLine
 10
212.1790058083
 20
106.8412583339
 30
0.0
 11
212.1790058083
 21
106.2412574905
 31
0.0
  0
LINE
  5
177
330
1F
100
AcDbEntity
  8
0
  6
Continuous
 62
     7
370
    25
100
AcDbLine
 10
214.6790057524
 20
106.2412574905
 30
0.0
 11
212.1790058083
 21
106.2412574905
 31
0.0
  0
ARC
  5
178
330
1F
100
AcDbEntity
  8
0
  6
Continuous
 62
     7
370
    25
100
AcDbCircle
 10
212.1790057803
 20
106.8412578035
 30
0.0
 40
0.25
100
AcDbArc
 50
90.0
 51
180.0
  0
LINE
  5
179
330
1F
100
AcDbEntity
  8
0
  6
Continuous
 62
     7
370
    25
100
AcDbLine
 10
211.9290057673
 20
106.8412583339
 30
0.0
 11
212.1790058083
 21
106.8412583339
 31
0.0
  0
LINE
  5
17A
330
1F
100
AcDbEntity
  8
0
  6
Continuous
 62
     7
370
    25
100
AcDbLine
 10
211.9290057673
 20
106.2412574905
 30
0.0
 11
211.9290057673
 21
106.8412583339
 31
0.0
  0
LINE
  5
17B
330
1F
100
AcDbEntity
  8
0
  6
Continuous
 62
     7
370
    25
100
AcDbLine
 10
212.1790058083
 20
106.2412574905
 30
0.0
 11
211.9290057673
 21
106.2412574905
 31
0.0
  0
SPLINE
  5
17C
330
1F
100
AcDbEntity
  8
0
  6
Continuous
 62
     7
370
    25
100
AcDbSpline
210
0.0
220
0.0
230
1.0
 70
     8
 71
     3
 72
    15
 73
    11
 74
     0
 42
0.000000001
 43
0.00000001
 40
0.0
 40
0.0
 40
0.0
 40
0.0
 40
0.0081668554937291
 40
0.3321941846999776
 40
0.4756279332062201
 40
0.6866839627273442
 40
0.8457444903091523
 40
0.8967583891412989
 40
0.9909563331444947
 40
1.0
 40
1.0
 40
1.0
 40
1.0
 10
214.6790057524071
 20
107.0912569779439
 30
0.0
 10
214.6804432267104
 20
107.0912545780846
 30
0.0
 10
214.7389137854911
 20
107.0911569616521
 30
0.0
 10
214.8233391250954
 20
107.0815976930811
 30
0.0
 10
214.9379187542481
 20
107.0442398531403
 30
0.0
 10
215.0192888530809
 20
106.9993717574584
 30
0.0
 10
215.0723085268191
 20
106.9414961905801
 30
0.0
 10
215.0965100212611
 20
106.8908194818416
 30
0.0
 10
215.1026995388233
 20
106.8621254977077
 30
0.0
 10
215.1029012097065
 20
106.8429390144545
 30
0.0
 10
215.1029188754932
 20
106.8412583339496
 30
0.0
  0
LINE
  5
17D
330
1F
100
AcDbEntity
  8
0
  6
Continuous
 62
     7
370
    25
100
AcDbLine
 10
214.9290057934
 20
106.8412583339
 30
0.0
 11
215.1029188755
 21
106.8412583339
 31
0.0
  0
LINE
  5
17E
330
1F
100
AcDbEntity
  8
0
  6
Continuous
 62
     7
370
    25
100
AcDbLine
 10
211.7550926852
 20
106.8412583339
 30
0.0
 11
211.9290057673
 21
106.8412583339
 31
0.0
  0
SPLINE
  5
17F
330
1F
100
AcDbEntity
  8
0
  6
Continuous
 62
     7
370
    25
100
AcDbSpline
210
0.0
220
0.0
230
1.0
 70
     8
 71
     3
 72
    15
 73
    11
 74
     0
 42
0.000000001
 43
0.00000001
 40
0.0
 40
0.0
 40
0.0
 40
0.0
 40
0.0090436668555053
 40
0.1032416108587011
 40
0.1542555096908477
 40
0.3133160372726557
 40
0.5243720667937798
 40
0.6678058153000223
 40
0.9918331445062708
 40
0.9999999999999999
 40
0.9999999999999999
 40
0.9999999999999999
 40
0.9999999999999999
 10
211.7550926852004
 20
106.8412583339496
 30
0.0
 10
211.7551103509871
 20
106.8429390144545
 30
0.0
 10
211.7553120218702
 20
106.8621254977078
 30
0.0
 10
211.7615015394324
 20
106.8908194818416
 30
0.0
 10
211.7857030338745
 20
106.9414961905801
 30
0.0
 10
211.8387227076127
 20
106.9993717574584
 30
0.0
 10
211.9200928064455
 20
107.0442398531403
 30
0.0
 10
212.0346724355982
 20
107.0815976930811
 30
0.0
 10
212.1190977752025
 20
107.091156961652
 30
0.0
 10
212.1775683339832
 20
107.0912545780846
 30
0.0
 10
212.1790058082865
 20
107.0912569779439
 30
0.0
  0
LINE
  5
180
330
1F
100
AcDbEntity
  8
0
  6
Continuous
 62
     7
370
    25
100
AcDbLine
 10
215.1029188755
 20
106.8412583339
 30
0.0
 11
215.1029188755
 21
106.2412574905
 31
0.0
  0
LINE
  5
181
330
1F
100
AcDbEntity
  8
0
  6
Continuous
 62
     7
370
    25
100
AcDbLine
 10
215.1029188755
 20
106.2412574905
 30
0.0
 11
214.9290057934
 21
106.2412574905
 31
0.0
  0
LINE
  5
182
330
1F
100
AcDbEntity
  8
0
  6
Continuous
 62
     7
370
    25
100
AcDbLine
 10
211.7550926852
 20
106.2412574905
 30
0.0
 11
211.7550926852
 21
106.8412583339
 31
0.0
  0
LINE
  5
183
330
1F
100
AcDbEntity
  8
0
  6
Continuous
 62
     7
370
    25
100
AcDbLine
 10
211.9290057673
 20
106.2412574905
 30
0.0
 11
211.7550926852
 21
106.2412574905
 31
0.0
  0
LINE
  5
184
330
1F
100
AcDbEntity
  8
0
  6
Continuous
 62
     7
370
    25
100
AcDbLine
 10
214.6790057524
 20
107.0912569779
 30
0.0
 11
218.6790057096
 21
107.0912569779
 31
0.0
  0
LINE
  5
185
330
1F
100
AcDbEntity
  8
0
  6
Continuous
 62
     7
370
    25
100
AcDbLine
 10
208.1790058511
 20
107.0912569779
 30
0.0
 11
212.1790058083
 21
107.0912569779
 31
0.0
  0
LINE
  5
186
330
1F
100
AcDbEntity
  8
0
  6
Continuous
 62
     7
370
    25
100
AcDbLine
 10
215.1029188755
 20
106.2412574905
 30
0.0
 11
218.9290057505
 21
106.2412574905
 31
0.0
  0
LINE
  5
187
330
1F
100
AcDbEntity
  8
0
  6
Continuous
 62
     7
370
    25
100
AcDbLine
 10
207.9290058101
 20
106.2412574905
 30
0.0
 11
211.7550926852
 21
106.2412574905
 31
0.0
  0
LINE
  5
188
330
1F
100
AcDbEntity
  8
0
  6
Continuous
 62
     7
370
    25
100
AcDbLine
 10
212.8290057518
 20
107.0912569779
 30
0.0
 11
212.8290057518
 21
107.1012575198
 31
0.0
  0
LINE
  5
189
330
1F
100
AcDbEntity
  8
0
  6
Continuous
 62
     7
370
    25
100
AcDbLine
 10
212.8290057518
 20
107.1012575198
 30
0.0
 11
214.0290058088
 21
107.1012575198
 31
0.0
  0
LINE
  5
18A
330
1F
100
AcDbEntity
  8
0
  6
Continuous
 62
     7
370
    25
100
AcDbLine
 10
214.0290058088
 20
107.0912569779
 30
0.0
 11
214.0290058088
 21
107.1012575198
 31
0.0
  0
LINE
  5
18B
330
1F
100
AcDbEntity
  8
0
  6
Continuous
 62
     7
370
    25
100
AcDbLine
 10
205.979005863
 20
98.2412580419
 30
0.0
 11
220.8790056976
 21
98.2412580419
 31
0.0
  0
LINE
  5
18C
330
1F
100
AcDbEntity
  8
0
  6
Continuous
 62
     7
370
    25
100
AcDbLine
 10
206.4290055643
 20
90.2412576619
 30
0.0
 11
220.4290059964
 21
90.2412576619
 31
0.0
  0
LINE
  5
18D
330
1F
100
AcDbEntity
  8
0
  6
Continuous
 62
     7
370
    25
100
AcDbLine
 10
216.7007049649
 20
108.2412578184
 30
0.0
 11
216.7007049649
 21
107.0912569779
 31
0.0
  0
LINE
  5
18E
330
1F
100
AcDbEntity
  8
0
  6
Continuous
 62
     7
370
    25
100
AcDbLine
 10
216.7007049649
 20
108.2412578184
 30
0.0
 11
216.9290058884
 21
108.2412578184
 31
0.0
  0
LINE
  5
18F
330
1F
100
AcDbEntity
  8
0
  6
Continuous
 62
     7
370
    25
100
AcDbLine
 10
216.9290058884
 20
107.0912569779
 30
0.0
 11
216.9290058884
 21
108.2412578184
 31
0.0
  0
LINE
  5
190
330
1F
100
AcDbEntity
  8
0
  6
Continuous
 62
     7
370
    25
100
AcDbLine
 10
209.9290056723
 20
108.2412578184
 30
0.0
 11
209.9290056723
 21
107.0912569779
 31
0.0
  0
LINE
  5
191
330
1F
100
AcDbEntity
  8
0
  6
Continuous
 62
     7
370
    25
100
AcDbLine
 10
209.9290056723
 20
108.2412578184
 30
0.0
 11
210.1573065958
 21
108.2412578184
 31
0.0
  0
LINE
  5
192
330
1F
100
AcDbEntity
  8
0
  6
Continuous
 62
     7
370
    25
100
AcDbLine
 10
210.1573065958
 20
108.2412578184
 30
0.0
 11
210.1573065958
 21
107.0912569779
 31
0.0
  0
LINE
  5
193
330
1F
100
AcDbEntity
  8
0
  6
Continuous
 62
     7
370
    25
100
AcDbLine
 10
210.1573065958
 20
108.2412578184
 30
0.0
 11
216.7007049649
 21
108.2412578184
 31
0.0
  0
LINE
  5
194
330
1F
100
AcDbEntity
  8
0
  6
Continuous
 62
     7
370
    25
100
AcDbLine
 10
217.9290055866
 20
64.7412581387
 30
0.0
 11
208.9290059741
 21
64.7412581387
 31
0.0
  0
LINE
  5
195
330
1F
100
AcDbEntity
  8
0
  6
Continuous
 62
     8
370
    25
100
AcDbLine
 10
218.9290057505
 20
106.8412583339
 30
0.0
 11
215.1029188755
 21
106.8412583339
 31
0.0
  0
LINE
  5
196
330
1F
100
AcDbEntity
  8
0
  6
Continuous
 62
     8
370
    25
100
AcDbLine
 10
211.7550926852
 20
106.8412583339
 30
0.0
 11
207.9290058101
 21
106.8412583339
 31
0.0
  0
LINE
  5
197
330
1F
100
AcDbEntity
  8
0
  6
Continuous
 62
     8
370
    25
100
AcDbLine
 10
217.9290055866
 20
68.7412578631
 30
0.0
 11
208.9290059741
 21
68.7412578631
 31
0.0
  0
LINE
  5
198
330
1F
100
AcDbEntity
  8
0
  6
Continuous
 62
     7
370
    25
100
AcDbLine
 10
143.1733038451
 20
138.5175220355
 30
0.0
 11
145.0413376267
 21
138.5175220355
 31
0.0
  0
LINE
  5
199
330
1F
100
AcDbEntity
  8
0
  6
Continuous
 62
     7
370
    25
100
AcDbLine
 10
145.0413376267
 20
158.5175215884
 30
0.0
 11
143.1733038451
 21
158.5175215884
 31
0.0
  0
ARC
  5
19A
330
1F
100
AcDbEntity
  8
0
  6
Continuous
 62
     7
370
    25
100
AcDbCircle
 10
161.9233040462
 20
157.5175218119
 30
0.0
 40
1.5
100
AcDbArc
 50
138.1896851042
 51
180.0
  0
ARC
  5
19B
330
1F
100
AcDbEntity
  8
0
  6
Continuous
 62
     7
370
    25
100
AcDbCircle
 10
161.9233040462
 20
139.5175218119
 30
0.0
 40
1.5
100
AcDbArc
 50
180.0
 51
221.8103148958
  0
LINE
  5
19C
330
1F
100
AcDbEntity
  8
0
  6
Continuous
 62
     7
370
    25
100
AcDbLine
 10
162.4233037408
 20
158.5175215884
 30
0.0
 11
160.8052704658
 21
158.5175215884
 31
0.0
  0
LINE
  5
19D
330
1F
100
AcDbEntity
  8
0
  6
Continuous
 62
     7
370
    25
100
AcDbLine
 10
160.8052704658
 20
138.5175220355
 30
0.0
 11
162.4233037408
 21
138.5175220355
 31
0.0
  0
LINE
  5
19E
330
1F
100
AcDbEntity
  8
0
  6
Continuous
 62
     7
370
    25
100
AcDbLine
 10
162.4233037408
 20
138.5175220355
 30
0.0
 11
162.9233038227
 21
139.0175221174
 31
0.0
  0
LINE
  5
19F
330
1F
100
AcDbEntity
  8
0
  6
Continuous
 62
     7
370
    25
100
AcDbLine
 10
162.9233038227
 20
158.0175215065
 30
0.0
 11
162.4233037408
 21
158.5175215884
 31
0.0
  0
LINE
  5
1A0
330
1F
100
AcDbEntity
  8
0
  6
Continuous
 62
     7
370
    25
100
AcDbLine
 10
143.1733038451
 20
158.5175215884
 30
0.0
 11
142.9233042698
 21
158.2675220131
 31
0.0
  0
LINE
  5
1A1
330
1F
100
AcDbEntity
  8
0
  6
Continuous
 62
     7
370
    25
100
AcDbLine
 10
142.9233042698
 20
138.7675216108
 30
0.0
 11
143.1733038451
 21
138.5175220355
 31
0.0
  0
ARC
  5
1A2
330
1F
100
AcDbEntity
  8
0
  6
Continuous
 62
     7
370
    25
100
AcDbCircle
 10
143.9233040462
 20
139.5175218119
 30
0.0
 40
1.500000000000014
100
AcDbArc
 50
318.1896851042
 51
0.0
  0
ARC
  5
1A3
330
1F
100
AcDbEntity
  8
0
  6
Continuous
 62
     7
370
    25
100
AcDbCircle
 10
143.9233040462
 20
157.5175218119
 30
0.0
 40
1.500000000000014
100
AcDbArc
 50
0.0
 51
41.8103148958
  0
LINE
  5
1A4
330
1F
100
AcDbEntity
  8
0
  6
Continuous
 62
     7
370
    25
100
AcDbLine
 10
162.9233038227
 20
143.4650842718
 30
0.0
 11
171.568355913
 21
143.7352423242
 31
0.0
  0
LINE
  5
1A5
330
1F
100
AcDbEntity
  8
0
  6
Continuous
 62
     7
370
    25
100
AcDbLine
 10
171.568355913
 20
153.2998012996
 30
0.0
 11
162.9233038227
 21
153.5699593521
 31
0.0
  0
LINE
  5
1A6
330
1F
100
AcDbEntity
  8
0
  6
Continuous
 62
     7
370
    25
100
AcDbLine
 10
171.568355913
 20
143.7352423242
 30
0.0
 11
172.9233035992
 21
144.5175216219
 31
0.0
  0
LINE
  5
1A7
330
1F
100
AcDbEntity
  8
0
  6
Continuous
 62
     7
370
    25
100
AcDbLine
 10
172.9233035992
 20
152.5175220019
 30
0.0
 11
171.568355913
 21
153.2998012996
 31
0.0
  0
LINE
  5
1A8
330
1F
100
AcDbEntity
  8
0
  6
Continuous
 62
     7
370
    25
100
AcDbLine
 10
142.9233042698
 20
156.5175221919
 30
0.0
 11
140.1733042847
 21
156.5175221919
 31
0.0
  0
LINE
  5
1A9
330
1F
100
AcDbEntity
  8
0
  6
Continuous
 62
     7
370
    25
100
AcDbLine
 10
140.1733042847
 20
140.517521432
 30
0.0
 11
142.9233042698
 21
140.517521432
 31
0.0
  0
LINE
  5
1AA
330
1F
100
AcDbEntity
  8
0
  6
Continuous
 62
     7
370
    25
100
AcDbLine
 10
140.1733042847
 20
156.5175221919
 30
0.0
 11
139.923303778
 21
156.2675216853
 31
0.0
  0
LINE
  5
1AB
330
1F
100
AcDbEntity
  8
0
  6
Continuous
 62
     7
370
    25
100
AcDbLine
 10
139.923303778
 20
140.7675219386
 30
0.0
 11
140.1733042847
 21
140.517521432
 31
0.0
  0
LINE
  5
1AC
330
1F
100
AcDbEntity
  8
0
  6
Continuous
 62
     7
370
    25
100
AcDbLine
 10
133.9233046572
 20
153.0175216182
 30
0.0
 11
122.9233047168
 21
153.0175216182
 31
0.0
  0
LINE
  5
1AD
330
1F
100
AcDbEntity
  8
0
  6
Continuous
 62
     7
370
    25
100
AcDbLine
 10
122.9233047168
 20
144.0175220057
 30
0.0
 11
133.9233046572
 21
144.0175220057
 31
0.0
  0
LINE
  5
1AE
330
1F
100
AcDbEntity
  8
0
  6
Continuous
 62
     7
370
    25
100
AcDbLine
 10
133.9233046572
 20
144.0175220057
 30
0.0
 11
139.923303778
 21
144.0175220057
 31
0.0
  0
LINE
  5
1AF
330
1F
100
AcDbEntity
  8
0
  6
Continuous
 62
     7
370
    25
100
AcDbLine
 10
139.923303778
 20
153.0175216182
 30
0.0
 11
133.9233046572
 21
153.0175216182
 31
0.0
  0
LINE
  5
1B0
330
1F
100
AcDbEntity
  8
0
  6
Continuous
 62
     7
370
    25
100
AcDbLine
 10
145.0413376267
 20
158.5175215884
 30
0.0
 11
145.0413376267
 21
153.6085580162
 31
0.0
  0
LINE
  5
1B1
330
1F
100
AcDbEntity
  8
0
  6
Continuous
 62
     7
370
    25
100
AcDbLine
 10
145.0413376267
 20
143.4264856077
 30
0.0
 11
145.0413376267
 21
138.5175220355
 31
0.0
  0
LINE
  5
1B2
330
1F
100
AcDbEntity
  8
0
  6
Continuous
 62
     7
370
    25
100
AcDbLine
 10
143.1733038451
 20
158.5175215884
 30
0.0
 11
143.1733038451
 21
153.2162011287
 31
0.0
  0
LINE
  5
1B3
330
1F
100
AcDbEntity
  8
0
  6
Continuous
 62
     7
370
    25
100
AcDbLine
 10
143.1733038451
 20
143.8188424951
 30
0.0
 11
143.1733038451
 21
138.5175220355
 31
0.0
  0
LINE
  5
1B4
330
1F
100
AcDbEntity
  8
0
  6
Continuous
 62
     7
370
    25
100
AcDbLine
 10
160.8052704658
 20
138.5175220355
 30
0.0
 11
160.8052704658
 21
158.5175215884
 31
0.0
  0
SPLINE
  5
1B5
330
1F
100
AcDbEntity
  8
0
  6
Continuous
 62
     7
370
    25
100
AcDbSpline
210
0.0
220
0.0
230
1.0
 70
     8
 71
     3
 72
    12
 73
     8
 74
     0
 42
0.000000001
 43
0.00000001
 40
0.0
 40
0.0
 40
0.0
 40
0.0
 40
0.25
 40
0.25
 40
0.5
 40
0.5
 40
1.0
 40
1.0
 40
1.0
 40
1.0
 10
160.6523901133448
 20
139.7550606321856
 30
0.0
 10
160.5712735112402
 20
139.7205554943255
 30
0.0
 10
160.5242435880719
 20
139.687710423025
 30
0.0
 10
160.46137998654
 20
139.6293578947784
 30
0.0
 10
160.4459303156229
 20
139.6037035311498
 30
0.0
 10
160.4187466512436
 20
139.54060427841
 30
0.0
 10
160.4233040462428
 20
139.5175218119354
 30
0.0
 10
160.4233040462428
 20
139.5175218119354
 30
0.0
  0
SPLINE
  5
1B6
330
1F
100
AcDbEntity
  8
0
  6
Continuous
 62
     7
370
    25
100
AcDbSpline
210
0.0
220
0.0
230
1.0
 70
     8
 71
     3
 72
    14
 73
    10
 74
     0
 42
0.000000001
 43
0.00000001
 40
0.0
 40
0.0
 40
0.0
 40
0.0
 40
0.25
 40
0.25
 40
0.5
 40
0.5
 40
0.75
 40
0.75
 40
1.0
 40
1.0
 40
1.0
 40
1.0
 10
160.6523901133448
 20
139.7550606321856
 30
0.0
 10
160.6799111010899
 20
139.7667674277311
 30
0.0
 10
160.6998310229263
 20
139.7988093808127
 30
0.0
 10
160.7154980647444
 20
139.8981331314777
 30
0.0
 10
160.711006232932
 20
139.9659565742585
 30
0.0
 10
160.6797498876485
 20
140.1283981916713
 30
0.0
 10
160.6533773042667
 20
140.222843588407
 30
0.0
 10
160.5905407531224
 20
140.4310726960036
 30
0.0
 10
160.5545011742623
 20
140.5436710888867
 30
0.0
 10
160.5205051708967
 20
140.6634274824868
 30
0.0
  0
SPLINE
  5
1B7
330
1F
100
AcDbEntity
  8
0
  6
Continuous
 62
     7
370
    25
100
AcDbSpline
210
0.0
220
0.0
230
1.0
 70
     8
 71
     3
 72
     8
 73
     4
 74
     0
 42
0.000000001
 43
0.00000001
 40
0.0
 40
0.0
 40
0.0
 40
0.0
 40
1.0
 40
1.0
 40
1.0
 40
1.0
 10
160.4233040462428
 20
141.3936183875479
 30
0.0
 10
160.4233040462428
 20
141.1461889307529
 30
0.0
 10
160.4526687533206
 20
140.9023921818456
 30
0.0
 10
160.5205051708967
 20
140.6634274824868
 30
0.0
  0
LINE
  5
1B8
330
1F
100
AcDbEntity
  8
0
  6
Continuous
 62
     7
370
    25
100
AcDbLine
 10
160.4233038786
 20
141.3936184405
 30
0.0
 11
160.4233038786
 21
155.6414251833
 31
0.0
  0
SPLINE
  5
1B9
330
1F
100
AcDbEntity
  8
0
  6
Continuous
 62
     7
370
    25
100
AcDbSpline
210
0.0
220
0.0
230
1.0
 70
     8
 71
     3
 72
     8
 73
     4
 74
     0
 42
0.000000001
 43
0.00000001
 40
0.0
 40
0.0
 40
0.0
 40
0.0
 40
1.0
 40
1.0
 40
1.0
 40
1.0
 10
160.5205051708967
 20
156.371616141384
 30
0.0
 10
160.4526687533206
 20
156.1326514420252
 30
0.0
 10
160.4233040462428
 20
155.8888546931179
 30
0.0
 10
160.4233040462428
 20
155.6414252363229
 30
0.0
  0
SPLINE
  5
1BA
330
1F
100
AcDbEntity
  8
0
  6
Continuous
 62
     7
370
    25
100
AcDbSpline
210
0.0
220
0.0
230
1.0
 70
     8
 71
     3
 72
    12
 73
     8
 74
     0
 42
0.000000001
 43
0.00000001
 40
0.0
 40
0.0
 40
0.0
 40
0.0
 40
0.4999999999999992
 40
0.4999999999999992
 40
0.7499999999999996
 40
0.7499999999999996
 40
1.0
 40
1.0
 40
1.0
 40
1.0
 10
160.5205051708967
 20
156.371616141384
 30
0.0
 10
160.5883749309065
 20
156.6106982948321
 30
0.0
 10
160.6644094821603
 20
156.8264684020089
 30
0.0
 10
160.7110540805373
 20
157.0695629947128
 30
0.0
 10
160.7154930770599
 20
157.1372282701889
 30
0.0
 10
160.6997624632671
 20
157.2363813863456
 30
0.0
 10
160.6798820333247
 20
157.2682885608988
 30
0.0
 10
160.6523901133448
 20
157.2799829916852
 30
0.0
  0
SPLINE
  5
1BB
330
1F
100
AcDbEntity
  8
0
  6
Continuous
 62
     7
370
    25
100
AcDbSpline
210
0.0
220
0.0
230
1.0
 70
     8
 71
     3
 72
    12
 73
     8
 74
     0
 42
0.000000001
 43
0.00000001
 40
0.0
 40
0.0
 40
0.0
 40
0.0
 40
0.5000000000000002
 40
0.5000000000000002
 40
0.7500000000000001
 40
0.7500000000000001
 40
1.0
 40
1.0
 40
1.0
 40
1.0
 10
160.4233040462428
 20
157.5175218119354
 30
0.0
 10
160.4233040462428
 20
157.5175218119354
 30
0.0
 10
160.4187466512436
 20
157.4944393454608
 30
0.0
 10
160.4459303156228
 20
157.431340092721
 30
0.0
 10
160.46137998654
 20
157.4056857290924
 30
0.0
 10
160.5242435880719
 20
157.3473332008457
 30
0.0
 10
160.5712735112402
 20
157.3144881295453
 30
0.0
 10
160.6523901133448
 20
157.2799829916852
 30
0.0
  0
LINE
  5
1BC
330
1F
100
AcDbEntity
  8
0
  6
Continuous
 62
     7
370
    25
100
AcDbLine
 10
162.4233037408
 20
138.5175220355
 30
0.0
 11
162.4233037408
 21
158.5175215884
 31
0.0
  0
LINE
  5
1BD
330
1F
100
AcDbEntity
  8
0
  6
Continuous
 62
     7
370
    25
100
AcDbLine
 10
162.9233038227
 20
158.0175215065
 30
0.0
 11
162.9233038227
 21
139.0175221174
 31
0.0
  0
LINE
  5
1BE
330
1F
100
AcDbEntity
  8
0
  6
Continuous
 62
     7
370
    25
100
AcDbLine
 10
142.9233042698
 20
138.7675216108
 30
0.0
 11
142.9233042698
 21
143.8670226059
 31
0.0
  0
LINE
  5
1BF
330
1F
100
AcDbEntity
  8
0
  6
Continuous
 62
     7
370
    25
100
AcDbLine
 10
142.9233042698
 20
153.168021018
 30
0.0
 11
142.9233042698
 21
158.2675220131
 31
0.0
  0
SPLINE
  5
1C0
330
1F
100
AcDbEntity
  8
0
  6
Continuous
 62
     7
370
    25
100
AcDbSpline
210
0.0
220
0.0
230
1.0
 70
     8
 71
     3
 72
    12
 73
     8
 74
     0
 42
0.000000001
 43
0.00000001
 40
0.0
 40
0.0
 40
0.0
 40
0.0
 40
0.2500000000000001
 40
0.2500000000000001
 40
0.5000000000000001
 40
0.5000000000000001
 40
1.0
 40
1.0
 40
1.0
 40
1.0
 10
145.1942179791407
 20
157.2799829916852
 30
0.0
 10
145.2753345812454
 20
157.3144881295453
 30
0.0
 10
145.3223645044137
 20
157.3473332008457
 30
0.0
 10
145.3852281059456
 20
157.4056857290924
 30
0.0
 10
145.4006777768628
 20
157.431340092721
 30
0.0
 10
145.427861441242
 20
157.4944393454608
 30
0.0
 10
145.4233040462428
 20
157.5175218119354
 30
0.0
 10
145.4233040462428
 20
157.5175218119354
 30
0.0
  0
SPLINE
  5
1C1
330
1F
100
AcDbEntity
  8
0
  6
Continuous
 62
     7
370
    25
100
AcDbSpline
210
0.0
220
0.0
230
1.0
 70
     8
 71
     3
 72
    14
 73
    10
 74
     0
 42
0.000000001
 43
0.00000001
 40
0.0
 40
0.0
 40
0.0
 40
0.0
 40
0.25
 40
0.25
 40
0.5
 40
0.5
 40
0.75
 40
0.75
 40
1.0
 40
1.0
 40
1.0
 40
1.0
 10
145.1942179791407
 20
157.2799829916852
 30
0.0
 10
145.1666969913957
 20
157.2682761961397
 30
0.0
 10
145.1467770695593
 20
157.2362342430581
 30
0.0
 10
145.1311100277412
 20
157.1369104923931
 30
0.0
 10
145.1356018595535
 20
157.0690870496123
 30
0.0
 10
145.1668582048371
 20
156.9066454321995
 30
0.0
 10
145.1932307882189
 20
156.8122000354637
 30
0.0
 10
145.2560673393632
 20
156.6039709278672
 30
0.0
 10
145.2921069182233
 20
156.4913725349841
 30
0.0
 10
145.3261029215889
 20
156.371616141384
 30
0.0
  0
SPLINE
  5
1C2
330
1F
100
AcDbEntity
  8
0
  6
Continuous
 62
     7
370
    25
100
AcDbSpline
210
0.0
220
0.0
230
1.0
 70
     8
 71
     3
 72
     8
 73
     4
 74
     0
 42
0.000000001
 43
0.00000001
 40
0.0
 40
0.0
 40
0.0
 40
0.0
 40
1.0
 40
1.0
 40
1.0
 40
1.0
 10
145.4233040462428
 20
155.6414252363229
 30
0.0
 10
145.4233040462428
 20
155.8888546931179
 30
0.0
 10
145.3939393391649
 20
156.1326514420252
 30
0.0
 10
145.3261029215889
 20
156.371616141384
 30
0.0
  0
LINE
  5
1C3
330
1F
100
AcDbEntity
  8
0
  6
Continuous
 62
     7
370
    25
100
AcDbLine
 10
145.4233042139
 20
155.6414251833
 30
0.0
 11
145.4233042139
 21
153.6958704389
 31
0.0
  0
LINE
  5
1C4
330
1F
100
AcDbEntity
  8
0
  6
Continuous
 62
     7
370
    25
100
AcDbLine
 10
145.4233042139
 20
143.339173185
 30
0.0
 11
145.4233042139
 21
141.3936184405
 31
0.0
  0
SPLINE
  5
1C5
330
1F
100
AcDbEntity
  8
0
  6
Continuous
 62
     7
370
    25
100
AcDbSpline
210
0.0
220
0.0
230
1.0
 70
     8
 71
     3
 72
     8
 73
     4
 74
     0
 42
0.000000001
 43
0.00000001
 40
0.0
 40
0.0
 40
0.0
 40
0.0
 40
1.0
 40
1.0
 40
1.0
 40
1.0
 10
145.3261029215889
 20
140.6634274824868
 30
0.0
 10
145.3939393391649
 20
140.9023921818456
 30
0.0
 10
145.4233040462428
 20
141.1461889307529
 30
0.0
 10
145.4233040462428
 20
141.3936183875479
 30
0.0
  0
SPLINE
  5
1C6
330
1F
100
AcDbEntity
  8
0
  6
Continuous
 62
     7
370
    25
100
AcDbSpline
210
0.0
220
0.0
230
1.0
 70
     8
 71
     3
 72
    12
 73
     8
 74
     0
 42
0.000000001
 43
0.00000001
 40
0.0
 40
0.0
 40
0.0
 40
0.0
 40
0.4999999999999992
 40
0.4999999999999992
 40
0.7499999999999996
 40
0.7499999999999996
 40
1.0
 40
1.0
 40
1.0
 40
1.0
 10
145.3261029215889
 20
140.6634274824868
 30
0.0
 10
145.2582331615791
 20
140.4243453290387
 30
0.0
 10
145.1821986103253
 20
140.2085752218619
 30
0.0
 10
145.1355540119483
 20
139.965480629158
 30
0.0
 10
145.1311150154257
 20
139.8978153536819
 30
0.0
 10
145.1468456292185
 20
139.7986622375252
 30
0.0
 10
145.1667260591609
 20
139.766755062972
 30
0.0
 10
145.1942179791407
 20
139.7550606321856
 30
0.0
  0
SPLINE
  5
1C7
330
1F
100
AcDbEntity
  8
0
  6
Continuous
 62
     7
370
    25
100
AcDbSpline
210
0.0
220
0.0
230
1.0
 70
     8
 71
     3
 72
    12
 73
     8
 74
     0
 42
0.000000001
 43
0.00000001
 40
0.0
 40
0.0
 40
0.0
 40
0.0
 40
0.4999999999999998
 40
0.4999999999999998
 40
0.7499999999999999
 40
0.7499999999999999
 40
1.0
 40
1.0
 40
1.0
 40
1.0
 10
145.4233040462428
 20
139.5175218119354
 30
0.0
 10
145.4233040462428
 20
139.5175218119354
 30
0.0
 10
145.427861441242
 20
139.54060427841
 30
0.0
 10
145.4006777768628
 20
139.6037035311498
 30
0.0
 10
145.3852281059456
 20
139.6293578947784
 30
0.0
 10
145.3223645044137
 20
139.687710423025
 30
0.0
 10
145.2753345812454
 20
139.7205554943255
 30
0.0
 10
145.1942179791407
 20
139.7550606321856
 30
0.0
  0
ARC
  5
1C8
330
1F
100
AcDbEntity
  8
0
  6
Continuous
 62
     7
370
    25
100
AcDbCircle
 10
159.9699862809
 20
155.7004006679
 30
0.0
 40
0.4571377824698463
100
AcDbArc
 50
264.1388497305
 51
352.5875946393
  0
ARC
  5
1C9
330
1F
100
AcDbEntity
  8
0
  6
Continuous
 62
     7
370
    25
100
AcDbCircle
 10
159.9699862809
 20
141.334642956
 30
0.0
 40
0.4571377824698463
100
AcDbArc
 50
7.4124053607
 51
95.8611502695
  0
ARC
  5
1CA
330
1F
100
AcDbEntity
  8
0
  6
Continuous
 62
     7
370
    25
100
AcDbCircle
 10
145.8766218116
 20
155.7004006679
 30
0.0
 40
0.4571377824698378
100
AcDbArc
 50
187.4124053607
 51
275.8611502695
  0
ARC
  5
1CB
330
1F
100
AcDbEntity
  8
0
  6
Continuous
 62
     7
370
    25
100
AcDbCircle
 10
145.8766218116
 20
141.334642956
 30
0.0
 40
0.4571377824698378
100
AcDbArc
 50
84.1388497305
 51
172.5875946393
  0
LWPOLYLINE
  5
1CC
330
1F
100
AcDbEntity
  8
0
  6
Continuous
 62
     7
370
    25
100
AcDbPolyline
 90
        9
 70
   128
 43
0.0
 10
145.3261030081
 20
156.3716165408
 10
145.3492351982
 20
156.3788342907
 10
145.385347231
 20
156.3901023625
 10
145.4333853151
 20
156.4050919994
 10
145.4919464129
 20
156.4233645483
 10
145.559319685
 20
156.4443872928
 10
145.6335377122
 20
156.4675455599
 10
145.7124333072
 20
156.4921632095
 10
145.7937023777
 20
156.5175221919
  0
SPLINE
  5
1CD
330
1F
100
AcDbEntity
  8
0
  6
Continuous
 62
     7
370
    25
100
AcDbSpline
210
0.0
220
0.0
230
1.0
 70
     8
 71
     3
 72
     8
 73
     4
 74
     0
 42
0.000000001
 43
0.00000001
 40
0.0
 40
0.0
 40
0.0
 40
0.0
 40
1.0
 40
1.0
 40
1.0
 40
1.0
 10
145.7937025467042
 20
156.5175218119354
 30
0.0
 10
145.8827112420927
 20
156.2322660543056
 30
0.0
 10
145.9233040462428
 20
155.9398481044236
 30
0.0
 10
145.9233040462428
 20
155.6414252363229
 30
0.0
  0
LINE
  5
1CE
330
1F
100
AcDbEntity
  8
0
  6
Continuous
 62
     7
370
    25
100
AcDbLine
 10
145.4233042139
 20
155.6414251833
 30
0.0
 11
145.9233038302
 21
155.6414251833
 31
0.0
  0
SPLINE
  5
1CF
330
1F
100
AcDbEntity
  8
0
  6
Continuous
 62
     7
370
    25
100
AcDbSpline
210
0.0
220
0.0
230
1.0
 70
     8
 71
     3
 72
     8
 73
     4
 74
     0
 42
0.000000001
 43
0.00000001
 40
0.0
 40
0.0
 40
0.0
 40
0.0
 40
1.0
 40
1.0
 40
1.0
 40
1.0
 10
159.9233040462428
 20
155.6414252363229
 30
0.0
 10
159.9233040462428
 20
155.9398481044236
 30
0.0
 10
159.963896850393
 20
156.2322660543056
 30
0.0
 10
160.0529055457814
 20
156.5175218119354
 30
0.0
  0
LWPOLYLINE
  5
1D0
330
1F
100
AcDbEntity
  8
0
  6
Continuous
 62
     7
370
    25
100
AcDbPolyline
 90
        9
 70
   128
 43
0.0
 10
160.0529057148
 20
156.5175221919
 10
160.1341747853
 20
156.4921632095
 10
160.2130703802
 20
156.4675455599
 10
160.2872884075
 20
156.4443872928
 10
160.3546616796
 20
156.4233645483
 10
160.4132227774
 20
156.4050919994
 10
160.4612608615
 20
156.3901023625
 10
160.4973728943
 20
156.3788342907
 10
160.5205050844
 20
156.3716165408
  0
LINE
  5
1D1
330
1F
100
AcDbEntity
  8
0
  6
Continuous
 62
     7
370
    25
100
AcDbLine
 10
159.9233042623
 20
155.6414251833
 30
0.0
 11
160.4233038786
 21
155.6414251833
 31
0.0
  0
SPLINE
  5
1D2
330
1F
100
AcDbEntity
  8
0
  6
Continuous
 62
     7
370
    25
100
AcDbSpline
210
0.0
220
0.0
230
1.0
 70
     8
 71
     3
 72
     8
 73
     4
 74
     0
 42
0.000000001
 43
0.00000001
 40
0.0
 40
0.0
 40
0.0
 40
0.0
 40
1.0
 40
1.0
 40
1.0
 40
1.0
 10
145.9233040462428
 20
141.3936183875479
 30
0.0
 10
145.9233040462428
 20
141.0951955194471
 30
0.0
 10
145.8827112420927
 20
140.8027775695652
 30
0.0
 10
145.7937025467042
 20
140.5175218119354
 30
0.0
  0
LWPOLYLINE
  5
1D3
330
1F
100
AcDbEntity
  8
0
  6
Continuous
 62
     7
370
    25
100
AcDbPolyline
 90
        9
 70
   128
 43
0.0
 10
145.7937023777
 20
140.517521432
 10
145.7124333072
 20
140.5428804143
 10
145.6335377122
 20
140.567498064
 10
145.559319685
 20
140.5906563311
 10
145.4919464129
 20
140.6116790756
 10
145.4333853151
 20
140.6299516245
 10
145.385347231
 20
140.6449412613
 10
145.3492351982
 20
140.6562093332
 10
145.3261030081
 20
140.6634270831
  0
LINE
  5
1D4
330
1F
100
AcDbEntity
  8
0
  6
Continuous
 62
     7
370
    25
100
AcDbLine
 10
145.4233042139
 20
141.3936184405
 30
0.0
 11
145.9233038302
 21
141.3936184405
 31
0.0
  0
LWPOLYLINE
  5
1D5
330
1F
100
AcDbEntity
  8
0
  6
Continuous
 62
     7
370
    25
100
AcDbPolyline
 90
        9
 70
   128
 43
0.0
 10
160.5205050844
 20
140.6634270831
 10
160.4973728943
 20
140.6562093332
 10
160.4612608615
 20
140.6449412613
 10
160.4132227774
 20
140.6299516245
 10
160.3546616796
 20
140.6116790756
 10
160.2872884075
 20
140.5906563311
 10
160.2130703802
 20
140.567498064
 10
160.1341747853
 20
140.5428804143
 10
160.0529057148
 20
140.517521432
  0
SPLINE
  5
1D6
330
1F
100
AcDbEntity
  8
0
  6
Continuous
 62
     7
370
    25
100
AcDbSpline
210
0.0
220
0.0
230
1.0
 70
     8
 71
     3
 72
     8
 73
     4
 74
     0
 42
0.000000001
 43
0.00000001
 40
0.0
 40
0.0
 40
0.0
 40
0.0
 40
1.0
 40
1.0
 40
1.0
 40
1.0
 10
160.0529055457814
 20
140.5175218119354
 30
0.0
 10
159.963896850393
 20
140.8027775695652
 30
0.0
 10
159.9233040462428
 20
141.0951955194471
 30
0.0
 10
159.9233040462428
 20
141.3936183875479
 30
0.0
  0
LINE
  5
1D7
330
1F
100
AcDbEntity
  8
0
  6
Continuous
 62
     7
370
    25
100
AcDbLine
 10
160.4233038786
 20
141.3936184405
 30
0.0
 11
159.9233042623
 21
141.3936184405
 31
0.0
  0
LINE
  5
1D8
330
1F
100
AcDbEntity
  8
0
  6
Continuous
 62
     7
370
    25
100
AcDbLine
 10
159.9233042623
 20
155.2456526703
 30
0.0
 11
159.9233042623
 21
155.6414251833
 31
0.0
  0
LINE
  5
1D9
330
1F
100
AcDbEntity
  8
0
  6
Continuous
 62
     7
370
    25
100
AcDbLine
 10
145.9233038302
 20
155.2456526703
 30
0.0
 11
145.9233038302
 21
155.6414251833
 31
0.0
  0
LINE
  5
1DA
330
1F
100
AcDbEntity
  8
0
  6
Continuous
 62
     7
370
    25
100
AcDbLine
 10
145.9233038302
 20
141.3936184405
 30
0.0
 11
145.9233038302
 21
141.7893909535
 31
0.0
  0
LINE
  5
1DB
330
1F
100
AcDbEntity
  8
0
  6
Continuous
 62
     7
370
    25
100
AcDbLine
 10
159.9233042623
 20
141.3936184405
 30
0.0
 11
159.9233042623
 21
141.7893909535
 31
0.0
  0
ARC
  5
1DC
330
1F
100
AcDbEntity
  8
0
  6
Continuous
 62
     7
370
    25
100
AcDbCircle
 10
145.6216841795
 20
157.4968289898
 30
0.0
 40
0.4793220025378311
100
AcDbArc
 50
206.8978733264
 51
269.5424057934
  0
SPLINE
  5
1DD
330
1F
100
AcDbEntity
  8
0
  6
Continuous
 62
     7
370
    25
100
AcDbSpline
210
0.0
220
0.0
230
1.0
 70
     8
 71
     3
 72
    14
 73
    10
 74
     0
 42
0.000000001
 43
0.00000001
 40
0.0
 40
0.0
 40
0.0
 40
0.0
 40
0.25
 40
0.25
 40
0.5
 40
0.5
 40
0.75
 40
0.75
 40
1.0
 40
1.0
 40
1.0
 40
1.0
 10
145.7937025467042
 20
156.5175218119354
 30
0.0
 10
145.7552270630826
 20
156.5791750761629
 30
0.0
 10
145.7141381416126
 20
156.6373590214358
 30
0.0
 10
145.634855294172
 20
156.7510243429027
 30
0.0
 10
145.5975723930616
 20
156.8047009416025
 30
0.0
 10
145.5447666337498
 20
156.9046909740492
 30
0.0
 10
145.5327973736562
 20
156.9490954742721
 30
0.0
 10
145.5527991620284
 20
157.0051553297659
 30
0.0
 10
145.5822556175806
 20
157.0175218119354
 30
0.0
 10
145.6178559567734
 20
157.0175218119354
 30
0.0
  0
ARC
  5
1DE
330
1F
100
AcDbEntity
  8
0
  6
Continuous
 62
     7
370
    25
100
AcDbCircle
 10
160.224923913
 20
139.5382146341
 30
0.0
 40
0.4793220025378311
100
AcDbArc
 50
26.8978733264
 51
89.5424057934
  0
SPLINE
  5
1DF
330
1F
100
AcDbEntity
  8
0
  6
Continuous
 62
     7
370
    25
100
AcDbSpline
210
0.0
220
0.0
230
1.0
 70
     8
 71
     3
 72
    14
 73
    10
 74
     0
 42
0.000000001
 43
0.00000001
 40
0.0
 40
0.0
 40
0.0
 40
0.0
 40
0.25
 40
0.25
 40
0.5
 40
0.5
 40
0.75
 40
0.75
 40
1.0
 40
1.0
 40
1.0
 40
1.0
 10
160.0529055457814
 20
140.5175218119354
 30
0.0
 10
160.091381029403
 20
140.4558685477079
 30
0.0
 10
160.132469950873
 20
140.397684602435
 30
0.0
 10
160.2117527983135
 20
140.284019280968
 30
0.0
 10
160.249035699424
 20
140.2303426822683
 30
0.0
 10
160.3018414587358
 20
140.1303526498216
 30
0.0
 10
160.3138107188294
 20
140.0859481495987
 30
0.0
 10
160.2938089304573
 20
140.0298882941049
 30
0.0
 10
160.2643524749049
 20
140.0175218119354
 30
0.0
 10
160.2287521357122
 20
140.0175218119354
 30
0.0
  0
SPLINE
  5
1E0
330
1F
100
AcDbEntity
  8
0
  6
Continuous
 62
     7
370
    25
100
AcDbSpline
210
0.0
220
0.0
230
1.0
 70
     8
 71
     3
 72
    16
 73
    12
 74
     0
 42
0.000000001
 43
0.00000001
 40
0.0
 40
0.0
 40
0.0
 40
0.0
 40
0.2500000000000011
 40
0.2500000000000011
 40
0.3749999999999992
 40
0.3749999999999992
 40
0.4999999999999974
 40
0.4999999999999974
 40
0.7499999999999987
 40
0.7499999999999987
 40
1.0
 40
1.0
 40
1.0
 40
1.0
 10
160.2287521357122
 20
157.0175218119354
 30
0.0
 10
160.2643060651608
 20
157.0175218119354
 30
0.0
 10
160.2935782063895
 20
157.0053900615196
 30
0.0
 10
160.3087907566104
 20
156.9633683552402
 30
0.0
 10
160.3088514247839
 20
156.9451539857336
 30
0.0
 10
160.2986408403066
 20
156.9032169732071
 30
0.0
 10
160.2888575107814
 20
156.8801894097128
 30
0.0
 10
160.2496929622494
 20
156.8057807309408
 30
0.0
 10
160.2118198889762
 20
156.7511228547583
 30
0.0
 10
160.1327469159846
 20
156.6377537815795
 30
0.0
 10
160.0913597833938
 20
156.5791410314753
 30
0.0
 10
160.0529055457814
 20
156.5175218119354
 30
0.0
  0
ARC
  5
1E1
330
1F
100
AcDbEntity
  8
0
  6
Continuous
 62
     7
370
    25
100
AcDbCircle
 10
160.224923913
 20
157.4968289898
 30
0.0
 40
0.4793220025378311
100
AcDbArc
 50
270.4575942066
 51
333.1021266736
  0
SPLINE
  5
1E2
330
1F
100
AcDbEntity
  8
0
  6
Continuous
 62
     7
370
    25
100
AcDbSpline
210
0.0
220
0.0
230
1.0
 70
     8
 71
     3
 72
    16
 73
    12
 74
     0
 42
0.000000001
 43
0.00000001
 40
0.0
 40
0.0
 40
0.0
 40
0.0
 40
0.2500000000000049
 40
0.2500000000000049
 40
0.3750000000000051
 40
0.3750000000000051
 40
0.5000000000000052
 40
0.5000000000000052
 40
0.7500000000000026
 40
0.7500000000000026
 40
1.0
 40
1.0
 40
1.0
 40
1.0
 10
145.6178559567734
 20
140.0175218119354
 30
0.0
 10
145.5823020273247
 20
140.0175218119354
 30
0.0
 10
145.5530298860961
 20
140.0296535623512
 30
0.0
 10
145.5378173358752
 20
140.0716752686306
 30
0.0
 10
145.5377566677016
 20
140.0898896381372
 30
0.0
 10
145.547967252179
 20
140.1318266506637
 30
0.0
 10
145.5577505817042
 20
140.154854214158
 30
0.0
 10
145.5969151302361
 20
140.22926289293
 30
0.0
 10
145.6347882035094
 20
140.2839207691125
 30
0.0
 10
145.713861176501
 20
140.3972898422913
 30
0.0
 10
145.7552483090918
 20
140.4559025923955
 30
0.0
 10
145.7937025467042
 20
140.5175218119354
 30
0.0
  0
ARC
  5
1E3
330
1F
100
AcDbEntity
  8
0
  6
Continuous
 62
     7
370
    25
100
AcDbCircle
 10
145.6216841795
 20
139.5382146341
 30
0.0
 40
0.4793220025378311
100
AcDbArc
 50
90.4575942066
 51
153.1021266736
  0
LINE
  5
1E4
330
1F
100
AcDbEntity
  8
0
  6
Continuous
 62
     7
370
    25
100
AcDbLine
 10
171.568355913
 20
153.2998012996
 30
0.0
 11
171.568355913
 21
143.7352423242
 31
0.0
  0
LINE
  5
1E5
330
1F
100
AcDbEntity
  8
0
  6
Continuous
 62
     7
370
    25
100
AcDbLine
 10
160.0529057148
 20
156.5175221919
 30
0.0
 11
145.7937023777
 21
156.5175221919
 31
0.0
  0
LINE
  5
1E6
330
1F
100
AcDbEntity
  8
0
  6
Continuous
 62
     7
370
    25
100
AcDbLine
 10
145.6178561027
 20
157.0175222739
 30
0.0
 11
160.2287519898
 21
157.0175222739
 31
0.0
  0
LINE
  5
1E7
330
1F
100
AcDbEntity
  8
0
  6
Continuous
 62
     7
370
    25
100
AcDbLine
 10
145.7937023777
 20
140.517521432
 30
0.0
 11
160.0529057148
 21
140.517521432
 31
0.0
  0
LINE
  5
1E8
330
1F
100
AcDbEntity
  8
0
  6
Continuous
 62
     7
370
    25
100
AcDbLine
 10
160.2287519898
 20
140.01752135
 30
0.0
 11
145.6178561027
 21
140.01752135
 31
0.0
  0
LINE
  5
1E9
330
1F
100
AcDbEntity
  8
0
  6
Continuous
 62
     7
370
    25
100
AcDbLine
 10
172.9233035992
 20
152.5175220019
 30
0.0
 11
172.9233035992
 21
144.5175216219
 31
0.0
  0
ARC
  5
1EA
330
1F
100
AcDbEntity
  8
0
  6
Continuous
 62
     7
370
    25
100
AcDbCircle
 10
145.9233040462
 20
157.5175218119
 30
0.0
 40
0.5000000000000284
100
AcDbArc
 50
180.0
 51
270.0
  0
ARC
  5
1EB
330
1F
100
AcDbEntity
  8
0
  6
Continuous
 62
     7
370
    25
100
AcDbCircle
 10
159.9233040462
 20
157.5175218119
 30
0.0
 40
0.5
100
AcDbArc
 50
270.0
 51
0.0
  0
ARC
  5
1EC
330
1F
100
AcDbEntity
  8
0
  6
Continuous
 62
     7
370
    25
100
AcDbCircle
 10
159.9233040462
 20
139.5175218119
 30
0.0
 40
0.5
100
AcDbArc
 50
0.0
 51
90.0
  0
ARC
  5
1ED
330
1F
100
AcDbEntity
  8
0
  6
Continuous
 62
     7
370
    25
100
AcDbCircle
 10
145.9233040462
 20
139.5175218119
 30
0.0
 40
0.5000000000000284
100
AcDbArc
 50
90.0
 51
180.0
  0
SPLINE
  5
1EE
330
1F
100
AcDbEntity
  8
0
  6
Continuous
 62
     7
370
    25
100
AcDbSpline
210
0.0
220
0.0
230
1.0
 70
     8
 71
     3
 72
    15
 73
    11
 74
     0
 42
0.000000001
 43
0.00000001
 40
0.0
 40
0.0
 40
0.0
 40
0.0
 40
0.0090436668555053
 40
0.1032416108587011
 40
0.1542555096908477
 40
0.3133160372726557
 40
0.5243720667937798
 40
0.6678058153000223
 40
0.9918331445062708
 40
0.9999999999999999
 40
0.9999999999999999
 40
0.9999999999999999
 40
0.9999999999999999
 10
147.6842187519365
 20
150.1914349070818
 30
0.0
 10
147.6842245074362
 20
150.1914172412951
 30
0.0
 10
147.6842902116544
 20
150.191215570412
 30
0.0
 10
147.6862852974432
 20
150.1850260528497
 30
0.0
 10
147.6941015201788
 20
150.1608245584077
 30
0.0
 10
147.7112725158196
 20
150.1078048846695
 30
0.0
 10
147.7378555286243
 20
150.0264347858367
 30
0.0
 10
147.7756856969068
 20
149.911855156684
 30
0.0
 10
147.8039648904247
 20
149.8274298170797
 30
0.0
 10
147.8237969812034
 20
149.768959258299
 30
0.0
 10
147.8242845448845
 20
149.7675217839957
 30
0.0
  0
ARC
  5
1EF
330
1F
100
AcDbEntity
  8
0
  6
Continuous
 62
     7
370
    25
100
AcDbCircle
 10
152.9233040462
 20
148.5175218119
 30
0.0
 40
5.50000000000002
100
AcDbArc
 50
17.7189318734
 51
162.2810681266
  0
SPLINE
  5
1F0
330
1F
100
AcDbEntity
  8
0
  6
Continuous
 62
     7
370
    25
100
AcDbSpline
210
0.0
220
0.0
230
1.0
 70
     8
 71
     3
 72
    15
 73
    11
 74
     0
 42
0.000000001
 43
0.00000001
 40
0.0
 40
0.0
 40
0.0
 40
0.0
 40
0.0081668554937291
 40
0.3321941846999776
 40
0.4756279332062201
 40
0.6866839627273442
 40
0.8457444903091523
 40
0.8967583891412989
 40
0.9909563331444947
 40
1.0
 40
1.0
 40
1.0
 40
1.0
 10
158.0223235476011
 20
149.7675217839957
 30
0.0
 10
158.0228111112821
 20
149.768959258299
 30
0.0
 10
158.0426432020609
 20
149.8274298170797
 30
0.0
 10
158.0709223955788
 20
149.911855156684
 30
0.0
 10
158.1087525638613
 20
150.0264347858367
 30
0.0
 10
158.135335576666
 20
150.1078048846695
 30
0.0
 10
158.1525065723068
 20
150.1608245584077
 30
0.0
 10
158.1603227950424
 20
150.1850260528497
 30
0.0
 10
158.1623178808312
 20
150.191215570412
 30
0.0
 10
158.1623835850494
 20
150.1914172412951
 30
0.0
 10
158.1623893405491
 20
150.1914349070818
 30
0.0
  0
ARC
  5
1F1
330
1F
100
AcDbEntity
  8
0
  6
Continuous
 62
     7
370
    25
100
AcDbCircle
 10
152.9233040462
 20
148.5175218119
 30
0.0
 40
5.250000000000009
100
AcDbArc
 50
13.774146998
 51
166.225853002
  0
SPLINE
  5
1F2
330
1F
100
AcDbEntity
  8
0
  6
Continuous
 62
     7
370
    25
100
AcDbSpline
210
0.0
220
0.0
230
1.0
 70
     8
 71
     3
 72
    15
 73
    11
 74
     0
 42
0.000000001
 43
0.00000001
 40
0.0
 40
0.0
 40
0.0
 40
0.0
 40
0.0089534934608068
 40
0.0998985020501141
 40
0.1531621750630547
 40
0.3125626131158444
 40
0.524966528186016
 40
0.6689889196484162
 40
0.9919154833883785
 40
0.9999999999999999
 40
0.9999999999999999
 40
0.9999999999999999
 40
0.9999999999999999
 10
158.4005294542008
 20
150.0175218249739
 30
0.0
 10
158.4005137905294
 20
150.0175110392046
 30
0.0
 10
158.4003390232928
 20
150.017390697106
 30
0.0
 10
158.3949083516924
 20
150.0136721058795
 30
0.0
 10
158.3733746616395
 20
149.99896152432
 30
0.0
 10
158.3256676153469
 20
149.966512152709
 30
0.0
 10
158.253277807177
 20
149.9179286748945
 30
0.0
 10
158.1513581416106
 20
149.8505572815423
 30
0.0
 10
158.0760020220936
 20
149.8017459042759
 30
0.0
 10
158.0236033180334
 20
149.7683377352242
 30
0.0
 10
158.0223235476011
 20
149.7675217839957
 30
0.0
  0
ARC
  5
1F3
330
1F
100
AcDbEntity
  8
0
  6
Continuous
 62
     7
370
    25
100
AcDbCircle
 10
158.4005296213
 20
150.2675218119
 30
0.0
 40
0.2500000000000213
100
AcDbArc
 50
197.7189318734
 51
270.0
  0
SPLINE
  5
1F4
330
1F
100
AcDbEntity
  8
0
  6
Continuous
 62
     7
370
    25
100
AcDbSpline
210
0.0
220
0.0
230
1.0
 70
     8
 71
     3
 72
    15
 73
    11
 74
     0
 42
0.000000001
 43
0.00000001
 40
0.0
 40
0.0
 40
0.0
 40
0.0
 40
0.0080845166116213
 40
0.3310110803515837
 40
0.4750334718139839
 40
0.6874373868841556
 40
0.8468378249369453
 40
0.9001014979498858
 40
0.9910465065391931
 40
0.9999999999999999
 40
0.9999999999999999
 40
0.9999999999999999
 40
0.9999999999999999
 10
147.8242845448845
 20
149.7675217839957
 30
0.0
 10
147.8230047744522
 20
149.7683377352242
 30
0.0
 10
147.770606070392
 20
149.8017459042759
 30
0.0
 10
147.695249950875
 20
149.8505572815423
 30
0.0
 10
147.5933302853086
 20
149.9179286748945
 30
0.0
 10
147.5209404771387
 20
149.966512152709
 30
0.0
 10
147.4732334308461
 20
149.99896152432
 30
0.0
 10
147.4516997407932
 20
150.0136721058795
 30
0.0
 10
147.4462690691928
 20
150.017390697106
 30
0.0
 10
147.4460943019562
 20
150.0175110392046
 30
0.0
 10
147.4460786382848
 20
150.0175218249739
 30
0.0
  0
ARC
  5
1F5
330
1F
100
AcDbEntity
  8
0
  6
Continuous
 62
     7
370
    25
100
AcDbCircle
 10
147.4460784712
 20
150.2675218119
 30
0.0
 40
0.25
100
AcDbArc
 50
270.0
 51
342.2810681266
  0
SPLINE
  5
1F6
330
1F
100
AcDbEntity
  8
0
  6
Continuous
 62
     7
370
    25
100
AcDbSpline
210
0.0
220
0.0
230
1.0
 70
     8
 71
     3
 72
    15
 73
    11
 74
     0
 42
0.000000001
 43
0.00000001
 40
0.0
 40
0.0
 40
0.0
 40
0.0
 40
0.0081668554937291
 40
0.3321941846999776
 40
0.4756279332062201
 40
0.6866839627273442
 40
0.8457444903091523
 40
0.8967583891412989
 40
0.9909563331444947
 40
1.0
 40
1.0
 40
1.0
 40
1.0
 10
147.8242845448845
 20
147.2675218398751
 30
0.0
 10
147.8237969812034
 20
147.2660843655718
 30
0.0
 10
147.8039648904247
 20
147.2076138067911
 30
0.0
 10
147.7756856969068
 20
147.1231884671868
 30
0.0
 10
147.7378555286243
 20
147.0086088380341
 30
0.0
 10
147.7112725158196
 20
146.9272387392013
 30
0.0
 10
147.6941015201788
 20
146.8742190654631
 30
0.0
 10
147.6862852974432
 20
146.850017571021
 30
0.0
 10
147.6842902116544
 20
146.8438280534588
 30
0.0
 10
147.6842245074362
 20
146.8436263825757
 30
0.0
 10
147.6842187519365
 20
146.843608716789
 30
0.0
  0
ARC
  5
1F7
330
1F
100
AcDbEntity
  8
0
  6
Continuous
 62
     7
370
    25
100
AcDbCircle
 10
152.9233040462
 20
148.5175218119
 30
0.0
 40
5.250000000000009
100
AcDbArc
 50
193.774146998
 51
346.225853002
  0
SPLINE
  5
1F8
330
1F
100
AcDbEntity
  8
0
  6
Continuous
 62
     7
370
    25
100
AcDbSpline
210
0.0
220
0.0
230
1.0
 70
     8
 71
     3
 72
    15
 73
    11
 74
     0
 42
0.000000001
 43
0.00000001
 40
0.0
 40
0.0
 40
0.0
 40
0.0
 40
0.0090436668555053
 40
0.1032416108587011
 40
0.1542555096908477
 40
0.3133160372726557
 40
0.5243720667937798
 40
0.6678058153000223
 40
0.9918331445062708
 40
0.9999999999999999
 40
0.9999999999999999
 40
0.9999999999999999
 40
0.9999999999999999
 10
158.1623893405491
 20
146.843608716789
 30
0.0
 10
158.1623835850494
 20
146.8436263825757
 30
0.0
 10
158.1623178808312
 20
146.8438280534588
 30
0.0
 10
158.1603227950424
 20
146.850017571021
 30
0.0
 10
158.1525065723068
 20
146.8742190654631
 30
0.0
 10
158.135335576666
 20
146.9272387392013
 30
0.0
 10
158.1087525638613
 20
147.0086088380341
 30
0.0
 10
158.0709223955788
 20
147.1231884671868
 30
0.0
 10
158.0426432020609
 20
147.2076138067911
 30
0.0
 10
158.0228111112821
 20
147.2660843655718
 30
0.0
 10
158.0223235476011
 20
147.2675218398751
 30
0.0
  0
ARC
  5
1F9
330
1F
100
AcDbEntity
  8
0
  6
Continuous
 62
     7
370
    25
100
AcDbCircle
 10
152.9233040462
 20
148.5175218119
 30
0.0
 40
5.50000000000002
100
AcDbArc
 50
197.7189318734
 51
342.2810681266
  0
ARC
  5
1FA
330
1F
100
AcDbEntity
  8
0
  6
Continuous
 62
     7
370
    25
100
AcDbCircle
 10
158.4005296213
 20
146.7675218119
 30
0.0
 40
0.2500000000000213
100
AcDbArc
 50
90.0
 51
162.2810681266
  0
SPLINE
  5
1FB
330
1F
100
AcDbEntity
  8
0
  6
Continuous
 62
     7
370
    25
100
AcDbSpline
210
0.0
220
0.0
230
1.0
 70
     8
 71
     3
 72
    15
 73
    11
 74
     0
 42
0.000000001
 43
0.00000001
 40
0.0
 40
0.0
 40
0.0
 40
0.0
 40
0.0080845166116213
 40
0.3310110803515837
 40
0.4750334718139839
 40
0.6874373868841556
 40
0.8468378249369453
 40
0.9001014979498858
 40
0.9910465065391931
 40
0.9999999999999999
 40
0.9999999999999999
 40
0.9999999999999999
 40
0.9999999999999999
 10
158.0223235476011
 20
147.2675218398751
 30
0.0
 10
158.0236033180334
 20
147.2667058886466
 30
0.0
 10
158.0760020220936
 20
147.2332977195949
 30
0.0
 10
158.1513581416106
 20
147.1844863423284
 30
0.0
 10
158.253277807177
 20
147.1171149489763
 30
0.0
 10
158.3256676153469
 20
147.0685314711618
 30
0.0
 10
158.3733746616395
 20
147.0360820995508
 30
0.0
 10
158.3949083516924
 20
147.0213715179913
 30
0.0
 10
158.4003390232928
 20
147.0176529267648
 30
0.0
 10
158.4005137905294
 20
147.0175325846662
 30
0.0
 10
158.4005294542008
 20
147.0175217988969
 30
0.0
  0
ARC
  5
1FC
330
1F
100
AcDbEntity
  8
0
  6
Continuous
 62
     7
370
    25
100
AcDbCircle
 10
147.4460784712
 20
146.7675218119
 30
0.0
 40
0.25
100
AcDbArc
 50
17.7189318734
 51
90.0
  0
SPLINE
  5
1FD
330
1F
100
AcDbEntity
  8
0
  6
Continuous
 62
     7
370
    25
100
AcDbSpline
210
0.0
220
0.0
230
1.0
 70
     8
 71
     3
 72
    15
 73
    11
 74
     0
 42
0.000000001
 43
0.00000001
 40
0.0
 40
0.0
 40
0.0
 40
0.0
 40
0.0089534934608068
 40
0.0998985020501141
 40
0.1531621750630547
 40
0.3125626131158444
 40
0.524966528186016
 40
0.6689889196484162
 40
0.9919154833883785
 40
0.9999999999999999
 40
0.9999999999999999
 40
0.9999999999999999
 40
0.9999999999999999
 10
147.4460786382848
 20
147.0175217988969
 30
0.0
 10
147.4460943019562
 20
147.0175325846662
 30
0.0
 10
147.4462690691928
 20
147.0176529267648
 30
0.0
 10
147.4516997407932
 20
147.0213715179913
 30
0.0
 10
147.4732334308461
 20
147.0360820995508
 30
0.0
 10
147.5209404771387
 20
147.0685314711618
 30
0.0
 10
147.5933302853086
 20
147.1171149489763
 30
0.0
 10
147.695249950875
 20
147.1844863423284
 30
0.0
 10
147.770606070392
 20
147.2332977195949
 30
0.0
 10
147.8230047744522
 20
147.2667058886466
 30
0.0
 10
147.8242845448845
 20
147.2675218398751
 30
0.0
  0
LINE
  5
1FE
330
1F
100
AcDbEntity
  8
0
  6
Continuous
 62
     7
370
    25
100
AcDbLine
 10
147.923304158
 20
147.9175217834
 30
0.0
 11
157.9233039345
 21
147.9175217834
 31
0.0
  0
LINE
  5
1FF
330
1F
100
AcDbEntity
  8
0
  6
Continuous
 62
     7
370
    25
100
AcDbLine
 10
147.923304158
 20
149.1175218404
 30
0.0
 11
147.923304158
 21
147.9175217834
 31
0.0
  0
LINE
  5
200
330
1F
100
AcDbEntity
  8
0
  6
Continuous
 62
     7
370
    25
100
AcDbLine
 10
157.9233039345
 20
147.9175217834
 30
0.0
 11
157.9233039345
 21
149.1175218404
 31
0.0
  0
LINE
  5
201
330
1F
100
AcDbEntity
  8
0
  6
Continuous
 62
     7
370
    25
100
AcDbLine
 10
157.9233039345
 20
149.1175218404
 30
0.0
 11
147.923304158
 21
149.1175218404
 31
0.0
  0
LINE
  5
202
330
1F
100
AcDbEntity
  8
0
  6
Continuous
 62
     7
370
    25
100
AcDbLine
 10
147.1733040351
 20
147.2675218399
 30
0.0
 11
147.8242845449
 21
147.2675218399
 31
0.0
  0
LINE
  5
203
330
1F
100
AcDbEntity
  8
0
  6
Continuous
 62
     7
370
    25
100
AcDbLine
 10
147.1733040351
 20
149.767521784
 30
0.0
 11
147.1733040351
 21
147.2675218399
 31
0.0
  0
LINE
  5
204
330
1F
100
AcDbEntity
  8
0
  6
Continuous
 62
     7
370
    25
100
AcDbLine
 10
147.8242845449
 20
149.767521784
 30
0.0
 11
147.1733040351
 21
149.767521784
 31
0.0
  0
LINE
  5
205
330
1F
100
AcDbEntity
  8
0
  6
Continuous
 62
     7
370
    25
100
AcDbLine
 10
158.6733040574
 20
149.767521784
 30
0.0
 11
158.0223235476
 21
149.767521784
 31
0.0
  0
LINE
  5
206
330
1F
100
AcDbEntity
  8
0
  6
Continuous
 62
     7
370
    25
100
AcDbLine
 10
158.6733040574
 20
147.2675218399
 30
0.0
 11
158.6733040574
 21
149.767521784
 31
0.0
  0
LINE
  5
207
330
1F
100
AcDbEntity
  8
0
  6
Continuous
 62
     7
370
    25
100
AcDbLine
 10
158.0223235476
 20
147.2675218399
 30
0.0
 11
158.6733040574
 21
147.2675218399
 31
0.0
  0
LINE
  5
208
330
1F
100
AcDbEntity
  8
0
  6
Continuous
 62
     7
370
    25
100
AcDbLine
 10
158.4005294542
 20
150.017521825
 30
0.0
 11
158.6733040574
 21
150.017521825
 31
0.0
  0
LINE
  5
209
330
1F
100
AcDbEntity
  8
0
  6
Continuous
 62
     7
370
    25
100
AcDbLine
 10
158.6733040574
 20
149.767521784
 30
0.0
 11
158.6733040574
 21
150.017521825
 31
0.0
  0
LINE
  5
20A
330
1F
100
AcDbEntity
  8
0
  6
Continuous
 62
     7
370
    25
100
AcDbLine
 10
147.1733040351
 20
150.017521825
 30
0.0
 11
147.1733040351
 21
149.767521784
 31
0.0
  0
LINE
  5
20B
330
1F
100
AcDbEntity
  8
0
  6
Continuous
 62
     7
370
    25
100
AcDbLine
 10
147.1733040351
 20
150.017521825
 30
0.0
 11
147.4460786383
 21
150.017521825
 31
0.0
  0
ARC
  5
20C
330
1F
100
AcDbEntity
  8
0
  6
Continuous
 62
     7
370
    25
100
AcDbCircle
 10
147.1733040462
 20
149.7675218119
 30
0.0
 40
0.25
100
AcDbArc
 50
90.0
 51
180.0
  0
LINE
  5
20D
330
1F
100
AcDbEntity
  8
0
  6
Continuous
 62
     7
370
    25
100
AcDbLine
 10
147.1733040351
 20
149.767521784
 30
0.0
 11
146.9233039941
 21
149.767521784
 31
0.0
  0
LINE
  5
20E
330
1F
100
AcDbEntity
  8
0
  6
Continuous
 62
     7
370
    25
100
AcDbLine
 10
158.9233040984
 20
149.767521784
 30
0.0
 11
158.6733040574
 21
149.767521784
 31
0.0
  0
ARC
  5
20F
330
1F
100
AcDbEntity
  8
0
  6
Continuous
 62
     7
370
    25
100
AcDbCircle
 10
158.6733040462
 20
149.7675218119
 30
0.0
 40
0.25
100
AcDbArc
 50
0.0
 51
90.0
  0
LINE
  5
210
330
1F
100
AcDbEntity
  8
0
  6
Continuous
 62
     7
370
    25
100
AcDbLine
 10
158.9233040984
 20
149.767521784
 30
0.0
 11
158.9233040984
 21
147.2675218399
 31
0.0
  0
LINE
  5
211
330
1F
100
AcDbEntity
  8
0
  6
Continuous
 62
     7
370
    25
100
AcDbLine
 10
158.6733040574
 20
147.2675218399
 30
0.0
 11
158.9233040984
 21
147.2675218399
 31
0.0
  0
LINE
  5
212
330
1F
100
AcDbEntity
  8
0
  6
Continuous
 62
     7
370
    25
100
AcDbLine
 10
146.9233039941
 20
147.2675218399
 30
0.0
 11
147.1733040351
 21
147.2675218399
 31
0.0
  0
LINE
  5
213
330
1F
100
AcDbEntity
  8
0
  6
Continuous
 62
     7
370
    25
100
AcDbLine
 10
146.9233039941
 20
147.2675218399
 30
0.0
 11
146.9233039941
 21
149.767521784
 31
0.0
  0
LINE
  5
214
330
1F
100
AcDbEntity
  8
0
  6
Continuous
 62
     7
370
    25
100
AcDbLine
 10
158.6733040574
 20
147.0175217989
 30
0.0
 11
158.6733040574
 21
147.2675218399
 31
0.0
  0
ARC
  5
215
330
1F
100
AcDbEntity
  8
0
  6
Continuous
 62
     7
370
    25
100
AcDbCircle
 10
158.6733040462
 20
147.2675218119
 30
0.0
 40
0.25
100
AcDbArc
 50
270.0
 51
0.0
  0
LINE
  5
216
330
1F
100
AcDbEntity
  8
0
  6
Continuous
 62
     7
370
    25
100
AcDbLine
 10
158.6733040574
 20
147.0175217989
 30
0.0
 11
158.4005294542
 21
147.0175217989
 31
0.0
  0
LINE
  5
217
330
1F
100
AcDbEntity
  8
0
  6
Continuous
 62
     7
370
    25
100
AcDbLine
 10
147.1733040351
 20
147.2675218399
 30
0.0
 11
147.1733040351
 21
147.0175217989
 31
0.0
  0
LINE
  5
218
330
1F
100
AcDbEntity
  8
0
  6
Continuous
 62
     7
370
    25
100
AcDbLine
 10
147.4460786383
 20
147.0175217989
 30
0.0
 11
147.1733040351
 21
147.0175217989
 31
0.0
  0
ARC
  5
219
330
1F
100
AcDbEntity
  8
0
  6
Continuous
 62
     7
370
    25
100
AcDbCircle
 10
147.1733040462
 20
147.2675218119
 30
0.0
 40
0.25
100
AcDbArc
 50
180.0
 51
270.0
  0
LINE
  5
21A
330
1F
100
AcDbEntity
  8
0
  6
Continuous
 62
     7
370
    25
100
AcDbLine
 10
132.9233044933
 20
145.2458226274
 30
0.0
 11
132.9233044933
 21
151.7892209965
 31
0.0
  0
LINE
  5
21B
330
1F
100
AcDbEntity
  8
0
  6
Continuous
 62
     7
370
    25
100
AcDbLine
 10
130.7478672068
 20
145.0175217039
 30
0.0
 11
132.9233044933
 21
145.2458226274
 31
0.0
  0
LINE
  5
21C
330
1F
100
AcDbEntity
  8
0
  6
Continuous
 62
     7
370
    25
100
AcDbLine
 10
112.9233049403
 20
145.0175217039
 30
0.0
 11
130.7478672068
 21
145.0175217039
 31
0.0
  0
LINE
  5
21D
330
1F
100
AcDbEntity
  8
0
  6
Continuous
 62
     7
370
    25
100
AcDbLine
 10
130.7478672068
 20
152.01752192
 30
0.0
 11
112.9233049403
 21
152.01752192
 31
0.0
  0
LINE
  5
21E
330
1F
100
AcDbEntity
  8
0
  6
Continuous
 62
     7
370
    25
100
AcDbLine
 10
112.9233049403
 20
152.01752192
 30
0.0
 11
112.9233049403
 21
145.0175217039
 31
0.0
  0
LINE
  5
21F
330
1F
100
AcDbEntity
  8
0
  6
Continuous
 62
     7
370
    25
100
AcDbLine
 10
132.9233044933
 20
151.7892209965
 30
0.0
 11
130.7478672068
 21
152.01752192
 31
0.0
  0
LINE
  5
220
330
1F
100
AcDbEntity
  8
0
  6
Continuous
 62
     7
370
    25
100
AcDbLine
 10
147.6995017554
 20
150.2385363135
 30
0.0
 11
147.5710928614
 21
150.0543946319
 31
0.0
  0
LINE
  5
221
330
1F
100
AcDbEntity
  8
0
  6
Continuous
 62
     7
370
    25
100
AcDbLine
 10
147.5806603383
 20
146.9723041088
 30
0.0
 11
147.6995017554
 21
146.7965073104
 31
0.0
  0
LINE
  5
222
330
1F
100
AcDbEntity
  8
0
  6
Continuous
 62
     7
370
    25
100
AcDbLine
 10
139.5067343663
 20
151.0983244668
 30
0.0
 11
139.5067343663
 21
145.9367191571
 31
0.0
  0
LWPOLYLINE
  5
223
330
1F
100
AcDbEntity
  8
0
  6
Continuous
 62
     7
370
    25
100
AcDbPolyline
 90
       15
 70
   128
 43
0.0
 10
147.6995017554
 20
146.7965073104
 10
147.3700449976
 20
146.7619325419
 10
146.9897799368
 20
146.7220257188
 10
146.560893784
 20
146.6770162958
 10
146.0858522157
 20
146.6271631804
 10
145.5673868011
 20
146.5727529873
 10
145.008479635
 20
146.5140986408
 10
144.4123437802
 20
146.4515372797
 10
143.7824074353
 20
146.3854287437
 10
143.1222925137
 20
146.3161532453
 10
142.4357960175
 20
146.2441089249
 10
141.7268658231
 20
146.1697102211
 10
140.9995764668
 20
146.0933850764
 10
140.2581114496
 20
146.0155723768
 10
139.5067343663
 20
145.9367191571
  0
LWPOLYLINE
  5
224
330
1F
100
AcDbEntity
  8
0
  6
Continuous
 62
     7
370
    25
100
AcDbPolyline
 90
       15
 70
   128
 43
0.0
 10
139.5067343663
 20
151.0983244668
 10
140.2581114496
 20
151.019471247
 10
140.9995764668
 20
150.9416585474
 10
141.7268658231
 20
150.8653334028
 10
142.4357960175
 20
150.7909346989
 10
143.1222925137
 20
150.7188903785
 10
143.7824074353
 20
150.6496148801
 10
144.4123437802
 20
150.5835063442
 10
145.008479635
 20
150.5209449831
 10
145.5673868011
 20
150.4622906365
 10
146.0858522157
 20
150.4078804434
 10
146.560893784
 20
150.3580273281
 10
146.9897799368
 20
150.313017905
 10
147.3700449976
 20
150.273111082
 10
147.6995017554
 20
150.2385363135
  0
LWPOLYLINE
  5
225
330
1F
100
AcDbEntity
  8
0
  6
Continuous
 62
     7
370
    25
100
AcDbPolyline
 90
       18
 70
   128
 43
0.0
 10
139.5067343663
 20
145.9367191571
 10
138.9188854198
 20
145.8750274184
 10
138.3310783829
 20
145.8133403364
 10
137.7489701088
 20
145.7522509306
 10
137.1781615715
 20
145.6923475641
 10
136.6241419862
 20
145.6342062599
 10
136.0922450374
 20
145.5783862772
 10
135.5875874113
 20
145.5254249892
 10
135.115023161
 20
145.4758320621
 10
134.6791008662
 20
145.4300843331
 10
134.2840152036
 20
145.3886220849
 10
133.9335659693
 20
145.3518441564
 10
133.6311264138
 20
145.3201046831
 10
133.3796041261
 20
145.2937089059
 10
133.1814224075
 20
145.2729106101
 10
133.0384848814
 20
145.2579102631
 10
132.9521680425
 20
145.2488517541
 10
132.9233044933
 20
145.2458226274
  0
LWPOLYLINE
  5
226
330
1F
100
AcDbEntity
  8
0
  6
Continuous
 62
     7
370
    25
100
AcDbPolyline
 90
       18
 70
   128
 43
0.0
 10
132.9233044933
 20
151.7892209965
 10
132.9521680425
 20
151.7861918698
 10
133.0384848814
 20
151.7771333608
 10
133.1814224075
 20
151.7621330137
 10
133.3796041261
 20
151.741334718
 10
133.6311264138
 20
151.7149389408
 10
133.9335659693
 20
151.6831994674
 10
134.2840152036
 20
151.646421539
 10
134.6791008662
 20
151.6049592908
 10
135.115023161
 20
151.5592115617
 10
135.5875874113
 20
151.5096186346
 10
136.0922450374
 20
151.4566573466
 10
136.6241419862
 20
151.400837364
 10
137.1781615715
 20
151.3426960598
 10
137.7489701088
 20
151.2827926933
 10
138.3310783829
 20
151.2217032875
 10
138.9188854198
 20
151.1600162054
 10
139.5067343663
 20
151.0983244668
  0
ARC
  5
227
330
1F
100
AcDbEntity
  8
0
  6
Continuous
 62
     7
370
    25
100
AcDbCircle
 10
152.9233040462
 20
148.5175218119
 30
0.0
 40
7.45000000000065
100
AcDbArc
 50
233.0863788866
 51
126.9136211134
  0
ARC
  5
228
330
1F
100
AcDbEntity
  8
0
  6
Continuous
 62
     7
370
    25
100
AcDbCircle
 10
152.9233040462
 20
148.5175218119
 30
0.0
 40
7.207531252870806
100
AcDbArc
 50
195.3041237151
 51
238.9797515565
  0
ARC
  5
229
330
1F
100
AcDbEntity
  8
0
  6
Continuous
 62
     7
370
    25
100
AcDbCircle
 10
152.9233040462
 20
148.5175218119
 30
0.0
 40
7.207531252872461
100
AcDbArc
 50
121.0202484435
 51
164.6958762849
  0
ARC
  5
22A
330
1F
100
AcDbEntity
  8
0
  6
Continuous
 62
     7
370
    25
100
AcDbCircle
 10
130.7478671847
 20
217.0175218119
 30
0.0
 40
64.99999999999999
100
AcDbArc
 50
270.0
 51
286.5000949923
  0
ARC
  5
22B
330
1F
100
AcDbEntity
  8
0
  6
Continuous
 62
     7
370
    25
100
AcDbCircle
 10
130.7478671847
 20
80.0175218119
 30
0.0
 40
64.99999999999999
100
AcDbArc
 50
73.4999050077
 51
90.0
  0
LINE
  5
22C
330
1F
100
AcDbEntity
  8
0
  6
Continuous
 62
     7
370
    25
100
AcDbLine
 10
140.1733042847
 20
156.5175221919
 30
0.0
 11
140.1733042847
 21
152.7045283153
 31
0.0
  0
LINE
  5
22D
330
1F
100
AcDbEntity
  8
0
  6
Continuous
 62
     7
370
    25
100
AcDbLine
 10
140.1733042847
 20
144.3305153086
 30
0.0
 11
140.1733042847
 21
140.517521432
 31
0.0
  0
LINE
  5
22E
330
1F
100
AcDbEntity
  8
0
  6
Continuous
 62
     7
370
    25
100
AcDbLine
 10
139.923303778
 20
140.7675219386
 30
0.0
 11
139.923303778
 21
144.3666580751
 31
0.0
  0
LINE
  5
22F
330
1F
100
AcDbEntity
  8
0
  6
Continuous
 62
     7
370
    25
100
AcDbLine
 10
139.923303778
 20
152.6683855488
 30
0.0
 11
139.923303778
 21
156.2675216853
 31
0.0
  0
ARC
  5
230
330
1F
100
AcDbEntity
  8
0
  6
Continuous
 62
     7
370
    25
100
AcDbCircle
 10
122.9233040462
 20
148.5175218119
 30
0.0
 40
4.500000000000022
100
AcDbArc
 50
231.057558731
 51
270.0
  0
ARC
  5
231
330
1F
100
AcDbEntity
  8
0
  6
Continuous
 62
     7
370
    25
100
AcDbCircle
 10
122.9233040462
 20
148.5175218119
 30
0.0
 40
4.500000000000015
100
AcDbArc
 50
90.0
 51
128.942441269
  0
LINE
  5
232
330
1F
100
AcDbEntity
  8
0
  6
Continuous
 62
     8
370
    25
100
AcDbLine
 10
159.9233042623
 20
141.7893909535
 30
0.0
 11
159.9233042623
 21
145.9675217199
 31
0.0
  0
LINE
  5
233
330
1F
100
AcDbEntity
  8
0
  6
Continuous
 62
     8
370
    25
100
AcDbLine
 10
159.9233042623
 20
151.067521904
 30
0.0
 11
159.9233042623
 21
155.2456526703
 31
0.0
  0
LINE
  5
234
330
1F
100
AcDbEntity
  8
0
  6
Continuous
 62
     8
370
    25
100
AcDbLine
 10
145.9233038302
 20
155.2456526703
 30
0.0
 11
145.9233038302
 21
153.8138340845
 31
0.0
  0
LINE
  5
235
330
1F
100
AcDbEntity
  8
0
  6
Continuous
 62
     8
370
    25
100
AcDbLine
 10
145.9233038302
 20
143.2212095394
 30
0.0
 11
145.9233038302
 21
141.7893909535
 31
0.0
  0
LINE
  5
236
330
1F
100
AcDbEntity
  8
0
  6
Continuous
 62
     8
370
    25
100
AcDbLine
 10
159.9233042623
 20
155.2456526703
 30
0.0
 11
156.1224841687
 21
155.2456526703
 31
0.0
  0
LINE
  5
237
330
1F
100
AcDbEntity
  8
0
  6
Continuous
 62
     8
370
    25
100
AcDbLine
 10
149.7241239238
 20
155.2456526703
 30
0.0
 11
145.9233038302
 21
155.2456526703
 31
0.0
  0
LINE
  5
238
330
1F
100
AcDbEntity
  8
0
  6
Continuous
 62
     8
370
    25
100
AcDbLine
 10
145.9233038302
 20
141.7893909535
 30
0.0
 11
149.7241239238
 21
141.7893909535
 31
0.0
  0
LINE
  5
239
330
1F
100
AcDbEntity
  8
0
  6
Continuous
 62
     8
370
    25
100
AcDbLine
 10
156.1224841687
 20
141.7893909535
 30
0.0
 11
159.9233042623
 21
141.7893909535
 31
0.0
  0
LINE
  5
23A
330
1F
100
AcDbEntity
  8
0
  6
Continuous
 62
     8
370
    25
100
AcDbLine
 10
145.9233038302
 20
155.6414251833
 30
0.0
 11
150.7432811602
 21
155.6414251833
 31
0.0
  0
LINE
  5
23B
330
1F
100
AcDbEntity
  8
0
  6
Continuous
 62
     8
370
    25
100
AcDbLine
 10
155.1033269323
 20
155.6414251833
 30
0.0
 11
159.9233042623
 21
155.6414251833
 31
0.0
  0
LINE
  5
23C
330
1F
100
AcDbEntity
  8
0
  6
Continuous
 62
     8
370
    25
100
AcDbLine
 10
159.9233042623
 20
141.3936184405
 30
0.0
 11
155.1033269323
 21
141.3936184405
 31
0.0
  0
LINE
  5
23D
330
1F
100
AcDbEntity
  8
0
  6
Continuous
 62
     8
370
    25
100
AcDbLine
 10
150.7432811602
 20
141.3936184405
 30
0.0
 11
145.9233038302
 21
141.3936184405
 31
0.0
  0
LINE
  5
23E
330
1F
100
AcDbEntity
  8
0
  6
Continuous
 62
     8
370
    25
100
AcDbLine
 10
133.9233046572
 20
144.0175220057
 30
0.0
 11
133.9233046572
 21
144.9399108685
 31
0.0
  0
LINE
  5
23F
330
1F
100
AcDbEntity
  8
0
  6
Continuous
 62
     8
370
    25
100
AcDbLine
 10
133.9233046572
 20
152.0951327554
 30
0.0
 11
133.9233046572
 21
153.0175216182
 31
0.0
  0
LINE
  5
240
330
1F
100
AcDbEntity
  8
0
  6
Continuous
 62
     7
370
     0
100
AcDbLine
 10
172.4655126586
 20
144.2532158311
 30
0.0
 11
162.9233040462
 21
143.9550218119
 31
0.0
  0
LINE
  5
241
330
1F
100
AcDbEntity
  8
0
  6
Continuous
 62
     7
370
     0
100
AcDbLine
 10
172.4655126586
 20
152.7818277928
 30
0.0
 11
162.9233040462
 21
153.0800218119
 31
0.0
  0
LINE
  5
242
330
1F
100
AcDbEntity
  8
0
  6
Continuous
 62
     7
370
     0
100
AcDbLine
 10
162.9233040462
 20
153.5699593119
 30
0.0
 11
162.9233040462
 21
143.4650843119
 31
0.0
  0
ENDSEC
  0
SECTION
  2
OBJECTS
  0
DICTIONARY
  5
C
330
0
100
AcDbDictionary
281
     1
  3
ACAD_GROUP
350
D
  3
ACAD_LAYOUT
350
1A
  3
ACAD_MLINESTYLE
350
17
  3
ACAD_PLOTSETTINGS
350
19
  3
ACAD_PLOTSTYLENAME
350
E
  3
ACAD_SCALELIST
350
47
  0
DICTIONARY
  5
D
102
{ACAD_REACTORS
330
C
102
}
330
C
100
AcDbDictionary
281
     1
  0
DICTIONARY
  5
1A
102
{ACAD_REACTORS
330
C
102
}
330
C
100
AcDbDictionary
281
     1
  3
Layout1
350
1E
  3
Layout2
350
26
  3
Model
350
22
  0
DICTIONARY
  5
17
102
{ACAD_REACTORS
330
C
102
}
330
C
100
AcDbDictionary
281
     1
  3
Standard
350
18
  0
DICTIONARY
  5
19
102
{ACAD_REACTORS
330
C
102
}
330
C
100
AcDbDictionary
281
     1
  0
ACDBDICTIONARYWDFLT
  5
E
102
{ACAD_REACTORS
330
C
102
}
330
C
100
AcDbDictionary
281
     1
  3
Normal
350
F
100
AcDbDictionaryWithDefault
340
F
  0
DICTIONARY
  5
47
102
{ACAD_REACTORS
330
C
102
}
330
C
100
AcDbDictionary
281
     1
  3
A0
350
48
  3
A1
350
49
  3
A2
350
4A
  3
A3
350
4B
  3
A4
350
4C
  3
A5
350
4D
  3
A6
350
4E
  3
A7
350
4F
  3
A8
350
50
  3
A9
350
51
  3
B0
350
52
  3
B1
350
53
  3
B2
350
54
  3
B3
350
55
  3
B4
350
56
  3
B5
350
57
  3
B6
350
58
  3
B7
350
59
  3
B8
350
5A
  3
B9
350
5B
  3
C0
350
5C
  3
C1
350
5D
  3
C2
350
5E
  3
C3
350
5F
  3
C4
350
60
  3
C5
350
61
  3
C6
350
62
  3
C7
350
63
  3
C8
350
64
  3
C9
350
65
  3
D0
350
66
  3
D1
350
67
  3
D2
350
68
  0
LAYOUT
  5
1E
102
{ACAD_REACTORS
330
1A
102
}
330
1A
100
AcDbPlotSettings
  1

  2
none_device
  4

  6

 40
0.0
 41
0.0
 42
0.0
 43
0.0
 44
0.0
 45
0.0
 46
0.0
 47
0.0
 48
0.0
 49
0.0
140
0.0
141
0.0
142
1.0
143
1.0
 70
   688
 72
     1
 73
     0
 74
     5
  7

 75
    16
147
1.0
148
0.0
149
0.0
100
AcDbLayout
  1
Layout1
 70
     1
 71
     1
 10
0.0
 20
0.0
 11
420.0
 21
297.0
 12
0.0
 22
0.0
 32
0.0
 14
1.0000000000E+20
 24
1.0000000000E+20
 34
1.0000000000E+20
 15
-1.0000000000E+20
 25
-1.0000000000E+20
 35
-1.0000000000E+20
146
0.0
 13
0.0
 23
0.0
 33
0.0
 16
1.0
 26
0.0
 36
0.0
 17
0.0
 27
1.0
 37
0.0
 76
     0
330
1B
  0
LAYOUT
  5
26
102
{ACAD_REACTORS
330
1A
102
}
330
1A
100
AcDbPlotSettings
  1

  2
none_device
  4

  6

 40
0.0
 41
0.0
 42
0.0
 43
0.0
 44
0.0
 45
0.0
 46
0.0
 47
0.0
 48
0.0
 49
0.0
140
0.0
141
0.0
142
1.0
143
1.0
 70
   688
 72
     1
 73
     0
 74
     5
  7

 75
    16
147
1.0
148
0.0
149
0.0
100
AcDbLayout
  1
Layout2
 70
     1
 71
     2
 10
0.0
 20
0.0
 11
0.0
 21
0.0
 12
0.0
 22
0.0
 32
0.0
 14
0.0
 24
0.0
 34
0.0
 15
0.0
 25
0.0
 35
0.0
146
0.0
 13
0.0
 23
0.0
 33
0.0
 16
1.0
 26
0.0
 36
0.0
 17
0.0
 27
1.0
 37
0.0
 76
     0
330
23
  0
LAYOUT
  5
22
102
{ACAD_REACTORS
330
1A
102
}
330
1A
100
AcDbPlotSettings
  1

  2
none_device
  4
Letter_(8.50_x_11.00_Inches)
  6

 40
6.35
 41
6.35
 42
6.35000508
 43
6.35000508
 44
215.9
 45
279.4
 46
0.0
 47
0.0
 48
0.0
 49
0.0
140
0.0
141
0.0
142
1.0
143
1.0
 70
  1712
 72
     1
 73
     0
 74
     0
  7

 75
     0
147
1.0
148
0.0
149
0.0
100
AcDbLayout
  1
Model
 70
     1
 71
     0
 10
0.0
 20
0.0
 11
431.8
 21
279.4
 12
0.0
 22
0.0
 32
0.0
 14
0.0
 24
0.0
 34
0.0
 15
431.8
 25
279.4
 35
0.0
146
0.0
 13
0.0
 23
0.0
 33
0.0
 16
1.0
 26
0.0
 36
0.0
 17
0.0
 27
1.0
 37
0.0
 76
     0
330
1F
331
29
  0
MLINESTYLE
  5
18
102
{ACAD_REACTORS
330
17
102
}
330
17
100
AcDbMlineStyle
  2
Standard
 70
     0
  3

 62
   256
 51
90.0
 52
90.0
 71
     2
 49
0.5
 62
   256
  6
BYLAYER
 49
-0.5
 62
   256
  6
BYLAYER
  0
ACDBPLACEHOLDER
  5
F
102
{ACAD_REACTORS
330
E
102
}
330
E
  0
SCALE
  5
48
102
{ACAD_REACTORS
330
47
102
}
330
47
100
AcDbScale
 70
     0
300
1:1
140
1.0
141
1.0
290
     1
  0
SCALE
  5
49
102
{ACAD_REACTORS
330
47
102
}
330
47
100
AcDbScale
 70
     0
300
1:2
140
1.0
141
2.0
290
     0
  0
SCALE
  5
4A
102
{ACAD_REACTORS
330
47
102
}
330
47
100
AcDbScale
 70
     0
300
1:4
140
1.0
141
4.0
290
     0
  0
SCALE
  5
4B
102
{ACAD_REACTORS
330
47
102
}
330
47
100
AcDbScale
 70
     0
300
1:5
140
1.0
141
5.0
290
     0
  0
SCALE
  5
4C
102
{ACAD_REACTORS
330
47
102
}
330
47
100
AcDbScale
 70
     0
300
1:8
140
1.0
141
8.0
290
     0
  0
SCALE
  5
4D
102
{ACAD_REACTORS
330
47
102
}
330
47
100
AcDbScale
 70
     0
300
1:10
140
1.0
141
10.0
290
     0
  0
SCALE
  5
4E
102
{ACAD_REACTORS
330
47
102
}
330
47
100
AcDbScale
 70
     0
300
1:16
140
1.0
141
16.0
290
     0
  0
SCALE
  5
4F
102
{ACAD_REACTORS
330
47
102
}
330
47
100
AcDbScale
 70
     0
300
1:20
140
1.0
141
20.0
290
     0
  0
SCALE
  5
50
102
{ACAD_REACTORS
330
47
102
}
330
47
100
AcDbScale
 70
     0
300
1:30
140
1.0
141
30.0
290
     0
  0
SCALE
  5
51
102
{ACAD_REACTORS
330
47
102
}
330
47
100
AcDbScale
 70
     0
300
1:40
140
1.0
141
40.0
290
     0
  0
SCALE
  5
52
102
{ACAD_REACTORS
330
47
102
}
330
47
100
AcDbScale
 70
     0
300
1:50
140
1.0
141
50.0
290
     0
  0
SCALE
  5
53
102
{ACAD_REACTORS
330
47
102
}
330
47
100
AcDbScale
 70
     0
300
1:100
140
1.0
141
100.0
290
     0
  0
SCALE
  5
54
102
{ACAD_REACTORS
330
47
102
}
330
47
100
AcDbScale
 70
     0
300
2:1
140
2.0
141
1.0
290
     0
  0
SCALE
  5
55
102
{ACAD_REACTORS
330
47
102
}
330
47
100
AcDbScale
 70
     0
300
4:1
140
4.0
141
1.0
290
     0
  0
SCALE
  5
56
102
{ACAD_REACTORS
330
47
102
}
330
47
100
AcDbScale
 70
     0
300
8:1
140
8.0
141
1.0
290
     0
  0
SCALE
  5
57
102
{ACAD_REACTORS
330
47
102
}
330
47
100
AcDbScale
 70
     0
300
10:1
140
10.0
141
1.0
290
     0
  0
SCALE
  5
58
102
{ACAD_REACTORS
330
47
102
}
330
47
100
AcDbScale
 70
     0
300
100:1
140
100.0
141
1.0
290
     0
  0
SCALE
  5
59
102
{ACAD_REACTORS
330
47
102
}
330
47
100
AcDbScale
 70
     0
300
1/128" = 1'-0"
140
0.0078125
141
12.0
290
     0
  0
SCALE
  5
5A
102
{ACAD_REACTORS
330
47
102
}
330
47
100
AcDbScale
 70
     0
300
1/64" = 1'-0"
140
0.015625
141
12.0
290
     0
  0
SCALE
  5
5B
102
{ACAD_REACTORS
330
47
102
}
330
47
100
AcDbScale
 70
     0
300
1/32" = 1'-0"
140
0.03125
141
12.0
290
     0
  0
SCALE
  5
5C
102
{ACAD_REACTORS
330
47
102
}
330
47
100
AcDbScale
 70
     0
300
1/16" = 1'-0"
140
0.0625
141
12.0
290
     0
  0
SCALE
  5
5D
102
{ACAD_REACTORS
330
47
102
}
330
47
100
AcDbScale
 70
     0
300
3/32" = 1'-0"
140
0.09375
141
12.0
290
     0
  0
SCALE
  5
5E
102
{ACAD_REACTORS
330
47
102
}
330
47
100
AcDbScale
 70
     0
300
1/8" = 1'-0"
140
0.125
141
12.0
290
     0
  0
SCALE
  5
5F
102
{ACAD_REACTORS
330
47
102
}
330
47
100
AcDbScale
 70
     0
300
3/16" = 1'-0"
140
0.1875
141
12.0
290
     0
  0
SCALE
  5
60
102
{ACAD_REACTORS
330
47
102
}
330
47
100
AcDbScale
 70
     0
300
1/4" = 1'-0"
140
0.25
141
12.0
290
     0
  0
SCALE
  5
61
102
{ACAD_REACTORS
330
47
102
}
330
47
100
AcDbScale
 70
     0
300
3/8" = 1'-0"
140
0.375
141
12.0
290
     0
  0
SCALE
  5
62
102
{ACAD_REACTORS
330
47
102
}
330
47
100
AcDbScale
 70
     0
300
1/2" = 1'-0"
140
0.5
141
12.0
290
     0
  0
SCALE
  5
63
102
{ACAD_REACTORS
330
47
102
}
330
47
100
AcDbScale
 70
     0
300
3/4" = 1'-0"
140
0.75
141
12.0
290
     0
  0
SCALE
  5
64
102
{ACAD_REACTORS
330
47
102
}
330
47
100
AcDbScale
 70
     0
300
1" = 1'-0"
140
1.0
141
12.0
290
     0
  0
SCALE
  5
65
102
{ACAD_REACTORS
330
47
102
}
330
47
100
AcDbScale
 70
     0
300
1-1/2" = 1'-0"
140
1.5
141
12.0
290
     0
  0
SCALE
  5
66
102
{ACAD_REACTORS
330
47
102
}
330
47
100
AcDbScale
 70
     0
300
3" = 1'-0"
140
3.0
141
12.0
290
     0
  0
SCALE
  5
67
102
{ACAD_REACTORS
330
47
102
}
330
47
100
AcDbScale
 70
     0
300
6" = 1'-0"
140
6.0
141
12.0
290
     0
  0
SCALE
  5
68
102
{ACAD_REACTORS
330
47
102
}
330
47
100
AcDbScale
 70
     0
300
1'-0" = 1'-0"
140
12.0
141
12.0
290
     0
  0
ENDSEC
  0
EOF
