  0
SECTION
  2
HEADER
  9
$ACADVER
  1
AC1015
  9
$ACADMAINTVER
 70
     6
  9
$DWGCODEPAGE
  3
DOS932
  9
$INSBASE
 10
0.0
 20
0.0
 30
0.0
  9
$EXTMIN
 10
0.0
 20
0.0
 30
0.0
  9
$EXTMAX
 10
431.8
 20
279.4
 30
0.0
  9
$LIMMIN
 10
0.0
 20
0.0
  9
$LIMMAX
 10
431.8
 20
279.4
  9
$ORTHOMODE
 70
     0
  9
$REGENMODE
 70
     1
  9
$FILLMODE
 70
     1
  9
$QTEXTMODE
 70
     0
  9
$MIRRTEXT
 70
     1
  9
$LTSCALE
 40
1.0
  9
$ATTMODE
 70
     1
  9
$TEXTSIZE
 40
3.5
  9
$TRACEWID
 40
1.0
  9
$TEXTSTYLE
  7
Standard
  9
$CLAYER
  8
0
  9
$CELTYPE
  6
ByLayer
  9
$CECOLOR
 62
   256
  9
$CELTSCALE
 40
1.0
  9
$DISPSILH
 70
     0
  9
$DIMSCALE
 40
1.0
  9
$DIMASZ
 40
3.556
  9
$DIMEXO
 40
1.0
  9
$DIMDLI
 40
3.75
  9
$DIMRND
 40
0.0
  9
$DIMDLE
 40
0.0
  9
$DIMEXE
 40
1.0
  9
$DIMTP
 40
0.0
  9
$DIMTM
 40
0.0
  9
$DIMTXT
 40
3.5
  9
$DIMCEN
 40
2.5
  9
$DIMTSZ
 40
0.0
  9
$DIMTOL
 70
     0
  9
$DIMLIM
 70
     0
  9
$DIMTIH
 70
     1
  9
$DIMTOH
 70
     1
  9
$DIMSE1
 70
     0
  9
$DIMSE2
 70
     0
  9
$DIMTAD
 70
     1
  9
$DIMZIN
 70
     0
  9
$DIMBLK
  1

  9
$DIMASO
 70
     1
  9
$DIMSHO
 70
     1
  9
$DIMPOST
  1

  9
$DIMAPOST
  1

  9
$DIMALT
 70
     0
  9
$DIMALTD
 70
     3
  9
$DIMALTF
 40
0.0393700787
  9
$DIMLFAC
 40
1.0
  9
$DIMTOFL
 70
     1
  9
$DIMTVP
 40
0.0
  9
$DIMTIX
 70
     0
  9
$DIMSOXD
 70
     0
  9
$DIMSAH
 70
     0
  9
$DIMBLK1
  1

  9
$DIMBLK2
  1

  9
$DIMSTYLE
  2
ISO-25
  9
$DIMCLRD
 70
     0
  9
$DIMCLRE
 70
     0
  9
$DIMCLRT
 70
     0
  9
$DIMTFAC
 40
1.0
  9
$DIMGAP
 40
1.524
  9
$DIMJUST
 70
     0
  9
$DIMSD1
 70
     0
  9
$DIMSD2
 70
     0
  9
$DIMTOLJ
 70
     0
  9
$DIMTZIN
 70
     0
  9
$DIMALTZ
 70
     0
  9
$DIMALTTZ
 70
     0
  9
$DIMUPT
 70
     0
  9
$DIMDEC
 70
     3
  9
$DIMTDEC
 70
     3
  9
$DIMALTU
 70
     2
  9
$DIMALTTD
 70
     3
  9
$DIMTXSTY
  7
Standard
  9
$DIMAUNIT
 70
     0
  9
$DIMADEC
 70
     2
  9
$DIMALTRND
 40
0.0
  9
$DIMAZIN
 70
     0
  9
$DIMDSEP
 70
    44
  9
$DIMATFIT
 70
     3
  9
$DIMFRAC
 70
     0
  9
$DIMLDRBLK
  1

  9
$DIMLUNIT
 70
     2
  9
$DIMLWD
 70
    -2
  9
$DIMLWE
 70
    -2
  9
$DIMTMOVE
 70
     0
  9
$LUNITS
 70
     2
  9
$LUPREC
 70
     3
  9
$SKETCHINC
 40
1.0
  9
$FILLETRAD
 40
0.0
  9
$AUNITS
 70
     0
  9
$AUPREC
 70
     2
  9
$MENU
  1
.
  9
$ELEVATION
 40
0.0
  9
$PELEVATION
 40
0.0
  9
$THICKNESS
 40
0.0
  9
$LIMCHECK
 70
     0
  9
$CHAMFERA
 40
0.0
  9
$CHAMFERB
 40
0.0
  9
$CHAMFERC
 40
0.0
  9
$CHAMFERD
 40
0.0
  9
$SKPOLY
 70
     0
  9
$TDCREATE
 40
2460277.724637002
  9
$TDUCREATE
 40
2460277.349637002
  9
$TDUPDATE
 40
2460277.724637743
  9
$TDUUPDATE
 40
2460277.349637743
  9
$TDINDWG
 40
0.0000000116
  9
$TDUSRTIMER
 40
0.0000000116
  9
$USRTIMER
 70
     1
  9
$ANGBASE
 50
0.0
  9
$ANGDIR
 70
     0
  9
$PDMODE
 70
     0
  9
$PDSIZE
 40
-1.0
  9
$PLINEWID
 40
0.0
  9
$SPLFRAME
 70
     0
  9
$SPLINETYPE
 70
     6
  9
$SPLINESEGS
 70
     8
  9
$HANDSEED
  5
2BF
  9
$SURFTAB1
 70
     6
  9
$SURFTAB2
 70
     6
  9
$SURFTYPE
 70
     6
  9
$SURFU
 70
     6
  9
$SURFV
 70
     6
  9
$UCSBASE
  2

  9
$UCSNAME
  2

  9
$UCSORG
 10
0.0
 20
0.0
 30
0.0
  9
$UCSXDIR
 10
1.0
 20
0.0
 30
0.0
  9
$UCSYDIR
 10
0.0
 20
1.0
 30
0.0
  9
$UCSORTHOREF
  2

  9
$UCSORTHOVIEW
 70
     0
  9
$UCSORGTOP
 10
0.0
 20
0.0
 30
0.0
  9
$UCSORGBOTTOM
 10
0.0
 20
0.0
 30
0.0
  9
$UCSORGLEFT
 10
0.0
 20
0.0
 30
0.0
  9
$UCSORGRIGHT
 10
0.0
 20
0.0
 30
0.0
  9
$UCSORGFRONT
 10
0.0
 20
0.0
 30
0.0
  9
$UCSORGBACK
 10
0.0
 20
0.0
 30
0.0
  9
$PUCSBASE
  2

  9
$PUCSNAME
  2

  9
$PUCSORG
 10
0.0
 20
0.0
 30
0.0
  9
$PUCSXDIR
 10
1.0
 20
0.0
 30
0.0
  9
$PUCSYDIR
 10
0.0
 20
1.0
 30
0.0
  9
$PUCSORTHOREF
  2

  9
$PUCSORTHOVIEW
 70
     0
  9
$PUCSORGTOP
 10
0.0
 20
0.0
 30
0.0
  9
$PUCSORGBOTTOM
 10
0.0
 20
0.0
 30
0.0
  9
$PUCSORGLEFT
 10
0.0
 20
0.0
 30
0.0
  9
$PUCSORGRIGHT
 10
0.0
 20
0.0
 30
0.0
  9
$PUCSORGFRONT
 10
0.0
 20
0.0
 30
0.0
  9
$PUCSORGBACK
 10
0.0
 20
0.0
 30
0.0
  9
$USERI1
 70
     0
  9
$USERI2
 70
     0
  9
$USERI3
 70
     0
  9
$USERI4
 70
     0
  9
$USERI5
 70
     0
  9
$USERR1
 40
0.0
  9
$USERR2
 40
0.0
  9
$USERR3
 40
0.0
  9
$USERR4
 40
0.0
  9
$USERR5
 40
0.0
  9
$WORLDVIEW
 70
     1
  9
$SHADEDGE
 70
     3
  9
$SHADEDIF
 70
    70
  9
$TILEMODE
 70
     1
  9
$MAXACTVP
 70
    64
  9
$PINSBASE
 10
0.0
 20
0.0
 30
0.0
  9
$PLIMCHECK
 70
     0
  9
$PEXTMIN
 10
1.0000000000E+20
 20
1.0000000000E+20
 30
1.0000000000E+20
  9
$PEXTMAX
 10
-1.0000000000E+20
 20
-1.0000000000E+20
 30
-1.0000000000E+20
  9
$PLIMMIN
 10
0.0
 20
0.0
  9
$PLIMMAX
 10
420.0
 20
297.0
  9
$UNITMODE
 70
     0
  9
$VISRETAIN
 70
     1
  9
$PLINEGEN
 70
     0
  9
$PSLTSCALE
 70
     1
  9
$TREEDEPTH
 70
  3020
  9
$CMLSTYLE
  2
Standard
  9
$CMLJUST
 70
     0
  9
$CMLSCALE
 40
20.0
  9
$PROXYGRAPHICS
 70
     1
  9
$MEASUREMENT
 70
     1
  9
$CELWEIGHT
370
    -1
  9
$ENDCAPS
280
     0
  9
$JOINSTYLE
280
     0
  9
$LWDISPLAY
290
     1
  9
$INSUNITS
 70
     4
  9
$HYPERLINKBASE
  1

  9
$STYLESHEET
  1

  9
$XEDIT
290
     1
  9
$CEPSNTYPE
380
     0
  9
$PSTYLEMODE
290
     1
  9
$FINGERPRINTGUID
  2
{bd1adff4-0820-4642-801e-194c8dc52a5c}
  9
$VERSIONGUID
  2
{FAEB1C32-E019-11D5-929B-00C0DF256EC4}
  9
$EXTNAMES
290
     1
  9
$PSVPSCALE
 40
0.0
  9
$OLESTARTUP
290
     0
  0
ENDSEC
  0
SECTION
  2
CLASSES
  0
CLASS
  1
ACDBDICTIONARYWDFLT
  2
AcDbDictionaryWithDefault
  3
ObjectDBX Classes
 90
        0
280
     0
281
     0
  0
CLASS
  1
VISUALSTYLE
  2
AcDbVisualStyle
  3
ObjectDBX Classes
 90
     4095
280
     0
281
     0
  0
CLASS
  1
MATERIAL
  2
AcDbMaterial
  3
ObjectDBX Classes
 90
     1153
280
     0
281
     0
  0
CLASS
  1
SCALE
  2
AcDbScale
  3
ObjectDBX Classes
 90
     1153
280
     0
281
     0
  0
CLASS
  1
TABLESTYLE
  2
AcDbTableStyle
  3
ObjectDBX Classes
 90
     4095
280
     0
281
     0
  0
CLASS
  1
MLEADERSTYLE
  2
AcDbMLeaderStyle
  3
ACDB_MLEADERSTYLE_CLASS
 90
     4095
280
     0
281
     0
  0
CLASS
  1
SUN
  2
AcDbSun
  3
SCENEOE
 90
     1153
280
     0
281
     0
  0
CLASS
  1
ACDBPLACEHOLDER
  2
AcDbPlaceHolder
  3
ObjectDBX Classes
 90
        0
280
     0
281
     0
  0
CLASS
  1
LAYOUT
  2
AcDbLayout
  3
ObjectDBX Classes
 90
        0
280
     0
281
     0
  0
ENDSEC
  0
SECTION
  2
TABLES
  0
TABLE
  2
VPORT
  5
8
330
0
100
AcDbSymbolTable
 70
     1
  0
VPORT
  5
29
330
8
100
AcDbSymbolTableRecord
100
AcDbViewportTableRecord
  2
*Active
 70
     0
 10
0.0
 20
0.0
 11
1.0
 21
1.0
 12
215.9
 22
139.7
 13
0.0
 23
0.0
 14
10.0
 24
10.0
 15
10.0
 25
10.0
 16
0.0
 26
0.0
 36
1.0
 17
0.0
 27
0.0
 37
0.0
 40
279.4
 41
1.5454545455
 42
50.0
 43
0.0
 44
0.0
 50
0.0
 51
0.0
 71
     0
 72
  2000
 73
     1
 74
     3
 75
     0
 76
     0
 77
     0
 78
     0
281
     0
 65
     1
110
0.0
120
0.0
130
0.0
111
1.0
121
0.0
131
0.0
112
0.0
122
1.0
132
0.0
 79
     0
146
0.0
  0
ENDTAB
  0
TABLE
  2
LTYPE
  5
5
330
0
100
AcDbSymbolTable
 70
     6
  0
LTYPE
  5
14
330
5
100
AcDbSymbolTableRecord
100
AcDbLinetypeTableRecord
  2
ByBlock
 70
     0
  3

 72
    65
 73
     0
 40
0.0
  0
LTYPE
  5
15
330
5
100
AcDbSymbolTableRecord
100
AcDbLinetypeTableRecord
  2
ByLayer
 70
     0
  3

 72
    65
 73
     0
 40
0.0
  0
LTYPE
  5
16
330
5
100
AcDbSymbolTableRecord
100
AcDbLinetypeTableRecord
  2
Continuous
 70
     0
  3
Solid line
 72
    65
 73
     0
 40
0.0
  0
LTYPE
  5
5E
330
5
100
AcDbSymbolTableRecord
100
AcDbLinetypeTableRecord
  2
HIDDEN
 70
     0
  3
Hidden __ __ __ __ __ __ __ __ __ __ __ __ __ __
 72
    65
 73
     2
 40
1.905
 49
1.27
 74
     0
 49
-0.635
 74
     0
  0
LTYPE
  5
5F
330
5
100
AcDbSymbolTableRecord
100
AcDbLinetypeTableRecord
  2
PHANTOM
 70
     0
  3
Phantom ______  __  __  ______  __  __  ______
 72
    65
 73
     6
 40
12.7
 49
6.35
 74
     0
 49
-1.27
 74
     0
 49
1.27
 74
     0
 49
-1.27
 74
     0
 49
1.27
 74
     0
 49
-1.27
 74
     0
  0
LTYPE
  5
60
330
5
100
AcDbSymbolTableRecord
100
AcDbLinetypeTableRecord
  2
CENTER
 70
     0
  3
Center ____ _ ____ _ ____ _ ____ _ ____ _ ____
 72
    65
 73
     4
 40
10.16
 49
6.35
 74
     0
 49
-1.27
 74
     0
 49
1.27
 74
     0
 49
-1.27
 74
     0
  0
LTYPE
  5
61
330
5
100
AcDbSymbolTableRecord
100
AcDbLinetypeTableRecord
  2
CENTERX2
 70
     0
  3
Center (2x) ________  __  ________  __  _____
 72
    65
 73
     4
 40
20.32
 49
12.7
 74
     0
 49
-2.54
 74
     0
 49
2.54
 74
     0
 49
-2.54
 74
     0
  0
LTYPE
  5
62
330
5
100
AcDbSymbolTableRecord
100
AcDbLinetypeTableRecord
  2
DOT2
 70
     0
  3
Dot (.5x) ........................................
 72
    65
 73
     2
 40
0.635
 49
0.0
 74
     0
 49
-0.635
 74
     0
  0
ENDTAB
  0
TABLE
  2
LAYER
  5
2
330
0
100
AcDbSymbolTable
 70
     1
  0
LAYER
  5
10
330
2
100
AcDbSymbolTableRecord
100
AcDbLayerTableRecord
  2
0
 70
     0
 62
     7
  6
Continuous
370
    -3
390
F
  0
ENDTAB
  0
TABLE
  2
STYLE
  5
3
330
0
100
AcDbSymbolTable
 70
     2
  0
STYLE
  5
11
330
3
100
AcDbSymbolTableRecord
100
AcDbTextStyleTableRecord
  2
Standard
 70
     0
 40
0.0
 41
1.0
 50
0.0
 71
     0
 42
3.5
  3
txt
  4
bigfont
  0
STYLE
  5
63
330
3
100
AcDbSymbolTableRecord
100
AcDbTextStyleTableRecord
  2
SLDTEXTSTYLE0
 70
     0
 40
0.0
 41
0.7
 50
0.0
 71
     0
 42
3.5
  3
TXT
  4
bigfont
  0
ENDTAB
  0
TABLE
  2
VIEW
  5
6
330
0
100
AcDbSymbolTable
 70
     0
  0
ENDTAB
  0
TABLE
  2
UCS
  5
7
330
0
100
AcDbSymbolTable
 70
     0
  0
ENDTAB
  0
TABLE
  2
APPID
  5
9
330
0
100
AcDbSymbolTable
 70
     1
  0
APPID
  5
12
330
9
100
AcDbSymbolTableRecord
100
AcDbRegAppTableRecord
  2
ACAD
 70
     0
  0
ENDTAB
  0
TABLE
  2
DIMSTYLE
  5
A
330
0
100
AcDbSymbolTable
 70
     1
100
AcDbDimStyleTable
  0
DIMSTYLE
105
27
330
A
100
AcDbSymbolTableRecord
100
AcDbDimStyleTableRecord
  2
ISO-25
 70
     0
 41
2.5
 42
0.625
 43
3.75
 44
1.25
 73
     0
 74
     0
 77
     1
 78
     8
140
2.5
141
2.5
143
0.0393700787
147
0.625
171
     3
172
     1
178
     0
271
     2
272
     2
274
     3
278
    44
283
     0
284
     8
340
11
  0
ENDTAB
  0
TABLE
  2
BLOCK_RECORD
  5
1
330
0
100
AcDbSymbolTable
 70
     3
  0
BLOCK_RECORD
  5
1F
330
1
100
AcDbSymbolTableRecord
100
AcDbBlockTableRecord
  2
*Model_Space
340
22
  0
BLOCK_RECORD
  5
1B
330
1
100
AcDbSymbolTableRecord
100
AcDbBlockTableRecord
  2
*Paper_Space
340
1E
  0
BLOCK_RECORD
  5
23
330
1
100
AcDbSymbolTableRecord
100
AcDbBlockTableRecord
  2
*Paper_Space0
340
26
  0
BLOCK_RECORD
  5
229
330
1
100
AcDbSymbolTableRecord
100
AcDbBlockTableRecord
  2
SW_CENTERMARKSYMBOL_0
340
0
102
{BLKREFS
331
234
102
}
  0
BLOCK_RECORD
  5
2B2
330
1
100
AcDbSymbolTableRecord
100
AcDbBlockTableRecord
  2
SW_CENTERMARKSYMBOL_1
340
0
102
{BLKREFS
331
2BD
102
}
  0
ENDTAB
  0
ENDSEC
  0
SECTION
  2
BLOCKS
  0
BLOCK
  5
20
330
1F
100
AcDbEntity
  8
0
100
AcDbBlockBegin
  2
*Model_Space
 70
     0
 10
0.0
 20
0.0
 30
0.0
  3
*Model_Space
  1

  0
ENDBLK
  5
21
330
1F
100
AcDbEntity
  8
0
100
AcDbBlockEnd
  0
BLOCK
  5
1C
330
1B
100
AcDbEntity
 67
     1
  8
0
100
AcDbBlockBegin
  2
*Paper_Space
 70
     0
 10
0.0
 20
0.0
 30
0.0
  3
*Paper_Space
  1

  0
ENDBLK
  5
1D
330
1B
100
AcDbEntity
 67
     1
  8
0
100
AcDbBlockEnd
  0
BLOCK
  5
24
330
23
100
AcDbEntity
  8
0
100
AcDbBlockBegin
  2
*Paper_Space0
 70
     0
 10
0.0
 20
0.0
 30
0.0
  3
*Paper_Space0
  1

  0
ENDBLK
  5
25
330
23
100
AcDbEntity
  8
0
100
AcDbBlockEnd
  0
BLOCK
  5
22A
330
229
100
AcDbEntity
  8
0
100
AcDbBlockBegin
  2
SW_CENTERMARKSYMBOL_0
 70
     0
 10
0.0
 20
0.0
 30
0.0
  3
SW_CENTERMARKSYMBOL_0
  1

  0
LINE
  5
22C
330
229
100
AcDbEntity
  8
0
  6
Continuous
 62
     0
370
    18
100
AcDbLine
 10
0.0
 20
0.0
 30
0.0
 11
0.0
 21
2.5
 31
0.0
  0
LINE
  5
22D
330
229
100
AcDbEntity
  8
0
  6
Continuous
 62
     0
370
    18
100
AcDbLine
 10
0.0
 20
0.0
 30
0.0
 11
-2.5
 21
0.0
 31
0.0
  0
LINE
  5
22E
330
229
100
AcDbEntity
  8
0
  6
Continuous
 62
     0
370
    18
100
AcDbLine
 10
0.0
 20
0.0
 30
0.0
 11
0.0
 21
-2.5
 31
0.0
  0
LINE
  5
22F
330
229
100
AcDbEntity
  8
0
  6
Continuous
 62
     0
370
    18
100
AcDbLine
 10
0.0
 20
0.0
 30
0.0
 11
2.5
 21
0.0
 31
0.0
  0
LINE
  5
230
330
229
100
AcDbEntity
  8
0
  6
Continuous
 62
     0
370
    18
100
AcDbLine
 10
0.0
 20
5.0
 30
0.0
 11
0.0
 21
30.2931441392
 31
0.0
  0
LINE
  5
231
330
229
100
AcDbEntity
  8
0
  6
Continuous
 62
     0
370
    18
100
AcDbLine
 10
-5.0
 20
0.0
 30
0.0
 11
-11.0
 21
0.0
 31
0.0
  0
LINE
  5
232
330
229
100
AcDbEntity
  8
0
  6
Continuous
 62
     0
370
    18
100
AcDbLine
 10
0.0
 20
-5.0
 30
0.0
 11
0.0
 21
-38.7786128535
 31
0.0
  0
LINE
  5
233
330
229
100
AcDbEntity
  8
0
  6
Continuous
 62
     0
370
    18
100
AcDbLine
 10
5.0
 20
0.0
 30
0.0
 11
11.0
 21
0.0
 31
0.0
  0
ENDBLK
  5
22B
330
229
100
AcDbEntity
  8
0
100
AcDbBlockEnd
  0
BLOCK
  5
2B3
330
2B2
100
AcDbEntity
  8
0
100
AcDbBlockBegin
  2
SW_CENTERMARKSYMBOL_1
 70
     0
 10
0.0
 20
0.0
 30
0.0
  3
SW_CENTERMARKSYMBOL_1
  1

  0
LINE
  5
2B5
330
2B2
100
AcDbEntity
  8
0
  6
Continuous
 62
     0
370
    18
100
AcDbLine
 10
0.0
 20
0.0
 30
0.0
 11
0.0
 21
2.5
 31
0.0
  0
LINE
  5
2B6
330
2B2
100
AcDbEntity
  8
0
  6
Continuous
 62
     0
370
    18
100
AcDbLine
 10
0.0
 20
0.0
 30
0.0
 11
-2.5
 21
0.0
 31
0.0
  0
LINE
  5
2B7
330
2B2
100
AcDbEntity
  8
0
  6
Continuous
 62
     0
370
    18
100
AcDbLine
 10
0.0
 20
0.0
 30
0.0
 11
0.0
 21
-2.5
 31
0.0
  0
LINE
  5
2B8
330
2B2
100
AcDbEntity
  8
0
  6
Continuous
 62
     0
370
    18
100
AcDbLine
 10
0.0
 20
0.0
 30
0.0
 11
2.5
 21
0.0
 31
0.0
  0
LINE
  5
2B9
330
2B2
100
AcDbEntity
  8
0
  6
Continuous
 62
     0
370
    18
100
AcDbLine
 10
0.0
 20
5.0
 30
0.0
 11
0.0
 21
9.95
 31
0.0
  0
LINE
  5
2BA
330
2B2
100
AcDbEntity
  8
0
  6
Continuous
 62
     0
370
    18
100
AcDbLine
 10
-5.0
 20
0.0
 30
0.0
 11
-41.7632003858
 21
0.0
 31
0.0
  0
LINE
  5
2BB
330
2B2
100
AcDbEntity
  8
0
  6
Continuous
 62
     0
370
    18
100
AcDbLine
 10
0.0
 20
-5.0
 30
0.0
 11
0.0
 21
-9.95
 31
0.0
  0
LINE
  5
2BC
330
2B2
100
AcDbEntity
  8
0
  6
Continuous
 62
     0
370
    18
100
AcDbLine
 10
5.0
 20
0.0
 30
0.0
 11
13.4431669644
 21
0.0
 31
0.0
  0
ENDBLK
  5
2B4
330
2B2
100
AcDbEntity
  8
0
100
AcDbBlockEnd
  0
ENDSEC
  0
SECTION
  2
ENTITIES
  0
MTEXT
  5
64
330
1F
100
AcDbEntity
  8
0
  6
Continuous
 62
     7
370
     0
100
AcDbMText
 10
207.0567902966
 20
123.1608779015
 30
0.0
 40
3.5
 41
0.0
 71
     1
 72
     1
  1
エースボールRV
  7
SLDTEXTSTYLE0
 73
     1
 44
1.0
  0
MTEXT
  5
65
330
1F
100
AcDbEntity
  8
0
  6
Continuous
 62
     7
370
     0
100
AcDbMText
 10
207.0567902966
 20
118.6608780952
 30
0.0
 40
3.5
 41
0.0
 71
     1
 72
     1
  1
BH-8107R
  7
SLDTEXTSTYLE0
 73
     1
 44
1.0
  0
LINE
  5
66
330
1F
100
AcDbEntity
  8
0
  6
Continuous
 62
     7
370
    25
100
AcDbLine
 10
174.6316351039
 20
84.487482679
 30
0.0
 11
171.8316351039
 21
84.487482679
 31
0.0
  0
LINE
  5
67
330
1F
100
AcDbEntity
  8
0
  6
Continuous
 62
     7
370
    25
100
AcDbLine
 10
171.8316351039
 20
68.487482679
 30
0.0
 11
174.6316351039
 21
68.487482679
 31
0.0
  0
LINE
  5
68
330
1F
100
AcDbEntity
  8
0
  6
Continuous
 62
     7
370
    25
100
AcDbLine
 10
171.8316351039
 20
84.487482679
 30
0.0
 11
171.6316351039
 21
84.287482679
 31
0.0
  0
LINE
  5
69
330
1F
100
AcDbEntity
  8
0
  6
Continuous
 62
     7
370
    25
100
AcDbLine
 10
171.6316351039
 20
68.687482679
 30
0.0
 11
171.8316351039
 21
68.487482679
 31
0.0
  0
LINE
  5
6A
330
1F
100
AcDbEntity
  8
0
  6
Continuous
 62
     7
370
    25
100
AcDbLine
 10
160.6316351039
 20
79.987482679
 30
0.0
 11
156.6316351039
 21
79.237482679
 31
0.0
  0
LINE
  5
6B
330
1F
100
AcDbEntity
  8
0
  6
Continuous
 62
     7
370
    25
100
AcDbLine
 10
156.6316351039
 20
73.737482679
 30
0.0
 11
160.6316351039
 21
72.987482679
 31
0.0
  0
LINE
  5
6C
330
1F
100
AcDbEntity
  8
0
  6
Continuous
 62
     7
370
    25
100
AcDbLine
 10
171.6316351039
 20
79.987482679
 30
0.0
 11
168.6316351039
 21
79.987482679
 31
0.0
  0
LINE
  5
6D
330
1F
100
AcDbEntity
  8
0
  6
Continuous
 62
     7
370
    25
100
AcDbLine
 10
168.6316351039
 20
72.987482679
 30
0.0
 11
171.6316351039
 21
72.987482679
 31
0.0
  0
LINE
  5
6E
330
1F
100
AcDbEntity
  8
0
  6
Continuous
 62
     7
370
    25
100
AcDbLine
 10
168.6316351039
 20
79.987482679
 30
0.0
 11
164.6316351039
 21
79.237482679
 31
0.0
  0
LINE
  5
6F
330
1F
100
AcDbEntity
  8
0
  6
Continuous
 62
     7
370
    25
100
AcDbLine
 10
164.6316351039
 20
73.737482679
 30
0.0
 11
168.6316351039
 21
72.987482679
 31
0.0
  0
LINE
  5
70
330
1F
100
AcDbEntity
  8
0
  6
Continuous
 62
     7
370
    25
100
AcDbLine
 10
164.6316351039
 20
79.987482679
 30
0.0
 11
160.6316351039
 21
79.237482679
 31
0.0
  0
LINE
  5
71
330
1F
100
AcDbEntity
  8
0
  6
Continuous
 62
     7
370
    25
100
AcDbLine
 10
160.6316351039
 20
73.737482679
 30
0.0
 11
164.6316351039
 21
72.987482679
 31
0.0
  0
LINE
  5
72
330
1F
100
AcDbEntity
  8
0
  6
Continuous
 62
     7
370
    25
100
AcDbLine
 10
152.6316351039
 20
79.987482679
 30
0.0
 11
149.0394908364
 21
79.3139556288
 31
0.0
  0
LINE
  5
73
330
1F
100
AcDbEntity
  8
0
  6
Continuous
 62
     7
370
    25
100
AcDbLine
 10
149.0394908364
 20
73.6610097291
 30
0.0
 11
152.6316351039
 21
72.987482679
 31
0.0
  0
LINE
  5
74
330
1F
100
AcDbEntity
  8
0
  6
Continuous
 62
     7
370
    25
100
AcDbLine
 10
156.6316351039
 20
79.987482679
 30
0.0
 11
152.6316351039
 21
79.237482679
 31
0.0
  0
LINE
  5
75
330
1F
100
AcDbEntity
  8
0
  6
Continuous
 62
     7
370
    25
100
AcDbLine
 10
152.6316351039
 20
73.737482679
 30
0.0
 11
156.6316351039
 21
72.987482679
 31
0.0
  0
ARC
  5
76
330
1F
100
AcDbEntity
  8
0
  6
Continuous
 62
     7
370
    25
100
AcDbCircle
 10
149.1316351039
 20
78.8225195354
 30
0.0
 40
0.5
100
AcDbArc
 50
100.6196552762
 51
180.0
  0
ARC
  5
77
330
1F
100
AcDbEntity
  8
0
  6
Continuous
 62
     7
370
    25
100
AcDbCircle
 10
149.1316351039
 20
74.1524458226
 30
0.0
 40
0.5000000000000122
100
AcDbArc
 50
180.0
 51
259.3803447238
  0
LINE
  5
78
330
1F
100
AcDbEntity
  8
0
  6
Continuous
 62
     7
370
    25
100
AcDbLine
 10
197.2727663568
 20
66.7498783719
 30
0.0
 11
198.1316351039
 21
68.237482679
 31
0.0
  0
LINE
  5
79
330
1F
100
AcDbEntity
  8
0
  6
Continuous
 62
     7
370
    25
100
AcDbLine
 10
198.1316351039
 20
84.737482679
 30
0.0
 11
197.2727663568
 21
86.225086986
 31
0.0
  0
LINE
  5
7A
330
1F
100
AcDbEntity
  8
0
  6
Continuous
 62
     7
370
    25
100
AcDbLine
 10
176.3940307969
 20
66.3855819106
 30
0.0
 11
179.6816351039
 21
64.487482679
 31
0.0
  0
LINE
  5
7B
330
1F
100
AcDbEntity
  8
0
  6
Continuous
 62
     7
370
    25
100
AcDbLine
 10
192.5816351039
 20
64.487482679
 30
0.0
 11
195.869239411
 21
66.3855819106
 31
0.0
  0
SPLINE
  5
7C
330
1F
100
AcDbEntity
  8
0
  6
Continuous
 62
     7
370
    25
100
AcDbSpline
210
0.0
220
0.0
230
1.0
 70
     8
 71
     3
 72
    11
 73
     7
 74
     0
 42
0.00000001
 43
0.00000001
 40
0.0
 40
0.0
 40
0.0
 40
0.0
 40
0.3191321542729881
 40
0.6756697387526169
 40
0.9830855925026913
 40
1.0
 40
1.0
 40
1.0
 40
1.0
 10
192.2976963886238
 20
85.27373145855081
 30
0.0
 10
192.2421497322267
 20
85.33736309911401
 30
0.0
 10
192.1245458044689
 20
85.47208463494192
 30
0.0
 10
192.0376373998507
 20
85.71849763889328
 30
0.0
 10
192.0039240109929
 20
85.89793096462915
 30
0.0
 10
192.0140378065035
 20
85.98243546600978
 30
0.0
 10
192.0145652591623
 20
85.98684252801569
 30
0.0
  0
SPLINE
  5
7D
330
1F
100
AcDbEntity
  8
0
  6
Continuous
 62
     7
370
    25
100
AcDbSpline
210
0.0
220
0.0
230
1.0
 70
     8
 71
     3
 72
    11
 73
     7
 74
     0
 42
0.00000001
 43
0.00000001
 40
0.0
 40
0.0
 40
0.0
 40
0.0
 40
0.2756106519028117
 40
0.627947527339376
 40
0.9877256901609544
 40
1.0
 40
1.0
 40
1.0
 40
1.0
 10
180.241487881886
 20
85.98564414500044
 30
0.0
 10
180.2398427396824
 20
85.91312939804193
 30
0.0
 10
180.2360944702605
 20
85.7479127936261
 30
0.0
 10
180.1392590593296
 20
85.50654489480618
 30
0.0
 10
180.0410287426627
 20
85.33697730410533
 30
0.0
 10
179.9647867199828
 20
85.27671523943692
 30
0.0
 10
179.9622714344306
 20
85.27472714553181
 30
0.0
  0
LINE
  5
7E
330
1F
100
AcDbEntity
  8
0
  6
Continuous
 62
     7
370
    25
100
AcDbLine
 10
192.0316351039
 20
85.9829518589
 30
0.0
 11
192.0316351039
 21
86.987482679
 31
0.0
  0
LINE
  5
7F
330
1F
100
AcDbEntity
  8
0
  6
Continuous
 62
     7
370
    25
100
AcDbLine
 10
180.2316351039
 20
86.987482679
 30
0.0
 11
180.2316351039
 21
85.987482679
 31
0.0
  0
LINE
  5
80
330
1F
100
AcDbEntity
  8
0
  6
Continuous
 62
     7
370
    25
100
AcDbLine
 10
179.9614681966
 20
85.2822204083
 30
0.0
 11
179.4171039241
 21
86.225086986
 31
0.0
  0
LINE
  5
81
330
1F
100
AcDbEntity
  8
0
  6
Continuous
 62
     7
370
    25
100
AcDbLine
 10
192.8461662837
 20
86.225086986
 30
0.0
 11
192.3018020113
 21
85.2822204083
 31
0.0
  0
LINE
  5
82
330
1F
100
AcDbEntity
  8
0
  6
Continuous
 62
     7
370
    25
100
AcDbLine
 10
175.3461662837
 20
86.225086986
 30
0.0
 11
174.6316351039
 21
84.987482679
 31
0.0
  0
LINE
  5
83
330
1F
100
AcDbEntity
  8
0
  6
Continuous
 62
     7
370
    25
100
AcDbLine
 10
174.6316351039
 20
67.987482679
 30
0.0
 11
175.3461662837
 21
66.7498783719
 31
0.0
  0
LINE
  5
84
330
1F
100
AcDbEntity
  8
0
  6
Continuous
 62
     7
370
    25
100
AcDbLine
 10
195.869239411
 20
66.7498783719
 30
0.0
 11
197.2753344123
 21
66.7498783719
 31
0.0
  0
LINE
  5
85
330
1F
100
AcDbEntity
  8
0
  6
Continuous
 62
     7
370
    25
100
AcDbLine
 10
195.869239411
 20
66.3830215293
 30
0.0
 11
195.869239411
 21
66.7498783719
 31
0.0
  0
LINE
  5
86
330
1F
100
AcDbEntity
  8
0
  6
Continuous
 62
     7
370
    25
100
AcDbLine
 10
179.4196719796
 20
86.225086986
 30
0.0
 11
175.3436059024
 21
86.225086986
 31
0.0
  0
LINE
  5
87
330
1F
100
AcDbEntity
  8
0
  6
Continuous
 62
     7
370
    25
100
AcDbLine
 10
197.2753344123
 20
86.225086986
 30
0.0
 11
192.8435982283
 21
86.225086986
 31
0.0
  0
LINE
  5
88
330
1F
100
AcDbEntity
  8
0
  6
Continuous
 62
     7
370
    25
100
AcDbLine
 10
176.3940307969
 20
66.7498783719
 30
0.0
 11
176.3940307969
 21
66.3830215293
 31
0.0
  0
LINE
  5
89
330
1F
100
AcDbEntity
  8
0
  6
Continuous
 62
     7
370
    25
100
AcDbLine
 10
175.3436059024
 20
66.7498783719
 30
0.0
 11
176.3940307969
 21
66.7498783719
 31
0.0
  0
LINE
  5
8A
330
1F
100
AcDbEntity
  8
0
  6
Continuous
 62
     7
370
    25
100
AcDbLine
 10
193.5816351039
 20
94.987482679
 30
0.0
 11
191.6316351039
 21
102.987482679
 31
0.0
  0
LINE
  5
8B
330
1F
100
AcDbEntity
  8
0
  6
Continuous
 62
     7
370
    25
100
AcDbLine
 10
193.1316351039
 20
86.987482679
 30
0.0
 11
193.5816351039
 21
94.987482679
 31
0.0
  0
LINE
  5
8C
330
1F
100
AcDbEntity
  8
0
  6
Continuous
 62
     7
370
    25
100
AcDbLine
 10
179.0628896863
 20
88.2096234362
 30
0.0
 11
179.1316351039
 21
86.987482679
 31
0.0
  0
LINE
  5
8D
330
1F
100
AcDbEntity
  8
0
  6
Continuous
 62
     7
370
    25
100
AcDbLine
 10
180.6316351039
 20
102.987482679
 30
0.0
 11
180.3784035694
 21
101.9485840758
 31
0.0
  0
LINE
  5
8E
330
1F
100
AcDbEntity
  8
0
  6
Continuous
 62
     7
370
    25
100
AcDbLine
 10
195.4224621016
 20
58.8865609317
 30
0.0
 11
194.3816351039
 21
59.487482679
 31
0.0
  0
LINE
  5
8F
330
1F
100
AcDbEntity
  8
0
  6
Continuous
 62
     7
370
    25
100
AcDbLine
 10
177.8816351039
 20
59.487482679
 30
0.0
 11
176.9224621016
 21
58.9337038879
 31
0.0
  0
LINE
  5
90
330
1F
100
AcDbEntity
  8
0
  6
Continuous
 62
     7
370
    25
100
AcDbLine
 10
176.9224621016
 20
50.0412614701
 30
0.0
 11
177.8816351039
 21
49.487482679
 31
0.0
  0
LINE
  5
91
330
1F
100
AcDbEntity
  8
0
  6
Continuous
 62
     7
370
    25
100
AcDbLine
 10
194.3816351039
 20
49.487482679
 30
0.0
 11
195.4224621016
 21
50.0884044263
 31
0.0
  0
LINE
  5
92
330
1F
100
AcDbEntity
  8
0
  6
Continuous
 62
     7
370
    25
100
AcDbLine
 10
194.3816351039
 20
59.487482679
 30
0.0
 11
194.3816351039
 21
63.987482679
 31
0.0
  0
LINE
  5
93
330
1F
100
AcDbEntity
  8
0
  6
Continuous
 62
     7
370
    25
100
AcDbLine
 10
177.8816351039
 20
63.987482679
 30
0.0
 11
177.8816351039
 21
59.487482679
 31
0.0
  0
LINE
  5
94
330
1F
100
AcDbEntity
  8
0
  6
Continuous
 62
     7
370
    25
100
AcDbLine
 10
194.3816351039
 20
63.987482679
 30
0.0
 11
193.8816351039
 21
64.487482679
 31
0.0
  0
LINE
  5
95
330
1F
100
AcDbEntity
  8
0
  6
Continuous
 62
     7
370
    25
100
AcDbLine
 10
178.3816351039
 20
64.487482679
 30
0.0
 11
177.8816351039
 21
63.987482679
 31
0.0
  0
LINE
  5
96
330
1F
100
AcDbEntity
  8
0
  6
Continuous
 62
     7
370
    25
100
AcDbLine
 10
181.0791976039
 20
49.487482679
 30
0.0
 11
181.3493554771
 21
40.8424307384
 31
0.0
  0
LINE
  5
97
330
1F
100
AcDbEntity
  8
0
  6
Continuous
 62
     7
370
    25
100
AcDbLine
 10
190.9139147308
 20
40.8424307384
 30
0.0
 11
191.1840726039
 21
49.487482679
 31
0.0
  0
LINE
  5
98
330
1F
100
AcDbEntity
  8
0
  6
Continuous
 62
     7
370
    25
100
AcDbLine
 10
181.3493554771
 20
40.8424307384
 30
0.0
 11
182.1316351039
 21
39.487482679
 31
0.0
  0
LINE
  5
99
330
1F
100
AcDbEntity
  8
0
  6
Continuous
 62
     7
370
    25
100
AcDbLine
 10
190.1316351039
 20
39.487482679
 30
0.0
 11
190.9139147308
 21
40.8424307384
 31
0.0
  0
LINE
  5
9A
330
1F
100
AcDbEntity
  8
0
  6
Continuous
 62
     7
370
    25
100
AcDbLine
 10
195.4224621016
 20
50.0412614167
 30
0.0
 11
195.4224621016
 21
58.9337039413
 31
0.0
  0
LINE
  5
9B
330
1F
100
AcDbEntity
  8
0
  6
Continuous
 62
     7
370
    25
100
AcDbLine
 10
176.9224621016
 20
58.9337039413
 30
0.0
 11
176.9224621016
 21
50.0412614167
 31
0.0
  0
LINE
  5
9C
330
1F
100
AcDbEntity
  8
0
  6
Continuous
 62
     7
370
    25
100
AcDbLine
 10
171.8316351039
 20
72.6641228142
 30
0.0
 11
171.8316351039
 21
68.487482679
 31
0.0
  0
LINE
  5
9D
330
1F
100
AcDbEntity
  8
0
  6
Continuous
 62
     7
370
    25
100
AcDbLine
 10
171.8316351039
 20
84.487482679
 30
0.0
 11
171.8316351039
 21
72.6641228142
 31
0.0
  0
LINE
  5
9E
330
1F
100
AcDbEntity
  8
0
  6
Continuous
 62
     7
370
    25
100
AcDbLine
 10
171.6316351039
 20
72.7597068109
 30
0.0
 11
171.6316351039
 21
84.287482679
 31
0.0
  0
LINE
  5
9F
330
1F
100
AcDbEntity
  8
0
  6
Continuous
 62
     7
370
    25
100
AcDbLine
 10
171.6316351039
 20
68.687482679
 30
0.0
 11
171.6316351039
 21
72.7597068109
 31
0.0
  0
LINE
  5
A0
330
1F
100
AcDbEntity
  8
0
  6
Continuous
 62
     7
370
    25
100
AcDbLine
 10
160.6316351039
 20
74.8147627382
 30
0.0
 11
160.6316351039
 21
72.987482679
 31
0.0
  0
LINE
  5
A1
330
1F
100
AcDbEntity
  8
0
  6
Continuous
 62
     7
370
    25
100
AcDbLine
 10
160.6316351039
 20
79.987482679
 30
0.0
 11
160.6316351039
 21
74.8147627382
 31
0.0
  0
LINE
  5
A2
330
1F
100
AcDbEntity
  8
0
  6
Continuous
 62
     7
370
    25
100
AcDbLine
 10
168.6316351039
 20
74.8147627382
 30
0.0
 11
168.6316351039
 21
72.987482679
 31
0.0
  0
LINE
  5
A3
330
1F
100
AcDbEntity
  8
0
  6
Continuous
 62
     7
370
    25
100
AcDbLine
 10
168.6316351039
 20
79.987482679
 30
0.0
 11
168.6316351039
 21
74.8147627382
 31
0.0
  0
LINE
  5
A4
330
1F
100
AcDbEntity
  8
0
  6
Continuous
 62
     7
370
    25
100
AcDbLine
 10
164.6316351039
 20
74.8147627382
 30
0.0
 11
164.6316351039
 21
72.987482679
 31
0.0
  0
LINE
  5
A5
330
1F
100
AcDbEntity
  8
0
  6
Continuous
 62
     7
370
    25
100
AcDbLine
 10
164.6316351039
 20
79.987482679
 30
0.0
 11
164.6316351039
 21
74.8147627382
 31
0.0
  0
LINE
  5
A6
330
1F
100
AcDbEntity
  8
0
  6
Continuous
 62
     7
370
    25
100
AcDbLine
 10
152.6316351039
 20
74.8147627382
 30
0.0
 11
152.6316351039
 21
72.987482679
 31
0.0
  0
LINE
  5
A7
330
1F
100
AcDbEntity
  8
0
  6
Continuous
 62
     7
370
    25
100
AcDbLine
 10
152.6316351039
 20
79.987482679
 30
0.0
 11
152.6316351039
 21
74.8147627382
 31
0.0
  0
LINE
  5
A8
330
1F
100
AcDbEntity
  8
0
  6
Continuous
 62
     7
370
    25
100
AcDbLine
 10
156.6316351039
 20
74.8147627382
 30
0.0
 11
156.6316351039
 21
72.987482679
 31
0.0
  0
LINE
  5
A9
330
1F
100
AcDbEntity
  8
0
  6
Continuous
 62
     7
370
    25
100
AcDbLine
 10
156.6316351039
 20
79.987482679
 30
0.0
 11
156.6316351039
 21
74.8147627382
 31
0.0
  0
LINE
  5
AA
330
1F
100
AcDbEntity
  8
0
  6
Continuous
 62
     7
370
    25
100
AcDbLine
 10
148.6316351039
 20
75.3715219041
 30
0.0
 11
148.6316351039
 21
78.8225195354
 31
0.0
  0
LINE
  5
AB
330
1F
100
AcDbEntity
  8
0
  6
Continuous
 62
     7
370
    25
100
AcDbLine
 10
148.6316351039
 20
74.1524458226
 30
0.0
 11
148.6316351039
 21
75.3715219041
 31
0.0
  0
LINE
  5
AC
330
1F
100
AcDbEntity
  8
0
  6
Continuous
 62
     7
370
    25
100
AcDbLine
 10
181.5128329504
 20
68.5210861391
 30
0.0
 11
181.5128329504
 21
66.3487721361
 31
0.0
  0
SPLINE
  5
AD
330
1F
100
AcDbEntity
  8
0
  6
Continuous
 62
     7
370
    25
100
AcDbSpline
210
0.0
220
0.0
230
1.0
 70
     8
 71
     3
 72
     8
 73
     4
 74
     0
 42
0.00000001
 43
0.00000001
 40
0.0
 40
0.0
 40
0.0
 40
0.0
 40
1.0
 40
1.0
 40
1.0
 40
1.0
 10
181.512832950409
 20
68.52108613912885
 30
0.0
 10
181.7180187729523
 20
68.57764710625308
 30
0.0
 10
181.9242419736596
 20
68.63158717766692
 30
0.0
 10
182.1316351039261
 20
68.68257146740987
 30
0.0
  0
LINE
  5
AE
330
1F
100
AcDbEntity
  8
0
  6
Continuous
 62
     7
370
    25
100
AcDbLine
 10
182.1316351039
 20
72.487482679
 30
0.0
 11
179.6153990269
 21
72.487482679
 31
0.0
  0
SPLINE
  5
AF
330
1F
100
AcDbEntity
  8
0
  6
Continuous
 62
     7
370
    25
100
AcDbSpline
210
0.0
220
0.0
230
1.0
 70
     8
 71
     3
 72
     8
 73
     4
 74
     0
 42
0.00000001
 43
0.00000001
 40
0.0
 40
0.0
 40
0.0
 40
0.0
 40
1.0
 40
1.0
 40
1.0
 40
1.0
 10
179.4539136986659
 20
71.86868052546681
 30
0.0
 10
179.5104770681342
 20
72.07387506297658
 30
0.0
 10
179.5644169909554
 20
72.28009871649374
 30
0.0
 10
179.6153990269469
 20
72.48748267898385
 30
0.0
  0
LINE
  5
B0
330
1F
100
AcDbEntity
  8
0
  6
Continuous
 62
     7
370
    25
100
AcDbLine
 10
175.3093565092
 20
71.8686805255
 30
0.0
 11
179.4539136987
 21
71.8686805255
 31
0.0
  0
SPLINE
  5
B1
330
1F
100
AcDbEntity
  8
0
  6
Continuous
 62
     7
370
    25
100
AcDbSpline
210
0.0
220
0.0
230
1.0
 70
     8
 71
     3
 72
    10
 73
     6
 74
     0
 42
0.00000001
 43
0.00000001
 40
0.0
 40
0.0
 40
0.0
 40
0.0
 40
0.5
 40
0.5
 40
1.0
 40
1.0
 40
1.0
 40
1.0
 10
175.3093565091863
 20
71.86868052546684
 30
0.0
 10
175.1012878329551
 20
72.62348979851613
 30
0.0
 10
174.9308888269305
 20
73.38423618574804
 30
0.0
 10
174.6957288472317
 20
74.9223785633713
 30
0.0
 10
174.6316351039261
 20
75.6998797158961
 30
0.0
 10
174.6316351039261
 20
76.48748267898385
 30
0.0
  0
SPLINE
  5
B2
330
1F
100
AcDbEntity
  8
0
  6
Continuous
 62
     7
370
    25
100
AcDbSpline
210
0.0
220
0.0
230
1.0
 70
     8
 71
     3
 72
    12
 73
     8
 74
     0
 42
0.00000001
 43
0.00000001
 40
0.0
 40
0.0
 40
0.0
 40
0.0
 40
0.2500000000000001
 40
0.2500000000000001
 40
0.5000000000000001
 40
0.5000000000000001
 40
1.0
 40
1.0
 40
1.0
 40
1.0
 10
174.6316351039261
 20
76.48748267898385
 30
0.0
 10
174.6316351039261
 20
76.8818007596557
 30
0.0
 10
174.6476339089072
 20
77.27545980360613
 30
0.0
 10
174.7094040472215
 20
78.05499580315148
 30
0.0
 10
174.7551461715231
 20
78.4419489912769
 30
0.0
 10
174.93181631887
 20
79.5953355541309
 30
0.0
 10
175.1020713843503
 20
80.35431804333594
 30
0.0
 10
175.3093565091863
 20
81.10628483250088
 30
0.0
  0
LINE
  5
B3
330
1F
100
AcDbEntity
  8
0
  6
Continuous
 62
     7
370
    25
100
AcDbLine
 10
179.4539136987
 20
81.1062848325
 30
0.0
 11
175.3093565092
 21
81.1062848325
 31
0.0
  0
SPLINE
  5
B4
330
1F
100
AcDbEntity
  8
0
  6
Continuous
 62
     7
370
    25
100
AcDbSpline
210
0.0
220
0.0
230
1.0
 70
     8
 71
     3
 72
     8
 73
     4
 74
     0
 42
0.00000001
 43
0.00000001
 40
0.0
 40
0.0
 40
0.0
 40
0.0
 40
1.0
 40
1.0
 40
1.0
 40
1.0
 10
179.6153990269469
 20
80.48748267898387
 30
0.0
 10
179.5645003100244
 20
80.69452771741285
 30
0.0
 10
179.5105661737736
 20
80.90076704708949
 30
0.0
 10
179.4539136986659
 20
81.10628483250088
 30
0.0
  0
SPLINE
  5
B5
330
1F
100
AcDbEntity
  8
0
  6
Continuous
 62
     7
370
    25
100
AcDbSpline
210
0.0
220
0.0
230
1.0
 70
     8
 71
     3
 72
     8
 73
     4
 74
     0
 42
0.00000001
 43
0.00000001
 40
0.0
 40
0.0
 40
0.0
 40
0.0
 40
1.0
 40
1.0
 40
1.0
 40
1.0
 10
192.6478711809053
 20
80.48748267898392
 30
0.0
 10
192.6987674141603
 20
80.69451761438769
 30
0.0
 10
192.752701369124
 20
80.90075737945268
 30
0.0
 10
192.8093565091863
 20
81.10628483250088
 30
0.0
  0
LINE
  5
B6
330
1F
100
AcDbEntity
  8
0
  6
Continuous
 62
     7
370
    25
100
AcDbLine
 10
197.3095761314
 20
81.1062848325
 30
0.0
 11
192.8093565092
 21
81.1062848325
 31
0.0
  0
SPLINE
  5
B7
330
1F
100
AcDbEntity
  8
0
  6
Continuous
 62
     7
370
    25
100
AcDbSpline
210
0.0
220
0.0
230
1.0
 70
     8
 71
     3
 72
    14
 73
    10
 74
     0
 42
0.00000001
 43
0.00000001
 40
0.0
 40
0.0
 40
0.0
 40
0.0
 40
0.25
 40
0.25
 40
0.5
 40
0.5
 40
0.75
 40
0.75
 40
1.0
 40
1.0
 40
1.0
 40
1.0
 10
197.3095761313685
 20
71.8686805254668
 30
0.0
 10
197.5175264920743
 20
72.62306058611678
 30
0.0
 10
197.6897483007631
 20
73.39250175358228
 30
0.0
 10
197.924383423514
 20
74.93301311452345
 30
0.0
 10
197.9873274821417
 20
75.70786749453048
 30
0.0
 10
197.9872675694102
 20
77.26822844941603
 30
0.0
 10
197.9226529031181
 20
78.05868464220106
 30
0.0
 10
197.6860935637169
 20
79.60096430500951
 30
0.0
 10
197.5157484236375
 20
80.3583550582107
 30
0.0
 10
197.3095761313685
 20
81.10628483250088
 30
0.0
  0
LINE
  5
B8
330
1F
100
AcDbEntity
  8
0
  6
Continuous
 62
     7
370
    25
100
AcDbLine
 10
192.8093565092
 20
71.8686805255
 30
0.0
 11
197.3095761314
 21
71.8686805255
 31
0.0
  0
SPLINE
  5
B9
330
1F
100
AcDbEntity
  8
0
  6
Continuous
 62
     7
370
    25
100
AcDbSpline
210
0.0
220
0.0
230
1.0
 70
     8
 71
     3
 72
     8
 73
     4
 74
     0
 42
0.00000001
 43
0.00000001
 40
0.0
 40
0.0
 40
0.0
 40
0.0
 40
1.0
 40
1.0
 40
1.0
 40
1.0
 10
192.8093565091863
 20
71.86868052546683
 30
0.0
 10
192.7527946657493
 20
72.07386952700364
 30
0.0
 10
192.6988546484929
 20
72.28009289306833
 30
0.0
 10
192.6478711809053
 20
72.4874826789838
 30
0.0
  0
LINE
  5
BA
330
1F
100
AcDbEntity
  8
0
  6
Continuous
 62
     7
370
    25
100
AcDbLine
 10
192.6478711809
 20
72.487482679
 30
0.0
 11
190.1316351039
 21
72.487482679
 31
0.0
  0
LINE
  5
BB
330
1F
100
AcDbEntity
  8
0
  6
Continuous
 62
     7
370
    25
100
AcDbLine
 10
190.1316351039
 20
68.6825714674
 30
0.0
 11
190.1316351039
 21
72.487482679
 31
0.0
  0
SPLINE
  5
BC
330
1F
100
AcDbEntity
  8
0
  6
Continuous
 62
     7
370
    25
100
AcDbSpline
210
0.0
220
0.0
230
1.0
 70
     8
 71
     3
 72
     8
 73
     4
 74
     0
 42
0.00000001
 43
0.00000001
 40
0.0
 40
0.0
 40
0.0
 40
0.0
 40
1.0
 40
1.0
 40
1.0
 40
1.0
 10
190.1316351039261
 20
68.68257146740987
 30
0.0
 10
190.3386641672615
 20
68.63167667770905
 30
0.0
 10
190.5449041845308
 20
68.57774282834761
 30
0.0
 10
190.7504372574431
 20
68.52108613912885
 30
0.0
  0
LINE
  5
BD
330
1F
100
AcDbEntity
  8
0
  6
Continuous
 62
     7
370
    25
100
AcDbLine
 10
190.7504372574
 20
66.3487721361
 30
0.0
 11
190.7504372574
 21
68.5210861391
 31
0.0
  0
SPLINE
  5
BE
330
1F
100
AcDbEntity
  8
0
  6
Continuous
 62
     7
370
    25
100
AcDbSpline
210
0.0
220
0.0
230
1.0
 70
     8
 71
     3
 72
    16
 73
    12
 74
     0
 42
0.00000001
 43
0.00000001
 40
0.0
 40
0.0
 40
0.0
 40
0.0
 40
0.2499999999999999
 40
0.2499999999999999
 40
0.3749999999999999
 40
0.3749999999999999
 40
0.4999999999999999
 40
0.4999999999999999
 40
0.7499999999999999
 40
0.7499999999999999
 40
1.0
 40
1.0
 40
1.0
 40
1.0
 10
181.5128329504091
 20
66.34877213608277
 30
0.0
 10
182.2672955959069
 20
66.14079901026192
 30
0.0
 10
183.0287586459507
 20
65.97012192076903
 30
0.0
 10
184.1858384407828
 20
65.7934102315378
 30
0.0
 10
184.5740180092469
 20
65.74775260765358
 30
0.0
 10
185.3559941562435
 20
65.68636308920307
 30
0.0
 10
185.7516736991562
 20
65.67069394283814
 30
0.0
 10
186.9323033218664
 20
65.67178310109634
 30
0.0
 10
187.7082462917753
 20
65.73647896469754
 30
0.0
 10
189.2416839633971
 20
65.97177431769197
 30
0.0
 10
189.9992936168681
 20
66.14171391815368
 30
0.0
 10
190.7504372574431
 20
66.34877213608277
 30
0.0
  0
ARC
  5
BF
330
1F
100
AcDbEntity
  8
0
  6
Continuous
 62
     7
370
    25
100
AcDbCircle
 10
187.6823664596
 20
75.9105636857
 30
0.0
 40
0.889000000000017
100
AcDbArc
 50
45.0
 51
315.0
  0
LINE
  5
C0
330
1F
100
AcDbEntity
  8
0
  6
Continuous
 62
     7
370
    25
100
AcDbLine
 10
188.3109843881
 20
76.5391816141
 30
0.0
 11
188.7775947737
 21
77.0057919998
 31
0.0
  0
ARC
  5
C1
330
1F
100
AcDbEntity
  8
0
  6
Continuous
 62
     7
370
    25
100
AcDbCircle
 10
187.6823664596
 20
75.9105636857
 30
0.0
 40
1.548886735692404
100
AcDbArc
 50
45.0
 51
315.0
  0
LINE
  5
C2
330
1F
100
AcDbEntity
  8
0
  6
Continuous
 62
     7
370
    25
100
AcDbLine
 10
188.7775947737
 20
74.8153353716
 30
0.0
 11
188.3109843881
 21
75.2819457572
 31
0.0
  0
ARC
  5
C3
330
1F
100
AcDbEntity
  8
0
  6
Continuous
 62
     7
370
    25
100
AcDbCircle
 10
191.024511056
 20
75.9105636857
 30
0.0
 40
0.8889999999999969
100
AcDbArc
 50
45.0
 51
159.0751675724
  0
LINE
  5
C4
330
1F
100
AcDbEntity
  8
0
  6
Continuous
 62
     7
370
    25
100
AcDbLine
 10
191.6531289845
 20
76.5391816141
 30
0.0
 11
192.1197393701
 21
77.0057919998
 31
0.0
  0
ARC
  5
C5
330
1F
100
AcDbEntity
  8
0
  6
Continuous
 62
     7
370
    25
100
AcDbCircle
 10
191.024511056
 20
75.9105636857
 30
0.0
 40
1.548886735692384
100
AcDbArc
 50
45.0
 51
315.0
  0
LINE
  5
C6
330
1F
100
AcDbEntity
  8
0
  6
Continuous
 62
     7
370
    25
100
AcDbLine
 10
192.1197393701
 20
74.8153353716
 30
0.0
 11
191.6531289845
 21
75.2819457572
 31
0.0
  0
ARC
  5
C7
330
1F
100
AcDbEntity
  8
0
  6
Continuous
 62
     7
370
    25
100
AcDbCircle
 10
191.024511056
 20
75.9105636857
 30
0.0
 40
0.889000000000017
100
AcDbArc
 50
200.9248324276
 51
315.0
  0
LINE
  5
C8
330
1F
100
AcDbEntity
  8
0
  6
Continuous
 62
     7
370
    25
100
AcDbLine
 10
190.1941408073
 20
75.5930636857
 30
0.0
 11
192.1197393701
 21
75.5930636857
 31
0.0
  0
LINE
  5
C9
330
1F
100
AcDbEntity
  8
0
  6
Continuous
 62
     7
370
    25
100
AcDbLine
 10
192.1197393701
 20
75.5930636857
 30
0.0
 11
192.1197393701
 21
76.2280636857
 31
0.0
  0
LINE
  5
CA
330
1F
100
AcDbEntity
  8
0
  6
Continuous
 62
     7
370
    25
100
AcDbLine
 10
192.1197393701
 20
76.2280636857
 30
0.0
 11
190.1941408073
 21
76.2280636857
 31
0.0
  0
LINE
  5
CB
330
1F
100
AcDbEntity
  8
0
  6
Continuous
 62
     7
370
    25
100
AcDbLine
 10
185.22987619
 20
75.0651096614
 30
0.0
 11
185.1882258707
 21
75.0413047316
 31
0.0
  0
ELLIPSE
  5
CC
330
1F
100
AcDbEntity
  8
0
  6
Continuous
 62
     7
370
    25
100
AcDbEllipse
 10
184.8393826911
 20
75.5959872028
 30
0.0
 11
0.678412947925267
 21
5.968558980384842E-13
 31
0.0
210
0.0
220
0.0
230
1.0
 40
0.9533039403
 41
3.4701458241403
 42
5.252469180536291
  0
LINE
  5
CD
330
1F
100
AcDbEntity
  8
0
  6
Continuous
 62
     7
370
    25
100
AcDbLine
 10
184.1972579241
 20
75.3873030878
 30
0.0
 11
182.9376037192
 21
78.9097474844
 31
0.0
  0
ELLIPSE
  5
CE
330
1F
100
AcDbEntity
  8
0
  6
Continuous
 62
     7
370
    25
100
AcDbEllipse
 10
182.3466211613
 20
78.6474082484
 30
0.0
 11
0.6519124952381219
 21
6.110667527536862E-13
 31
0.0
210
0.0
220
0.0
230
1.0
 40
0.9533023292
 41
0.4357905044354974
 42
2.70580011636155
  0
LINE
  5
CF
330
1F
100
AcDbEntity
  8
0
  6
Continuous
 62
     7
370
    25
100
AcDbLine
 10
181.7556391628
 20
78.9097486297
 30
0.0
 11
180.4962743611
 21
75.388125228
 31
0.0
  0
ELLIPSE
  5
D0
330
1F
100
AcDbEntity
  8
0
  6
Continuous
 62
     7
370
    25
100
AcDbEllipse
 10
179.8541531771
 20
75.5968080616
 30
0.0
 11
-0.6784085062757867
 21
3.268496584496461E-13
 31
0.0
210
0.0
220
0.0
230
1.0
 40
0.9533122623
 41
1.04719377118795
 42
2.813042320199918
  0
LINE
  5
D1
330
1F
100
AcDbEntity
  8
0
  6
Continuous
 62
     7
370
    25
100
AcDbLine
 10
179.5149467031
 20
75.0367202164
 30
0.0
 11
179.4633661326
 21
75.0651096614
 31
0.0
  0
LINE
  5
D2
330
1F
100
AcDbEntity
  8
0
  6
Continuous
 62
     7
370
    25
100
AcDbLine
 10
179.4633661326
 20
75.0651096614
 30
0.0
 11
180.2596347921
 21
73.54693756
 31
0.0
  0
ELLIPSE
  5
D3
330
1F
100
AcDbEntity
  8
0
  6
Continuous
 62
     7
370
    25
100
AcDbEllipse
 10
180.3354836655
 20
73.5830910749
 30
0.0
 11
0.08480161849067258
 21
-1.421085471520200E-14
 31
0.0
210
0.0
220
0.0
230
1.0
 40
0.9533039403
 41
3.605240262590959
 42
5.462183310215025
  0
ELLIPSE
  5
D4
330
1F
100
AcDbEntity
  8
0
  6
Continuous
 62
     7
370
    25
100
AcDbEllipse
 10
182.3466211613
 20
71.5242424544
 30
0.0
 11
2.866293551216188
 21
-1.477928890381008E-12
 31
0.0
210
0.0
220
0.0
230
1.0
 40
0.9533046568
 41
0.8210016221243828
 42
2.320591031466444
  0
ELLIPSE
  5
D5
330
1F
100
AcDbEntity
  8
0
  6
Continuous
 62
     7
370
    25
100
AcDbEllipse
 10
184.357758657
 20
73.5830910749
 30
0.0
 11
0.08480161849061574
 21
0.0
 31
0.0
210
0.0
220
0.0
230
1.0
 40
0.9533039403
 41
3.962594650556491
 42
5.819537698177335
  0
LINE
  5
D6
330
1F
100
AcDbEntity
  8
0
  6
Continuous
 62
     7
370
    25
100
AcDbLine
 10
184.4336075304
 20
73.54693756
 30
0.0
 11
185.22987619
 21
75.0651096614
 31
0.0
  0
LINE
  5
D7
330
1F
100
AcDbEntity
  8
0
  6
Continuous
 62
     7
370
    25
100
AcDbLine
 10
182.1316351039
 20
68.6825714674
 30
0.0
 11
182.1316351039
 21
72.487482679
 31
0.0
  0
LINE
  5
D8
330
1F
100
AcDbEntity
  8
0
  6
Continuous
 62
     7
370
    25
100
AcDbLine
 10
192.6478711809
 20
80.487482679
 30
0.0
 11
179.6153990269
 21
80.487482679
 31
0.0
  0
LINE
  5
D9
330
1F
100
AcDbEntity
  8
0
  6
Continuous
 62
     7
370
    25
100
AcDbLine
 10
180.1316351039
 20
83.8486986112
 30
0.0
 11
180.1316351039
 21
80.487482679
 31
0.0
  0
SPLINE
  5
DA
330
1F
100
AcDbEntity
  8
0
  6
Continuous
 62
     7
370
    25
100
AcDbSpline
210
0.0
220
0.0
230
1.0
 70
     8
 71
     3
 72
    10
 73
     6
 74
     0
 42
0.00000001
 43
0.00000001
 40
0.0
 40
0.0
 40
0.0
 40
0.0
 40
0.5
 40
0.5
 40
1.0
 40
1.0
 40
1.0
 40
1.0
 10
179.4539136986659
 20
81.53929753439309
 30
0.0
 10
179.4302383042415
 20
81.49635400349186
 30
0.0
 10
179.4171471943569
 20
81.43291155886773
 30
0.0
 10
179.4170608730686
 20
81.28043272174877
 30
0.0
 10
179.4302298070124
 20
81.19220271964149
 30
0.0
 10
179.4539136986659
 20
81.10628483250088
 30
0.0
  0
SPLINE
  5
DB
330
1F
100
AcDbEntity
  8
0
  6
Continuous
 62
     7
370
    25
100
AcDbSpline
210
0.0
220
0.0
230
1.0
 70
     8
 71
     3
 72
    12
 73
     8
 74
     0
 42
0.00000001
 43
0.00000001
 40
0.0
 40
0.0
 40
0.0
 40
0.0
 40
0.2500000000000001
 40
0.2500000000000001
 40
0.5000000000000002
 40
0.5000000000000002
 40
1.0
 40
1.0
 40
1.0
 40
1.0
 10
180.1316351039261
 20
83.84869861115159
 30
0.0
 10
180.1316351039261
 20
83.65295634827208
 30
0.0
 10
180.1157921678371
 20
83.45628973908151
 30
0.0
 10
180.0542893075994
 20
83.06702151175323
 30
0.0
 10
180.0086856665557
 20
82.87361747880031
 30
0.0
 10
179.8322346490665
 20
82.29668842754354
 30
0.0
 10
179.6618372818147
 20
81.91643899434055
 30
0.0
 10
179.4539136986659
 20
81.53929753439309
 30
0.0
  0
LINE
  5
DC
330
1F
100
AcDbEntity
  8
0
  6
Continuous
 62
     7
370
    25
100
AcDbLine
 10
192.1316351039
 20
83.8486986112
 30
0.0
 11
192.1316351039
 21
80.487482679
 31
0.0
  0
SPLINE
  5
DD
330
1F
100
AcDbEntity
  8
0
  6
Continuous
 62
     7
370
    25
100
AcDbSpline
210
0.0
220
0.0
230
1.0
 70
     8
 71
     3
 72
    10
 73
     6
 74
     0
 42
0.00000001
 43
0.00000001
 40
0.0
 40
0.0
 40
0.0
 40
0.0
 40
0.5
 40
0.5
 40
1.0
 40
1.0
 40
1.0
 40
1.0
 10
192.8093565091863
 20
81.53929753439307
 30
0.0
 10
192.6009357563689
 20
81.91734078379523
 30
0.0
 10
192.4304719210914
 20
82.29811028859108
 30
0.0
 10
192.195489486153
 20
83.06725881414862
 30
0.0
 10
192.1316351039261
 20
83.45568554232385
 30
0.0
 10
192.131635103926
 20
83.84869861115159
 30
0.0
  0
SPLINE
  5
DE
330
1F
100
AcDbEntity
  8
0
  6
Continuous
 62
     7
370
    25
100
AcDbSpline
210
0.0
220
0.0
230
1.0
 70
     8
 71
     3
 72
    10
 73
     6
 74
     0
 42
0.00000001
 43
0.00000001
 40
0.0
 40
0.0
 40
0.0
 40
0.0
 40
0.5
 40
0.5
 40
1.0
 40
1.0
 40
1.0
 40
1.0
 10
192.8093565091863
 20
81.10628483250088
 30
0.0
 10
192.8330319036107
 20
81.19217189430331
 30
0.0
 10
192.8461230134953
 20
81.27957910328342
 30
0.0
 10
192.8462093347836
 20
81.43221554587716
 30
0.0
 10
192.8330404008398
 20
81.49633859082275
 30
0.0
 10
192.8093565091863
 20
81.53929753439306
 30
0.0
  0
LINE
  5
DF
330
1F
100
AcDbEntity
  8
0
  6
Continuous
 62
     7
370
    25
100
AcDbLine
 10
174.6316351039
 20
76.487482679
 30
0.0
 11
174.6316351039
 21
83.8486986112
 31
0.0
  0
SPLINE
  5
E0
330
1F
100
AcDbEntity
  8
0
  6
Continuous
 62
     7
370
    25
100
AcDbSpline
210
0.0
220
0.0
230
1.0
 70
     8
 71
     3
 72
    10
 73
     6
 74
     0
 42
0.00000001
 43
0.00000001
 40
0.0
 40
0.0
 40
0.0
 40
0.0
 40
0.5
 40
0.5
 40
1.0
 40
1.0
 40
1.0
 40
1.0
 10
175.3093565091858
 20
81.53929753439306
 30
0.0
 10
175.1005465845195
 20
81.91804668178435
 30
0.0
 10
174.9300124447723
 20
82.29925195819565
 30
0.0
 10
174.6952266397534
 20
83.06848257938343
 30
0.0
 10
174.6316351039261
 20
83.45655028418176
 30
0.0
 10
174.6316351039261
 20
83.84869861115159
 30
0.0
  0
SPLINE
  5
E1
330
1F
100
AcDbEntity
  8
0
  6
Continuous
 62
     7
370
    25
100
AcDbSpline
210
0.0
220
0.0
230
1.0
 70
     8
 71
     3
 72
    10
 73
     6
 74
     0
 42
0.00000001
 43
0.00000001
 40
0.0
 40
0.0
 40
0.0
 40
0.0
 40
0.5
 40
0.5
 40
1.0
 40
1.0
 40
1.0
 40
1.0
 10
175.3093565091863
 20
81.53929753439309
 30
0.0
 10
175.3330287490978
 20
81.49635972529384
 30
0.0
 10
175.3461227390331
 20
81.43291913540166
 30
0.0
 10
175.3462096064945
 20
81.28042998989281
 30
0.0
 10
175.3330398167352
 20
81.19220060068949
 30
0.0
 10
175.3093565091863
 20
81.10628483250088
 30
0.0
  0
LINE
  5
E2
330
1F
100
AcDbEntity
  8
0
  6
Continuous
 62
     7
370
    25
100
AcDbLine
 10
182.0778740974
 20
75.9130508225
 30
0.0
 11
182.6852224562
 21
75.9130508225
 31
0.0
  0
LINE
  5
E3
330
1F
100
AcDbEntity
  8
0
  6
Continuous
 62
     7
370
    25
100
AcDbLine
 10
182.3016870403
 20
76.8316651684
 30
0.0
 11
181.9980128592
 21
76.0210825515
 31
0.0
  0
LINE
  5
E4
330
1F
100
AcDbEntity
  8
0
  6
Continuous
 62
     7
370
    25
100
AcDbLine
 10
182.7650836946
 20
76.0210825513
 30
0.0
 11
182.4614095169
 21
76.8316651684
 31
0.0
  0
ELLIPSE
  5
E5
330
1F
100
AcDbEntity
  8
0
  6
Continuous
 62
     7
370
    25
100
AcDbEllipse
 10
182.0778740974
 20
75.9938925396
 30
0.0
 11
0.08480161849064416
 21
-1.421085471520200E-14
 31
0.0
210
0.0
220
0.0
230
1.0
 40
0.9533039403
 41
2.798568711308439
 42
4.712388980384862
  0
ELLIPSE
  5
E6
330
1F
100
AcDbEntity
  8
0
  6
Continuous
 62
     7
370
    25
100
AcDbEllipse
 10
182.3815482786
 20
76.8044751566
 30
0.0
 11
0.08480161849064416
 21
0.0
 31
0.0
210
0.0
220
0.0
230
1.0
 40
0.9533039403
 41
0.3430239404205295
 42
2.798568713169376
  0
ELLIPSE
  5
E7
330
1F
100
AcDbEntity
  8
0
  6
Continuous
 62
     7
370
    25
100
AcDbEllipse
 10
182.6852224562
 20
75.9938925396
 30
0.0
 11
-0.08480161849067258
 21
-4.263256414560601E-14
 31
0.0
210
0.0
220
0.0
230
1.0
 40
0.9533039403
 41
1.570796326794417
 42
3.484616592149529
  0
SPLINE
  5
E8
330
1F
100
AcDbEntity
  8
0
  6
Continuous
 62
     7
370
    25
100
AcDbSpline
210
0.0
220
0.0
230
1.0
 70
     8
 71
     3
 72
     8
 73
     4
 74
     0
 42
0.00000001
 43
0.00000001
 40
0.0
 40
0.0
 40
0.0
 40
0.0
 40
1.0
 40
1.0
 40
1.0
 40
1.0
 10
178.8422589193094
 20
69.19810649435512
 30
0.0
 10
179.1512760619512
 20
69.29911160218525
 30
0.0
 10
179.4665938182692
 20
69.39576839125118
 30
0.0
 10
179.7890731451122
 20
69.48748267898385
 30
0.0
  0
SPLINE
  5
E9
330
1F
100
AcDbEntity
  8
0
  6
Continuous
 62
     7
370
    25
100
AcDbSpline
210
0.0
220
0.0
230
1.0
 70
     8
 71
     3
 72
    10
 73
     6
 74
     0
 42
0.00000001
 43
0.00000001
 40
0.0
 40
0.0
 40
0.0
 40
0.0
 40
0.5
 40
0.5
 40
1.0
 40
1.0
 40
1.0
 40
1.0
 10
181.0798202485169
 20
68.52108613912885
 30
0.0
 10
181.1227637794181
 20
68.49741074470447
 30
0.0
 10
181.1862062240422
 20
68.48431963481983
 30
0.0
 10
181.3386850611612
 20
68.48423331353153
 30
0.0
 10
181.4269150632684
 20
68.49740224747539
 30
0.0
 10
181.5128329504091
 20
68.52108613912885
 30
0.0
  0
SPLINE
  5
EA
330
1F
100
AcDbEntity
  8
0
  6
Continuous
 62
     7
370
    25
100
AcDbSpline
210
0.0
220
0.0
230
1.0
 70
     8
 71
     3
 72
    12
 73
     8
 74
     0
 42
0.00000001
 43
0.00000001
 40
0.0
 40
0.0
 40
0.0
 40
0.0
 40
0.2500000000000002
 40
0.2500000000000002
 40
0.5000000000000004
 40
0.5000000000000004
 40
1.0
 40
1.0
 40
1.0
 40
1.0
 10
178.8422589193042
 20
69.19810649434899
 30
0.0
 10
179.0322850946074
 20
69.19439800849257
 30
0.0
 10
179.2225001572932
 20
69.17581550565488
 30
0.0
 10
179.5994369164256
 20
69.11094846868873
 30
0.0
 10
179.7867597076851
 20
69.06468291543848
 30
0.0
 10
180.3456696639992
 20
68.88895838513152
 30
0.0
 10
180.7142053221096
 20
68.72265497635476
 30
0.0
 10
181.0798202485169
 20
68.52108613912885
 30
0.0
  0
SPLINE
  5
EB
330
1F
100
AcDbEntity
  8
0
  6
Continuous
 62
     7
370
    25
100
AcDbSpline
210
0.0
220
0.0
230
1.0
 70
     8
 71
     3
 72
    10
 73
     6
 74
     0
 42
0.00000001
 43
0.00000001
 40
0.0
 40
0.0
 40
0.0
 40
0.0
 40
0.5
 40
0.5
 40
1.0
 40
1.0
 40
1.0
 40
1.0
 10
175.3093565091863
 20
71.86868052546684
 30
0.0
 10
175.3330304097422
 20
71.78279888296039
 30
0.0
 10
175.3461229669214
 20
71.69538967699496
 30
0.0
 10
175.3462093809036
 20
71.54274719192003
 30
0.0
 10
175.333038989305
 20
71.47862420683767
 30
0.0
 10
175.3093565091863
 20
71.43566782357463
 30
0.0
  0
SPLINE
  5
EC
330
1F
100
AcDbEntity
  8
0
  6
Continuous
 62
     7
370
    25
100
AcDbSpline
210
0.0
220
0.0
230
1.0
 70
     8
 71
     3
 72
    12
 73
     8
 74
     0
 42
0.00000001
 43
0.00000001
 40
0.0
 40
0.0
 40
0.0
 40
0.0
 40
0.2499999999999999
 40
0.2499999999999999
 40
0.4999999999999998
 40
0.4999999999999998
 40
1.0
 40
1.0
 40
1.0
 40
1.0
 10
174.6316351039261
 20
69.12626674681613
 30
0.0
 10
174.6316351039261
 20
69.32127022682192
 30
0.0
 10
174.647381433948
 20
69.51780488584633
 30
0.0
 10
174.7088264585335
 20
69.90722457345188
 30
0.0
 10
174.7544152177872
 20
70.10070926651214
 30
0.0
 10
174.9308662200438
 20
70.67789286526774
 30
0.0
 10
175.1013239220073
 20
71.05832864705071
 30
0.0
 10
175.3093565091861
 20
71.43566782357465
 30
0.0
  0
LINE
  5
ED
330
1F
100
AcDbEntity
  8
0
  6
Continuous
 62
     7
370
    25
100
AcDbLine
 10
174.6316351039
 20
76.487482679
 30
0.0
 11
174.6316351039
 21
69.1262667468
 31
0.0
  0
LINE
  5
EE
330
1F
100
AcDbEntity
  8
0
  6
Continuous
 62
     7
370
    25
100
AcDbLine
 10
175.3093565092
 20
81.5392975344
 30
0.0
 11
179.4539136987
 21
81.5392975344
 31
0.0
  0
SPLINE
  5
EF
330
1F
100
AcDbEntity
  8
0
  6
Continuous
 62
     7
370
    25
100
AcDbSpline
210
0.0
220
0.0
230
1.0
 70
     8
 71
     3
 72
     8
 73
     4
 74
     0
 42
0.00000001
 43
0.00000001
 40
0.0
 40
0.0
 40
0.0
 40
0.0
 40
1.0
 40
1.0
 40
1.0
 40
1.0
 10
192.4741970627399
 20
69.48748267898385
 30
0.0
 10
192.7966763895892
 20
69.3957683912494
 30
0.0
 10
193.1119941459132
 20
69.2991116021815
 30
0.0
 10
193.4210112885607
 20
69.19810649434923
 30
0.0
  0
SPLINE
  5
F0
330
1F
100
AcDbEntity
  8
0
  6
Continuous
 62
     7
370
    25
100
AcDbSpline
210
0.0
220
0.0
230
1.0
 70
     8
 71
     3
 72
    10
 73
     6
 74
     0
 42
0.00000001
 43
0.00000001
 40
0.0
 40
0.0
 40
0.0
 40
0.0
 40
0.5
 40
0.5
 40
1.0
 40
1.0
 40
1.0
 40
1.0
 10
191.1834499593355
 20
68.52108613912901
 30
0.0
 10
191.5499679061761
 20
68.72315282467993
 30
0.0
 10
191.9190481316419
 20
68.88954559695058
 30
0.0
 10
192.6643004798694
 20
69.12359257082062
 30
0.0
 10
193.0405132518171
 20
69.19068082477946
 30
0.0
 10
193.4210112885607
 20
69.19810649434923
 30
0.0
  0
SPLINE
  5
F1
330
1F
100
AcDbEntity
  8
0
  6
Continuous
 62
     7
370
    25
100
AcDbSpline
210
0.0
220
0.0
230
1.0
 70
     8
 71
     3
 72
    10
 73
     6
 74
     0
 42
0.00000001
 43
0.00000001
 40
0.0
 40
0.0
 40
0.0
 40
0.0
 40
0.5
 40
0.5
 40
1.0
 40
1.0
 40
1.0
 40
1.0
 10
190.7504372574431
 20
68.52108613912884
 30
0.0
 10
190.8363243192456
 20
68.49741074470442
 30
0.0
 10
190.9237315282258
 20
68.4843196348198
 30
0.0
 10
191.0763679708197
 20
68.48423331353158
 30
0.0
 10
191.1404910157655
 20
68.49740224747552
 30
0.0
 10
191.1834499593357
 20
68.52108613912907
 30
0.0
  0
LINE
  5
F2
330
1F
100
AcDbEntity
  8
0
  6
Continuous
 62
     7
370
    25
100
AcDbLine
 10
191.1834499593
 20
68.5210861391
 30
0.0
 11
191.1834499593
 21
66.3487721361
 31
0.0
  0
SPLINE
  5
F3
330
1F
100
AcDbEntity
  8
0
  6
Continuous
 62
     7
370
    25
100
AcDbSpline
210
0.0
220
0.0
230
1.0
 70
     8
 71
     3
 72
    10
 73
     6
 74
     0
 42
0.00000001
 43
0.00000001
 40
0.0
 40
0.0
 40
0.0
 40
0.0
 40
0.5
 40
0.5
 40
1.0
 40
1.0
 40
1.0
 40
1.0
 10
190.7504372574431
 20
66.34877213608277
 30
0.0
 10
190.8363188999495
 20
66.37244603663872
 30
0.0
 10
190.923728105915
 20
66.38553859381787
 30
0.0
 10
191.0763705909899
 20
66.38562500780014
 30
0.0
 10
191.1404935760723
 20
66.37245461620152
 30
0.0
 10
191.1834499593353
 20
66.34877213608277
 30
0.0
  0
SPLINE
  5
F4
330
1F
100
AcDbEntity
  8
0
  6
Continuous
 62
     7
370
    25
100
AcDbSpline
210
0.0
220
0.0
230
1.0
 70
     8
 71
     3
 72
    10
 73
     6
 74
     0
 42
0.00000001
 43
0.00000001
 40
0.0
 40
0.0
 40
0.0
 40
0.0
 40
0.5
 40
0.5
 40
1.0
 40
1.0
 40
1.0
 40
1.0
 10
179.4539136986658
 20
71.86868052546686
 30
0.0
 10
179.4302383042414
 20
71.78279346366439
 30
0.0
 10
179.4171471943569
 20
71.69538625468427
 30
0.0
 10
179.4170608730686
 20
71.54274981209053
 30
0.0
 10
179.4302298070124
 20
71.47862676714495
 30
0.0
 10
179.4539136986659
 20
71.43566782357463
 30
0.0
  0
LINE
  5
F5
330
1F
100
AcDbEntity
  8
0
  6
Continuous
 62
     7
370
    25
100
AcDbLine
 10
179.4539136987
 20
71.4356678236
 30
0.0
 11
175.3093565092
 21
71.4356678236
 31
0.0
  0
SPLINE
  5
F6
330
1F
100
AcDbEntity
  8
0
  6
Continuous
 62
     7
370
    25
100
AcDbSpline
210
0.0
220
0.0
230
1.0
 70
     8
 71
     3
 72
    10
 73
     6
 74
     0
 42
0.00000001
 43
0.00000001
 40
0.0
 40
0.0
 40
0.0
 40
0.0
 40
0.5
 40
0.5
 40
1.0
 40
1.0
 40
1.0
 40
1.0
 10
197.3095761313683
 20
71.86868052546686
 30
0.0
 10
197.285900736944
 20
71.78279346366439
 30
0.0
 10
197.2728096270594
 20
71.69538625468425
 30
0.0
 10
197.2727233057712
 20
71.54274981209052
 30
0.0
 10
197.285892239715
 20
71.47862676714493
 30
0.0
 10
197.3095761313685
 20
71.43566782357463
 30
0.0
  0
SPLINE
  5
F7
330
1F
100
AcDbEntity
  8
0
  6
Continuous
 62
     7
370
    25
100
AcDbSpline
210
0.0
220
0.0
230
1.0
 70
     8
 71
     3
 72
    10
 73
     6
 74
     0
 42
0.00000001
 43
0.00000001
 40
0.0
 40
0.0
 40
0.0
 40
0.0
 40
0.5
 40
0.5
 40
1.0
 40
1.0
 40
1.0
 40
1.0
 10
197.3095761313685
 20
81.5392975343931
 30
0.0
 10
197.2859007369441
 20
81.49635400349186
 30
0.0
 10
197.2728096270594
 20
81.43291155886773
 30
0.0
 10
197.2727233057712
 20
81.28043272174877
 30
0.0
 10
197.285892239715
 20
81.19220271964149
 30
0.0
 10
197.3095761313685
 20
81.10628483250088
 30
0.0
  0
SPLINE
  5
F8
330
1F
100
AcDbEntity
  8
0
  6
Continuous
 62
     7
370
    25
100
AcDbSpline
210
0.0
220
0.0
230
1.0
 70
     8
 71
     3
 72
    16
 73
    12
 74
     0
 42
0.00000001
 43
0.00000001
 40
0.0
 40
0.0
 40
0.0
 40
0.0
 40
0.2500000000000001
 40
0.2500000000000001
 40
0.5000000000000001
 40
0.5000000000000001
 40
0.6250000000000001
 40
0.6250000000000001
 40
0.7500000000000002
 40
0.7500000000000002
 40
1.0
 40
1.0
 40
1.0
 40
1.0
 10
197.3095761313685
 20
86.1580996879101
 30
0.0
 10
197.5175915794742
 20
85.78079159903359
 30
0.0
 10
197.6877978844472
 20
85.4007678686594
 30
0.0
 10
197.9227339160148
 20
84.6331445532487
 30
0.0
 10
197.9868060476785
 20
84.2454977364599
 30
0.0
 10
197.9875389965995
 20
83.65717718457205
 30
0.0
 10
197.9718795165165
 20
83.46010399201641
 30
0.0
 10
197.9106043898795
 20
83.0700470144623
 30
0.0
 10
197.8650481173804
 20
82.87625411387427
 30
0.0
 10
197.6885620846241
 20
82.29817312911085
 30
0.0
 10
197.5179056311384
 20
81.91717526477602
 30
0.0
 10
197.3095761313685
 20
81.5392975343931
 30
0.0
  0
SPLINE
  5
F9
330
1F
100
AcDbEntity
  8
0
  6
Continuous
 62
     7
370
    25
100
AcDbSpline
210
0.0
220
0.0
230
1.0
 70
     8
 71
     3
 72
    10
 73
     6
 74
     0
 42
0.00000001
 43
0.00000001
 40
0.0
 40
0.0
 40
0.0
 40
0.0
 40
0.1601790552921226
 40
0.7197651707803578
 40
1.0
 40
1.0
 40
1.0
 40
1.0
 10
197.2753466982516
 20
86.22037796665984
 30
0.0
 10
197.2745839081583
 20
86.22177019468621
 30
0.0
 10
197.2711563080846
 20
86.22802617641453
 30
0.0
 10
197.2856637728829
 20
86.20151891168662
 30
0.0
 10
197.3035933260007
 20
86.16896305654147
 30
0.0
 10
197.3095761313685
 20
86.1580996879101
 30
0.0
  0
SPLINE
  5
FA
330
1F
100
AcDbEntity
  8
0
  6
Continuous
 62
     7
370
    25
100
AcDbSpline
210
0.0
220
0.0
230
1.0
 70
     8
 71
     3
 72
     9
 73
     5
 74
     0
 42
0.00000001
 43
0.00000001
 40
0.0
 40
0.0
 40
0.0
 40
0.0
 40
0.5797912171256352
 40
1.0
 40
1.0
 40
1.0
 40
1.0
 10
197.3095761313685
 20
66.81686567005762
 30
0.0
 10
197.297217528022
 20
66.79439202181649
 30
0.0
 10
197.2759019182276
 20
66.75563039939567
 30
0.0
 10
197.2755109757248
 20
66.75489599463747
 30
0.0
 10
197.2753466982516
 20
66.75458739130788
 30
0.0
  0
SPLINE
  5
FB
330
1F
100
AcDbEntity
  8
0
  6
Continuous
 62
     7
370
    25
100
AcDbSpline
210
0.0
220
0.0
230
1.0
 70
     8
 71
     3
 72
    16
 73
    12
 74
     0
 42
0.00000001
 43
0.00000001
 40
0.0
 40
0.0
 40
0.0
 40
0.0
 40
0.2500000000000001
 40
0.2500000000000001
 40
0.5000000000000002
 40
0.5000000000000002
 40
0.6250000000000001
 40
0.6250000000000001
 40
0.7500000000000001
 40
0.7500000000000001
 40
1.0
 40
1.0
 40
1.0
 40
1.0
 10
197.3095761313685
 20
71.43566782357463
 30
0.0
 10
197.5175915794742
 20
71.05835973469814
 30
0.0
 10
197.6877978844472
 20
70.67833600432394
 30
0.0
 10
197.9227339160148
 20
69.91071268891325
 30
0.0
 10
197.9868060476785
 20
69.52306587212443
 30
0.0
 10
197.9875389965995
 20
68.93474532023659
 30
0.0
 10
197.9718795165165
 20
68.73767212768095
 30
0.0
 10
197.9106043898795
 20
68.34761515012684
 30
0.0
 10
197.8650481173804
 20
68.1538222495388
 30
0.0
 10
197.6885620846241
 20
67.57574126477537
 30
0.0
 10
197.5179056311384
 20
67.19474340044056
 30
0.0
 10
197.3095761313685
 20
66.81686567005762
 30
0.0
  0
LINE
  5
FC
330
1F
100
AcDbEntity
  8
0
  6
Continuous
 62
     7
370
    25
100
AcDbLine
 10
198.1316351039
 20
84.737482679
 30
0.0
 11
198.1316351039
 21
68.237482679
 31
0.0
  0
SPLINE
  5
FD
330
1F
100
AcDbEntity
  8
0
  6
Continuous
 62
     7
370
    25
100
AcDbSpline
210
0.0
220
0.0
230
1.0
 70
     8
 71
     3
 72
     8
 73
     4
 74
     0
 42
0.00000001
 43
0.00000001
 40
0.0
 40
0.0
 40
0.0
 40
0.0
 40
1.0
 40
1.0
 40
1.0
 40
1.0
 10
192.2530185954222
 20
70.07736114565861
 30
0.0
 10
192.211903319781
 20
70.21339154014817
 30
0.0
 10
192.1714143369131
 20
70.3500956047856
 30
0.0
 10
192.1316351039261
 20
70.48748267898387
 30
0.0
  0
LINE
  5
FE
330
1F
100
AcDbEntity
  8
0
  6
Continuous
 62
     7
370
    25
100
AcDbLine
 10
192.1316351039
 20
72.487482679
 30
0.0
 11
192.1316351039
 21
70.487482679
 31
0.0
  0
SPLINE
  5
FF
330
1F
100
AcDbEntity
  8
0
  6
Continuous
 62
     7
370
    25
100
AcDbSpline
210
0.0
220
0.0
230
1.0
 70
     8
 71
     3
 72
    10
 73
     6
 74
     0
 42
0.00000001
 43
0.00000001
 40
0.0
 40
0.0
 40
0.0
 40
0.0
 40
0.5
 40
0.5
 40
1.0
 40
1.0
 40
1.0
 40
1.0
 10
192.809356509183
 20
71.43566782357463
 30
0.0
 10
192.8330319036073
 20
71.47861135447579
 30
0.0
 10
192.8461230134953
 20
71.54205379909959
 30
0.0
 10
192.8462093347836
 20
71.69453263621867
 30
0.0
 10
192.8330404008398
 20
71.78276263832609
 30
0.0
 10
192.8093565091863
 20
71.86868052546684
 30
0.0
  0
SPLINE
  5
100
330
1F
100
AcDbEntity
  8
0
  6
Continuous
 62
     7
370
    25
100
AcDbSpline
210
0.0
220
0.0
230
1.0
 70
     8
 71
     3
 72
     8
 73
     4
 74
     0
 42
0.00000001
 43
0.00000001
 40
0.0
 40
0.0
 40
0.0
 40
0.0
 40
1.0
 40
1.0
 40
1.0
 40
1.0
 10
192.2530185954222
 20
70.07736114565861
 30
0.0
 10
192.3686512054513
 20
70.53591207771636
 30
0.0
 10
192.5625406102717
 20
70.98798167347464
 30
0.0
 10
192.8093565091861
 20
71.43566782357436
 30
0.0
  0
SPLINE
  5
101
330
1F
100
AcDbEntity
  8
0
  6
Continuous
 62
     7
370
    25
100
AcDbSpline
210
0.0
220
0.0
230
1.0
 70
     8
 71
     3
 72
    10
 73
     6
 74
     0
 42
0.00000001
 43
0.00000001
 40
0.0
 40
0.0
 40
0.0
 40
0.0
 40
0.5
 40
0.5
 40
1.0
 40
1.0
 40
1.0
 40
1.0
 10
181.0798202485169
 20
66.34877213608277
 30
0.0
 10
181.1227580576161
 20
66.37244437599433
 30
0.0
 10
181.1861986475083
 20
66.38553836592959
 30
0.0
 10
181.3386877930171
 20
66.38562523339104
 30
0.0
 10
181.4269171822204
 20
66.37245544363168
 30
0.0
 10
181.5128329504091
 20
66.34877213608277
 30
0.0
  0
LINE
  5
102
330
1F
100
AcDbEntity
  8
0
  6
Continuous
 62
     7
370
    25
100
AcDbLine
 10
181.0798202485
 20
66.3487721361
 30
0.0
 11
181.0798202485
 21
68.5210861391
 31
0.0
  0
SPLINE
  5
103
330
1F
100
AcDbEntity
  8
0
  6
Continuous
 62
     7
370
    25
100
AcDbSpline
210
0.0
220
0.0
230
1.0
 70
     8
 71
     3
 72
    16
 73
    12
 74
     0
 42
0.00000001
 43
0.00000001
 40
0.0
 40
0.0
 40
0.0
 40
0.0
 40
0.2499999999999999
 40
0.2499999999999999
 40
0.4999999999999999
 40
0.4999999999999999
 40
0.625
 40
0.625
 40
0.75
 40
0.75
 40
1.0
 40
1.0
 40
1.0
 40
1.0
 10
195.8022521128524
 20
66.34877213608232
 30
0.0
 10
195.4245370651294
 20
66.14053232563366
 30
0.0
 10
195.0443793165034
 20
65.9703590392242
 30
0.0
 10
194.277285984612
 20
65.73563677960837
 30
0.0
 10
193.8903086272743
 20
65.67173880453389
 30
0.0
 10
193.3037578522496
 20
65.6707151024474
 30
0.0
 10
193.1066786923266
 20
65.6862016495921
 30
0.0
 10
192.7161495528183
 20
65.7473253710501
 30
0.0
 10
192.5221178491453
 20
65.7928470983451
 30
0.0
 10
191.9433137767242
 20
65.96934646209029
 30
0.0
 10
191.5618250425577
 20
66.14016843844409
 30
0.0
 10
191.1834499593353
 20
66.34877213608263
 30
0.0
  0
SPLINE
  5
104
330
1F
100
AcDbEntity
  8
0
  6
Continuous
 62
     7
370
    25
100
AcDbSpline
210
0.0
220
0.0
230
1.0
 70
     8
 71
     3
 72
     9
 73
     5
 74
     0
 42
0.00000001
 43
0.00000001
 40
0.0
 40
0.0
 40
0.0
 40
0.0
 40
0.5789479223911506
 40
1.0
 40
1.0
 40
1.0
 40
1.0
 10
195.8022521128523
 20
66.34877213608277
 30
0.0
 10
195.8246934800449
 20
66.36111302639719
 30
0.0
 10
195.8634558044695
 20
66.3824290892711
 30
0.0
 10
195.8642217073286
 20
66.38283726318548
 30
0.0
 10
195.8645441923187
 20
66.38300912566015
 30
0.0
  0
SPLINE
  5
105
330
1F
100
AcDbEntity
  8
0
  6
Continuous
 62
     7
370
    25
100
AcDbSpline
210
0.0
220
0.0
230
1.0
 70
     8
 71
     3
 72
    10
 73
     6
 74
     0
 42
0.00000001
 43
0.00000001
 40
0.0
 40
0.0
 40
0.0
 40
0.0
 40
0.1593935213061705
 40
0.7189934545756324
 40
1.0
 40
1.0
 40
1.0
 40
1.0
 10
176.3987260155335
 20
66.38300912566015
 30
0.0
 10
176.3973360967069
 20
66.38377065265762
 30
0.0
 10
176.3910664407601
 20
66.38720575417348
 30
0.0
 10
176.4175503825841
 20
66.37271113170688
 30
0.0
 10
176.4501277866307
 20
66.35476976121427
 30
0.0
 10
176.4610180949998
 20
66.34877213608277
 30
0.0
  0
SPLINE
  5
106
330
1F
100
AcDbEntity
  8
0
  6
Continuous
 62
     7
370
    25
100
AcDbSpline
210
0.0
220
0.0
230
1.0
 70
     8
 71
     3
 72
    16
 73
    12
 74
     0
 42
0.00000001
 43
0.00000001
 40
0.0
 40
0.0
 40
0.0
 40
0.0
 40
0.2499999999999999
 40
0.2499999999999999
 40
0.4999999999999998
 40
0.4999999999999998
 40
0.6249999999999998
 40
0.6249999999999998
 40
0.7499999999999997
 40
0.7499999999999997
 40
1.0
 40
1.0
 40
1.0
 40
1.0
 10
181.0798202485169
 20
66.34877213608232
 30
0.0
 10
180.7021052007939
 20
66.14053232563366
 30
0.0
 10
180.3219474521679
 20
65.9703590392242
 30
0.0
 10
179.5548541202765
 20
65.73563677960837
 30
0.0
 10
179.1678767629388
 20
65.6717388045339
 30
0.0
 10
178.5813259879142
 20
65.6707151024474
 30
0.0
 10
178.3842468279911
 20
65.6862016495921
 30
0.0
 10
177.9937176884829
 20
65.7473253710501
 30
0.0
 10
177.7996859848098
 20
65.7928470983451
 30
0.0
 10
177.2208819123888
 20
65.96934646209029
 30
0.0
 10
176.8393931782223
 20
66.14016843844409
 30
0.0
 10
176.4610180949998
 20
66.34877213608263
 30
0.0
  0
LINE
  5
107
330
1F
100
AcDbEntity
  8
0
  6
Continuous
 62
     7
370
    25
100
AcDbLine
 10
180.1316351039
 20
72.487482679
 30
0.0
 11
180.1316351039
 21
70.487482679
 31
0.0
  0
SPLINE
  5
108
330
1F
100
AcDbEntity
  8
0
  6
Continuous
 62
     7
370
    25
100
AcDbSpline
210
0.0
220
0.0
230
1.0
 70
     8
 71
     3
 72
     8
 73
     4
 74
     0
 42
0.00000001
 43
0.00000001
 40
0.0
 40
0.0
 40
0.0
 40
0.0
 40
1.0
 40
1.0
 40
1.0
 40
1.0
 10
180.1316351039261
 20
70.48748267898387
 30
0.0
 10
180.0918564457359
 20
70.35009758998376
 30
0.0
 10
180.0513674829077
 20
70.21339350817198
 30
0.0
 10
180.0102516124299
 20
70.07736114565861
 30
0.0
  0
SPLINE
  5
109
330
1F
100
AcDbEntity
  8
0
  6
Continuous
 62
     7
370
    25
100
AcDbSpline
210
0.0
220
0.0
230
1.0
 70
     8
 71
     3
 72
     8
 73
     4
 74
     0
 42
0.00000001
 43
0.00000001
 40
0.0
 40
0.0
 40
0.0
 40
0.0
 40
1.0
 40
1.0
 40
1.0
 40
1.0
 10
179.4539136986659
 20
71.43566782357463
 30
0.0
 10
179.7010874795498
 20
70.9873325305233
 30
0.0
 10
179.8948091478538
 20
70.5351580397797
 30
0.0
 10
180.0102516124299
 20
70.07736114565861
 30
0.0
  0
LINE
  5
10A
330
1F
100
AcDbEntity
  8
0
  6
Continuous
 62
     7
370
    25
100
AcDbLine
 10
197.3095761314
 20
71.4356678236
 30
0.0
 11
192.8093565092
 21
71.4356678236
 31
0.0
  0
LINE
  5
10B
330
1F
100
AcDbEntity
  8
0
  6
Continuous
 62
     7
370
    25
100
AcDbLine
 10
192.8093565092
 20
81.5392975344
 30
0.0
 11
197.3095761314
 21
81.5392975344
 31
0.0
  0
SPLINE
  5
10C
330
1F
100
AcDbEntity
  8
0
  6
Continuous
 62
     7
370
    25
100
AcDbSpline
210
0.0
220
0.0
230
1.0
 70
     8
 71
     3
 72
    12
 73
     8
 74
     0
 42
0.00000001
 43
0.00000001
 40
0.0
 40
0.0
 40
0.0
 40
0.0
 40
0.2499999999999999
 40
0.2499999999999999
 40
0.4999999999999998
 40
0.4999999999999998
 40
1.0
 40
1.0
 40
1.0
 40
1.0
 10
192.131635103926
 20
83.84869861115159
 30
0.0
 10
192.131635103926
 20
84.04444087403111
 30
0.0
 10
192.147478040015
 20
84.24110748322167
 30
0.0
 10
192.2089809002527
 20
84.63037571054994
 30
0.0
 10
192.2545845412964
 20
84.82377974350285
 30
0.0
 10
192.4310355587856
 20
85.40070879475962
 30
0.0
 10
192.6014329260375
 20
85.78095822796264
 30
0.0
 10
192.8093565091863
 20
86.1580996879101
 30
0.0
  0
LINE
  5
10D
330
1F
100
AcDbEntity
  8
0
  6
Continuous
 62
     7
370
    25
100
AcDbLine
 10
197.3095761314
 20
86.1580996879
 30
0.0
 11
192.8093565092
 21
86.1580996879
 31
0.0
  0
ELLIPSE
  5
10E
330
1F
100
AcDbEntity
  8
0
  6
Continuous
 62
     7
370
    25
100
AcDbEllipse
 10
186.1316351039
 20
66.6725281028
 30
0.0
 11
8.500000000000028
 21
0.0
 31
0.0
210
0.0
220
0.0
230
1.0
 40
0.5773502692
 41
2.37483321287308
 42
2.530692279913057
  0
LINE
  5
10F
330
1F
100
AcDbEntity
  8
0
  6
Continuous
 62
     7
370
    25
100
AcDbLine
 10
178.8422589193
 20
69.1981064943
 30
0.0
 11
176.461018095
 21
66.8168656701
 31
0.0
  0
LINE
  5
110
330
1F
100
AcDbEntity
  8
0
  6
Continuous
 62
     7
370
    25
100
AcDbLine
 10
175.3093565092
 20
66.8168656701
 30
0.0
 11
176.461018095
 21
66.8168656701
 31
0.0
  0
SPLINE
  5
111
330
1F
100
AcDbEntity
  8
0
  6
Continuous
 62
     7
370
    25
100
AcDbSpline
210
0.0
220
0.0
230
1.0
 70
     8
 71
     3
 72
    10
 73
     6
 74
     0
 42
0.00000001
 43
0.00000001
 40
0.0
 40
0.0
 40
0.0
 40
0.0
 40
0.5
 40
0.5
 40
1.0
 40
1.0
 40
1.0
 40
1.0
 10
175.3093565091858
 20
66.8168656700576
 30
0.0
 10
175.1005465845195
 20
67.19561481744888
 30
0.0
 10
174.9300124447723
 20
67.57682009386018
 30
0.0
 10
174.6952266397534
 20
68.34605071504797
 30
0.0
 10
174.6316351039261
 20
68.73411841984628
 30
0.0
 10
174.6316351039261
 20
69.12626674681613
 30
0.0
  0
ELLIPSE
  5
112
330
1F
100
AcDbEntity
  8
0
  6
Continuous
 62
     7
370
    25
100
AcDbEllipse
 10
186.1316351039
 20
66.6725281028
 30
0.0
 11
8.500000000000028
 21
0.0
 31
0.0
210
0.0
220
0.0
230
1.0
 40
0.5773502692
 41
0.6109003736767351
 42
0.7667594407167099
  0
LINE
  5
113
330
1F
100
AcDbEntity
  8
0
  6
Continuous
 62
     7
370
    25
100
AcDbLine
 10
195.8022521129
 20
66.8168656701
 30
0.0
 11
197.3095761314
 21
66.8168656701
 31
0.0
  0
LINE
  5
114
330
1F
100
AcDbEntity
  8
0
  6
Continuous
 62
     7
370
    25
100
AcDbLine
 10
195.8022521129
 20
66.8168656701
 30
0.0
 11
193.4210112886
 21
69.1981064943
 31
0.0
  0
SPLINE
  5
115
330
1F
100
AcDbEntity
  8
0
  6
Continuous
 62
     7
370
    25
100
AcDbSpline
210
0.0
220
0.0
230
1.0
 70
     8
 71
     3
 72
    12
 73
     8
 74
     0
 42
0.00000001
 43
0.00000001
 40
0.0
 40
0.0
 40
0.0
 40
0.0
 40
0.2499999999999999
 40
0.2499999999999999
 40
0.5
 40
0.5
 40
1.0
 40
1.0
 40
1.0
 40
1.0
 10
174.6316351039261
 20
83.84869861115159
 30
0.0
 10
174.6316351039261
 20
84.04370209115739
 30
0.0
 10
174.647381433948
 20
84.2402367501818
 30
0.0
 10
174.7088264585335
 20
84.62965643778735
 30
0.0
 10
174.7544152177872
 20
84.8231411308476
 30
0.0
 10
174.9308662200438
 20
85.40032472960321
 30
0.0
 10
175.1013239220073
 20
85.78076051138616
 30
0.0
 10
175.3093565091861
 20
86.15809968791011
 30
0.0
  0
LINE
  5
116
330
1F
100
AcDbEntity
  8
0
  6
Continuous
 62
     7
370
    25
100
AcDbLine
 10
179.4539136987
 20
86.1580996879
 30
0.0
 11
175.3093565092
 21
86.1580996879
 31
0.0
  0
SPLINE
  5
117
330
1F
100
AcDbEntity
  8
0
  6
Continuous
 62
     7
370
    25
100
AcDbSpline
210
0.0
220
0.0
230
1.0
 70
     8
 71
     3
 72
    10
 73
     6
 74
     0
 42
0.00000001
 43
0.00000001
 40
0.0
 40
0.0
 40
0.0
 40
0.0
 40
0.5
 40
0.5
 40
1.0
 40
1.0
 40
1.0
 40
1.0
 10
179.4539136986659
 20
86.15809968791012
 30
0.0
 10
179.6623344514833
 20
85.78005643850796
 30
0.0
 10
179.8327982867607
 20
85.3992869337121
 30
0.0
 10
180.0677807216991
 20
84.63013840815456
 30
0.0
 10
180.1316351039261
 20
84.24171167997932
 30
0.0
 10
180.1316351039261
 20
83.84869861115159
 30
0.0
  0
LINE
  5
118
330
1F
100
AcDbEntity
  8
0
  6
Continuous
 62
     7
370
    25
100
AcDbLine
 10
176.461018095
 20
66.8168656701
 30
0.0
 11
176.461018095
 21
66.3487721361
 31
0.0
  0
LINE
  5
119
330
1F
100
AcDbEntity
  8
0
  6
Continuous
 62
     7
370
    25
100
AcDbLine
 10
195.8022521129
 20
66.3487721361
 30
0.0
 11
195.8022521129
 21
66.8168656701
 31
0.0
  0
LINE
  5
11A
330
1F
100
AcDbEntity
  8
0
  6
Continuous
 62
     7
370
    25
100
AcDbLine
 10
182.1316351039
 20
72.487482679
 30
0.0
 11
180.1316351039
 21
70.487482679
 31
0.0
  0
LINE
  5
11B
330
1F
100
AcDbEntity
  8
0
  6
Continuous
 62
     7
370
    25
100
AcDbLine
 10
179.1690140313
 20
69.487482679
 30
0.0
 11
182.1316351039
 21
69.487482679
 31
0.0
  0
LINE
  5
11C
330
1F
100
AcDbEntity
  8
0
  6
Continuous
 62
     7
370
    25
100
AcDbLine
 10
192.1316351039
 20
70.487482679
 30
0.0
 11
190.1316351039
 21
72.487482679
 31
0.0
  0
LINE
  5
11D
330
1F
100
AcDbEntity
  8
0
  6
Continuous
 62
     7
370
    25
100
AcDbLine
 10
190.1316351039
 20
69.487482679
 30
0.0
 11
193.0942561766
 21
69.487482679
 31
0.0
  0
LINE
  5
11E
330
1F
100
AcDbEntity
  8
0
  6
Continuous
 62
     7
370
    25
100
AcDbLine
 10
180.1316351039
 20
84.4219371572
 30
0.0
 11
180.1316351039
 21
83.8486986112
 31
0.0
  0
SPLINE
  5
11F
330
1F
100
AcDbEntity
  8
0
  6
Continuous
 62
     7
370
    25
100
AcDbSpline
210
0.0
220
0.0
230
1.0
 70
     8
 71
     3
 72
    32
 73
    28
 74
     0
 42
0.00000001
 43
0.00000001
 40
0.0
 40
0.0
 40
0.0
 40
0.0
 40
0.0625000000000001
 40
0.0625000000000001
 40
0.1250000000000001
 40
0.1250000000000001
 40
0.1875000000000002
 40
0.1875000000000002
 40
0.2500000000000003
 40
0.2500000000000003
 40
0.3750000000000003
 40
0.3750000000000003
 40
0.4375000000000003
 40
0.4375000000000003
 40
0.5000000000000002
 40
0.5000000000000002
 40
0.5625000000000002
 40
0.5625000000000002
 40
0.6250000000000001
 40
0.6250000000000001
 40
0.7500000000000001
 40
0.7500000000000001
 40
0.8750000000000002
 40
0.8750000000000002
 40
0.9375000000000001
 40
0.9375000000000001
 40
1.0
 40
1.0
 40
1.0
 40
1.0
 10
192.1316351039176
 20
84.4219371572045
 30
0.0
 10
191.9747787680007
 20
84.32698017930882
 30
0.0
 10
191.8017803338451
 20
84.22422700468363
 30
0.0
 10
191.4250757472193
 20
84.00751580303536
 30
0.0
 10
191.2222229667626
 20
83.89409709254537
 30
0.0
 10
190.79624170396
 20
83.66600695584718
 30
0.0
 10
190.572063743672
 20
83.55070007339532
 30
0.0
 10
190.1007126500956
 20
83.32237697102056
 30
0.0
 10
189.8520271347305
 20
83.20872695488679
 30
0.0
 10
189.0814546500388
 20
82.88566292365276
 30
0.0
 10
188.5358172399567
 20
82.69276439948926
 30
0.0
 10
187.6530374914603
 20
82.48117047421555
 30
0.0
 10
187.3543983915875
 20
82.4255280880978
 30
0.0
 10
186.7478967908717
 20
82.34986001873396
 30
0.0
 10
186.4377495522058
 20
82.32988677295766
 30
0.0
 10
185.817664063522
 20
82.33022053921091
 30
0.0
 10
185.511093026054
 20
82.3502195045337
 30
0.0
 10
184.9044382787458
 20
82.42625829073016
 30
0.0
 10
184.6020652141205
 20
82.48291139086172
 30
0.0
 10
183.7254289113675
 20
82.69368994090755
 30
0.0
 10
183.1773747793906
 20
82.8872357714793
 30
0.0
 10
182.1468775121473
 20
83.3198550647551
 30
0.0
 10
181.6793174768679
 20
83.55233170944553
 30
0.0
 10
181.0411038732399
 20
83.89406971036458
 30
0.0
 10
180.8378941350501
 20
84.00768722579296
 30
0.0
 10
180.4615572086557
 20
84.2241896181492
 30
0.0
 10
180.2885786001642
 20
84.3269274145936
 30
0.0
 10
180.1316351039261
 20
84.42193715720967
 30
0.0
  0
LINE
  5
120
330
1F
100
AcDbEntity
  8
0
  6
Continuous
 62
     7
370
    25
100
AcDbLine
 10
192.1316351039
 20
84.4219371572
 30
0.0
 11
192.1316351039
 21
83.8486986112
 31
0.0
  0
SPLINE
  5
121
330
1F
100
AcDbEntity
  8
0
  6
Continuous
 62
     7
370
    25
100
AcDbSpline
210
0.0
220
0.0
230
1.0
 70
     8
 71
     3
 72
    11
 73
     7
 74
     0
 42
0.00000001
 43
0.00000001
 40
0.0
 40
0.0
 40
0.0
 40
0.0
 40
0.0860363962994498
 40
0.3126240132839471
 40
0.544481681962628
 40
1.0
 40
1.0
 40
1.0
 40
1.0
 10
192.3049822913931
 20
85.28038427268497
 30
0.0
 10
192.3061711084132
 20
85.28439789822333
 30
0.0
 10
192.3104908238345
 20
85.29898190891633
 30
0.0
 10
192.2793113155147
 20
85.19242568481405
 30
0.0
 10
192.1968837066069
 20
84.91187775295509
 30
0.0
 10
192.1576409503319
 20
84.61721060916325
 30
0.0
 10
192.1316351039261
 20
84.42193715720254
 30
0.0
  0
SPLINE
  5
122
330
1F
100
AcDbEntity
  8
0
  6
Continuous
 62
     7
370
    25
100
AcDbSpline
210
0.0
220
0.0
230
1.0
 70
     8
 71
     3
 72
    11
 73
     7
 74
     0
 42
0.00000001
 43
0.00000001
 40
0.0
 40
0.0
 40
0.0
 40
0.0
 40
0.3176452974688112
 40
0.6359777478579673
 40
0.8657137414064637
 40
0.9999999999999999
 40
0.9999999999999999
 40
0.9999999999999999
 40
0.9999999999999999
 10
180.1316351039261
 20
84.42193715720957
 30
0.0
 10
180.1179963185377
 20
84.5532018867129
 30
0.0
 10
180.0906892433694
 20
84.81601530692699
 30
0.0
 10
180.0026849793748
 20
85.12765848347698
 30
0.0
 10
179.9581255108382
 20
85.28140186925681
 30
0.0
 10
179.9584738378795
 20
85.27988987915101
 30
0.0
 10
179.9586023342416
 20
85.27933211243993
 30
0.0
  0
SPLINE
  5
123
330
1F
100
AcDbEntity
  8
0
  6
Continuous
 62
     7
370
    25
100
AcDbSpline
210
0.0
220
0.0
230
1.0
 70
     8
 71
     3
 72
    10
 73
     6
 74
     0
 42
0.00000001
 43
0.00000001
 40
0.0
 40
0.0
 40
0.0
 40
0.0
 40
0.1601790552921523
 40
0.7197651707804853
 40
1.0
 40
1.0
 40
1.0
 40
1.0
 10
179.419684265549
 20
86.22037796665984
 30
0.0
 10
179.4189214754557
 20
86.22177019468621
 30
0.0
 10
179.415493875382
 20
86.22802617641453
 30
0.0
 10
179.4300013401803
 20
86.20151891168662
 30
0.0
 10
179.4479308932981
 20
86.16896305654149
 30
0.0
 10
179.4539136986659
 20
86.15809968791012
 30
0.0
  0
SPLINE
  5
124
330
1F
100
AcDbEntity
  8
0
  6
Continuous
 62
     7
370
    25
100
AcDbSpline
210
0.0
220
0.0
230
1.0
 70
     8
 71
     3
 72
     9
 73
     5
 74
     0
 42
0.00000001
 43
0.00000001
 40
0.0
 40
0.0
 40
0.0
 40
0.0
 40
0.5797912171256431
 40
1.0
 40
1.0
 40
1.0
 40
1.0
 10
192.8093565091863
 20
86.1580996879101
 30
0.0
 10
192.8217151125327
 20
86.18057333615123
 30
0.0
 10
192.8430307223271
 20
86.21933495857205
 30
0.0
 10
192.8434216648299
 20
86.22006936333025
 30
0.0
 10
192.8435859423032
 20
86.22037796665984
 30
0.0
  0
SPLINE
  5
125
330
1F
100
AcDbEntity
  8
0
  6
Continuous
 62
     7
370
    25
100
AcDbSpline
210
0.0
220
0.0
230
1.0
 70
     8
 71
     3
 72
    10
 73
     6
 74
     0
 42
0.00000001
 43
0.00000001
 40
0.0
 40
0.0
 40
0.0
 40
0.0
 40
0.1593935212994522
 40
0.7189934545690309
 40
1.0
 40
1.0
 40
1.0
 40
1.0
 10
175.3435934987637
 20
86.22039176737655
 30
0.0
 10
175.3443550257612
 20
86.22178168620317
 30
0.0
 10
175.3477901272771
 20
86.2280513421501
 30
0.0
 10
175.3332955048106
 20
86.20156740032631
 30
0.0
 10
175.3153541343179
 20
86.16898999627944
 30
0.0
 10
175.3093565091863
 20
86.1580996879101
 30
0.0
  0
LINE
  5
126
330
1F
100
AcDbEntity
  8
0
  6
Continuous
 62
     7
370
    25
100
AcDbLine
 10
174.6316351039
 20
84.987482679
 30
0.0
 11
174.6316351039
 21
83.8486986112
 31
0.0
  0
SPLINE
  5
127
330
1F
100
AcDbEntity
  8
0
  6
Continuous
 62
     7
370
    25
100
AcDbSpline
210
0.0
220
0.0
230
1.0
 70
     8
 71
     3
 72
     9
 73
     5
 74
     0
 42
0.00000001
 43
0.00000001
 40
0.0
 40
0.0
 40
0.0
 40
0.0
 40
0.5789479223839474
 40
0.9999999999999999
 40
0.9999999999999999
 40
0.9999999999999999
 40
0.9999999999999999
 10
175.3093565091863
 20
66.81686567005762
 30
0.0
 10
175.3216973995005
 20
66.79442430286525
 30
0.0
 10
175.3430134623744
 20
66.7556619784407
 30
0.0
 10
175.343421636289
 20
66.75489607558134
 30
0.0
 10
175.3435934987637
 20
66.75457359059115
 30
0.0
  0
LINE
  5
128
330
1F
100
AcDbEntity
  8
0
  6
Continuous
 62
     7
370
    25
100
AcDbLine
 10
174.6316351039
 20
69.1262667468
 30
0.0
 11
174.6316351039
 21
67.987482679
 31
0.0
  0
LINE
  5
129
330
1F
100
AcDbEntity
  8
0
  6
Continuous
 62
     7
370
    25
100
AcDbLine
 10
195.869239411
 20
66.7498783719
 30
0.0
 11
195.8022521129
 21
66.8168656701
 31
0.0
  0
LINE
  5
12A
330
1F
100
AcDbEntity
  8
0
  6
Continuous
 62
     7
370
    25
100
AcDbLine
 10
176.461018095
 20
66.8168656701
 30
0.0
 11
176.3940307969
 21
66.7498783719
 31
0.0
  0
LINE
  5
12B
330
1F
100
AcDbEntity
  8
0
  6
Continuous
 62
     7
370
    25
100
AcDbLine
 10
180.8925497713
 20
103.587482679
 30
0.0
 11
180.8925497713
 21
102.987482679
 31
0.0
  0
LINE
  5
12C
330
1F
100
AcDbEntity
  8
0
  6
Continuous
 62
     7
370
    25
100
AcDbLine
 10
191.3707204366
 20
103.587482679
 30
0.0
 11
180.8925497713
 21
103.587482679
 31
0.0
  0
LINE
  5
12D
330
1F
100
AcDbEntity
  8
0
  6
Continuous
 62
     7
370
    25
100
AcDbLine
 10
191.3707204366
 20
102.987482679
 30
0.0
 11
191.3707204366
 21
103.587482679
 31
0.0
  0
LINE
  5
12E
330
1F
100
AcDbEntity
  8
0
  6
Continuous
 62
     7
370
    25
100
AcDbLine
 10
180.8925497713
 20
102.987482679
 30
0.0
 11
191.3707204366
 21
102.987482679
 31
0.0
  0
SPLINE
  5
12F
330
1F
100
AcDbEntity
  8
0
  6
Continuous
 62
     7
370
    25
100
AcDbSpline
210
0.0
220
0.0
230
1.0
 70
     8
 71
     3
 72
    15
 73
    11
 74
     0
 42
0.00000001
 43
0.00000001
 40
0.0
 40
0.0
 40
0.0
 40
0.0
 40
0.0081667445812695
 40
0.3321939991490083
 40
0.4756279600585602
 40
0.6866830973284899
 40
0.8457435502264811
 40
0.8967566214763185
 40
0.9909540928118029
 40
1.0
 40
1.0
 40
1.0
 40
1.0
 10
181.0326155903333
 20
103.8374826789839
 30
0.0
 10
181.0321280561904
 20
103.8374800026381
 30
0.0
 10
181.0122969086583
 20
103.8373711384512
 30
0.0
 10
180.9840161286491
 20
103.8278251261818
 30
0.0
 10
180.9461868301602
 20
103.7904627429273
 30
0.0
 10
180.9196029335928
 20
103.7455972281926
 30
0.0
 10
180.9024331098378
 20
103.6877209286157
 30
0.0
 10
180.8946161136213
 20
103.6370448886438
 30
0.0
 10
180.8926204271854
 20
103.6083506091238
 30
0.0
 10
180.8925554632346
 20
103.5891637775683
 30
0.0
 10
180.892549771268
 20
103.5874826789839
 30
0.0
  0
LINE
  5
130
330
1F
100
AcDbEntity
  8
0
  6
Continuous
 62
     7
370
    25
100
AcDbLine
 10
181.0326155903
 20
103.837482679
 30
0.0
 11
191.2306546175
 21
103.837482679
 31
0.0
  0
SPLINE
  5
131
330
1F
100
AcDbEntity
  8
0
  6
Continuous
 62
     7
370
    25
100
AcDbSpline
210
0.0
220
0.0
230
1.0
 70
     8
 71
     3
 72
    15
 73
    11
 74
     0
 42
0.00000001
 43
0.00000001
 40
0.0
 40
0.0
 40
0.0
 40
0.0
 40
0.0090459071881971
 40
0.1032433785236874
 40
0.1542564497735246
 40
0.313316902671511
 40
0.5243720399414428
 40
0.6678060008509903
 40
0.9918332554187292
 40
1.0
 40
1.0
 40
1.0
 40
1.0
 10
191.3707204365842
 20
103.5874826789839
 30
0.0
 10
191.3707147446175
 20
103.5891637775683
 30
0.0
 10
191.3706497806667
 20
103.6083506091238
 30
0.0
 10
191.3686540942308
 20
103.6370448886438
 30
0.0
 10
191.3608370980144
 20
103.6877209286157
 30
0.0
 10
191.3436672742594
 20
103.7455972281926
 30
0.0
 10
191.3170833776919
 20
103.7904627429273
 30
0.0
 10
191.2792540792031
 20
103.8278251261818
 30
0.0
 10
191.2509732991938
 20
103.8373711384513
 30
0.0
 10
191.2311421516618
 20
103.8374800026381
 30
0.0
 10
191.2306546175189
 20
103.8374826789839
 30
0.0
  0
LINE
  5
132
330
1F
100
AcDbEntity
  8
0
  6
Continuous
 62
     7
370
    25
100
AcDbLine
 10
180.6544095289
 20
103.587482679
 30
0.0
 11
180.8925497713
 21
103.587482679
 31
0.0
  0
SPLINE
  5
133
330
1F
100
AcDbEntity
  8
0
  6
Continuous
 62
     7
370
    25
100
AcDbSpline
210
0.0
220
0.0
230
1.0
 70
     8
 71
     3
 72
    15
 73
    11
 74
     0
 42
0.00000001
 43
0.00000001
 40
0.0
 40
0.0
 40
0.0
 40
0.0
 40
0.0089557228015919
 40
0.0999003359608148
 40
0.153163246058169
 40
0.3125636920784848
 40
0.5249666935694999
 40
0.6689893599352451
 40
0.9919152533810159
 40
1.0
 40
1.0
 40
1.0
 40
1.0
 10
180.6544095288744
 20
103.5874826789839
 30
0.0
 10
180.654425284453
 20
103.5891638045568
 30
0.0
 10
180.6546010366096
 20
103.6079166191812
 30
0.0
 10
180.6600300526291
 20
103.6366788482887
 30
0.0
 10
180.6815655363364
 20
103.687565921757
 30
0.0
 10
180.7292709646013
 20
103.7457015718897
 30
0.0
 10
180.8016619095932
 20
103.7904094450731
 30
0.0
 10
180.9035810216109
 20
103.8276912685348
 30
0.0
 10
180.9789361130654
 20
103.8373704233724
 30
0.0
 10
181.0313357587892
 20
103.8374800025742
 30
0.0
 10
181.0326155903333
 20
103.8374826789839
 30
0.0
  0
LINE
  5
134
330
1F
100
AcDbEntity
  8
0
  6
Continuous
 62
     7
370
    25
100
AcDbLine
 10
191.3707204366
 20
103.587482679
 30
0.0
 11
191.608860679
 21
103.587482679
 31
0.0
  0
SPLINE
  5
135
330
1F
100
AcDbEntity
  8
0
  6
Continuous
 62
     7
370
    25
100
AcDbSpline
210
0.0
220
0.0
230
1.0
 70
     8
 71
     3
 72
    15
 73
    11
 74
     0
 42
0.00000001
 43
0.00000001
 40
0.0
 40
0.0
 40
0.0
 40
0.0
 40
0.0080847466189818
 40
0.3310106400647567
 40
0.4750333064304972
 40
0.6874363079215137
 40
0.8468367539418253
 40
0.9000996640391794
 40
0.9910442771984082
 40
1.0
 40
1.0
 40
1.0
 40
1.0
 10
191.2306546175189
 20
103.8374826789839
 30
0.0
 10
191.231934449063
 20
103.8374800025742
 30
0.0
 10
191.2843340947868
 20
103.8373704233723
 30
0.0
 10
191.3596891862412
 20
103.8276912685348
 30
0.0
 10
191.461608298259
 20
103.7904094450731
 30
0.0
 10
191.5339992432509
 20
103.7457015718897
 30
0.0
 10
191.5817046715157
 20
103.687565921757
 30
0.0
 10
191.6032401552231
 20
103.6366788482887
 30
0.0
 10
191.6086691712426
 20
103.6079166191812
 30
0.0
 10
191.6088449233991
 20
103.5891638045568
 30
0.0
 10
191.6088606789777
 20
103.5874826789839
 30
0.0
  0
LINE
  5
136
330
1F
100
AcDbEntity
  8
0
  6
Continuous
 62
     7
370
    25
100
AcDbLine
 10
180.6544095289
 20
102.987482679
 30
0.0
 11
180.6544095289
 21
103.587482679
 31
0.0
  0
LINE
  5
137
330
1F
100
AcDbEntity
  8
0
  6
Continuous
 62
     7
370
    25
100
AcDbLine
 10
180.8925497713
 20
102.987482679
 30
0.0
 11
180.6544095289
 21
102.987482679
 31
0.0
  0
LINE
  5
138
330
1F
100
AcDbEntity
  8
0
  6
Continuous
 62
     7
370
    25
100
AcDbLine
 10
191.608860679
 20
103.587482679
 30
0.0
 11
191.608860679
 21
102.987482679
 31
0.0
  0
LINE
  5
139
330
1F
100
AcDbEntity
  8
0
  6
Continuous
 62
     7
370
    25
100
AcDbLine
 10
191.608860679
 20
102.987482679
 30
0.0
 11
191.3707204366
 21
102.987482679
 31
0.0
  0
LINE
  5
13A
330
1F
100
AcDbEntity
  8
0
  6
Continuous
 62
     7
370
    25
100
AcDbLine
 10
180.3816351039
 20
103.587482679
 30
0.0
 11
180.3816351039
 21
102.987482679
 31
0.0
  0
LINE
  5
13B
330
1F
100
AcDbEntity
  8
0
  6
Continuous
 62
     7
370
    25
100
AcDbLine
 10
180.6544095289
 20
103.587482679
 30
0.0
 11
180.3816351039
 21
103.587482679
 31
0.0
  0
LINE
  5
13C
330
1F
100
AcDbEntity
  8
0
  6
Continuous
 62
     7
370
    25
100
AcDbLine
 10
180.6544095289
 20
102.987482679
 30
0.0
 11
180.3816351039
 21
102.987482679
 31
0.0
  0
LINE
  5
13D
330
1F
100
AcDbEntity
  8
0
  6
Continuous
 62
     7
370
    25
100
AcDbLine
 10
180.1316351039
 20
103.587482679
 30
0.0
 11
180.3816351039
 21
103.587482679
 31
0.0
  0
ARC
  5
13E
330
1F
100
AcDbEntity
  8
0
  6
Continuous
 62
     7
370
    25
100
AcDbCircle
 10
180.3816351039
 20
103.587482679
 30
0.0
 40
0.25
100
AcDbArc
 50
90.0
 51
180.0
  0
LINE
  5
13F
330
1F
100
AcDbEntity
  8
0
  6
Continuous
 62
     7
370
    25
100
AcDbLine
 10
180.3816351039
 20
103.837482679
 30
0.0
 11
180.3816351039
 21
103.587482679
 31
0.0
  0
LINE
  5
140
330
1F
100
AcDbEntity
  8
0
  6
Continuous
 62
     7
370
    25
100
AcDbLine
 10
180.1316351039
 20
102.987482679
 30
0.0
 11
180.1316351039
 21
103.587482679
 31
0.0
  0
LINE
  5
141
330
1F
100
AcDbEntity
  8
0
  6
Continuous
 62
     7
370
    25
100
AcDbLine
 10
180.3816351039
 20
102.987482679
 30
0.0
 11
180.1316351039
 21
102.987482679
 31
0.0
  0
LINE
  5
142
330
1F
100
AcDbEntity
  8
0
  6
Continuous
 62
     7
370
    25
100
AcDbLine
 10
180.3816351039
 20
103.837482679
 30
0.0
 11
181.0326155903
 21
103.837482679
 31
0.0
  0
LINE
  5
143
330
1F
100
AcDbEntity
  8
0
  6
Continuous
 62
     7
370
    25
100
AcDbLine
 10
191.8816351039
 20
103.587482679
 30
0.0
 11
191.8816351039
 21
103.837482679
 31
0.0
  0
LINE
  5
144
330
1F
100
AcDbEntity
  8
0
  6
Continuous
 62
     7
370
    25
100
AcDbLine
 10
191.8816351039
 20
103.587482679
 30
0.0
 11
191.608860679
 21
103.587482679
 31
0.0
  0
LINE
  5
145
330
1F
100
AcDbEntity
  8
0
  6
Continuous
 62
     7
370
    25
100
AcDbLine
 10
191.2306546175
 20
103.837482679
 30
0.0
 11
191.8816351039
 21
103.837482679
 31
0.0
  0
LINE
  5
146
330
1F
100
AcDbEntity
  8
0
  6
Continuous
 62
     7
370
    25
100
AcDbLine
 10
191.8816351039
 20
102.987482679
 30
0.0
 11
191.8816351039
 21
103.587482679
 31
0.0
  0
LINE
  5
147
330
1F
100
AcDbEntity
  8
0
  6
Continuous
 62
     7
370
    25
100
AcDbLine
 10
191.8816351039
 20
102.987482679
 30
0.0
 11
191.608860679
 21
102.987482679
 31
0.0
  0
LINE
  5
148
330
1F
100
AcDbEntity
  8
0
  6
Continuous
 62
     7
370
    25
100
AcDbLine
 10
191.8816351039
 20
103.587482679
 30
0.0
 11
192.1316351039
 21
103.587482679
 31
0.0
  0
LINE
  5
149
330
1F
100
AcDbEntity
  8
0
  6
Continuous
 62
     7
370
    25
100
AcDbLine
 10
192.1316351039
 20
103.587482679
 30
0.0
 11
192.1316351039
 21
102.987482679
 31
0.0
  0
LINE
  5
14A
330
1F
100
AcDbEntity
  8
0
  6
Continuous
 62
     7
370
    25
100
AcDbLine
 10
192.1316351039
 20
102.987482679
 30
0.0
 11
191.8816351039
 21
102.987482679
 31
0.0
  0
ARC
  5
14B
330
1F
100
AcDbEntity
  8
0
  6
Continuous
 62
     7
370
    25
100
AcDbCircle
 10
191.8816351039
 20
103.587482679
 30
0.0
 40
0.25
100
AcDbArc
 50
0.0
 51
90.0
  0
LINE
  5
14C
330
1F
100
AcDbEntity
  8
0
  6
Continuous
 62
     7
370
    25
100
AcDbLine
 10
181.1316351039
 20
103.847482679
 30
0.0
 11
191.1316351039
 21
103.847482679
 31
0.0
  0
LINE
  5
14D
330
1F
100
AcDbEntity
  8
0
  6
Continuous
 62
     7
370
    25
100
AcDbLine
 10
191.1316351039
 20
103.837482679
 30
0.0
 11
191.1316351039
 21
103.847482679
 31
0.0
  0
LINE
  5
14E
330
1F
100
AcDbEntity
  8
0
  6
Continuous
 62
     7
370
    25
100
AcDbLine
 10
181.1316351039
 20
103.837482679
 30
0.0
 11
181.1316351039
 21
103.847482679
 31
0.0
  0
LINE
  5
14F
330
1F
100
AcDbEntity
  8
0
  6
Continuous
 62
     7
370
    25
100
AcDbLine
 10
181.6570882198
 20
94.987482679
 30
0.0
 11
193.5816351039
 21
94.987482679
 31
0.0
  0
LINE
  5
150
330
1F
100
AcDbEntity
  8
0
  6
Continuous
 62
     7
370
    25
100
AcDbLine
 10
182.4172989756
 20
95.982226257
 30
0.0
 11
181.6570882198
 21
94.987482679
 31
0.0
  0
LINE
  5
151
330
1F
100
AcDbEntity
  8
0
  6
Continuous
 62
     7
370
    25
100
AcDbLine
 10
180.9078329296
 20
102.987482679
 30
0.0
 11
179.1796942656
 21
95.982226257
 31
0.0
  0
LINE
  5
152
330
1F
100
AcDbEntity
  8
0
  6
Continuous
 62
     7
370
    25
100
AcDbLine
 10
191.3707204366
 20
102.9874826789
 30
0.0
 11
180.9078329296
 21
102.987482679
 31
0.0
  0
LINE
  5
153
330
1F
100
AcDbEntity
  8
0
  6
Continuous
 62
     7
370
    25
100
AcDbLine
 10
184.1316351039
 20
86.987482679
 30
0.0
 11
193.1316351039
 21
86.987482679
 31
0.0
  0
LINE
  5
154
330
1F
100
AcDbEntity
  8
0
  6
Continuous
 62
     7
370
    25
100
AcDbLine
 10
184.1316351039
 20
87.0252996028
 30
0.0
 11
184.1316351039
 21
86.987482679
 31
0.0
  0
SPLINE
  5
155
330
1F
100
AcDbEntity
  8
0
  6
Continuous
 62
     7
370
    25
100
AcDbSpline
210
0.0
220
0.0
230
1.0
 70
     8
 71
     3
 72
     9
 73
     5
 74
     0
 42
0.00000001
 43
0.00000001
 40
0.0
 40
0.0
 40
0.0
 40
0.0
 40
0.4875141023677128
 40
0.9999999999999999
 40
0.9999999999999999
 40
0.9999999999999999
 40
0.9999999999999999
 10
183.9756898534989
 20
86.98748267898392
 30
0.0
 10
184.0019964274215
 20
86.98921002495564
 30
0.0
 10
184.0559570693697
 20
86.99275319624711
 30
0.0
 10
184.1059926000645
 20
87.01427168219641
 30
0.0
 10
184.1316351039261
 20
87.02529960278383
 30
0.0
  0
SPLINE
  5
156
330
1F
100
AcDbEntity
  8
0
  6
Continuous
 62
     7
370
    25
100
AcDbSpline
210
0.0
220
0.0
230
1.0
 70
     8
 71
     3
 72
    17
 73
    13
 74
     0
 42
0.00000001
 43
0.00000001
 40
0.0
 40
0.0
 40
0.0
 40
0.0
 40
0.3241697628029873
 40
0.5422758463620719
 40
0.689509052693928
 40
0.7894036290694505
 40
0.8577090008137825
 40
0.9049823971474138
 40
0.9551712229700868
 40
0.9753097783197817
 40
0.9919572060138848
 40
1.0
 40
1.0
 40
1.0
 40
1.0
 10
181.6570882198439
 20
94.9874826789815
 30
0.0
 10
181.7998035798611
 20
94.07486917637581
 30
0.0
 10
182.0385398888031
 20
92.54823617011446
 30
0.0
 10
182.4181270832547
 20
90.6214632678335
 30
0.0
 10
182.7272612916018
 20
89.33382779690075
 30
0.0
 10
182.9833748198019
 20
88.47467583017898
 30
0.0
 10
183.1976858226969
 20
87.90120794180159
 30
0.0
 10
183.4009200437248
 20
87.47967578777163
 30
0.0
 10
183.5854653082674
 20
87.1991832449762
 30
0.0
 10
183.7715363946355
 20
87.04363457639553
 30
0.0
 10
183.8867469938914
 20
86.99302397719804
 30
0.0
 10
183.9538357993644
 20
86.9888442253934
 30
0.0
 10
183.9756898534989
 20
86.98748267898392
 30
0.0
  0
SPLINE
  5
157
330
1F
100
AcDbEntity
  8
0
  6
Continuous
 62
     7
370
    25
100
AcDbSpline
210
0.0
220
0.0
230
1.0
 70
     8
 71
     3
 72
    14
 73
    10
 74
     0
 42
0.00000001
 43
0.00000001
 40
0.0
 40
0.0
 40
0.0
 40
0.0
 40
0.1576095309202822
 40
0.3152382602707096
 40
0.4726926441579499
 40
0.6301650083177254
 40
0.7907313191165901
 40
0.9513050385928076
 40
1.0
 40
1.0
 40
1.0
 40
1.0
 10
179.6316351039261
 20
86.98748267898387
 30
0.0
 10
179.565064089144
 20
87.20098446746125
 30
0.0
 10
179.4319139505591
 20
87.62801405108678
 30
0.0
 10
179.1033469888084
 20
88.21326112994309
 30
0.0
 10
178.6899573480764
 20
88.7354156707655
 30
0.0
 10
178.1942824291317
 20
89.18439379818538
 30
0.0
 10
177.6279927238473
 20
89.54367552999176
 30
0.0
 10
177.1517420674542
 20
89.74824170909292
 30
0.0
 10
176.8715474992615
 20
89.82903625744424
 30
0.0
 10
176.8063487144884
 20
89.84783643049101
 30
0.0
  0
LINE
  5
158
330
1F
100
AcDbEntity
  8
0
  6
Continuous
 62
     7
370
    25
100
AcDbLine
 10
176.8063487145
 20
89.8478364305
 30
0.0
 11
171.0265918646
 21
91.416457871
 31
0.0
  0
SPLINE
  5
159
330
1F
100
AcDbEntity
  8
0
  6
Continuous
 62
     7
370
    25
100
AcDbSpline
210
0.0
220
0.0
230
1.0
 70
     8
 71
     3
 72
     9
 73
     5
 74
     0
 42
0.00000001
 43
0.00000001
 40
0.0
 40
0.0
 40
0.0
 40
0.0
 40
0.497693137079144
 40
1.0
 40
1.0
 40
1.0
 40
1.0
 10
163.9561982423894
 20
92.73965837195941
 30
0.0
 10
165.1448352061707
 20
92.59021149095898
 30
0.0
 10
167.5331280622005
 20
92.28993232320207
 30
0.0
 10
169.8585276783884
 20
91.70851019581464
 30
0.0
 10
171.0265918646332
 20
91.41645787097389
 30
0.0
  0
LINE
  5
15A
330
1F
100
AcDbEntity
  8
0
  6
Continuous
 62
     7
370
    25
100
AcDbLine
 10
163.9561982424
 20
92.739658372
 30
0.0
 11
163.9561982424
 21
95.982226257
 31
0.0
  0
LINE
  5
15B
330
1F
100
AcDbEntity
  8
0
  6
Continuous
 62
     7
370
    25
100
AcDbLine
 10
163.9561982424
 20
95.982226257
 30
0.0
 11
182.4172989756
 21
95.982226257
 31
0.0
  0
LINE
  5
15C
330
1F
100
AcDbEntity
  8
0
  6
Continuous
 62
     7
370
    25
100
AcDbLine
 10
183.9756898535
 20
86.987482679
 30
0.0
 11
179.6316351039
 21
86.987482679
 31
0.0
  0
LINE
  5
15D
330
1F
100
AcDbEntity
  8
0
  6
Continuous
 62
     7
370
    25
100
AcDbLine
 10
184.1316351039
 20
87.0252996028
 30
0.0
 11
184.124835746
 21
86.987482679
 31
0.0
  0
LINE
  5
15E
330
1F
100
AcDbEntity
  8
0
  6
Continuous
 62
     7
370
    25
100
AcDbLine
 10
184.1316351039
 20
86.987482679
 30
0.0
 11
184.124835746
 21
86.987482679
 31
0.0
  0
LINE
  5
15F
330
1F
100
AcDbEntity
  8
0
  6
Continuous
 62
     7
370
    25
100
AcDbLine
 10
184.124835746
 20
86.987482679
 30
0.0
 11
183.9756898535
 21
86.987482679
 31
0.0
  0
LINE
  5
160
330
1F
100
AcDbEntity
  8
0
  6
Continuous
 62
     7
370
    25
100
AcDbLine
 10
146.1316351039
 20
104.987482679
 30
0.0
 11
163.9561982424
 21
104.987482679
 31
0.0
  0
LINE
  5
161
330
1F
100
AcDbEntity
  8
0
  6
Continuous
 62
     7
370
    25
100
AcDbLine
 10
163.9561982424
 20
104.987482679
 30
0.0
 11
163.9561982424
 21
95.982226257
 31
0.0
  0
LINE
  5
162
330
1F
100
AcDbEntity
  8
0
  6
Continuous
 62
     7
370
    25
100
AcDbLine
 10
159.2399672462
 20
92.987482679
 30
0.0
 11
151.1316351039
 21
92.987482679
 31
0.0
  0
ARC
  5
163
330
1F
100
AcDbEntity
  8
0
  6
Continuous
 62
     7
370
    25
100
AcDbCircle
 10
151.1316351039
 20
97.987482679
 30
0.0
 40
5.0
100
AcDbArc
 50
180.0
 51
270.0
  0
LINE
  5
164
330
1F
100
AcDbEntity
  8
0
  6
Continuous
 62
     7
370
    25
100
AcDbLine
 10
146.1316351039
 20
97.987482679
 30
0.0
 11
146.1316351039
 21
104.987482679
 31
0.0
  0
ARC
  5
165
330
1F
100
AcDbEntity
  8
0
  6
Continuous
 62
     7
370
    25
100
AcDbCircle
 10
159.2399672462
 20
47.9873534248
 30
0.0
 40
45.00012925418375
100
AcDbArc
 50
83.9840777705
 51
90.0
  0
LINE
  5
166
330
1F
100
AcDbEntity
  8
0
  6
Continuous
 62
     7
370
    25
100
AcDbLine
 10
166.1316351039
 20
104.987482679
 30
0.0
 11
166.1316351039
 21
103.0064382024
 31
0.0
  0
ARC
  5
167
330
1F
100
AcDbEntity
  8
0
  6
Continuous
 62
     7
370
    25
100
AcDbCircle
 10
172.1316351039
 20
103.0064382024
 30
0.0
 40
6.000000000000003
100
AcDbArc
 50
180.0
 51
275.5801667845
  0
ARC
  5
168
330
1F
100
AcDbEntity
  8
0
  6
Continuous
 62
     7
370
    25
100
AcDbCircle
 10
171.7426815397
 20
106.987482679
 30
0.0
 40
10.00000000000845
100
AcDbArc
 50
275.5801667845
 51
336.4218215217
  0
LINE
  5
169
330
1F
100
AcDbEntity
  8
0
  6
Continuous
 62
     7
370
    25
100
AcDbLine
 10
163.9561982424
 20
104.987482679
 30
0.0
 11
166.1316351039
 21
104.987482679
 31
0.0
  0
LINE
  5
16A
330
1F
100
AcDbEntity
  8
0
  6
Continuous
 62
     7
370
    25
100
AcDbLine
 10
179.6316351039
 20
86.987482679
 30
0.0
 11
179.1316351039
 21
86.987482679
 31
0.0
  0
LINE
  5
16B
330
1F
100
AcDbEntity
  8
0
  6
Continuous
 62
     7
370
    25
100
AcDbLine
 10
180.8925497713
 20
102.9874826789
 30
0.0
 11
180.9078329296
 21
102.987482679
 31
0.0
  0
LINE
  5
16C
330
1F
100
AcDbEntity
  8
0
  6
Continuous
 62
     7
370
    25
100
AcDbLine
 10
189.8210919814
 20
58.9008369062
 30
0.0
 11
189.8210919814
 21
50.0741284518
 31
0.0
  0
SPLINE
  5
16D
330
1F
100
AcDbEntity
  8
0
  6
Continuous
 62
     7
370
    25
100
AcDbSpline
210
0.0
220
0.0
230
1.0
 70
     8
 71
     3
 72
    13
 73
     9
 74
     0
 42
0.00000001
 43
0.00000001
 40
0.0
 40
0.0
 40
0.0
 40
0.0
 40
0.1098398876032357
 40
0.273822832170895
 40
0.4377735245891832
 40
0.6058788156659196
 40
0.7740022400724289
 40
1.0
 40
1.0
 40
1.0
 40
1.0
 10
189.8210919814406
 20
50.07412845180629
 30
0.0
 10
189.5576748232693
 20
50.01676874476814
 30
0.0
 10
188.9009950517693
 20
49.87377517679936
 30
0.0
 10
187.8372652764254
 20
49.71544421222512
 30
0.0
 10
186.622261952202
 20
49.62223553150288
 30
0.0
 10
185.3935878548706
 20
49.63480337723598
 30
0.0
 10
184.0168955515985
 20
49.75470844082918
 30
0.0
 10
183.0679681026306
 20
49.9458997610779
 30
0.0
 10
182.5238322217775
 20
50.05553307136749
 30
0.0
  0
LINE
  5
16E
330
1F
100
AcDbEntity
  8
0
  6
Continuous
 62
     7
370
    25
100
AcDbLine
 10
182.5238322218
 20
58.9194322866
 30
0.0
 11
182.5238322218
 21
50.0555330714
 31
0.0
  0
SPLINE
  5
16F
330
1F
100
AcDbEntity
  8
0
  6
Continuous
 62
     7
370
    25
100
AcDbSpline
210
0.0
220
0.0
230
1.0
 70
     8
 71
     3
 72
    13
 73
     9
 74
     0
 42
0.00000001
 43
0.00000001
 40
0.0
 40
0.0
 40
0.0
 40
0.0
 40
0.2259976150008323
 40
0.3899059035800553
 40
0.5537971296887475
 40
0.7219610461596626
 40
0.8901601828343502
 40
0.9999999999999999
 40
0.9999999999999999
 40
0.9999999999999999
 40
0.9999999999999999
 10
182.5238322217775
 20
58.91943228660021
 30
0.0
 10
183.0679658634041
 20
59.02908095600022
 30
0.0
 10
184.0067408996183
 20
59.21825402987802
 30
0.0
 10
185.3625740513342
 20
59.33781432670182
 30
0.0
 10
186.5807756494737
 20
59.3540773411234
 30
0.0
 10
187.8064625572458
 20
59.26375528745093
 30
0.0
 10
188.8908821527125
 20
59.10337883881233
 30
0.0
 10
189.5576744263933
 20
58.95819289084976
 30
0.0
 10
189.8210919814406
 20
58.90083690616142
 30
0.0
  0
SPLINE
  5
170
330
1F
100
AcDbEntity
  8
0
  6
Continuous
 62
     7
370
    25
100
AcDbSpline
210
0.0
220
0.0
230
1.0
 70
     8
 71
     3
 72
     9
 73
     5
 74
     0
 42
0.00000001
 43
0.00000001
 40
0.0
 40
0.0
 40
0.0
 40
0.0
 40
0.9930671812236928
 40
1.0
 40
1.0
 40
1.0
 40
1.0
 10
195.3579929736926
 20
58.88673038511273
 30
0.0
 10
195.4006730969224
 20
58.88662015199942
 30
0.0
 10
195.4436511794096
 20
58.88650914932467
 30
0.0
 10
195.4221641036377
 20
58.8865617016209
 30
0.0
 10
195.4220151376353
 20
58.88656206595645
 30
0.0
  0
SPLINE
  5
171
330
1F
100
AcDbEntity
  8
0
  6
Continuous
 62
     7
370
    25
100
AcDbSpline
210
0.0
220
0.0
230
1.0
 70
     8
 71
     3
 72
    12
 73
     8
 74
     0
 42
0.00000001
 43
0.00000001
 40
0.0
 40
0.0
 40
0.0
 40
0.0
 40
0.1693324840916321
 40
0.3386229916389689
 40
0.5121247549187754
 40
0.6856296319076757
 40
1.0
 40
1.0
 40
1.0
 40
1.0
 10
191.709363093861
 20
58.89602970207978
 30
0.0
 10
191.9128497844725
 20
58.98028531022116
 30
0.0
 10
192.3197727225209
 20
59.14877564002556
 30
0.0
 10
192.9447202560546
 20
59.29481782498332
 30
0.0
 10
193.5781890224552
 20
59.33906880986805
 30
0.0
 10
194.3903663364013
 20
59.26449939780246
 30
0.0
 10
194.9788159022994
 20
59.03476408155559
 30
0.0
 10
195.3579929736926
 20
58.88673038511273
 30
0.0
  0
SPLINE
  5
172
330
1F
100
AcDbEntity
  8
0
  6
Continuous
 62
     7
370
    25
100
AcDbSpline
210
0.0
220
0.0
230
1.0
 70
     8
 71
     3
 72
     9
 73
     5
 74
     0
 42
0.00000001
 43
0.00000001
 40
0.0
 40
0.0
 40
0.0
 40
0.0
 40
0.4965031365820542
 40
0.9999999999999999
 40
0.9999999999999999
 40
0.9999999999999999
 40
0.9999999999999999
 10
189.8210919814406
 20
58.90083690616142
 30
0.0
 10
190.149633125173
 20
58.9000004306834
 30
0.0
 10
190.8113432323721
 20
58.89831569716132
 30
0.0
 10
191.4086307181919
 20
58.8967952449827
 30
0.0
 10
191.709363093861
 20
58.89602970207978
 30
0.0
  0
SPLINE
  5
173
330
1F
100
AcDbEntity
  8
0
  6
Continuous
 62
     7
370
    25
100
AcDbSpline
210
0.0
220
0.0
230
1.0
 70
     8
 71
     3
 72
     9
 73
     5
 74
     0
 42
0.00000001
 43
0.00000001
 40
0.0
 40
0.0
 40
0.0
 40
0.0
 40
0.4965031343123558
 40
1.0
 40
1.0
 40
1.0
 40
1.0
 10
180.6355611093571
 20
58.92424875226362
 30
0.0
 10
180.9320186681975
 20
58.923492500771
 30
0.0
 10
181.5291096800214
 20
58.92196934524515
 30
0.0
 10
182.1907156763207
 20
58.92028190664595
 30
0.0
 10
182.5238322217775
 20
58.91943228660021
 30
0.0
  0
SPLINE
  5
174
330
1F
100
AcDbEntity
  8
0
  6
Continuous
 62
     7
370
    25
100
AcDbSpline
210
0.0
220
0.0
230
1.0
 70
     8
 71
     3
 72
    12
 73
     8
 74
     0
 42
0.00000001
 43
0.00000001
 40
0.0
 40
0.0
 40
0.0
 40
0.0
 40
0.1681231312453741
 40
0.3362043080514931
 40
0.5084605368611831
 40
0.6807191199800867
 40
1.0
 40
1.0
 40
1.0
 40
1.0
 10
176.9869312295255
 20
58.93354481760785
 30
0.0
 10
177.1889218591116
 20
59.01785288087964
 30
0.0
 10
177.5928527123489
 20
59.18644796869113
 30
0.0
 10
178.2132697727464
 20
59.33371392933411
 30
0.0
 10
178.8422300185101
 20
59.37996859183467
 30
0.0
 10
179.6575623204489
 20
59.30797534568973
 30
0.0
 10
180.250449516369
 20
59.07535073862825
 30
0.0
 10
180.6355611093571
 20
58.92424875226362
 30
0.0
  0
LINE
  5
175
330
1F
100
AcDbEntity
  8
0
  6
Continuous
 62
     7
370
    25
100
AcDbLine
 10
176.9229192576
 20
58.933702718
 30
0.0
 11
176.9869312295
 21
58.9335448176
 31
0.0
  0
LINE
  5
176
330
1F
100
AcDbEntity
  8
0
  6
Continuous
 62
     7
370
    25
100
AcDbLine
 10
177.8816351039
 20
59.487482679
 30
0.0
 11
194.3816351039
 21
59.487482679
 31
0.0
  0
SPLINE
  5
177
330
1F
100
AcDbEntity
  8
0
  6
Continuous
 62
     7
370
    25
100
AcDbSpline
210
0.0
220
0.0
230
1.0
 70
     8
 71
     3
 72
    12
 73
     8
 74
     0
 42
0.00000001
 43
0.00000001
 40
0.0
 40
0.0
 40
0.0
 40
0.0
 40
0.1684137776957919
 40
0.3367851652016845
 40
0.5093302250217298
 40
0.6818766406170169
 40
1.0
 40
1.0
 40
1.0
 40
1.0
 10
180.6355611093571
 20
50.05071660570408
 30
0.0
 10
180.4333125202832
 20
49.96539893502144
 30
0.0
 10
180.028866248636
 20
49.79478506833782
 30
0.0
 10
179.4075732516999
 20
49.64424199196537
 30
0.0
 10
178.7776086387533
 20
49.59479335020854
 30
0.0
 10
177.9628960806841
 20
49.66286875765614
 30
0.0
 10
177.370808396504
 20
49.89252441389952
 30
0.0
 10
176.9869312295255
 20
50.04142054035987
 30
0.0
  0
SPLINE
  5
178
330
1F
100
AcDbEntity
  8
0
  6
Continuous
 62
     7
370
    25
100
AcDbSpline
210
0.0
220
0.0
230
1.0
 70
     8
 71
     3
 72
     9
 73
     5
 74
     0
 42
0.00000001
 43
0.00000001
 40
0.0
 40
0.0
 40
0.0
 40
0.0
 40
0.4965031366680178
 40
1.0
 40
1.0
 40
1.0
 40
1.0
 10
182.5238322217775
 20
50.05553307136749
 30
0.0
 10
182.1952910780273
 20
50.05469512153936
 30
0.0
 10
181.5335809709072
 20
50.05300741854967
 30
0.0
 10
180.9362934850125
 20
50.05148376199843
 30
0.0
 10
180.6355611093571
 20
50.05071660570408
 30
0.0
  0
SPLINE
  5
179
330
1F
100
AcDbEntity
  8
0
  6
Continuous
 62
     7
370
    25
100
AcDbSpline
210
0.0
220
0.0
230
1.0
 70
     8
 71
     3
 72
     9
 73
     5
 74
     0
 42
0.00000001
 43
0.00000001
 40
0.0
 40
0.0
 40
0.0
 40
0.0
 40
0.4965031342379448
 40
1.0
 40
1.0
 40
1.0
 40
1.0
 10
191.709363093861
 20
50.07893565588792
 30
0.0
 10
191.4129055351061
 20
50.07818099501864
 30
0.0
 10
190.8158145233648
 20
50.07666104314476
 30
0.0
 10
190.1542085269865
 20
50.07497657582317
 30
0.0
 10
189.8210919814406
 20
50.07412845180629
 30
0.0
  0
SPLINE
  5
17A
330
1F
100
AcDbEntity
  8
0
  6
Continuous
 62
     7
370
    25
100
AcDbSpline
210
0.0
220
0.0
230
1.0
 70
     8
 71
     3
 72
    12
 73
     8
 74
     0
 42
0.00000001
 43
0.00000001
 40
0.0
 40
0.0
 40
0.0
 40
0.0
 40
0.1696232709534311
 40
0.3392041180340892
 40
0.5129950903131885
 40
0.686788179959305
 40
1.0
 40
1.0
 40
1.0
 40
1.0
 10
195.3579929736926
 20
50.08823497285497
 30
0.0
 10
195.154248337304
 20
50.00296147742943
 30
0.0
 10
194.7468100223729
 20
49.83243581402887
 30
0.0
 10
194.12098453089
 20
49.68309200257519
 30
0.0
 10
193.4865078152525
 20
49.63562701501821
 30
0.0
 10
192.6749475944148
 20
49.70629587042802
 30
0.0
 10
192.0873013043312
 20
49.93308118785747
 30
0.0
 10
191.709363093861
 20
50.07893565588792
 30
0.0
  0
LINE
  5
17B
330
1F
100
AcDbEntity
  8
0
  6
Continuous
 62
     7
370
    25
100
AcDbLine
 10
195.4220049388
 20
50.0884032662
 30
0.0
 11
195.3579929737
 21
50.0882349729
 31
0.0
  0
SPLINE
  5
17C
330
1F
100
AcDbEntity
  8
0
  6
Continuous
 62
     7
370
    25
100
AcDbSpline
210
0.0
220
0.0
230
1.0
 70
     8
 71
     3
 72
     9
 73
     5
 74
     0
 42
0.00000001
 43
0.00000001
 40
0.0
 40
0.0
 40
0.0
 40
0.0
 40
0.9930672874668958
 40
1.0
 40
1.0
 40
1.0
 40
1.0
 10
176.9869312295255
 20
50.04142054035987
 30
0.0
 10
176.9442511040452
 20
50.04131326565613
 30
0.0
 10
176.90127302389
 20
50.04120524205582
 30
0.0
 10
176.9227600950452
 20
50.04126221879175
 30
0.0
 10
176.9229090587328
 20
50.04126261379508
 30
0.0
  0
LINE
  5
17D
330
1F
100
AcDbEntity
  8
0
  6
Continuous
 62
     7
370
    25
100
AcDbLine
 10
186.1316351039
 20
49.487482679
 30
0.0
 11
177.8816351039
 21
49.487482679
 31
0.0
  0
LINE
  5
17E
330
1F
100
AcDbEntity
  8
0
  6
Continuous
 62
     7
370
    25
100
AcDbLine
 10
194.3816351039
 20
49.487482679
 30
0.0
 11
186.1316351039
 21
49.487482679
 31
0.0
  0
LINE
  5
17F
330
1F
100
AcDbEntity
  8
0
  6
Continuous
 62
     7
370
    25
100
AcDbLine
 10
180.6355611094
 20
58.9242487523
 30
0.0
 11
180.6355611094
 21
50.0507166057
 31
0.0
  0
LINE
  5
180
330
1F
100
AcDbEntity
  8
0
  6
Continuous
 62
     7
370
    25
100
AcDbLine
 10
191.7093630939
 20
58.8960297021
 30
0.0
 11
191.7093630939
 21
50.0789356559
 31
0.0
  0
LINE
  5
181
330
1F
100
AcDbEntity
  8
0
  6
Continuous
 62
     7
370
    25
100
AcDbLine
 10
194.3816351039
 20
63.987482679
 30
0.0
 11
177.8816351039
 21
63.987482679
 31
0.0
  0
LINE
  5
182
330
1F
100
AcDbEntity
  8
0
  6
Continuous
 62
     7
370
    25
100
AcDbLine
 10
178.3816351039
 20
64.487482679
 30
0.0
 11
193.8816351039
 21
64.487482679
 31
0.0
  0
LINE
  5
183
330
1F
100
AcDbEntity
  8
0
  6
Continuous
 62
     7
370
    25
100
AcDbLine
 10
176.9869312295
 20
58.9335448176
 30
0.0
 11
176.9869312295
 21
50.0414205404
 31
0.0
  0
LINE
  5
184
330
1F
100
AcDbEntity
  8
0
  6
Continuous
 62
     7
370
    25
100
AcDbLine
 10
195.3579929737
 20
58.8867303851
 30
0.0
 11
195.3579929737
 21
50.0882349729
 31
0.0
  0
LINE
  5
185
330
1F
100
AcDbEntity
  8
0
  6
Continuous
 62
     7
370
    25
100
AcDbLine
 10
190.9139147308
 20
40.8424307384
 30
0.0
 11
181.3493554771
 21
40.8424307384
 31
0.0
  0
LINE
  5
186
330
1F
100
AcDbEntity
  8
0
  6
Continuous
 62
     7
370
    25
100
AcDbLine
 10
186.1316351039
 20
39.487482679
 30
0.0
 11
182.1316351039
 21
39.487482679
 31
0.0
  0
LINE
  5
187
330
1F
100
AcDbEntity
  8
0
  6
Continuous
 62
     7
370
    25
100
AcDbLine
 10
190.1316351039
 20
39.487482679
 30
0.0
 11
186.1316351039
 21
39.487482679
 31
0.0
  0
LINE
  5
188
330
1F
100
AcDbEntity
  8
0
  6
Continuous
 62
     7
370
    25
100
AcDbLine
 10
149.0394908364
 20
79.3139556288
 30
0.0
 11
149.0394908364
 21
73.6610097291
 31
0.0
  0
SPLINE
  5
189
330
1F
100
AcDbEntity
  8
0
  6
Continuous
 62
     7
370
    25
100
AcDbSpline
210
0.0
220
0.0
230
1.0
 70
     8
 71
     3
 72
    30
 73
    26
 74
     0
 42
0.00000001
 43
0.00000001
 40
0.0
 40
0.0
 40
0.0
 40
0.0
 40
0.0110313264151324
 40
0.0532778882733376
 40
0.0955515888797283
 40
0.1522061231785034
 40
0.2089603287416547
 40
0.2161898647334572
 40
0.2769262159605328
 40
0.3376617934255405
 40
0.3847654941879881
 40
0.4317744383388258
 40
0.4687733648438354
 40
0.5057335515303247
 40
0.5426516594560046
 40
0.5796188449143747
 40
0.6291541627290912
 40
0.6787812326414527
 40
0.7318170920849306
 40
0.7848442680890503
 40
0.8294833833777036
 40
0.8740876984056848
 40
0.9165682401584888
 40
0.959013773285514
 40
1.0
 40
1.0
 40
1.0
 40
1.0
 10
180.2316351039261
 20
85.98748267898385
 30
0.0
 10
180.2324591512723
 20
85.98678484708614
 30
0.0
 10
180.2364390446045
 20
85.98341453525957
 30
0.0
 10
180.3072207535337
 20
85.92306489165422
 30
0.0
 10
180.528509483633
 20
85.7375347959963
 30
0.0
 10
180.9190724990295
 20
85.41698885105465
 30
0.0
 10
181.3223145851157
 20
85.10331194751431
 30
0.0
 10
181.7891288242046
 20
84.75692265962441
 30
0.0
 10
182.3247566582827
 20
84.37649771262097
 30
0.0
 10
183.1405070362852
 20
83.87847416236033
 30
0.0
 10
183.9820668420496
 20
83.46635628928644
 30
0.0
 10
184.7654737606766
 20
83.18935717307164
 30
0.0
 10
185.5384586377803
 20
83.03794002060891
 30
0.0
 10
186.2690489420592
 20
82.99979055007628
 30
0.0
 10
186.9937714045033
 20
83.07912244650488
 30
0.0
 10
187.7671409942693
 20
83.27162562980524
 30
0.0
 10
188.557535962729
 20
83.588785222479
 30
0.0
 10
189.3543399205764
 20
84.01406326209573
 30
0.0
 10
190.0817093668416
 20
84.47652595191116
 30
0.0
 10
190.6959068217496
 20
84.91693223649787
 30
0.0
 10
191.1893916027721
 20
85.29541388448408
 30
0.0
 10
191.5643662012511
 20
85.59710549793444
 30
0.0
 10
191.834889276468
 20
85.8209777237499
 30
0.0
 10
192.0060596799076
 20
85.9657620032863
 30
0.0
 10
192.0214713798503
 20
85.97877774093243
 30
0.0
 10
192.0290424466612
 20
85.9851717805048
 30
0.0
  0
LINE
  5
18A
330
1F
100
AcDbEntity
  8
0
  6
Continuous
 62
     7
370
    18
100
AcDbLine
 10
181.5391351039
 20
49.487482679
 30
0.0
 11
181.8356124054
 21
40.0002090331
 31
0.0
  0
LINE
  5
18B
330
1F
100
AcDbEntity
  8
0
  6
Continuous
 62
     7
370
    18
100
AcDbLine
 10
190.4276578025
 20
40.0002090331
 30
0.0
 11
190.7241351039
 21
49.487482679
 31
0.0
  0
LINE
  5
18C
330
1F
100
AcDbEntity
  8
0
  6
CENTERX2
 62
     7
370
    18
100
AcDbLine
 10
199.9150570288
 20
76.487482679
 30
0.0
 11
146.6316351039
 21
76.487482679
 31
0.0
  0
LINE
  5
18D
330
1F
100
AcDbEntity
  8
0
  6
CENTERX2
 62
     7
370
    18
100
AcDbLine
 10
186.1316351039
 20
105.5897344563
 30
0.0
 11
186.1316351039
 21
37.487482679
 31
0.0
  0
LINE
  5
18E
330
1F
100
AcDbEntity
  8
0
  6
Continuous
 62
     7
370
    25
100
AcDbLine
 10
222.0620595045
 20
65.6710507308
 30
0.0
 11
224.1120595045
 21
64.487482679
 31
0.0
  0
LINE
  5
18F
330
1F
100
AcDbEntity
  8
0
  6
Continuous
 62
     7
370
    25
100
AcDbLine
 10
237.0120595045
 20
64.487482679
 30
0.0
 11
239.0620595045
 21
65.6710507308
 31
0.0
  0
LINE
  5
190
330
1F
100
AcDbEntity
  8
0
  6
Continuous
 62
     7
370
    25
100
AcDbLine
 10
236.4620595045
 20
83.0260113429
 30
0.0
 11
236.4620595045
 21
86.987482679
 31
0.0
  0
LINE
  5
191
330
1F
100
AcDbEntity
  8
0
  6
Continuous
 62
     7
370
    25
100
AcDbLine
 10
224.6620595045
 20
86.987482679
 30
0.0
 11
224.6620595045
 21
83.0207089322
 31
0.0
  0
ARC
  5
192
330
1F
100
AcDbEntity
  8
0
  6
Continuous
 62
     7
370
    25
100
AcDbCircle
 10
225.3120595045
 20
103.587482679
 30
0.0
 40
0.25
100
AcDbArc
 50
90.0
 51
180.0
  0
ARC
  5
193
330
1F
100
AcDbEntity
  8
0
  6
Continuous
 62
     7
370
    25
100
AcDbCircle
 10
235.8120595045
 20
103.587482679
 30
0.0
 40
0.25
100
AcDbArc
 50
0.0
 51
90.0
  0
LINE
  5
194
330
1F
100
AcDbEntity
  8
0
  6
Continuous
 62
     7
370
    25
100
AcDbLine
 10
225.0620595045
 20
103.587482679
 30
0.0
 11
225.0620595045
 21
102.987482679
 31
0.0
  0
LINE
  5
195
330
1F
100
AcDbEntity
  8
0
  6
Continuous
 62
     7
370
    25
100
AcDbLine
 10
236.0620595045
 20
102.987482679
 30
0.0
 11
236.0620595045
 21
103.587482679
 31
0.0
  0
LINE
  5
196
330
1F
100
AcDbEntity
  8
0
  6
Continuous
 62
     7
370
    25
100
AcDbLine
 10
238.0120595045
 20
94.987482679
 30
0.0
 11
236.0620595045
 21
102.987482679
 31
0.0
  0
LINE
  5
197
330
1F
100
AcDbEntity
  8
0
  6
Continuous
 62
     7
370
    25
100
AcDbLine
 10
225.0620595045
 20
102.987482679
 30
0.0
 11
223.1120595045
 21
94.987482679
 31
0.0
  0
LINE
  5
198
330
1F
100
AcDbEntity
  8
0
  6
Continuous
 62
     7
370
    25
100
AcDbLine
 10
223.1120595045
 20
94.987482679
 30
0.0
 11
223.5620595045
 21
86.987482679
 31
0.0
  0
LINE
  5
199
330
1F
100
AcDbEntity
  8
0
  6
Continuous
 62
     7
370
    25
100
AcDbLine
 10
237.5620595045
 20
86.987482679
 30
0.0
 11
238.0120595045
 21
94.987482679
 31
0.0
  0
LINE
  5
19A
330
1F
100
AcDbEntity
  8
0
  6
Continuous
 62
     7
370
    25
100
AcDbLine
 10
222.0619725884
 20
49.6318704274
 30
0.0
 11
222.3120595045
 21
49.487482679
 31
0.0
  0
LINE
  5
19B
330
1F
100
AcDbEntity
  8
0
  6
Continuous
 62
     7
370
    25
100
AcDbLine
 10
238.8120595045
 20
49.487482679
 30
0.0
 11
239.0619725884
 21
49.6317700652
 31
0.0
  0
LINE
  5
19C
330
1F
100
AcDbEntity
  8
0
  6
Continuous
 62
     7
370
    25
100
AcDbLine
 10
239.0619725884
 20
59.3431952928
 30
0.0
 11
238.8120595045
 21
59.487482679
 31
0.0
  0
LINE
  5
19D
330
1F
100
AcDbEntity
  8
0
  6
Continuous
 62
     7
370
    25
100
AcDbLine
 10
222.3120595045
 20
59.487482679
 30
0.0
 11
222.0619725884
 21
59.3430949306
 31
0.0
  0
LINE
  5
19E
330
1F
100
AcDbEntity
  8
0
  6
Continuous
 62
     7
370
    25
100
AcDbLine
 10
238.8120595045
 20
59.487482679
 30
0.0
 11
238.8120595045
 21
63.987482679
 31
0.0
  0
LINE
  5
19F
330
1F
100
AcDbEntity
  8
0
  6
Continuous
 62
     7
370
    25
100
AcDbLine
 10
222.3120595045
 20
63.987482679
 30
0.0
 11
222.3120595045
 21
59.487482679
 31
0.0
  0
LINE
  5
1A0
330
1F
100
AcDbEntity
  8
0
  6
Continuous
 62
     7
370
    25
100
AcDbLine
 10
238.8120595045
 20
63.987482679
 30
0.0
 11
238.3120595045
 21
64.487482679
 31
0.0
  0
LINE
  5
1A1
330
1F
100
AcDbEntity
  8
0
  6
Continuous
 62
     7
370
    25
100
AcDbLine
 10
222.8120595045
 20
64.487482679
 30
0.0
 11
222.3120595045
 21
63.987482679
 31
0.0
  0
LINE
  5
1A2
330
1F
100
AcDbEntity
  8
0
  6
Continuous
 62
     7
370
    25
100
AcDbLine
 10
225.5096220045
 20
49.487482679
 30
0.0
 11
225.7797798777
 21
40.8424307384
 31
0.0
  0
LINE
  5
1A3
330
1F
100
AcDbEntity
  8
0
  6
Continuous
 62
     7
370
    25
100
AcDbLine
 10
235.3443391314
 20
40.8424307384
 30
0.0
 11
235.6144970045
 21
49.487482679
 31
0.0
  0
LINE
  5
1A4
330
1F
100
AcDbEntity
  8
0
  6
Continuous
 62
     7
370
    25
100
AcDbLine
 10
225.7797798777
 20
40.8424307384
 30
0.0
 11
226.5620595045
 21
39.487482679
 31
0.0
  0
LINE
  5
1A5
330
1F
100
AcDbEntity
  8
0
  6
Continuous
 62
     7
370
    25
100
AcDbLine
 10
234.5620595045
 20
39.487482679
 30
0.0
 11
235.3443391314
 21
40.8424307384
 31
0.0
  0
CIRCLE
  5
1A6
330
1F
100
AcDbEntity
  8
0
  6
Continuous
 62
     7
370
    25
100
AcDbCircle
 10
230.5620595045
 20
76.487482679
 30
0.0
 40
2.1
  0
CIRCLE
  5
1A7
330
1F
100
AcDbEntity
  8
0
  6
Continuous
 62
     7
370
    25
100
AcDbCircle
 10
230.5620595045
 20
76.487482679
 30
0.0
 40
2.335036856371913
  0
CIRCLE
  5
1A8
330
1F
100
AcDbEntity
  8
0
  6
Continuous
 62
     7
370
    25
100
AcDbCircle
 10
230.5620595045
 20
76.487482679
 30
0.0
 40
2.826472949839041
  0
CIRCLE
  5
1A9
330
1F
100
AcDbEntity
  8
0
  6
Continuous
 62
     7
370
    25
100
AcDbCircle
 10
230.5620595045
 20
76.487482679
 30
0.0
 40
2.0
  0
CIRCLE
  5
1AA
330
1F
100
AcDbEntity
  8
0
  6
Continuous
 62
     7
370
    25
100
AcDbCircle
 10
230.5620595045
 20
76.487482679
 30
0.0
 40
3.500000000000019
  0
CIRCLE
  5
1AB
330
1F
100
AcDbEntity
  8
0
  6
Continuous
 62
     7
370
    25
100
AcDbCircle
 10
230.5620595045
 20
76.487482679
 30
0.0
 40
8.000000000000025
  0
CIRCLE
  5
1AC
330
1F
100
AcDbEntity
  8
0
  6
Continuous
 62
     7
370
    25
100
AcDbCircle
 10
230.5620595045
 20
76.487482679
 30
0.0
 40
7.800000000000025
  0
SPLINE
  5
1AD
330
1F
100
AcDbEntity
  8
0
  6
Continuous
 62
     7
370
    25
100
AcDbSpline
210
0.0
220
0.0
230
1.0
 70
     8
 71
     3
 72
    10
 73
     6
 74
     0
 42
0.00000001
 43
0.00000001
 40
0.0
 40
0.0
 40
0.0
 40
0.0
 40
0.5
 40
0.5
 40
1.0
 40
1.0
 40
1.0
 40
1.0
 10
222.3120595045387
 20
71.43566782357463
 30
0.0
 10
222.2376890376131
 20
71.47860563267386
 30
0.0
 10
222.1733834413253
 20
71.54204622256604
 30
0.0
 10
222.0851606535194
 20
71.69453536807491
 30
0.0
 10
222.0620595045387
 20
71.78276475727822
 30
0.0
 10
222.0620595045387
 20
71.86868052546684
 30
0.0
  0
SPLINE
  5
1AE
330
1F
100
AcDbEntity
  8
0
  6
Continuous
 62
     7
370
    25
100
AcDbSpline
210
0.0
220
0.0
230
1.0
 70
    24
 71
     3
 72
    10
 73
     6
 74
     0
 42
0.00000001
 43
0.00000001
 40
0.0
 40
0.0
 40
0.0
 40
0.0
 40
0.5
 40
0.5
 40
1.0
 40
1.0
 40
1.0
 40
1.0
 10
222.0620595045387
 20
71.86868052546684
 30
0.0
 10
222.0620595045387
 20
72.62348979851615
 30
0.0
 10
222.0620595045387
 20
73.38423618574804
 30
0.0
 10
222.0620595045387
 20
74.9223785633713
 30
0.0
 10
222.0620595045387
 20
75.6998797158961
 30
0.0
 10
222.0620595045387
 20
76.48748267898385
 30
0.0
  0
ARC
  5
1AF
330
1F
100
AcDbEntity
  8
0
  6
Continuous
 62
     7
370
    25
100
AcDbCircle
 10
230.5620595045
 20
76.487482679
 30
0.0
 40
8.500000000000009
100
AcDbArc
 50
180.0
 51
240.0
  0
SPLINE
  5
1B0
330
1F
100
AcDbEntity
  8
0
  6
Continuous
 62
     7
370
    25
100
AcDbSpline
210
0.0
220
0.0
230
1.0
 70
    24
 71
     3
 72
    10
 73
     6
 74
     0
 42
0.00000001
 43
0.00000001
 40
0.0
 40
0.0
 40
0.0
 40
0.0
 40
0.5
 40
0.5
 40
1.0
 40
1.0
 40
1.0
 40
1.0
 10
222.3120595045387
 20
71.43566782357466
 30
0.0
 10
222.9680722711438
 20
71.05691867618337
 30
0.0
 10
223.6283391780015
 20
70.67571339977206
 30
0.0
 10
224.9606856966365
 20
69.90648277858429
 30
0.0
 10
225.6328386781238
 20
69.51841507378596
 30
0.0
 10
226.3120595045387
 20
69.12626674681613
 30
0.0
  0
ARC
  5
1B1
330
1F
100
AcDbEntity
  8
0
  6
Continuous
 62
     7
370
    25
100
AcDbCircle
 10
230.5620595045
 20
76.487482679
 30
0.0
 40
8.499999999999996
100
AcDbArc
 50
60.0
 51
120.0
  0
ARC
  5
1B2
330
1F
100
AcDbEntity
  8
0
  6
Continuous
 62
     7
370
    25
100
AcDbCircle
 10
230.5620595045
 20
76.487482679
 30
0.0
 40
8.500000000000028
100
AcDbArc
 50
0.0
 51
60.0
  0
ARC
  5
1B3
330
1F
100
AcDbEntity
  8
0
  6
Continuous
 62
     7
370
    25
100
AcDbCircle
 10
230.5620595045
 20
76.487482679
 30
0.0
 40
8.500000000000028
100
AcDbArc
 50
300.0
 51
0.0
  0
ARC
  5
1B4
330
1F
100
AcDbEntity
  8
0
  6
Continuous
 62
     7
370
    25
100
AcDbCircle
 10
230.5620595045
 20
76.487482679
 30
0.0
 40
8.500000000000009
100
AcDbArc
 50
240.0
 51
300.0
  0
ARC
  5
1B5
330
1F
100
AcDbEntity
  8
0
  6
Continuous
 62
     7
370
    25
100
AcDbCircle
 10
230.5620595045
 20
76.487482679
 30
0.0
 40
8.499999999999996
100
AcDbArc
 50
120.0
 51
180.0
  0
SPLINE
  5
1B6
330
1F
100
AcDbEntity
  8
0
  6
Continuous
 62
     7
370
    25
100
AcDbSpline
210
0.0
220
0.0
230
1.0
 70
     8
 71
     3
 72
    10
 73
     6
 74
     0
 42
0.00000001
 43
0.00000001
 40
0.0
 40
0.0
 40
0.0
 40
0.0
 40
0.5
 40
0.5
 40
1.0
 40
1.0
 40
1.0
 40
1.0
 10
222.0620595045387
 20
81.10628483250088
 30
0.0
 10
222.0620595045387
 20
81.1921664750073
 30
0.0
 10
222.0848500761861
 20
81.27957568097273
 30
0.0
 10
222.172796073485
 20
81.4322181660477
 30
0.0
 10
222.2376568662177
 20
81.49634115113005
 30
0.0
 10
222.3120595045387
 20
81.5392975343931
 30
0.0
  0
SPLINE
  5
1B7
330
1F
100
AcDbEntity
  8
0
  6
Continuous
 62
     7
370
    25
100
AcDbSpline
210
0.0
220
0.0
230
1.0
 70
    24
 71
     3
 72
    12
 73
     8
 74
     0
 42
0.00000001
 43
0.00000001
 40
0.0
 40
0.0
 40
0.0
 40
0.0
 40
0.2500000000000001
 40
0.2500000000000001
 40
0.5000000000000002
 40
0.5000000000000002
 40
1.0
 40
1.0
 40
1.0
 40
1.0
 10
226.3120595045387
 20
83.84869861115159
 30
0.0
 10
225.9743035695159
 20
83.6536951311458
 30
0.0
 10
225.6338955546374
 20
83.45716047212139
 30
0.0
 10
224.959400870237
 20
83.06774078451585
 30
0.0
 10
224.6242755513698
 20
82.87425609145558
 30
0.0
 10
223.6245642330296
 20
82.29707249269998
 30
0.0
 10
222.9656301299644
 20
81.916636710917
 30
0.0
 10
222.3120595045387
 20
81.53929753439307
 30
0.0
  0
SPLINE
  5
1B8
330
1F
100
AcDbEntity
  8
0
  6
Continuous
 62
     7
370
    25
100
AcDbSpline
210
0.0
220
0.0
230
1.0
 70
    24
 71
     3
 72
    12
 73
     8
 74
     0
 42
0.00000001
 43
0.00000001
 40
0.0
 40
0.0
 40
0.0
 40
0.0
 40
0.2499999999999999
 40
0.2499999999999999
 40
0.4999999999999998
 40
0.4999999999999998
 40
1.0
 40
1.0
 40
1.0
 40
1.0
 10
222.0620595045387
 20
76.48748267898385
 30
0.0
 10
222.0620595045387
 20
76.8818007596557
 30
0.0
 10
222.0620595045387
 20
77.27545980360613
 30
0.0
 10
222.0620595045387
 20
78.05499580315148
 30
0.0
 10
222.0620595045387
 20
78.4419489912769
 30
0.0
 10
222.0620595045387
 20
79.5953355541309
 30
0.0
 10
222.0620595045387
 20
80.35431804333594
 30
0.0
 10
222.0620595045387
 20
81.10628483250088
 30
0.0
  0
SPLINE
  5
1B9
330
1F
100
AcDbEntity
  8
0
  6
Continuous
 62
     7
370
    25
100
AcDbSpline
210
0.0
220
0.0
230
1.0
 70
    24
 71
     3
 72
    10
 73
     6
 74
     0
 42
0.00000001
 43
0.00000001
 40
0.0
 40
0.0
 40
0.0
 40
0.0
 40
0.5
 40
0.5
 40
1.0
 40
1.0
 40
1.0
 40
1.0
 10
230.8120595045386
 20
66.8168656700576
 30
0.0
 10
231.4680722711438
 20
67.19561481744888
 30
0.0
 10
232.1283391780015
 20
67.57682009386018
 30
0.0
 10
233.4606856966365
 20
68.34605071504797
 30
0.0
 10
234.1328386781238
 20
68.73411841984628
 30
0.0
 10
234.8120595045387
 20
69.12626674681613
 30
0.0
  0
SPLINE
  5
1BA
330
1F
100
AcDbEntity
  8
0
  6
Continuous
 62
     7
370
    25
100
AcDbSpline
210
0.0
220
0.0
230
1.0
 70
     8
 71
     3
 72
    10
 73
     6
 74
     0
 42
0.00000001
 43
0.00000001
 40
0.0
 40
0.0
 40
0.0
 40
0.0
 40
0.5
 40
0.5
 40
1.0
 40
1.0
 40
1.0
 40
1.0
 10
230.8120595045387
 20
66.81686567005762
 30
0.0
 10
230.7376847505487
 20
66.77392538582058
 30
0.0
 10
230.6505910189828
 20
66.74995760124476
 30
0.0
 10
230.4744251904383
 20
66.74979954513924
 30
0.0
 10
230.386464166548
 20
66.77390811841761
 30
0.0
 10
230.3120595045387
 20
66.81686567005762
 30
0.0
  0
SPLINE
  5
1BB
330
1F
100
AcDbEntity
  8
0
  6
Continuous
 62
     7
370
    25
100
AcDbSpline
210
0.0
220
0.0
230
1.0
 70
    24
 71
     3
 72
    12
 73
     8
 74
     0
 42
0.00000001
 43
0.00000001
 40
0.0
 40
0.0
 40
0.0
 40
0.0
 40
0.25
 40
0.25
 40
0.5000000000000002
 40
0.5000000000000002
 40
1.0
 40
1.0
 40
1.0
 40
1.0
 10
226.3120595045387
 20
69.12626674681613
 30
0.0
 10
226.6498154395615
 20
68.93126326681033
 30
0.0
 10
226.99022345444
 20
68.73472860778593
 30
0.0
 10
227.6647181388404
 20
68.34530892018037
 30
0.0
 10
227.9998434577076
 20
68.15182422712012
 30
0.0
 10
228.9995547760478
 20
67.57464062836452
 30
0.0
 10
229.6584888791131
 20
67.19420484658154
 30
0.0
 10
230.3120595045387
 20
66.81686567005761
 30
0.0
  0
SPLINE
  5
1BC
330
1F
100
AcDbEntity
  8
0
  6
Continuous
 62
     7
370
    25
100
AcDbSpline
210
0.0
220
0.0
230
1.0
 70
     8
 71
     3
 72
    10
 73
     6
 74
     0
 42
0.00000001
 43
0.00000001
 40
0.0
 40
0.0
 40
0.0
 40
0.0
 40
0.5
 40
0.5
 40
1.0
 40
1.0
 40
1.0
 40
1.0
 10
230.3120595045387
 20
86.1580996879101
 30
0.0
 10
230.3864342585287
 20
86.20103997214713
 30
0.0
 10
230.4735279900946
 20
86.22500775672296
 30
0.0
 10
230.6496938186392
 20
86.22516581282848
 30
0.0
 10
230.7376548425295
 20
86.2010572395501
 30
0.0
 10
230.8120595045387
 20
86.1580996879101
 30
0.0
  0
SPLINE
  5
1BD
330
1F
100
AcDbEntity
  8
0
  6
Continuous
 62
     7
370
    25
100
AcDbSpline
210
0.0
220
0.0
230
1.0
 70
    24
 71
     3
 72
    12
 73
     8
 74
     0
 42
0.00000001
 43
0.00000001
 40
0.0
 40
0.0
 40
0.0
 40
0.0
 40
0.2499999999999999
 40
0.2499999999999999
 40
0.5
 40
0.5
 40
1.0
 40
1.0
 40
1.0
 40
1.0
 10
234.8120595045387
 20
83.84869861115159
 30
0.0
 10
234.4743035695159
 20
84.04370209115739
 30
0.0
 10
234.1338955546374
 20
84.2402367501818
 30
0.0
 10
233.459400870237
 20
84.62965643778735
 30
0.0
 10
233.1242755513698
 20
84.8231411308476
 30
0.0
 10
232.1245642330296
 20
85.40032472960321
 30
0.0
 10
231.4656301299644
 20
85.78076051138616
 30
0.0
 10
230.8120595045387
 20
86.15809968791011
 30
0.0
  0
SPLINE
  5
1BE
330
1F
100
AcDbEntity
  8
0
  6
Continuous
 62
     7
370
    25
100
AcDbSpline
210
0.0
220
0.0
230
1.0
 70
    24
 71
     3
 72
    10
 73
     6
 74
     0
 42
0.00000001
 43
0.00000001
 40
0.0
 40
0.0
 40
0.0
 40
0.0
 40
0.5
 40
0.5
 40
1.0
 40
1.0
 40
1.0
 40
1.0
 10
230.3120595045388
 20
86.15809968791012
 30
0.0
 10
229.6560467379337
 20
85.77935054051883
 30
0.0
 10
228.9957798310759
 20
85.39814526410754
 30
0.0
 10
227.6634333124409
 20
84.62891464291974
 30
0.0
 10
226.9912803309536
 20
84.24084693812142
 30
0.0
 10
226.3120595045387
 20
83.84869861115159
 30
0.0
  0
SPLINE
  5
1BF
330
1F
100
AcDbEntity
  8
0
  6
Continuous
 62
     7
370
    25
100
AcDbSpline
210
0.0
220
0.0
230
1.0
 70
     8
 71
     3
 72
    10
 73
     6
 74
     0
 42
0.00000001
 43
0.00000001
 40
0.0
 40
0.0
 40
0.0
 40
0.0
 40
0.5
 40
0.5
 40
1.0
 40
1.0
 40
1.0
 40
1.0
 10
238.8120595045387
 20
81.53929753439309
 30
0.0
 10
238.8864299714643
 20
81.49635972529384
 30
0.0
 10
238.9507355677521
 20
81.43291913540166
 30
0.0
 10
239.038958355558
 20
81.28042998989281
 30
0.0
 10
239.0620595045387
 20
81.19220060068949
 30
0.0
 10
239.0620595045387
 20
81.10628483250088
 30
0.0
  0
SPLINE
  5
1C0
330
1F
100
AcDbEntity
  8
0
  6
Continuous
 62
     7
370
    25
100
AcDbSpline
210
0.0
220
0.0
230
1.0
 70
    24
 71
     3
 72
    12
 73
     8
 74
     0
 42
0.00000001
 43
0.00000001
 40
0.0
 40
0.0
 40
0.0
 40
0.0
 40
0.2500000000000001
 40
0.2500000000000001
 40
0.5000000000000001
 40
0.5000000000000001
 40
1.0
 40
1.0
 40
1.0
 40
1.0
 10
239.0620595045387
 20
76.48748267898385
 30
0.0
 10
239.0620595045387
 20
76.8818007596557
 30
0.0
 10
239.0620595045387
 20
77.27545980360613
 30
0.0
 10
239.0620595045387
 20
78.05499580315148
 30
0.0
 10
239.0620595045387
 20
78.4419489912769
 30
0.0
 10
239.0620595045387
 20
79.5953355541309
 30
0.0
 10
239.0620595045387
 20
80.35431804333594
 30
0.0
 10
239.0620595045387
 20
81.10628483250088
 30
0.0
  0
SPLINE
  5
1C1
330
1F
100
AcDbEntity
  8
0
  6
Continuous
 62
     7
370
    25
100
AcDbSpline
210
0.0
220
0.0
230
1.0
 70
    24
 71
     3
 72
    10
 73
     6
 74
     0
 42
0.00000001
 43
0.00000001
 40
0.0
 40
0.0
 40
0.0
 40
0.0
 40
0.5
 40
0.5
 40
1.0
 40
1.0
 40
1.0
 40
1.0
 10
238.8120595045388
 20
81.53929753439306
 30
0.0
 10
238.1560467379337
 20
81.91804668178435
 30
0.0
 10
237.4957798310759
 20
82.29925195819565
 30
0.0
 10
236.1634333124409
 20
83.06848257938343
 30
0.0
 10
235.4912803309536
 20
83.45655028418176
 30
0.0
 10
234.8120595045387
 20
83.84869861115159
 30
0.0
  0
SPLINE
  5
1C2
330
1F
100
AcDbEntity
  8
0
  6
Continuous
 62
     7
370
    25
100
AcDbSpline
210
0.0
220
0.0
230
1.0
 70
    24
 71
     3
 72
    10
 73
     6
 74
     0
 42
0.00000001
 43
0.00000001
 40
0.0
 40
0.0
 40
0.0
 40
0.0
 40
0.5
 40
0.5
 40
1.0
 40
1.0
 40
1.0
 40
1.0
 10
239.0620595045387
 20
71.86868052546684
 30
0.0
 10
239.0620595045387
 20
72.62348979851613
 30
0.0
 10
239.0620595045387
 20
73.38423618574804
 30
0.0
 10
239.0620595045387
 20
74.9223785633713
 30
0.0
 10
239.0620595045387
 20
75.6998797158961
 30
0.0
 10
239.0620595045387
 20
76.48748267898385
 30
0.0
  0
SPLINE
  5
1C3
330
1F
100
AcDbEntity
  8
0
  6
Continuous
 62
     7
370
    25
100
AcDbSpline
210
0.0
220
0.0
230
1.0
 70
     8
 71
     3
 72
    10
 73
     6
 74
     0
 42
0.00000001
 43
0.00000001
 40
0.0
 40
0.0
 40
0.0
 40
0.0
 40
0.5
 40
0.5
 40
1.0
 40
1.0
 40
1.0
 40
1.0
 10
239.0620595045387
 20
71.86868052546684
 30
0.0
 10
239.0620595045387
 20
71.78279888296039
 30
0.0
 10
239.0392689328913
 20
71.69538967699496
 30
0.0
 10
238.9513229355925
 20
71.54274719192003
 30
0.0
 10
238.8864621428597
 20
71.47862420683767
 30
0.0
 10
238.8120595045387
 20
71.43566782357463
 30
0.0
  0
SPLINE
  5
1C4
330
1F
100
AcDbEntity
  8
0
  6
Continuous
 62
     7
370
    25
100
AcDbSpline
210
0.0
220
0.0
230
1.0
 70
    24
 71
     3
 72
    12
 73
     8
 74
     0
 42
0.00000001
 43
0.00000001
 40
0.0
 40
0.0
 40
0.0
 40
0.0
 40
0.2499999999999999
 40
0.2499999999999999
 40
0.4999999999999998
 40
0.4999999999999998
 40
1.0
 40
1.0
 40
1.0
 40
1.0
 10
234.8120595045387
 20
69.12626674681613
 30
0.0
 10
235.1498154395615
 20
69.32127022682192
 30
0.0
 10
235.49022345444
 20
69.51780488584633
 30
0.0
 10
236.1647181388404
 20
69.90722457345188
 30
0.0
 10
236.4998434577076
 20
70.10070926651214
 30
0.0
 10
237.4995547760478
 20
70.67789286526774
 30
0.0
 10
238.1584888791131
 20
71.05832864705071
 30
0.0
 10
238.8120595045387
 20
71.43566782357465
 30
0.0
  0
SPLINE
  5
1C5
330
1F
100
AcDbEntity
  8
0
  6
Continuous
 62
     7
370
    25
100
AcDbSpline
210
0.0
220
0.0
230
1.0
 70
     8
 71
     3
 72
    10
 73
     6
 74
     0
 42
0.00000001
 43
0.00000001
 40
0.0
 40
0.0
 40
0.0
 40
0.0
 40
0.5
 40
0.5
 40
1.0
 40
1.0
 40
1.0
 40
1.0
 10
238.8120595045387
 20
66.34877213608277
 30
0.0
 10
238.8864299714643
 20
66.37244437599433
 30
0.0
 10
238.9507355677521
 20
66.38553836592959
 30
0.0
 10
239.038958355558
 20
66.38562523339104
 30
0.0
 10
239.0620595045387
 20
66.37245544363168
 30
0.0
 10
239.0620595045387
 20
66.34877213608277
 30
0.0
  0
SPLINE
  5
1C6
330
1F
100
AcDbEntity
  8
0
  6
Continuous
 62
     7
370
    25
100
AcDbSpline
210
0.0
220
0.0
230
1.0
 70
     8
 71
     3
 72
    10
 73
     6
 74
     0
 42
0.00000001
 43
0.00000001
 40
0.0
 40
0.0
 40
0.0
 40
0.0
 40
0.5
 40
0.5
 40
1.0
 40
1.0
 40
1.0
 40
1.0
 10
222.0620595045387
 20
66.34877213608277
 30
0.0
 10
222.0620595045387
 20
66.37244603663872
 30
0.0
 10
222.0848500761861
 20
66.38553859381787
 30
0.0
 10
222.172796073485
 20
66.38562500780014
 30
0.0
 10
222.2376568662177
 20
66.37245461620154
 30
0.0
 10
222.3120595045387
 20
66.34877213608279
 30
0.0
  0
SPLINE
  5
1C7
330
1F
100
AcDbEntity
  8
0
  6
Continuous
 62
     7
370
    25
100
AcDbSpline
210
0.0
220
0.0
230
1.0
 70
     8
 71
     3
 72
    16
 73
    12
 74
     0
 42
0.00000001
 43
0.00000001
 40
0.0
 40
0.0
 40
0.0
 40
0.0
 40
0.2500000000000002
 40
0.2500000000000002
 40
0.5000000000000003
 40
0.5000000000000003
 40
0.6250000000000003
 40
0.6250000000000003
 40
0.7500000000000002
 40
0.7500000000000002
 40
1.0
 40
1.0
 40
1.0
 40
1.0
 10
230.3120595045388
 20
66.34877213608232
 30
0.0
 10
229.6578378510993
 20
66.14053232563366
 30
0.0
 10
228.9993853155881
 20
65.97035903922422
 30
0.0
 10
227.6707406906049
 20
65.73563677960837
 30
0.0
 10
227.0004762463173
 20
65.67173880453389
 30
0.0
 10
225.9845405027557
 20
65.6707151024474
 30
0.0
 10
225.6431893846559
 20
65.6862016495921
 30
0.0
 10
224.9667730731914
 20
65.7473253710501
 30
0.0
 10
224.6307003041506
 20
65.7928470983451
 30
0.0
 10
223.6281822430896
 20
65.96934646209029
 30
0.0
 10
222.967424372998
 20
66.14016843844409
 30
0.0
 10
222.3120595045387
 20
66.34877213608263
 30
0.0
  0
SPLINE
  5
1C8
330
1F
100
AcDbEntity
  8
0
  6
Continuous
 62
     7
370
    25
100
AcDbSpline
210
0.0
220
0.0
230
1.0
 70
     8
 71
     3
 72
    10
 73
     6
 74
     0
 42
0.00000001
 43
0.00000001
 40
0.0
 40
0.0
 40
0.0
 40
0.0
 40
0.5
 40
0.5
 40
1.0
 40
1.0
 40
1.0
 40
1.0
 10
230.3120595045387
 20
66.34877213608277
 30
0.0
 10
230.3864342585288
 20
66.3724457405739
 30
0.0
 10
230.4735279900947
 20
66.38553851636712
 30
0.0
 10
230.6496938186391
 20
66.38562508446807
 30
0.0
 10
230.7376548425294
 20
66.37245526034478
 30
0.0
 10
230.8120595045387
 20
66.34877213608277
 30
0.0
  0
SPLINE
  5
1C9
330
1F
100
AcDbEntity
  8
0
  6
Continuous
 62
     7
370
    25
100
AcDbSpline
210
0.0
220
0.0
230
1.0
 70
     8
 71
     3
 72
    16
 73
    12
 74
     0
 42
0.00000001
 43
0.00000001
 40
0.0
 40
0.0
 40
0.0
 40
0.0
 40
0.2499999999999999
 40
0.2499999999999999
 40
0.4999999999999998
 40
0.4999999999999998
 40
0.6249999999999998
 40
0.6249999999999998
 40
0.7499999999999997
 40
0.7499999999999997
 40
1.0
 40
1.0
 40
1.0
 40
1.0
 10
238.8120595045388
 20
66.34877213608232
 30
0.0
 10
238.1578378510992
 20
66.14053232563366
 30
0.0
 10
237.4993853155881
 20
65.9703590392242
 30
0.0
 10
236.1707406906049
 20
65.73563677960837
 30
0.0
 10
235.5004762463173
 20
65.6717388045339
 30
0.0
 10
234.4845405027557
 20
65.6707151024474
 30
0.0
 10
234.1431893846559
 20
65.6862016495921
 30
0.0
 10
233.4667730731914
 20
65.7473253710501
 30
0.0
 10
233.1307003041506
 20
65.7928470983451
 30
0.0
 10
232.1281822430896
 20
65.96934646209029
 30
0.0
 10
231.467424372998
 20
66.14016843844409
 30
0.0
 10
230.8120595045387
 20
66.34877213608263
 30
0.0
  0
SPLINE
  5
1CA
330
1F
100
AcDbEntity
  8
0
  6
Continuous
 62
     7
370
    25
100
AcDbSpline
210
0.0
220
0.0
230
1.0
 70
    24
 71
     3
 72
    10
 73
     6
 74
     0
 42
0.00000001
 43
0.00000001
 40
0.0
 40
0.0
 40
0.0
 40
0.0
 40
0.0691230158619889
 40
0.5306665654558688
 40
1.0
 40
1.0
 40
1.0
 40
1.0
 10
239.0620595045387
 20
65.68146280232695
 30
0.0
 10
239.0620595045387
 20
65.67852312464686
 30
0.0
 10
239.0620595045387
 20
65.65595482899906
 30
0.0
 10
239.0620595045387
 20
65.83191249922821
 30
0.0
 10
239.0620595045387
 20
66.1755270971189
 30
0.0
 10
239.0620595045387
 20
66.34877213608277
 30
0.0
  0
SPLINE
  5
1CB
330
1F
100
AcDbEntity
  8
0
  6
Continuous
 62
     7
370
    25
100
AcDbSpline
210
0.0
220
0.0
230
1.0
 70
    24
 71
     3
 72
    10
 73
     6
 74
     0
 42
0.00000001
 43
0.00000001
 40
0.0
 40
0.0
 40
0.0
 40
0.0
 40
0.4621466906241762
 40
0.9308729886545061
 40
1.0
 40
1.0
 40
1.0
 40
1.0
 10
222.0620595045387
 20
66.34877213608277
 30
0.0
 10
222.0620595045387
 20
66.17782445003792
 30
0.0
 10
222.0620595045387
 20
65.83349528650498
 30
0.0
 10
222.0620595045387
 20
65.65631430653313
 30
0.0
 10
222.0620595045387
 20
65.67833292934274
 30
0.0
 10
222.0620595045387
 20
65.68116284888073
 30
0.0
  0
LINE
  5
1CC
330
1F
100
AcDbEntity
  8
0
  6
Continuous
 62
     7
370
    25
100
AcDbLine
 10
230.8120595045
 20
66.8168656701
 30
0.0
 11
230.8120595045
 21
66.3487721361
 31
0.0
  0
LINE
  5
1CD
330
1F
100
AcDbEntity
  8
0
  6
Continuous
 62
     7
370
    25
100
AcDbLine
 10
230.3120595045
 20
66.3487721361
 30
0.0
 11
230.3120595045
 21
66.8168656701
 31
0.0
  0
LINE
  5
1CE
330
1F
100
AcDbEntity
  8
0
  6
Continuous
 62
     7
370
    25
100
AcDbLine
 10
222.3120595045
 20
68.5210861391
 30
0.0
 11
222.3120595045
 21
66.3487721361
 31
0.0
  0
SPLINE
  5
1CF
330
1F
100
AcDbEntity
  8
0
  6
Continuous
 62
     7
370
    25
100
AcDbSpline
210
0.0
220
0.0
230
1.0
 70
     8
 71
     3
 72
    10
 73
     6
 74
     0
 42
0.00000001
 43
0.00000001
 40
0.0
 40
0.0
 40
0.0
 40
0.0
 40
0.5
 40
0.5
 40
1.0
 40
1.0
 40
1.0
 40
1.0
 10
222.3120595045392
 20
68.52108613912901
 30
0.0
 10
222.9468872103528
 20
68.72315282467993
 30
0.0
 10
223.5861529129286
 20
68.88954559695058
 30
0.0
 10
224.8769678445185
 20
69.12359257082062
 30
0.0
 10
225.5285874799883
 20
69.19068082477946
 30
0.0
 10
226.1876294118084
 20
69.19810649434923
 30
0.0
  0
SPLINE
  5
1D0
330
1F
100
AcDbEntity
  8
0
  6
Continuous
 62
     7
370
    25
100
AcDbSpline
210
0.0
220
0.0
230
1.0
 70
     8
 71
     3
 72
    12
 73
     8
 74
     0
 42
0.00000001
 43
0.00000001
 40
0.0
 40
0.0
 40
0.0
 40
0.0
 40
0.2500000000000002
 40
0.2500000000000002
 40
0.5000000000000004
 40
0.5000000000000004
 40
1.0
 40
1.0
 40
1.0
 40
1.0
 10
234.9364895972911
 20
69.19810649434899
 30
0.0
 10
235.2656245876842
 20
69.19439800849257
 30
0.0
 10
235.595086740621
 20
69.17581550565488
 30
0.0
 10
236.2479603586786
 20
69.11094846868873
 30
0.0
 10
236.5724129505557
 20
69.06468291543848
 30
0.0
 10
237.5404733917478
 20
68.88895838513152
 30
0.0
 10
238.1787958759957
 20
68.72265497635476
 30
0.0
 10
238.8120595045387
 20
68.52108613912885
 30
0.0
  0
LINE
  5
1D1
330
1F
100
AcDbEntity
  8
0
  6
Continuous
 62
     7
370
    25
100
AcDbLine
 10
238.8120595045
 20
66.3487721361
 30
0.0
 11
238.8120595045
 21
68.5210861391
 31
0.0
  0
SPLINE
  5
1D2
330
1F
100
AcDbEntity
  8
0
  6
Continuous
 62
     7
370
    25
100
AcDbSpline
210
0.0
220
0.0
230
1.0
 70
     8
 71
     3
 72
     8
 73
     4
 74
     0
 42
0.00000001
 43
0.00000001
 40
0.0
 40
0.0
 40
0.0
 40
0.0
 40
1.0
 40
1.0
 40
1.0
 40
1.0
 10
223.6338562742632
 20
69.48748267898385
 30
0.0
 10
223.107435413054
 20
69.22427224837925
 30
0.0
 10
222.5838909563403
 20
68.95517481999254
 30
0.0
 10
222.0620595045387
 20
68.68257146740989
 30
0.0
  0
SPLINE
  5
1D3
330
1F
100
AcDbEntity
  8
0
  6
Continuous
 62
     7
370
    25
100
AcDbSpline
210
0.0
220
0.0
230
1.0
 70
     8
 71
     3
 72
    10
 73
     6
 74
     0
 42
0.00000001
 43
0.00000001
 40
0.0
 40
0.0
 40
0.0
 40
0.0
 40
0.5
 40
0.5
 40
1.0
 40
1.0
 40
1.0
 40
1.0
 10
222.0620595045387
 20
68.5210861391288
 30
0.0
 10
222.0620595045387
 20
68.4974107447044
 30
0.0
 10
222.0848519538686
 20
68.4843196348198
 30
0.0
 10
222.1727946579618
 20
68.48423331353158
 30
0.0
 10
222.237652431636
 20
68.4974022474755
 30
0.0
 10
222.3120595045394
 20
68.52108613912907
 30
0.0
  0
SPLINE
  5
1D4
330
1F
100
AcDbEntity
  8
0
  6
Continuous
 62
     7
370
    25
100
AcDbSpline
210
0.0
220
0.0
230
1.0
 70
    24
 71
     3
 72
     8
 73
     4
 74
     0
 42
0.00000001
 43
0.00000001
 40
0.0
 40
0.0
 40
0.0
 40
0.0
 40
1.0
 40
1.0
 40
1.0
 40
1.0
 10
222.0620595045387
 20
68.52108613912885
 30
0.0
 10
222.0620595045387
 20
68.57764710625308
 30
0.0
 10
222.0620595045387
 20
68.63158717766692
 30
0.0
 10
222.0620595045387
 20
68.68257146740987
 30
0.0
  0
SPLINE
  5
1D5
330
1F
100
AcDbEntity
  8
0
  6
Continuous
 62
     7
370
    25
100
AcDbSpline
210
0.0
220
0.0
230
1.0
 70
     8
 71
     3
 72
     8
 73
     4
 74
     0
 42
0.00000001
 43
0.00000001
 40
0.0
 40
0.0
 40
0.0
 40
0.0
 40
1.0
 40
1.0
 40
1.0
 40
1.0
 10
239.0620595045387
 20
68.68257146740987
 30
0.0
 10
238.5402533532369
 20
68.95516160307923
 30
0.0
 10
238.0165998843807
 20
69.22431410420062
 30
0.0
 10
237.4902627348142
 20
69.48748267898385
 30
0.0
  0
SPLINE
  5
1D6
330
1F
100
AcDbEntity
  8
0
  6
Continuous
 62
     7
370
    25
100
AcDbSpline
210
0.0
220
0.0
230
1.0
 70
     8
 71
     3
 72
    10
 73
     6
 74
     0
 42
0.00000001
 43
0.00000001
 40
0.0
 40
0.0
 40
0.0
 40
0.0
 40
0.5
 40
0.5
 40
1.0
 40
1.0
 40
1.0
 40
1.0
 10
238.8120595045387
 20
68.52108613912885
 30
0.0
 10
238.886439881916
 20
68.49741074470447
 30
0.0
 10
238.9507405207018
 20
68.48431963481983
 30
0.0
 10
239.0389562054848
 20
68.48423331353153
 30
0.0
 10
239.0620595045387
 20
68.49740224747539
 30
0.0
 10
239.0620595045387
 20
68.52108613912885
 30
0.0
  0
SPLINE
  5
1D7
330
1F
100
AcDbEntity
  8
0
  6
Continuous
 62
     7
370
    25
100
AcDbSpline
210
0.0
220
0.0
230
1.0
 70
    24
 71
     3
 72
     8
 73
     4
 74
     0
 42
0.00000001
 43
0.00000001
 40
0.0
 40
0.0
 40
0.0
 40
0.0
 40
1.0
 40
1.0
 40
1.0
 40
1.0
 10
239.0620595045387
 20
68.52108613912885
 30
0.0
 10
239.0620595045387
 20
68.57764710625308
 30
0.0
 10
239.0620595045387
 20
68.63158717766692
 30
0.0
 10
239.0620595045387
 20
68.68257146740987
 30
0.0
  0
LINE
  5
1D8
330
1F
100
AcDbEntity
  8
0
  6
Continuous
 62
     7
370
    25
100
AcDbLine
 10
223.0620595045
 20
69.487482679
 30
0.0
 11
225.6864151575
 21
69.487482679
 31
0.0
  0
LINE
  5
1D9
330
1F
100
AcDbEntity
  8
0
  6
Continuous
 62
     7
370
    25
100
AcDbLine
 10
223.0620595045
 20
71.0026551217
 30
0.0
 11
223.0620595045
 21
69.487482679
 31
0.0
  0
LINE
  5
1DA
330
1F
100
AcDbEntity
  8
0
  6
Continuous
 62
     7
370
    25
100
AcDbLine
 10
238.0620595045
 20
69.487482679
 30
0.0
 11
238.0620595045
 21
71.0026551217
 31
0.0
  0
LINE
  5
1DB
330
1F
100
AcDbEntity
  8
0
  6
Continuous
 62
     7
370
    25
100
AcDbLine
 10
235.4377038516
 20
69.487482679
 30
0.0
 11
238.0620595045
 21
69.487482679
 31
0.0
  0
LINE
  5
1DC
330
1F
100
AcDbEntity
  8
0
  6
Continuous
 62
     7
370
    25
100
AcDbLine
 10
222.0620595045
 20
66.3487721361
 30
0.0
 11
222.0620595045
 21
68.5210861391
 31
0.0
  0
LINE
  5
1DD
330
1F
100
AcDbEntity
  8
0
  6
Continuous
 62
     7
370
    25
100
AcDbLine
 10
239.0620595045
 20
68.5210861391
 30
0.0
 11
239.0620595045
 21
66.3487721361
 31
0.0
  0
LINE
  5
1DE
330
1F
100
AcDbEntity
  8
0
  6
Continuous
 62
     7
370
    25
100
AcDbLine
 10
222.0620595045
 20
68.6825714674
 30
0.0
 11
222.0620595045
 21
71.8199833724
 31
0.0
  0
LINE
  5
1DF
330
1F
100
AcDbEntity
  8
0
  6
Continuous
 62
     7
370
    25
100
AcDbLine
 10
239.0620595045
 20
68.6825714674
 30
0.0
 11
239.0620595045
 21
71.8199833724
 31
0.0
  0
LINE
  5
1E0
330
1F
100
AcDbEntity
  8
0
  6
Continuous
 62
     7
370
    25
100
AcDbLine
 10
225.3120595045
 20
103.837482679
 30
0.0
 11
227.0620595045
 21
103.837482679
 31
0.0
  0
LINE
  5
1E1
330
1F
100
AcDbEntity
  8
0
  6
Continuous
 62
     7
370
    25
100
AcDbLine
 10
234.0620595045
 20
103.837482679
 30
0.0
 11
235.8120595045
 21
103.837482679
 31
0.0
  0
LINE
  5
1E2
330
1F
100
AcDbEntity
  8
0
  6
Continuous
 62
     7
370
    25
100
AcDbLine
 10
225.0620595045
 20
102.987482679
 30
0.0
 11
227.0620595045
 21
102.987482679
 31
0.0
  0
LINE
  5
1E3
330
1F
100
AcDbEntity
  8
0
  6
Continuous
 62
     7
370
    25
100
AcDbLine
 10
234.0620595045
 20
102.987482679
 30
0.0
 11
236.0620595045
 21
102.987482679
 31
0.0
  0
LINE
  5
1E4
330
1F
100
AcDbEntity
  8
0
  6
Continuous
 62
     7
370
    25
100
AcDbLine
 10
234.0620595045
 20
97.987482679
 30
0.0
 11
234.0620595045
 21
104.987482679
 31
0.0
  0
LINE
  5
1E5
330
1F
100
AcDbEntity
  8
0
  6
Continuous
 62
     7
370
    25
100
AcDbLine
 10
227.0620595045
 20
97.987482679
 30
0.0
 11
234.0620595045
 21
97.987482679
 31
0.0
  0
LINE
  5
1E6
330
1F
100
AcDbEntity
  8
0
  6
Continuous
 62
     7
370
    25
100
AcDbLine
 10
227.0620595045
 20
104.987482679
 30
0.0
 11
227.0620595045
 21
97.987482679
 31
0.0
  0
LINE
  5
1E7
330
1F
100
AcDbEntity
  8
0
  6
Continuous
 62
     7
370
    25
100
AcDbLine
 10
227.0620595045
 20
104.987482679
 30
0.0
 11
234.0620595045
 21
104.987482679
 31
0.0
  0
LINE
  5
1E8
330
1F
100
AcDbEntity
  8
0
  6
Continuous
 62
     7
370
    25
100
AcDbLine
 10
234.0620595045
 20
92.987482679
 30
0.0
 11
227.0620595045
 21
92.987482679
 31
0.0
  0
LINE
  5
1E9
330
1F
100
AcDbEntity
  8
0
  6
Continuous
 62
     7
370
    25
100
AcDbLine
 10
234.0620595045
 20
97.987482679
 30
0.0
 11
234.0620595045
 21
92.987482679
 31
0.0
  0
LINE
  5
1EA
330
1F
100
AcDbEntity
  8
0
  6
Continuous
 62
     7
370
    25
100
AcDbLine
 10
227.0620595045
 20
92.987482679
 30
0.0
 11
227.0620595045
 21
97.987482679
 31
0.0
  0
SPLINE
  5
1EB
330
1F
100
AcDbEntity
  8
0
  6
Continuous
 62
     7
370
    25
100
AcDbSpline
210
0.0
220
0.0
230
1.0
 70
     8
 71
     3
 72
     9
 73
     5
 74
     0
 42
0.00000001
 43
0.00000001
 40
0.0
 40
0.0
 40
0.0
 40
0.0
 40
0.497693137079144
 40
1.0
 40
1.0
 40
1.0
 40
1.0
 10
234.0620595045387
 20
92.73965837195941
 30
0.0
 10
234.0787290177559
 20
92.59021149095898
 30
0.0
 10
234.1122225742775
 20
92.28993232320207
 30
0.0
 10
234.3355612579192
 20
91.70851019581464
 30
0.0
 10
234.4477458114681
 20
91.41645787097389
 30
0.0
  0
LINE
  5
1EC
330
1F
100
AcDbEntity
  8
0
  6
Continuous
 62
     7
370
    25
100
AcDbLine
 10
234.4477458115
 20
91.416457871
 30
0.0
 11
226.6763731976
 21
91.416457871
 31
0.0
  0
SPLINE
  5
1ED
330
1F
100
AcDbEntity
  8
0
  6
Continuous
 62
     7
370
    25
100
AcDbSpline
210
0.0
220
0.0
230
1.0
 70
     8
 71
     3
 72
     9
 73
     5
 74
     0
 42
0.00000001
 43
0.00000001
 40
0.0
 40
0.0
 40
0.0
 40
0.0
 40
0.4977232396629077
 40
0.9999999999999999
 40
0.9999999999999999
 40
0.9999999999999999
 40
0.9999999999999999
 10
226.6763731976093
 20
91.4164578709739
 30
0.0
 10
226.7876698737232
 20
91.70605027159804
 30
0.0
 10
227.0112814458679
 20
92.28788446688353
 30
0.0
 10
227.0450821808666
 20
92.58861061602165
 30
0.0
 10
227.0620595045387
 20
92.73965837195941
 30
0.0
  0
LINE
  5
1EE
330
1F
100
AcDbEntity
  8
0
  6
Continuous
 62
     7
370
    25
100
AcDbLine
 10
234.0620595045
 20
92.987482679
 30
0.0
 11
234.0620595045
 21
92.739658372
 31
0.0
  0
LINE
  5
1EF
330
1F
100
AcDbEntity
  8
0
  6
Continuous
 62
     7
370
    25
100
AcDbLine
 10
227.0620595045
 20
92.739658372
 30
0.0
 11
227.0620595045
 21
92.987482679
 31
0.0
  0
SPLINE
  5
1F0
330
1F
100
AcDbEntity
  8
0
  6
Continuous
 62
     7
370
    25
100
AcDbSpline
210
0.0
220
0.0
230
1.0
 70
     8
 71
     3
 72
    16
 73
    12
 74
     0
 42
0.00000001
 43
0.00000001
 40
0.0
 40
0.0
 40
0.0
 40
0.0
 40
0.0155634360124117
 40
0.0359329243097674
 40
0.0739120889290614
 40
0.1570057548437684
 40
0.2406581385754913
 40
0.4592958294318597
 40
0.6783839187935413
 40
0.8974954344294847
 40
1.0
 40
1.0
 40
1.0
 40
1.0
 10
223.9023372823165
 20
86.98748267898395
 30
0.0
 10
223.9160309493298
 20
86.99267605076312
 30
0.0
 10
223.9476469433764
 20
87.00466652863089
 30
0.0
 10
224.0031266336865
 20
87.12299245262786
 30
0.0
 10
224.081727444177
 20
87.43424376007681
 30
0.0
 10
224.1610676308061
 20
87.95989126144187
 30
0.0
 10
224.2662953389093
 20
88.99843742571203
 30
0.0
 10
224.3812887401285
 20
90.43351146805814
 30
0.0
 10
224.4836887405434
 20
92.27176356949758
 30
0.0
 10
224.5534376204238
 20
93.79294641831702
 30
0.0
 10
224.5928962398526
 20
94.69877845911353
 30
0.0
 10
224.6054723791656
 20
94.98748267898148
 30
0.0
  0
LINE
  5
1F1
330
1F
100
AcDbEntity
  8
0
  6
Continuous
 62
     7
370
    25
100
AcDbLine
 10
224.6054723792
 20
94.987482679
 30
0.0
 11
224.3853116639
 21
95.982226257
 31
0.0
  0
LINE
  5
1F2
330
1F
100
AcDbEntity
  8
0
  6
Continuous
 62
     7
370
    25
100
AcDbLine
 10
224.3853116639
 20
95.982226257
 30
0.0
 11
227.0620595045
 21
95.982226257
 31
0.0
  0
ELLIPSE
  5
1F3
330
1F
100
AcDbEntity
  8
0
  6
Continuous
 62
     7
370
    25
100
AcDbEllipse
 10
162.0620595045
 20
93.3353571113
 30
0.0
 11
65.0
 21
1.421085471520200E-14
 31
0.0
210
0.0
220
0.0
230
1.0
 40
0.2713992096
 41
6.084179739699223
 42
6.174194364446292
  0
SPLINE
  5
1F4
330
1F
100
AcDbEntity
  8
0
  6
Continuous
 62
     7
370
    25
100
AcDbSpline
210
0.0
220
0.0
230
1.0
 70
     8
 71
     3
 72
    13
 73
     9
 74
     0
 42
0.00000001
 43
0.00000001
 40
0.0
 40
0.0
 40
0.0
 40
0.0
 40
0.1610294006389558
 40
0.3266880383557516
 40
0.4877296220820637
 40
0.6535536198224137
 40
0.8237602734841888
 40
1.0
 40
1.0
 40
1.0
 40
1.0
 10
225.7791971744342
 20
89.84783643049101
 30
0.0
 10
225.7353934070018
 20
89.77843953591378
 30
0.0
 10
225.6465266112595
 20
89.63765074040522
 30
0.0
 10
225.5175065925876
 20
89.29152592269757
 30
0.0
 10
225.3964964968202
 20
88.85231927964554
 30
0.0
 10
225.2898155136955
 20
88.31871744270595
 30
0.0
 10
225.1991482263397
 20
87.69489113600626
 30
0.0
 10
225.162329417443
 20
87.22600723780427
 30
0.0
 10
225.1435994286716
 20
86.98748267898387
 30
0.0
  0
LINE
  5
1F5
330
1F
100
AcDbEntity
  8
0
  6
Continuous
 62
     7
370
    25
100
AcDbLine
 10
225.1435994287
 20
86.987482679
 30
0.0
 11
223.9023372823
 21
86.987482679
 31
0.0
  0
SPLINE
  5
1F6
330
1F
100
AcDbEntity
  8
0
  6
Continuous
 62
     7
370
    25
100
AcDbSpline
210
0.0
220
0.0
230
1.0
 70
     8
 71
     3
 72
    17
 73
    13
 74
     0
 42
0.00000001
 43
0.00000001
 40
0.0
 40
0.0
 40
0.0
 40
0.0
 40
0.3241697628029873
 40
0.5422758463620719
 40
0.689509052693928
 40
0.7894036290694505
 40
0.8577090008137825
 40
0.9049823971474138
 40
0.9551712229700868
 40
0.9753097783197817
 40
0.9919572060138848
 40
1.0
 40
1.0
 40
1.0
 40
1.0
 10
236.5186466299118
 20
94.9874826789815
 30
0.0
 10
236.5592970686385
 20
94.07486917637581
 30
0.0
 10
236.6272977077942
 20
92.54823617011446
 30
0.0
 10
236.7387306071106
 20
90.6214632678335
 30
0.0
 10
236.8312352671691
 20
89.33382779690075
 30
0.0
 10
236.9091367234865
 20
88.47467583017898
 30
0.0
 10
236.9751892229089
 20
87.90120794180159
 30
0.0
 10
237.0385458302713
 20
87.47967578777163
 30
0.0
 10
237.0966722979652
 20
87.1991832449762
 30
0.0
 10
237.1560141262879
 20
87.04363457639553
 30
0.0
 10
237.1930201949107
 20
86.99302397719804
 30
0.0
 10
237.2147147617812
 20
86.9888442253934
 30
0.0
 10
237.2217817267609
 20
86.98748267898392
 30
0.0
  0
LINE
  5
1F7
330
1F
100
AcDbEntity
  8
0
  6
Continuous
 62
     7
370
    25
100
AcDbLine
 10
237.2217817268
 20
86.987482679
 30
0.0
 11
235.9805195804
 21
86.987482679
 31
0.0
  0
SPLINE
  5
1F8
330
1F
100
AcDbEntity
  8
0
  6
Continuous
 62
     7
370
    25
100
AcDbSpline
210
0.0
220
0.0
230
1.0
 70
     8
 71
     3
 72
    14
 73
    10
 74
     0
 42
0.00000001
 43
0.00000001
 40
0.0
 40
0.0
 40
0.0
 40
0.0
 40
0.1576095309202822
 40
0.3152382602707096
 40
0.4726926441579499
 40
0.6301650083177254
 40
0.7907313191165901
 40
0.9513050385928076
 40
1.0
 40
1.0
 40
1.0
 40
1.0
 10
235.9805195804058
 20
86.98748267898387
 30
0.0
 10
235.9640142435633
 20
87.20098446746125
 30
0.0
 10
235.931001559362
 20
87.62801405108678
 30
0.0
 10
235.8511978694501
 20
88.21326112994309
 30
0.0
 10
235.7534104619638
 20
88.7354156707655
 30
0.0
 10
235.6398206222819
 20
89.18439379818538
 30
0.0
 10
235.5152785232501
 20
89.54367552999176
 30
0.0
 10
235.4149211824736
 20
89.74824170909292
 30
0.0
 10
235.3581353848586
 20
89.82903625744424
 30
0.0
 10
235.3449218346433
 20
89.84783643049101
 30
0.0
  0
ELLIPSE
  5
1F9
330
1F
100
AcDbEntity
  8
0
  6
Continuous
 62
     7
370
    25
100
AcDbEllipse
 10
299.0620595045
 20
93.3353571113
 30
0.0
 11
65.0
 21
1.421085471520200E-14
 31
0.0
210
0.0
220
0.0
230
1.0
 40
0.2713992096
 41
3.250583596323188
 42
3.340598221070254
  0
LINE
  5
1FA
330
1F
100
AcDbEntity
  8
0
  6
Continuous
 62
     7
370
    25
100
AcDbLine
 10
236.7388073452
 20
95.982226257
 30
0.0
 11
236.5186466299
 21
94.987482679
 31
0.0
  0
LINE
  5
1FB
330
1F
100
AcDbEntity
  8
0
  6
Continuous
 62
     7
370
    25
100
AcDbLine
 10
234.0620595045
 20
95.982226257
 30
0.0
 11
236.7388073452
 21
95.982226257
 31
0.0
  0
LINE
  5
1FC
330
1F
100
AcDbEntity
  8
0
  6
Continuous
 62
     7
370
    25
100
AcDbLine
 10
225.7791971744
 20
89.8478364305
 30
0.0
 11
235.3449218346
 21
89.8478364305
 31
0.0
  0
SPLINE
  5
1FD
330
1F
100
AcDbEntity
  8
0
  6
Continuous
 62
     7
370
    25
100
AcDbSpline
210
0.0
220
0.0
230
1.0
 70
     8
 71
     3
 72
    16
 73
    12
 74
     0
 42
0.00000001
 43
0.00000001
 40
0.0
 40
0.0
 40
0.0
 40
0.0
 40
0.1082397394540288
 40
0.2409347985297595
 40
0.3278143823752724
 40
0.4147786007912548
 40
0.5911316736061377
 40
0.6905102391473412
 40
0.789721083151791
 40
0.9112972329116562
 40
1.0
 40
1.0
 40
1.0
 40
1.0
 10
233.160135715892
 20
86.98748267898387
 30
0.0
 10
233.0420818326647
 20
87.17053987367471
 30
0.0
 10
232.7793013722302
 20
87.57801358476023
 30
0.0
 10
232.2026236111528
 20
87.92224325323419
 30
0.0
 10
231.6170660187587
 20
88.12622579735194
 30
0.0
 10
230.9100440057267
 20
88.25763982771403
 30
0.0
 10
230.1502210711114
 20
88.2546195836585
 30
0.0
 10
229.3962525648607
 20
88.09985984895015
 30
0.0
 10
228.7958763622942
 20
87.85931351760695
 30
0.0
 10
228.2792222511565
 20
87.49887167917728
 30
0.0
 10
228.0575093162444
 20
87.13920307462296
 30
0.0
 10
227.9639832931854
 20
86.98748267898387
 30
0.0
  0
LINE
  5
1FE
330
1F
100
AcDbEntity
  8
0
  6
Continuous
 62
     7
370
    25
100
AcDbLine
 10
227.9639832932
 20
86.987482679
 30
0.0
 11
225.1435994287
 21
86.987482679
 31
0.0
  0
LINE
  5
1FF
330
1F
100
AcDbEntity
  8
0
  6
Continuous
 62
     7
370
    25
100
AcDbLine
 10
235.9805195804
 20
86.987482679
 30
0.0
 11
233.1601357159
 21
86.987482679
 31
0.0
  0
LINE
  5
200
330
1F
100
AcDbEntity
  8
0
  6
Continuous
 62
     7
370
    25
100
AcDbLine
 10
233.1601357159
 20
86.987482679
 30
0.0
 11
227.9639832932
 21
86.987482679
 31
0.0
  0
LINE
  5
201
330
1F
100
AcDbEntity
  8
0
  6
Continuous
 62
     7
370
    25
100
AcDbLine
 10
236.5186466299
 20
94.987482679
 30
0.0
 11
238.0120595045
 21
94.987482679
 31
0.0
  0
LINE
  5
202
330
1F
100
AcDbEntity
  8
0
  6
Continuous
 62
     7
370
    25
100
AcDbLine
 10
223.1120595045
 20
94.987482679
 30
0.0
 11
224.6054723792
 21
94.987482679
 31
0.0
  0
SPLINE
  5
203
330
1F
100
AcDbEntity
  8
0
  6
Continuous
 62
     7
370
    25
100
AcDbSpline
210
0.0
220
0.0
230
1.0
 70
     8
 71
     3
 72
     9
 73
     5
 74
     0
 42
0.00000001
 43
0.00000001
 40
0.0
 40
0.0
 40
0.0
 40
0.0
 40
0.4875141023677128
 40
0.9999999999999999
 40
0.9999999999999999
 40
0.9999999999999999
 40
0.9999999999999999
 10
237.2217817267609
 20
86.98748267898392
 30
0.0
 10
237.2303078382967
 20
86.98921002495564
 30
0.0
 10
237.247796791938
 20
86.99275319624711
 30
0.0
 10
237.2641184958244
 20
87.01427168219641
 30
0.0
 10
237.2724831388915
 20
87.02529960278383
 30
0.0
  0
SPLINE
  5
204
330
1F
100
AcDbEntity
  8
0
  6
Continuous
 62
     7
370
    25
100
AcDbSpline
210
0.0
220
0.0
230
1.0
 70
     8
 71
     3
 72
     9
 73
     5
 74
     0
 42
0.00000001
 43
0.00000001
 40
0.0
 40
0.0
 40
0.0
 40
0.0
 40
0.5124861829376838
 40
0.9999999999999999
 40
0.9999999999999999
 40
0.9999999999999999
 40
0.9999999999999999
 10
223.8516359010521
 20
87.02529955692408
 30
0.0
 10
223.8600005441758
 20
87.0142716439729
 30
0.0
 10
223.876322239086
 20
86.99275318490349
 30
0.0
 10
223.8938111813278
 20
86.98921002055835
 30
0.0
 10
223.9023372823165
 20
86.98748267898395
 30
0.0
  0
LINE
  5
205
330
1F
100
AcDbEntity
  8
0
  6
Continuous
 62
     7
370
    25
100
AcDbLine
 10
237.270263437
 20
86.987482679
 30
0.0
 11
237.5620595045
 21
86.987482679
 31
0.0
  0
LINE
  5
206
330
1F
100
AcDbEntity
  8
0
  6
Continuous
 62
     7
370
    25
100
AcDbLine
 10
223.5620595045
 20
86.987482679
 30
0.0
 11
223.853855572
 21
86.987482679
 31
0.0
  0
LINE
  5
207
330
1F
100
AcDbEntity
  8
0
  6
Continuous
 62
     7
370
    25
100
AcDbLine
 10
237.2724831389
 20
87.0252996028
 30
0.0
 11
237.270263437
 21
86.987482679
 31
0.0
  0
LINE
  5
208
330
1F
100
AcDbEntity
  8
0
  6
Continuous
 62
     7
370
    25
100
AcDbLine
 10
237.270263437
 20
86.987482679
 30
0.0
 11
237.2217817268
 21
86.987482679
 31
0.0
  0
LINE
  5
209
330
1F
100
AcDbEntity
  8
0
  6
Continuous
 62
     7
370
    25
100
AcDbLine
 10
223.853855572
 20
86.987482679
 30
0.0
 11
223.8516359011
 21
87.0252995569
 31
0.0
  0
LINE
  5
20A
330
1F
100
AcDbEntity
  8
0
  6
Continuous
 62
     7
370
    25
100
AcDbLine
 10
223.9023372823
 20
86.987482679
 30
0.0
 11
223.853855572
 21
86.987482679
 31
0.0
  0
SPLINE
  5
20B
330
1F
100
AcDbEntity
  8
0
  6
Continuous
 62
     7
370
    25
100
AcDbSpline
210
0.0
220
0.0
230
1.0
 70
     8
 71
     3
 72
    12
 73
     8
 74
     0
 42
0.00000001
 43
0.00000001
 40
0.0
 40
0.0
 40
0.0
 40
0.0
 40
0.1684137776957919
 40
0.3367851652016845
 40
0.5093302250217298
 40
0.6818766406170169
 40
1.0
 40
1.0
 40
1.0
 40
1.0
 10
237.9717787533144
 20
50.05071660570408
 30
0.0
 10
237.6214739212792
 20
49.96539893502144
 30
0.0
 10
236.9209524298546
 20
49.79478506833782
 30
0.0
 10
235.8448413927745
 20
49.64424199196537
 30
0.0
 10
234.7537106761805
 20
49.59479335020854
 30
0.0
 10
233.3425871320402
 20
49.66286875765614
 30
0.0
 10
232.3170611805046
 20
49.89252441389952
 30
0.0
 10
231.6521664234321
 20
50.04142054035987
 30
0.0
  0
SPLINE
  5
20C
330
1F
100
AcDbEntity
  8
0
  6
Continuous
 62
     7
370
    25
100
AcDbSpline
210
0.0
220
0.0
230
1.0
 70
     8
 71
     3
 72
     9
 73
     5
 74
     0
 42
0.00000001
 43
0.00000001
 40
0.0
 40
0.0
 40
0.0
 40
0.0
 40
0.4965031366680178
 40
1.0
 40
1.0
 40
1.0
 40
1.0
 10
239.0619725883733
 20
50.05553307136749
 30
0.0
 10
238.9093363820805
 20
50.05469512153936
 30
0.0
 10
238.6019139409715
 20
50.05300741854967
 30
0.0
 10
238.1828008699535
 20
50.05148376199843
 30
0.0
 10
237.9717787533144
 20
50.05071660570408
 30
0.0
  0
SPLINE
  5
20D
330
1F
100
AcDbEntity
  8
0
  6
Continuous
 62
     7
370
    25
100
AcDbSpline
210
0.0
220
0.0
230
1.0
 70
    24
 71
     3
 72
    10
 73
     6
 74
     0
 42
0.00000001
 43
0.00000001
 40
0.0
 40
0.0
 40
0.0
 40
0.0
 40
0.2026744202761865
 40
0.542795967045022
 40
1.0
 40
1.0
 40
1.0
 40
1.0
 10
239.0619725883733
 20
49.6444449375789
 30
0.0
 10
239.0619725883733
 20
49.64340148819241
 30
0.0
 10
239.0619725883733
 20
49.64060695636134
 30
0.0
 10
239.0619725883733
 20
49.75836688848813
 30
0.0
 10
239.0619725883733
 20
49.94723305525216
 30
0.0
 10
239.0619725883733
 20
50.05553307136749
 30
0.0
  0
SPLINE
  5
20E
330
1F
100
AcDbEntity
  8
0
  6
Continuous
 62
     7
370
    25
100
AcDbSpline
210
0.0
220
0.0
230
1.0
 70
    24
 71
     3
 72
    10
 73
     6
 74
     0
 42
0.00000001
 43
0.00000001
 40
0.0
 40
0.0
 40
0.0
 40
0.0
 40
0.4571654066091645
 40
0.788758986497221
 40
1.0
 40
1.0
 40
1.0
 40
1.0
 10
222.0619725883733
 20
50.05562545611827
 30
0.0
 10
222.0619725883733
 20
49.94720866744068
 30
0.0
 10
222.0619725883733
 20
49.76015445222589
 30
0.0
 10
222.0619725883733
 20
49.64225351184805
 30
0.0
 10
222.0619725883733
 20
49.64309239315412
 30
0.0
 10
222.0619725883733
 20
49.64341883907239
 30
0.0
  0
SPLINE
  5
20F
330
1F
100
AcDbEntity
  8
0
  6
Continuous
 62
     7
370
    25
100
AcDbSpline
210
0.0
220
0.0
230
1.0
 70
     8
 71
     3
 72
     9
 73
     5
 74
     0
 42
0.00000001
 43
0.00000001
 40
0.0
 40
0.0
 40
0.0
 40
0.0
 40
0.4965031344853179
 40
1.0
 40
1.0
 40
1.0
 40
1.0
 10
223.1521664234321
 20
50.05079721427666
 30
0.0
 10
222.9439594606433
 20
50.05155571878869
 30
0.0
 10
222.5246127368714
 20
50.05308341208878
 30
0.0
 10
222.2169033168456
 20
50.05477416654781
 30
0.0
 10
222.0619725883733
 20
50.05562545611827
 30
0.0
  0
SPLINE
  5
210
330
1F
100
AcDbEntity
  8
0
  6
Continuous
 62
     7
370
    25
100
AcDbSpline
210
0.0
220
0.0
230
1.0
 70
     8
 71
     3
 72
    12
 73
     8
 74
     0
 42
0.00000001
 43
0.00000001
 40
0.0
 40
0.0
 40
0.0
 40
0.0
 40
0.1681235458336801
 40
0.3362051388288544
 40
0.5084618328601783
 40
0.6807208858054716
 40
0.9999999999999999
 40
0.9999999999999999
 40
0.9999999999999999
 40
0.9999999999999999
 10
229.4717787533144
 20
50.04143242099171
 30
0.0
 10
229.1219191800881
 20
49.95712815577835
 30
0.0
 10
228.4222873361136
 20
49.78854066228138
 30
0.0
 10
227.3476894132687
 20
49.64128832011536
 30
0.0
 10
226.2582951302281
 20
49.59504791908564
 30
0.0
 10
224.8461009214887
 20
49.66705886708245
 30
0.0
 10
223.8191945177927
 20
49.89969086467714
 30
0.0
 10
223.1521664234321
 20
50.05079721427666
 30
0.0
  0
SPLINE
  5
211
330
1F
100
AcDbEntity
  8
0
  6
Continuous
 62
     7
370
    25
100
AcDbSpline
210
0.0
220
0.0
230
1.0
 70
     8
 71
     3
 72
     9
 73
     5
 74
     0
 42
0.00000001
 43
0.00000001
 40
0.0
 40
0.0
 40
0.0
 40
0.0
 40
0.4965031013048033
 40
1.0
 40
1.0
 40
1.0
 40
1.0
 10
231.6521664234321
 20
50.04142054035987
 30
0.0
 10
231.2913232788927
 20
50.04134038740212
 30
0.0
 10
230.5645541135214
 20
50.04117895244323
 30
0.0
 10
229.8377316231289
 20
50.04134753845675
 30
0.0
 10
229.4717787533144
 20
50.04143242099171
 30
0.0
  0
LINE
  5
212
330
1F
100
AcDbEntity
  8
0
  6
Continuous
 62
     7
370
    25
100
AcDbLine
 10
238.8120595045
 20
49.487482679
 30
0.0
 11
222.3120595045
 21
49.487482679
 31
0.0
  0
SPLINE
  5
213
330
1F
100
AcDbEntity
  8
0
  6
Continuous
 62
     7
370
    25
100
AcDbSpline
210
0.0
220
0.0
230
1.0
 70
     8
 71
     3
 72
    12
 73
     8
 74
     0
 42
0.00000001
 43
0.00000001
 40
0.0
 40
0.0
 40
0.0
 40
0.0
 40
0.1684163411452855
 40
0.3367902904656619
 40
0.5093379512424928
 40
0.6818869650201568
 40
0.9999999999999999
 40
0.9999999999999999
 40
0.9999999999999999
 40
0.9999999999999999
 10
223.1521664234321
 20
58.92416814369105
 30
0.0
 10
223.5024760986654
 20
59.00948949041162
 30
0.0
 10
224.2030072732084
 20
59.18011070774441
 30
0.0
 10
225.2791335830977
 20
59.33066442308608
 30
0.0
 10
226.3702803494417
 20
59.38012244063857
 30
0.0
 10
227.7813932004653
 20
59.31205827367981
 30
0.0
 10
228.8069045635483
 20
59.08241715225027
 30
0.0
 10
229.4717787533144
 20
58.933532936976
 30
0.0
  0
SPLINE
  5
214
330
1F
100
AcDbEntity
  8
0
  6
Continuous
 62
     7
370
    25
100
AcDbSpline
210
0.0
220
0.0
230
1.0
 70
     8
 71
     3
 72
     9
 73
     5
 74
     0
 42
0.00000001
 43
0.00000001
 40
0.0
 40
0.0
 40
0.0
 40
0.0
 40
0.4965031368291205
 40
1.0
 40
1.0
 40
1.0
 40
1.0
 10
222.0619725883733
 20
58.91933990184943
 30
0.0
 10
222.2146087949453
 20
58.92017949645629
 30
0.0
 10
222.5220312365169
 20
58.92187051217117
 30
0.0
 10
222.9411443070865
 20
58.92339870393276
 30
0.0
 10
223.1521664234321
 20
58.92416814369105
 30
0.0
  0
SPLINE
  5
215
330
1F
100
AcDbEntity
  8
0
  6
Continuous
 62
     7
370
    25
100
AcDbSpline
210
0.0
220
0.0
230
1.0
 70
    24
 71
     3
 72
    10
 73
     6
 74
     0
 42
0.00000001
 43
0.00000001
 40
0.0
 40
0.0
 40
0.0
 40
0.0
 40
0.2026976368234897
 40
0.542825299090151
 40
1.0
 40
1.0
 40
1.0
 40
1.0
 10
222.0619725883733
 20
59.33042047287705
 30
0.0
 10
222.0619725883733
 20
59.33146303642936
 30
0.0
 10
222.0619725883733
 20
59.33425502690824
 30
0.0
 10
222.0619725883733
 20
59.21649078886684
 30
0.0
 10
222.0619725883733
 20
59.02763193188046
 30
0.0
 10
222.0619725883733
 20
58.91933990184943
 30
0.0
  0
SPLINE
  5
216
330
1F
100
AcDbEntity
  8
0
  6
Continuous
 62
     7
370
    25
100
AcDbSpline
210
0.0
220
0.0
230
1.0
 70
    24
 71
     3
 72
    10
 73
     6
 74
     0
 42
0.00000001
 43
0.00000001
 40
0.0
 40
0.0
 40
0.0
 40
0.0
 40
0.4571947379875094
 40
0.7887823392579163
 40
1.0
 40
1.0
 40
1.0
 40
1.0
 10
239.0619725883733
 20
58.91943228660021
 30
0.0
 10
239.0619725883733
 20
59.02785708043857
 30
0.0
 10
239.0619725883733
 20
59.21491864395054
 30
0.0
 10
239.0619725883733
 20
59.33281523882424
 30
0.0
 10
239.0619725883733
 20
59.33197369274833
 30
0.0
 10
239.0619725883733
 20
59.33164622835916
 30
0.0
  0
SPLINE
  5
217
330
1F
100
AcDbEntity
  8
0
  6
Continuous
 62
     7
370
    25
100
AcDbSpline
210
0.0
220
0.0
230
1.0
 70
     8
 71
     3
 72
     9
 73
     5
 74
     0
 42
0.00000001
 43
0.00000001
 40
0.0
 40
0.0
 40
0.0
 40
0.0
 40
0.4965031343123558
 40
1.0
 40
1.0
 40
1.0
 40
1.0
 10
237.9717787533144
 20
58.92424875226362
 30
0.0
 10
238.1799857162601
 20
58.923492500771
 30
0.0
 10
238.5993324404938
 20
58.92196934524515
 30
0.0
 10
238.9070418600727
 20
58.92028190664595
 30
0.0
 10
239.0619725883733
 20
58.91943228660021
 30
0.0
  0
SPLINE
  5
218
330
1F
100
AcDbEntity
  8
0
  6
Continuous
 62
     7
370
    25
100
AcDbSpline
210
0.0
220
0.0
230
1.0
 70
     8
 71
     3
 72
    12
 73
     8
 74
     0
 42
0.00000001
 43
0.00000001
 40
0.0
 40
0.0
 40
0.0
 40
0.0
 40
0.1681231312453741
 40
0.3362043080514931
 40
0.5084605368611831
 40
0.6807191199800867
 40
1.0
 40
1.0
 40
1.0
 40
1.0
 10
231.6521664234321
 20
58.93354481760785
 30
0.0
 10
232.002024456528
 20
59.01785288087964
 30
0.0
 10
232.7016532170797
 20
59.18644796869113
 30
0.0
 10
233.7762470875707
 20
59.33371392933411
 30
0.0
 10
234.8656381891744
 20
59.37996859183467
 30
0.0
 10
236.2778351611845
 20
59.30797534568973
 30
0.0
 10
237.3047459076752
 20
59.07535073862825
 30
0.0
 10
237.9717787533144
 20
58.92424875226362
 30
0.0
  0
SPLINE
  5
219
330
1F
100
AcDbEntity
  8
0
  6
Continuous
 62
     7
370
    25
100
AcDbSpline
210
0.0
220
0.0
230
1.0
 70
     8
 71
     3
 72
     9
 73
     5
 74
     0
 42
0.00000001
 43
0.00000001
 40
0.0
 40
0.0
 40
0.0
 40
0.0
 40
0.49650310131651
 40
1.0
 40
1.0
 40
1.0
 40
1.0
 10
229.4717787533144
 20
58.933532936976
 30
0.0
 10
229.8326218969676
 20
58.93361702230155
 30
0.0
 10
230.5593910605365
 20
58.93378637738782
 30
0.0
 10
231.2862135527229
 20
58.93362571208802
 30
0.0
 10
231.6521664234321
 20
58.93354481760785
 30
0.0
  0
LINE
  5
21A
330
1F
100
AcDbEntity
  8
0
  6
Continuous
 62
     7
370
    25
100
AcDbLine
 10
222.3120595045
 20
59.487482679
 30
0.0
 11
238.8120595045
 21
59.487482679
 31
0.0
  0
LINE
  5
21B
330
1F
100
AcDbEntity
  8
0
  6
Continuous
 62
     7
370
    25
100
AcDbLine
 10
231.6521664234
 20
58.9335448176
 30
0.0
 11
231.6521664234
 21
50.0414205404
 31
0.0
  0
LINE
  5
21C
330
1F
100
AcDbEntity
  8
0
  6
Continuous
 62
     7
370
    25
100
AcDbLine
 10
229.4717787533
 20
58.933532937
 30
0.0
 11
229.4717787533
 21
50.041432421
 31
0.0
  0
LINE
  5
21D
330
1F
100
AcDbEntity
  8
0
  6
Continuous
 62
     7
370
    25
100
AcDbLine
 10
223.1521664234
 20
58.9241681437
 30
0.0
 11
223.1521664234
 21
50.0507972143
 31
0.0
  0
LINE
  5
21E
330
1F
100
AcDbEntity
  8
0
  6
Continuous
 62
     7
370
    25
100
AcDbLine
 10
237.9717787533
 20
58.9242487523
 30
0.0
 11
237.9717787533
 21
50.0507166057
 31
0.0
  0
LINE
  5
21F
330
1F
100
AcDbEntity
  8
0
  6
Continuous
 62
     7
370
    25
100
AcDbLine
 10
238.8120595045
 20
63.987482679
 30
0.0
 11
222.3120595045
 21
63.987482679
 31
0.0
  0
LINE
  5
220
330
1F
100
AcDbEntity
  8
0
  6
Continuous
 62
     7
370
    25
100
AcDbLine
 10
222.8120595045
 20
64.487482679
 30
0.0
 11
238.3120595045
 21
64.487482679
 31
0.0
  0
LINE
  5
221
330
1F
100
AcDbEntity
  8
0
  6
Continuous
 62
     7
370
    25
100
AcDbLine
 10
222.0619725884
 20
58.9193399018
 30
0.0
 11
222.0619725884
 21
50.0556254561
 31
0.0
  0
LINE
  5
222
330
1F
100
AcDbEntity
  8
0
  6
Continuous
 62
     7
370
    25
100
AcDbLine
 10
239.0619725884
 20
58.9194322866
 30
0.0
 11
239.0619725884
 21
50.0555330714
 31
0.0
  0
LINE
  5
223
330
1F
100
AcDbEntity
  8
0
  6
Continuous
 62
     7
370
    25
100
AcDbLine
 10
235.3443391314
 20
40.8424307384
 30
0.0
 11
225.7797798777
 21
40.8424307384
 31
0.0
  0
LINE
  5
224
330
1F
100
AcDbEntity
  8
0
  6
Continuous
 62
     7
370
    25
100
AcDbLine
 10
234.5620595045
 20
39.487482679
 30
0.0
 11
226.5620595045
 21
39.487482679
 31
0.0
  0
SPLINE
  5
225
330
1F
100
AcDbEntity
  8
0
  6
Continuous
 62
     7
370
    25
100
AcDbSpline
210
0.0
220
0.0
230
1.0
 70
     8
 71
     3
 72
    18
 73
    14
 74
     0
 42
0.00000001
 43
0.00000001
 40
0.0
 40
0.0
 40
0.0
 40
0.0
 40
0.046843627984025
 40
0.1374662864708139
 40
0.2589173172497428
 40
0.3805820145594682
 40
0.3960800609051913
 40
0.5262813334702163
 40
0.6564809473118599
 40
0.7574577372883181
 40
0.8582313963363242
 40
0.9375464558874251
 40
1.0
 40
1.0
 40
1.0
 40
1.0
 10
231.1765172915252
 20
85.94767988648518
 30
0.0
 10
231.3191655213328
 20
85.93700977843781
 30
0.0
 10
231.7377778975982
 20
85.90569751265826
 30
0.0
 10
232.4914686292046
 20
85.73315452106766
 30
0.0
 10
233.3889944862659
 20
85.41837400763143
 30
0.0
 10
233.9987781745932
 20
85.10327626723411
 30
0.0
 10
234.5745158512979
 20
84.75695154120413
 30
0.0
 10
235.111888222205
 20
84.37639513543004
 30
0.0
 10
235.6778084485922
 20
83.87876881108762
 30
0.0
 10
236.0793863553261
 20
83.46553657385662
 30
0.0
 10
236.3187283978585
 20
83.19215641740138
 30
0.0
 10
236.4439090257683
 20
83.04043091321714
 30
0.0
 10
236.4512225096139
 20
83.0310040347654
 30
0.0
 10
236.4544443300605
 20
83.02685119729635
 30
0.0
  0
SPLINE
  5
226
330
1F
100
AcDbEntity
  8
0
  6
Continuous
 62
     7
370
    25
100
AcDbSpline
210
0.0
220
0.0
230
1.0
 70
     8
 71
     3
 72
    19
 73
    15
 74
     0
 42
0.00000001
 43
0.00000001
 40
0.0
 40
0.0
 40
0.0
 40
0.0
 40
0.0663402404212277
 40
0.1059266356991521
 40
0.1953110266002519
 40
0.2848616745914467
 40
0.4058547503223625
 40
0.526934056060043
 40
0.6283682279655797
 40
0.7297351227395777
 40
0.8191460989849876
 40
0.9084830988966034
 40
0.9868723976610161
 40
1.0
 40
1.0
 40
1.0
 40
1.0
 10
224.6640014219626
 20
83.02005042806867
 30
0.0
 10
224.6687413291036
 20
83.02584791764104
 30
0.0
 10
224.6763096227033
 20
83.03510487182153
 30
0.0
 10
224.7575672367177
 20
83.13411340905166
 30
0.0
 10
224.9072358580798
 20
83.31095114663894
 30
0.0
 10
225.2156246816846
 20
83.64776188043272
 30
0.0
 10
225.6728685419569
 20
84.08834991517983
 30
0.0
 10
226.2711959801765
 20
84.5703686963917
 30
0.0
 10
226.9410804912221
 20
85.00629643449005
 30
0.0
 10
227.6312345079369
 20
85.3626472364928
 30
0.0
 10
228.3673211208431
 20
85.64948941342675
 30
0.0
 10
229.1001280149129
 20
85.84147223861468
 30
0.0
 10
229.6406893962371
 20
85.94117273563383
 30
0.0
 10
229.9216587936725
 20
85.95411455483726
 30
0.0
 10
229.9619623274951
 20
85.95597098850139
 30
0.0
  0
LINE
  5
227
330
1F
100
AcDbEntity
  8
0
  6
Continuous
 62
     7
370
    25
100
AcDbLine
 10
227.0620595045
 20
103.587482679
 30
0.0
 11
225.0620595045
 21
103.587482679
 31
0.0
  0
LINE
  5
228
330
1F
100
AcDbEntity
  8
0
  6
Continuous
 62
     7
370
    25
100
AcDbLine
 10
236.0620595045
 20
103.587482679
 30
0.0
 11
234.0620595045
 21
103.587482679
 31
0.0
  0
INSERT
  5
234
330
1F
100
AcDbEntity
  8
0
  6
Continuous
 62
     7
370
    18
100
AcDbBlockReference
  2
SW_CENTERMARKSYMBOL_0
 10
230.5620595045
 20
76.487482679
 30
0.0
  0
LINE
  5
235
330
1F
100
AcDbEntity
  8
0
  6
Continuous
 62
     7
370
    18
100
AcDbLine
 10
225.9695595045
 20
49.487482679
 30
0.0
 11
226.266036806
 21
40.0002090331
 31
0.0
  0
LINE
  5
236
330
1F
100
AcDbEntity
  8
0
  6
Continuous
 62
     7
370
    18
100
AcDbLine
 10
234.8580822031
 20
40.0002090331
 30
0.0
 11
235.1545595045
 21
49.487482679
 31
0.0
  0
LINE
  5
237
330
1F
100
AcDbEntity
  8
0
  6
Continuous
 62
     7
370
    25
100
AcDbLine
 10
171.8316351039
 20
138.7405645286
 30
0.0
 11
171.6316351039
 21
138.5405645286
 31
0.0
  0
LINE
  5
238
330
1F
100
AcDbEntity
  8
0
  6
Continuous
 62
     7
370
    25
100
AcDbLine
 10
171.6316351039
 20
122.9405645286
 30
0.0
 11
171.8316351039
 21
122.7405645286
 31
0.0
  0
LINE
  5
239
330
1F
100
AcDbEntity
  8
0
  6
Continuous
 62
     7
370
    25
100
AcDbLine
 10
174.6316351039
 20
138.7405645286
 30
0.0
 11
171.8316351039
 21
138.7405645286
 31
0.0
  0
LINE
  5
23A
330
1F
100
AcDbEntity
  8
0
  6
Continuous
 62
     7
370
    25
100
AcDbLine
 10
171.8316351039
 20
122.7405645286
 30
0.0
 11
174.6316351039
 21
122.7405645286
 31
0.0
  0
LINE
  5
23B
330
1F
100
AcDbEntity
  8
0
  6
Continuous
 62
     7
370
    25
100
AcDbLine
 10
197.9872975366
 20
122.2405645286
 30
0.0
 11
198.1316351039
 21
122.4905645286
 31
0.0
  0
LINE
  5
23C
330
1F
100
AcDbEntity
  8
0
  6
Continuous
 62
     7
370
    25
100
AcDbLine
 10
198.1316351039
 20
138.9905645286
 30
0.0
 11
197.9872975366
 21
139.2405645286
 31
0.0
  0
LINE
  5
23D
330
1F
100
AcDbEntity
  8
0
  6
Continuous
 62
     7
370
    25
100
AcDbLine
 10
171.8316351039
 20
138.7405645286
 30
0.0
 11
171.8316351039
 21
134.7194246267
 31
0.0
  0
LINE
  5
23E
330
1F
100
AcDbEntity
  8
0
  6
Continuous
 62
     7
370
    25
100
AcDbLine
 10
171.8316351039
 20
126.7617044305
 30
0.0
 11
171.8316351039
 21
122.7405645286
 31
0.0
  0
LINE
  5
23F
330
1F
100
AcDbEntity
  8
0
  6
Continuous
 62
     7
370
    25
100
AcDbLine
 10
171.6316351039
 20
122.9405645286
 30
0.0
 11
171.6316351039
 21
126.7858019128
 31
0.0
  0
LINE
  5
240
330
1F
100
AcDbEntity
  8
0
  6
Continuous
 62
     7
370
    25
100
AcDbLine
 10
171.6316351039
 20
134.6953271444
 30
0.0
 11
171.6316351039
 21
138.5405645286
 31
0.0
  0
SPLINE
  5
241
330
1F
100
AcDbEntity
  8
0
  6
Continuous
 62
     7
370
    25
100
AcDbSpline
210
0.0
220
0.0
230
1.0
 70
    24
 71
     3
 72
    10
 73
     6
 74
     0
 42
0.00000001
 43
0.00000001
 40
0.0
 40
0.0
 40
0.0
 40
0.0
 40
0.369616543358511
 40
0.7422786264266071
 40
1.0
 40
1.0
 40
1.0
 40
1.0
 10
197.3095761313685
 20
122.2405645286135
 30
0.0
 10
197.4507789526466
 20
122.2405645286135
 30
0.0
 10
197.7343480680156
 20
122.2405645286135
 30
0.0
 10
197.953488128185
 20
122.2405645286135
 30
0.0
 10
197.9758791105657
 20
122.2405645286135
 30
0.0
 10
197.9850332764532
 20
122.2405645286135
 30
0.0
  0
SPLINE
  5
242
330
1F
100
AcDbEntity
  8
0
  6
Continuous
 62
     7
370
    25
100
AcDbSpline
210
0.0
220
0.0
230
1.0
 70
     8
 71
     3
 72
    10
 73
     6
 74
     0
 42
0.00000001
 43
0.00000001
 40
0.0
 40
0.0
 40
0.0
 40
0.0
 40
0.5
 40
0.5
 40
1.0
 40
1.0
 40
1.0
 40
1.0
 10
197.3095761313685
 20
122.4905645286135
 30
0.0
 10
197.2859007369441
 20
122.4161841512362
 30
0.0
 10
197.2728096270594
 20
122.3518835124504
 30
0.0
 10
197.2727233057712
 20
122.2636678276674
 30
0.0
 10
197.285892239715
 20
122.2405645286135
 30
0.0
 10
197.3095761313685
 20
122.2405645286135
 30
0.0
  0
SPLINE
  5
243
330
1F
100
AcDbEntity
  8
0
  6
Continuous
 62
     7
370
    25
100
AcDbSpline
210
0.0
220
0.0
230
1.0
 70
     8
 71
     3
 72
    16
 73
    12
 74
     0
 42
0.00000001
 43
0.00000001
 40
0.0
 40
0.0
 40
0.0
 40
0.0
 40
0.2500000000000001
 40
0.2500000000000001
 40
0.5000000000000001
 40
0.5000000000000001
 40
0.6250000000000001
 40
0.6250000000000001
 40
0.7500000000000002
 40
0.7500000000000002
 40
1.0
 40
1.0
 40
1.0
 40
1.0
 10
197.3095761313685
 20
130.4905645286135
 30
0.0
 10
197.5175915794742
 20
129.8370477485727
 30
0.0
 10
197.6877978844472
 20
129.1788273394827
 30
0.0
 10
197.9227339160148
 20
127.8492647561169
 30
0.0
 10
197.9868060476785
 20
127.1778407740464
 30
0.0
 10
197.9875389965995
 20
126.1588396870396
 30
0.0
 10
197.9718795165165
 20
125.8174989047235
 30
0.0
 10
197.9106043898795
 20
125.141900401753
 30
0.0
 10
197.8650481173804
 20
124.8062412517884
 30
0.0
 10
197.6885620846241
 20
123.8049756152887
 30
0.0
 10
197.5179056311384
 20
123.1450679566855
 30
0.0
 10
197.3095761313685
 20
122.4905645286135
 30
0.0
  0
SPLINE
  5
244
330
1F
100
AcDbEntity
  8
0
  6
Continuous
 62
     7
370
    25
100
AcDbSpline
210
0.0
220
0.0
230
1.0
 70
     8
 71
     3
 72
    10
 73
     6
 74
     0
 42
0.00000001
 43
0.00000001
 40
0.0
 40
0.0
 40
0.0
 40
0.0
 40
0.5
 40
0.5
 40
1.0
 40
1.0
 40
1.0
 40
1.0
 10
197.3095761313685
 20
130.9905645286135
 30
0.0
 10
197.2859007369441
 20
130.9161841512362
 30
0.0
 10
197.2728096270594
 20
130.8290910631206
 30
0.0
 10
197.2727233057712
 20
130.6529326742446
 30
0.0
 10
197.285892239715
 20
130.5649716015167
 30
0.0
 10
197.3095761313685
 20
130.4905645286135
 30
0.0
  0
SPLINE
  5
245
330
1F
100
AcDbEntity
  8
0
  6
Continuous
 62
     7
370
    25
100
AcDbSpline
210
0.0
220
0.0
230
1.0
 70
     8
 71
     3
 72
    16
 73
    12
 74
     0
 42
0.00000001
 43
0.00000001
 40
0.0
 40
0.0
 40
0.0
 40
0.0
 40
0.2499999999999997
 40
0.2499999999999997
 40
0.4999999999999993
 40
0.4999999999999993
 40
0.6249999999999993
 40
0.6249999999999993
 40
0.7499999999999996
 40
0.7499999999999996
 40
1.0
 40
1.0
 40
1.0
 40
1.0
 10
197.3095761313685
 20
138.9905645286135
 30
0.0
 10
197.5175915794742
 20
138.3370477485727
 30
0.0
 10
197.6877978844472
 20
137.6788273394827
 30
0.0
 10
197.9227339160148
 20
136.3492647561169
 30
0.0
 10
197.9868060476785
 20
135.6778407740464
 30
0.0
 10
197.9875389965995
 20
134.6588396870397
 30
0.0
 10
197.9718795165165
 20
134.3174989047235
 30
0.0
 10
197.9106043898795
 20
133.641900401753
 30
0.0
 10
197.8650481173804
 20
133.3062412517884
 30
0.0
 10
197.6885620846241
 20
132.3049756152887
 30
0.0
 10
197.5179056311384
 20
131.6450679566855
 30
0.0
 10
197.3095761313685
 20
130.9905645286135
 30
0.0
  0
SPLINE
  5
246
330
1F
100
AcDbEntity
  8
0
  6
Continuous
 62
     7
370
    25
100
AcDbSpline
210
0.0
220
0.0
230
1.0
 70
     8
 71
     3
 72
    10
 73
     6
 74
     0
 42
0.00000001
 43
0.00000001
 40
0.0
 40
0.0
 40
0.0
 40
0.0
 40
0.5
 40
0.5
 40
1.0
 40
1.0
 40
1.0
 40
1.0
 10
197.3095761313685
 20
139.2405645286135
 30
0.0
 10
197.2859007369441
 20
139.2405645286135
 30
0.0
 10
197.2728096270594
 20
139.2177720792837
 30
0.0
 10
197.2727233057712
 20
139.1298293751906
 30
0.0
 10
197.285892239715
 20
139.0649716015167
 30
0.0
 10
197.3095761313685
 20
138.9905645286135
 30
0.0
  0
SPLINE
  5
247
330
1F
100
AcDbEntity
  8
0
  6
Continuous
 62
     7
370
    25
100
AcDbSpline
210
0.0
220
0.0
230
1.0
 70
    24
 71
     3
 72
    10
 73
     6
 74
     0
 42
0.00000001
 43
0.00000001
 40
0.0
 40
0.0
 40
0.0
 40
0.0
 40
0.2577173701071708
 40
0.6270809587059367
 40
1.0
 40
1.0
 40
1.0
 40
1.0
 10
197.9836914210979
 20
139.2405645286135
 30
0.0
 10
197.975087711822
 20
139.2405645286135
 30
0.0
 10
197.9541530644643
 20
139.2405645286135
 30
0.0
 10
197.7351823850674
 20
139.2405645286135
 30
0.0
 10
197.4518971843214
 20
139.2405645286135
 30
0.0
 10
197.3095761313685
 20
139.2405645286135
 30
0.0
  0
LINE
  5
248
330
1F
100
AcDbEntity
  8
0
  6
Continuous
 62
     7
370
    25
100
AcDbLine
 10
198.1316351039
 20
138.9905645286
 30
0.0
 11
198.1316351039
 21
122.4905645286
 31
0.0
  0
SPLINE
  5
249
330
1F
100
AcDbEntity
  8
0
  6
Continuous
 62
     7
370
    25
100
AcDbSpline
210
0.0
220
0.0
230
1.0
 70
     8
 71
     3
 72
    12
 73
     8
 74
     0
 42
0.00000001
 43
0.00000001
 40
0.0
 40
0.0
 40
0.0
 40
0.0
 40
0.2500000000000001
 40
0.2500000000000001
 40
0.5000000000000002
 40
0.5000000000000002
 40
1.0
 40
1.0
 40
1.0
 40
1.0
 10
192.1316351039261
 20
134.9905645286135
 30
0.0
 10
192.1316351039261
 20
135.3296000731093
 30
0.0
 10
192.147478040015
 20
135.6702366323796
 30
0.0
 10
192.2089809002527
 20
136.3444689798845
 30
0.0
 10
192.2545845412964
 20
136.6794545913477
 30
0.0
 10
192.4310355587856
 20
137.6787250204869
 30
0.0
 10
192.6014329260375
 20
138.3373363583438
 30
0.0
 10
192.8093565091863
 20
138.9905645286135
 30
0.0
  0
LINE
  5
24A
330
1F
100
AcDbEntity
  8
0
  6
Continuous
 62
     7
370
    25
100
AcDbLine
 10
197.3095761314
 20
138.9905645286
 30
0.0
 11
192.8093565092
 21
138.9905645286
 31
0.0
  0
SPLINE
  5
24B
330
1F
100
AcDbEntity
  8
0
  6
Continuous
 62
     7
370
    25
100
AcDbSpline
210
0.0
220
0.0
230
1.0
 70
     8
 71
     3
 72
    10
 73
     6
 74
     0
 42
0.00000001
 43
0.00000001
 40
0.0
 40
0.0
 40
0.0
 40
0.0
 40
0.0817864397942475
 40
0.5375723310092745
 40
1.0
 40
1.0
 40
1.0
 40
1.0
 10
174.6357154966158
 20
135.1717754293558
 30
0.0
 10
174.637502517204
 20
135.2773221329431
 30
0.0
 10
174.6492483863922
 20
135.9710677907868
 30
0.0
 10
174.8132219499449
 20
137.2601829881149
 30
0.0
 10
175.1431827466736
 20
138.410995930113
 30
0.0
 10
175.3093565091863
 20
138.9905645286135
 30
0.0
  0
LINE
  5
24C
330
1F
100
AcDbEntity
  8
0
  6
Continuous
 62
     7
370
    25
100
AcDbLine
 10
179.4539136987
 20
138.9905645286
 30
0.0
 11
175.3093565092
 21
138.9905645286
 31
0.0
  0
SPLINE
  5
24D
330
1F
100
AcDbEntity
  8
0
  6
Continuous
 62
     7
370
    25
100
AcDbSpline
210
0.0
220
0.0
230
1.0
 70
     8
 71
     3
 72
     9
 73
     5
 74
     0
 42
0.00000001
 43
0.00000001
 40
0.0
 40
0.0
 40
0.0
 40
0.0
 40
0.7349635643289819
 40
1.0
 40
1.0
 40
1.0
 40
1.0
 10
179.4539136986659
 20
138.9905645286135
 30
0.0
 10
179.656568607226
 20
138.3410643112971
 30
0.0
 10
179.9323032400648
 20
137.4573467382915
 30
0.0
 10
179.9957932959202
 20
136.5465511766276
 30
0.0
 10
180.0126204740247
 20
136.3051571673393
 30
0.0
  0
SPLINE
  5
24E
330
1F
100
AcDbEntity
  8
0
  6
Continuous
 62
     7
370
    25
100
AcDbSpline
210
0.0
220
0.0
230
1.0
 70
     8
 71
     3
 72
     9
 73
     5
 74
     0
 42
0.00000001
 43
0.00000001
 40
0.0
 40
0.0
 40
0.0
 40
0.0
 40
0.3148682462164797
 40
0.9999999999999999
 40
0.9999999999999999
 40
0.9999999999999999
 40
0.9999999999999999
 10
180.0200783819153
 20
125.2018173345357
 30
0.0
 10
179.9951159669674
 20
124.9125625882412
 30
0.0
 10
179.9158370455522
 20
123.993909310973
 30
0.0
 10
179.6417199945565
 20
123.1017863188187
 30
0.0
 10
179.4539136986659
 20
122.4905645286135
 30
0.0
  0
LINE
  5
24F
330
1F
100
AcDbEntity
  8
0
  6
Continuous
 62
     7
370
    25
100
AcDbLine
 10
175.3093565092
 20
122.4905645286
 30
0.0
 11
179.4539136987
 21
122.4905645286
 31
0.0
  0
SPLINE
  5
250
330
1F
100
AcDbEntity
  8
0
  6
Continuous
 62
     7
370
    25
100
AcDbSpline
210
0.0
220
0.0
230
1.0
 70
     8
 71
     3
 72
     9
 73
     5
 74
     0
 42
0.00000001
 43
0.00000001
 40
0.0
 40
0.0
 40
0.0
 40
0.0
 40
0.5159885008336771
 40
1.0
 40
1.0
 40
1.0
 40
1.0
 10
175.3093565091863
 20
122.4905645286135
 30
0.0
 10
175.1180877222432
 20
123.1415173779659
 30
0.0
 10
174.7474035177812
 20
124.4030820219467
 30
0.0
 10
174.6790361877402
 20
125.7032160042499
 30
0.0
 10
174.645945613833
 20
126.3324958021416
 30
0.0
  0
LINE
  5
251
330
1F
100
AcDbEntity
  8
0
  6
Continuous
 62
     7
370
    25
100
AcDbLine
 10
192.8093565092
 20
122.4905645286
 30
0.0
 11
197.3095761314
 21
122.4905645286
 31
0.0
  0
SPLINE
  5
252
330
1F
100
AcDbEntity
  8
0
  6
Continuous
 62
     7
370
    25
100
AcDbSpline
210
0.0
220
0.0
230
1.0
 70
     8
 71
     3
 72
     9
 73
     5
 74
     0
 42
0.00000001
 43
0.00000001
 40
0.0
 40
0.0
 40
0.0
 40
0.0
 40
0.5121309883257961
 40
1.0
 40
1.0
 40
1.0
 40
1.0
 10
192.8093565091863
 20
122.4905645286134
 30
0.0
 10
192.6182883026465
 20
123.1415429678488
 30
0.0
 10
192.2452036604452
 20
124.4126600337454
 30
0.0
 10
192.1767130271304
 20
125.7226369529077
 30
0.0
 10
192.1432985695462
 20
126.3617340977754
 30
0.0
  0
LINE
  5
253
330
1F
100
AcDbEntity
  8
0
  6
Continuous
 62
     7
370
    25
100
AcDbLine
 10
192.1316351039
 20
126.3244010353
 30
0.0
 11
192.1316351039
 21
123.2405645286
 31
0.0
  0
LINE
  5
254
330
1F
100
AcDbEntity
  8
0
  6
Continuous
 62
     7
370
    25
100
AcDbLine
 10
192.1316351039
 20
123.2405645286
 30
0.0
 11
180.1316351039
 21
123.2405645286
 31
0.0
  0
LINE
  5
255
330
1F
100
AcDbEntity
  8
0
  6
Continuous
 62
     7
370
    25
100
AcDbLine
 10
180.1316351039
 20
125.1957489246
 30
0.0
 11
180.1316351039
 21
123.2405645286
 31
0.0
  0
LINE
  5
256
330
1F
100
AcDbEntity
  8
0
  6
Continuous
 62
     7
370
    25
100
AcDbLine
 10
180.1316351039
 20
138.2405645286
 30
0.0
 11
180.1316351039
 21
136.2853801326
 31
0.0
  0
LINE
  5
257
330
1F
100
AcDbEntity
  8
0
  6
Continuous
 62
     7
370
    25
100
AcDbLine
 10
180.1316351039
 20
138.2405645286
 30
0.0
 11
192.1316351039
 21
138.2405645286
 31
0.0
  0
LINE
  5
258
330
1F
100
AcDbEntity
  8
0
  6
Continuous
 62
     7
370
    25
100
AcDbLine
 10
192.1316351039
 20
138.2405645286
 30
0.0
 11
192.1316351039
 21
135.156728022
 31
0.0
  0
SPLINE
  5
259
330
1F
100
AcDbEntity
  8
0
  6
Continuous
 62
     7
370
    25
100
AcDbSpline
210
0.0
220
0.0
230
1.0
 70
     8
 71
     3
 72
     8
 73
     4
 74
     0
 42
0.00000001
 43
0.00000001
 40
0.0
 40
0.0
 40
0.0
 40
0.0
 40
1.0
 40
1.0
 40
1.0
 40
1.0
 10
179.6153990269469
 20
139.2405645286135
 30
0.0
 10
179.7891021031667
 20
138.908053106478
 30
0.0
 10
179.9614043222294
 20
138.5747260065791
 30
0.0
 10
180.1316351039261
 20
138.2405645286135
 30
0.0
  0
SPLINE
  5
25A
330
1F
100
AcDbEntity
  8
0
  6
Continuous
 62
     7
370
    25
100
AcDbSpline
210
0.0
220
0.0
230
1.0
 70
     8
 71
     3
 72
    10
 73
     6
 74
     0
 42
0.00000001
 43
0.00000001
 40
0.0
 40
0.0
 40
0.0
 40
0.0
 40
0.5
 40
0.5
 40
1.0
 40
1.0
 40
1.0
 40
1.0
 10
179.4539136986715
 20
139.2405645286135
 30
0.0
 10
179.4302383042472
 20
139.2405645286135
 30
0.0
 10
179.4171471943569
 20
139.217772079284
 30
0.0
 10
179.4170608730685
 20
139.129829375191
 30
0.0
 10
179.4302298070124
 20
139.064971601517
 30
0.0
 10
179.4539136986659
 20
138.9905645286135
 30
0.0
  0
SPLINE
  5
25B
330
1F
100
AcDbEntity
  8
0
  6
Continuous
 62
     7
370
    25
100
AcDbSpline
210
0.0
220
0.0
230
1.0
 70
    24
 71
     3
 72
     8
 73
     4
 74
     0
 42
0.00000001
 43
0.00000001
 40
0.0
 40
0.0
 40
0.0
 40
0.0
 40
1.0
 40
1.0
 40
1.0
 40
1.0
 10
179.6153990269469
 20
139.2405645286135
 30
0.0
 10
179.5645003100245
 20
139.2405645286135
 30
0.0
 10
179.5105661737739
 20
139.2405645286135
 30
0.0
 10
179.4539136986663
 20
139.2405645286135
 30
0.0
  0
SPLINE
  5
25C
330
1F
100
AcDbEntity
  8
0
  6
Continuous
 62
     7
370
    25
100
AcDbSpline
210
0.0
220
0.0
230
1.0
 70
     8
 71
     3
 72
     8
 73
     4
 74
     0
 42
0.00000001
 43
0.00000001
 40
0.0
 40
0.0
 40
0.0
 40
0.0
 40
1.0
 40
1.0
 40
1.0
 40
1.0
 10
192.1316351039261
 20
138.2405645286135
 30
0.0
 10
192.3019127112698
 20
138.5748179248988
 30
0.0
 10
192.4741844598955
 20
138.9080844144678
 30
0.0
 10
192.6478711809051
 20
139.2405645286132
 30
0.0
  0
SPLINE
  5
25D
330
1F
100
AcDbEntity
  8
0
  6
Continuous
 62
     7
370
    25
100
AcDbSpline
210
0.0
220
0.0
230
1.0
 70
    24
 71
     3
 72
     8
 73
     4
 74
     0
 42
0.00000001
 43
0.00000001
 40
0.0
 40
0.0
 40
0.0
 40
0.0
 40
1.0
 40
1.0
 40
1.0
 40
1.0
 10
192.6478711809047
 20
139.2405645286135
 30
0.0
 10
192.69876741416
 20
139.2405645286135
 30
0.0
 10
192.7527013691238
 20
139.2405645286135
 30
0.0
 10
192.8093565091863
 20
139.2405645286135
 30
0.0
  0
SPLINE
  5
25E
330
1F
100
AcDbEntity
  8
0
  6
Continuous
 62
     7
370
    25
100
AcDbSpline
210
0.0
220
0.0
230
1.0
 70
     8
 71
     3
 72
    10
 73
     6
 74
     0
 42
0.00000001
 43
0.00000001
 40
0.0
 40
0.0
 40
0.0
 40
0.0
 40
0.5
 40
0.5
 40
1.0
 40
1.0
 40
1.0
 40
1.0
 10
192.8093565091863
 20
138.9905645286135
 30
0.0
 10
192.8330319036106
 20
139.0649449059908
 30
0.0
 10
192.8461230134953
 20
139.1292455447766
 30
0.0
 10
192.8462093347836
 20
139.2174612295595
 30
0.0
 10
192.8330404008397
 20
139.2405645286135
 30
0.0
 10
192.8093565091863
 20
139.2405645286135
 30
0.0
  0
SPLINE
  5
25F
330
1F
100
AcDbEntity
  8
0
  6
Continuous
 62
     7
370
    25
100
AcDbSpline
210
0.0
220
0.0
230
1.0
 70
     8
 71
     3
 72
    10
 73
     6
 74
     0
 42
0.00000001
 43
0.00000001
 40
0.0
 40
0.0
 40
0.0
 40
0.0
 40
0.5
 40
0.5
 40
1.0
 40
1.0
 40
1.0
 40
1.0
 10
175.3093565091863
 20
139.2405645286135
 30
0.0
 10
175.3330304097422
 20
139.2405645286135
 30
0.0
 10
175.3461229669214
 20
139.2177739569661
 30
0.0
 10
175.3462093809036
 20
139.1298279596672
 30
0.0
 10
175.333038989305
 20
139.0649671669345
 30
0.0
 10
175.3093565091863
 20
138.9905645286135
 30
0.0
  0
SPLINE
  5
260
330
1F
100
AcDbEntity
  8
0
  6
Continuous
 62
     7
370
    25
100
AcDbSpline
210
0.0
220
0.0
230
1.0
 70
    24
 71
     3
 72
    12
 73
     8
 74
     0
 42
0.00000001
 43
0.00000001
 40
0.0
 40
0.0
 40
0.0
 40
0.0
 40
0.2499999999999999
 40
0.2499999999999999
 40
0.4999999999999998
 40
0.4999999999999998
 40
1.0
 40
1.0
 40
1.0
 40
1.0
 10
174.6316351039261
 20
139.2405645286135
 30
0.0
 10
174.6316351039261
 20
139.2405645286135
 30
0.0
 10
174.6476339089072
 20
139.2405645286135
 30
0.0
 10
174.7094040472215
 20
139.2405645286135
 30
0.0
 10
174.7551461715231
 20
139.2405645286135
 30
0.0
 10
174.93181631887
 20
139.2405645286135
 30
0.0
 10
175.1020713843503
 20
139.2405645286135
 30
0.0
 10
175.3093565091863
 20
139.2405645286135
 30
0.0
  0
LINE
  5
261
330
1F
100
AcDbEntity
  8
0
  6
Continuous
 62
     7
370
    25
100
AcDbLine
 10
174.6316351039
 20
139.2405645286
 30
0.0
 11
174.6316351039
 21
135.1232108105
 31
0.0
  0
SPLINE
  5
262
330
1F
100
AcDbEntity
  8
0
  6
Continuous
 62
     7
370
    25
100
AcDbSpline
210
0.0
220
0.0
230
1.0
 70
     8
 71
     3
 72
     8
 73
     4
 74
     0
 42
0.00000001
 43
0.00000001
 40
0.0
 40
0.0
 40
0.0
 40
0.0
 40
1.0
 40
1.0
 40
1.0
 40
1.0
 10
180.1316351039261
 20
123.2405645286135
 30
0.0
 10
179.9613574965823
 20
122.9063111323281
 30
0.0
 10
179.7890857479566
 20
122.573044642759
 30
0.0
 10
179.6153990269469
 20
122.2405645286135
 30
0.0
  0
SPLINE
  5
263
330
1F
100
AcDbEntity
  8
0
  6
Continuous
 62
     7
370
    25
100
AcDbSpline
210
0.0
220
0.0
230
1.0
 70
    24
 71
     3
 72
     8
 73
     4
 74
     0
 42
0.00000001
 43
0.00000001
 40
0.0
 40
0.0
 40
0.0
 40
0.0
 40
1.0
 40
1.0
 40
1.0
 40
1.0
 10
179.6153990269469
 20
122.2405645286135
 30
0.0
 10
179.5645003100244
 20
122.2405645286135
 30
0.0
 10
179.5105661737736
 20
122.2405645286135
 30
0.0
 10
179.4539136986659
 20
122.2405645286135
 30
0.0
  0
SPLINE
  5
264
330
1F
100
AcDbEntity
  8
0
  6
Continuous
 62
     7
370
    25
100
AcDbSpline
210
0.0
220
0.0
230
1.0
 70
     8
 71
     3
 72
    10
 73
     6
 74
     0
 42
0.00000001
 43
0.00000001
 40
0.0
 40
0.0
 40
0.0
 40
0.0
 40
0.5
 40
0.5
 40
1.0
 40
1.0
 40
1.0
 40
1.0
 10
179.4539136986659
 20
122.4905645286135
 30
0.0
 10
179.4302383042415
 20
122.4161841512362
 30
0.0
 10
179.4171471943569
 20
122.3518835124504
 30
0.0
 10
179.4170608730686
 20
122.2636678276674
 30
0.0
 10
179.4302298070124
 20
122.2405645286135
 30
0.0
 10
179.4539136986659
 20
122.2405645286135
 30
0.0
  0
SPLINE
  5
265
330
1F
100
AcDbEntity
  8
0
  6
Continuous
 62
     7
370
    25
100
AcDbSpline
210
0.0
220
0.0
230
1.0
 70
     8
 71
     3
 72
     8
 73
     4
 74
     0
 42
0.00000001
 43
0.00000001
 40
0.0
 40
0.0
 40
0.0
 40
0.0
 40
1.0
 40
1.0
 40
1.0
 40
1.0
 10
192.6478711809053
 20
122.2405645286135
 30
0.0
 10
192.4741681046855
 20
122.573075950749
 30
0.0
 10
192.3018658856228
 20
122.9064030506478
 30
0.0
 10
192.1316351039261
 20
123.2405645286135
 30
0.0
  0
SPLINE
  5
266
330
1F
100
AcDbEntity
  8
0
  6
Continuous
 62
     7
370
    25
100
AcDbSpline
210
0.0
220
0.0
230
1.0
 70
     8
 71
     3
 72
    10
 73
     6
 74
     0
 42
0.00000001
 43
0.00000001
 40
0.0
 40
0.0
 40
0.0
 40
0.0
 40
0.5
 40
0.5
 40
1.0
 40
1.0
 40
1.0
 40
1.0
 10
192.8093565091863
 20
122.2405645286135
 30
0.0
 10
192.8330319036107
 20
122.2405645286135
 30
0.0
 10
192.8461230134953
 20
122.2633569779433
 30
0.0
 10
192.8462093347836
 20
122.3512996820363
 30
0.0
 10
192.8330404008398
 20
122.4161574557102
 30
0.0
 10
192.8093565091863
 20
122.4905645286134
 30
0.0
  0
SPLINE
  5
267
330
1F
100
AcDbEntity
  8
0
  6
Continuous
 62
     7
370
    25
100
AcDbSpline
210
0.0
220
0.0
230
1.0
 70
    24
 71
     3
 72
     8
 73
     4
 74
     0
 42
0.00000001
 43
0.00000001
 40
0.0
 40
0.0
 40
0.0
 40
0.0
 40
1.0
 40
1.0
 40
1.0
 40
1.0
 10
192.6478711809053
 20
122.2405645286135
 30
0.0
 10
192.6987674141603
 20
122.2405645286135
 30
0.0
 10
192.752701369124
 20
122.2405645286135
 30
0.0
 10
192.8093565091863
 20
122.2405645286135
 30
0.0
  0
SPLINE
  5
268
330
1F
100
AcDbEntity
  8
0
  6
Continuous
 62
     7
370
    25
100
AcDbSpline
210
0.0
220
0.0
230
1.0
 70
     8
 71
     3
 72
    10
 73
     6
 74
     0
 42
0.00000001
 43
0.00000001
 40
0.0
 40
0.0
 40
0.0
 40
0.0
 40
0.5
 40
0.5
 40
1.0
 40
1.0
 40
1.0
 40
1.0
 10
175.3093565091863
 20
122.4905645286135
 30
0.0
 10
175.3330287490978
 20
122.4161940616879
 30
0.0
 10
175.3461227390331
 20
122.3518884654
 30
0.0
 10
175.3462096064945
 20
122.2636656775942
 30
0.0
 10
175.3330398167352
 20
122.2405645286135
 30
0.0
 10
175.3093565091863
 20
122.2405645286135
 30
0.0
  0
SPLINE
  5
269
330
1F
100
AcDbEntity
  8
0
  6
Continuous
 62
     7
370
    25
100
AcDbSpline
210
0.0
220
0.0
230
1.0
 70
    24
 71
     3
 72
    12
 73
     8
 74
     0
 42
0.00000001
 43
0.00000001
 40
0.0
 40
0.0
 40
0.0
 40
0.0
 40
0.2500000000000001
 40
0.2500000000000001
 40
0.5000000000000001
 40
0.5000000000000001
 40
1.0
 40
1.0
 40
1.0
 40
1.0
 10
174.6316351039261
 20
122.2405645286135
 30
0.0
 10
174.6316351039261
 20
122.2405645286135
 30
0.0
 10
174.6476339089072
 20
122.2405645286135
 30
0.0
 10
174.7094040472215
 20
122.2405645286135
 30
0.0
 10
174.7551461715231
 20
122.2405645286135
 30
0.0
 10
174.93181631887
 20
122.2405645286135
 30
0.0
 10
175.1020713843503
 20
122.2405645286135
 30
0.0
 10
175.3093565091863
 20
122.2405645286135
 30
0.0
  0
LINE
  5
26A
330
1F
100
AcDbEntity
  8
0
  6
Continuous
 62
     7
370
    25
100
AcDbLine
 10
174.6316351039
 20
122.2405645286
 30
0.0
 11
174.6316351039
 21
126.3579182467
 31
0.0
  0
LINE
  5
26B
330
1F
100
AcDbEntity
  8
0
  6
Continuous
 62
     7
370
    25
100
AcDbLine
 10
192.8093565092
 20
139.2405645286
 30
0.0
 11
197.3095761314
 21
139.2405645286
 31
0.0
  0
LINE
  5
26C
330
1F
100
AcDbEntity
  8
0
  6
Continuous
 62
     7
370
    25
100
AcDbLine
 10
175.3093565092
 20
139.2405645286
 30
0.0
 11
179.4539136987
 21
139.2405645286
 31
0.0
  0
LINE
  5
26D
330
1F
100
AcDbEntity
  8
0
  6
Continuous
 62
     7
370
    25
100
AcDbLine
 10
197.3095761314
 20
122.2405645286
 30
0.0
 11
192.8093565092
 21
122.2405645286
 31
0.0
  0
LINE
  5
26E
330
1F
100
AcDbEntity
  8
0
  6
Continuous
 62
     7
370
    25
100
AcDbLine
 10
179.4539136987
 20
122.2405645286
 30
0.0
 11
175.3093565092
 21
122.2405645286
 31
0.0
  0
LINE
  5
26F
330
1F
100
AcDbEntity
  8
0
  6
Continuous
 62
     7
370
    25
100
AcDbLine
 10
192.6478711809
 20
139.2405645286
 30
0.0
 11
179.6153990269
 21
139.2405645286
 31
0.0
  0
LINE
  5
270
330
1F
100
AcDbEntity
  8
0
  6
Continuous
 62
     7
370
    25
100
AcDbLine
 10
192.6478711809
 20
122.2405645286
 30
0.0
 11
179.6153990269
 21
122.2405645286
 31
0.0
  0
SPLINE
  5
271
330
1F
100
AcDbEntity
  8
0
  6
Continuous
 62
     7
370
    25
100
AcDbSpline
210
0.0
220
0.0
230
1.0
 70
     8
 71
     3
 72
    15
 73
    11
 74
     0
 42
0.00000001
 43
0.00000001
 40
0.0
 40
0.0
 40
0.0
 40
0.0
 40
0.0090459071881971
 40
0.1032433785236817
 40
0.1542564497735191
 40
0.3133169026715104
 40
0.5243720399414403
 40
0.667806000850918
 40
0.9918332554187028
 40
1.0
 40
1.0
 40
1.0
 40
1.0
 10
180.892549771268
 20
132.4144775720917
 30
0.0
 10
180.8925554632346
 20
132.4144599263673
 30
0.0
 10
180.8926204271854
 20
132.4142585309547
 30
0.0
 10
180.8946161136213
 20
132.4080689102885
 30
0.0
 10
180.9024331098378
 20
132.3838669784444
 30
0.0
 10
180.9196029335927
 20
132.3308479864427
 30
0.0
 10
180.9461868301603
 20
132.2494770992461
 30
0.0
 10
180.9840161286489
 20
132.1348980272236
 30
0.0
 10
181.0122969086591
 20
132.0504728495045
 30
0.0
 10
181.0321280561904
 20
131.9920019915525
 30
0.0
 10
181.0326155903333
 20
131.9905645286135
 30
0.0
  0
ARC
  5
272
330
1F
100
AcDbEntity
  8
0
  6
Continuous
 62
     7
370
    25
100
AcDbCircle
 10
186.1316351039
 20
130.7405645286
 30
0.0
 40
5.499999999999993
100
AcDbArc
 50
17.7189318734
 51
162.2810681266
  0
SPLINE
  5
273
330
1F
100
AcDbEntity
  8
0
  6
Continuous
 62
     7
370
    25
100
AcDbSpline
210
0.0
220
0.0
230
1.0
 70
     8
 71
     3
 72
    15
 73
    11
 74
     0
 42
0.00000001
 43
0.00000001
 40
0.0
 40
0.0
 40
0.0
 40
0.0
 40
0.0081667445812973
 40
0.3321939991490804
 40
0.475627960058556
 40
0.6866830973284891
 40
0.8457435502264751
 40
0.8967566214763124
 40
0.9909540928118028
 40
1.0
 40
1.0
 40
1.0
 40
1.0
 10
191.2306546175189
 20
131.9905645286135
 30
0.0
 10
191.2311421516617
 20
131.9920019915525
 30
0.0
 10
191.250973299193
 20
132.0504728495045
 30
0.0
 10
191.2792540792033
 20
132.1348980272237
 30
0.0
 10
191.3170833776919
 20
132.2494770992461
 30
0.0
 10
191.3436672742594
 20
132.3308479864427
 30
0.0
 10
191.3608370980144
 20
132.3838669784444
 30
0.0
 10
191.3686540942308
 20
132.4080689102885
 30
0.0
 10
191.3706497806667
 20
132.4142585309547
 30
0.0
 10
191.3707147446175
 20
132.4144599263673
 30
0.0
 10
191.3707204365842
 20
132.4144775720917
 30
0.0
  0
ARC
  5
274
330
1F
100
AcDbEntity
  8
0
  6
Continuous
 62
     7
370
    25
100
AcDbCircle
 10
186.1316351039
 20
130.7405645286
 30
0.0
 40
5.250000000000009
100
AcDbArc
 50
13.774146998
 51
166.225853002
  0
SPLINE
  5
275
330
1F
100
AcDbEntity
  8
0
  6
Continuous
 62
     7
370
    25
100
AcDbSpline
210
0.0
220
0.0
230
1.0
 70
     8
 71
     3
 72
    15
 73
    11
 74
     0
 42
0.00000001
 43
0.00000001
 40
0.0
 40
0.0
 40
0.0
 40
0.0
 40
0.0080847466189582
 40
0.3310106400648243
 40
0.4750333064304948
 40
0.6874363079215142
 40
0.8468367539418303
 40
0.9000996640391847
 40
0.9910442771984082
 40
1.0
 40
1.0
 40
1.0
 40
1.0
 10
181.0326155903333
 20
131.9905645286135
 30
0.0
 10
181.0313357587892
 20
131.9913804646018
 30
0.0
 10
180.9789361130659
 20
132.0247870147963
 30
0.0
 10
180.9035810216108
 20
132.0736005795301
 30
0.0
 10
180.8016619095932
 20
132.1409710517985
 30
0.0
 10
180.7292709646012
 20
132.1895550921419
 30
0.0
 10
180.6815655363364
 20
132.2220039536004
 30
0.0
 10
180.6600300526291
 20
132.2367149946667
 30
0.0
 10
180.6546010366096
 20
132.2404334455848
 30
0.0
 10
180.654425284453
 20
132.2405537442503
 30
0.0
 10
180.6544095288744
 20
132.2405645286135
 30
0.0
  0
ARC
  5
276
330
1F
100
AcDbEntity
  8
0
  6
Continuous
 62
     7
370
    25
100
AcDbCircle
 10
180.6544095289
 20
132.4905645286
 30
0.0
 40
0.2500000000000213
100
AcDbArc
 50
270.0
 51
342.2810681266
  0
SPLINE
  5
277
330
1F
100
AcDbEntity
  8
0
  6
Continuous
 62
     7
370
    25
100
AcDbSpline
210
0.0
220
0.0
230
1.0
 70
     8
 71
     3
 72
    15
 73
    11
 74
     0
 42
0.00000001
 43
0.00000001
 40
0.0
 40
0.0
 40
0.0
 40
0.0
 40
0.0089557228015919
 40
0.0999003359608209
 40
0.1531632460581751
 40
0.3125636920784904
 40
0.5249666935695061
 40
0.6689893599351777
 40
0.991915253381045
 40
1.0
 40
1.0
 40
1.0
 40
1.0
 10
191.6088606789777
 20
132.2405645286135
 30
0.0
 10
191.6088449233991
 20
132.2405537442503
 30
0.0
 10
191.6086691712426
 20
132.2404334455848
 30
0.0
 10
191.603240155223
 20
132.2367149946667
 30
0.0
 10
191.5817046715157
 20
132.2220039536004
 30
0.0
 10
191.5339992432509
 20
132.1895550921419
 30
0.0
 10
191.461608298259
 20
132.1409710517985
 30
0.0
 10
191.3596891862413
 20
132.0736005795301
 30
0.0
 10
191.2843340947863
 20
132.0247870147962
 30
0.0
 10
191.231934449063
 20
131.9913804646018
 30
0.0
 10
191.2306546175189
 20
131.9905645286135
 30
0.0
  0
ARC
  5
278
330
1F
100
AcDbEntity
  8
0
  6
Continuous
 62
     7
370
    25
100
AcDbCircle
 10
191.608860679
 20
132.4905645286
 30
0.0
 40
0.25
100
AcDbArc
 50
197.7189318734
 51
270.0
  0
ARC
  5
279
330
1F
100
AcDbEntity
  8
0
  6
Continuous
 62
     7
370
    25
100
AcDbCircle
 10
191.608860679
 20
128.9905645286
 30
0.0
 40
0.25
100
AcDbArc
 50
90.0
 51
162.2810681266
  0
SPLINE
  5
27A
330
1F
100
AcDbEntity
  8
0
  6
Continuous
 62
     7
370
    25
100
AcDbSpline
210
0.0
220
0.0
230
1.0
 70
     8
 71
     3
 72
    15
 73
    11
 74
     0
 42
0.00000001
 43
0.00000001
 40
0.0
 40
0.0
 40
0.0
 40
0.0
 40
0.0090459071881971
 40
0.1032433785236874
 40
0.1542564497735246
 40
0.313316902671511
 40
0.5243720399414428
 40
0.6678060008509903
 40
0.9918332554187292
 40
1.0
 40
1.0
 40
1.0
 40
1.0
 10
191.3707204365842
 20
129.0666514851352
 30
0.0
 10
191.3707147446175
 20
129.0666691308597
 30
0.0
 10
191.3706497806667
 20
129.0668705262722
 30
0.0
 10
191.3686540942308
 20
129.0730601469384
 30
0.0
 10
191.3608370980144
 20
129.0972620787826
 30
0.0
 10
191.3436672742594
 20
129.1502810707842
 30
0.0
 10
191.3170833776919
 20
129.2316519579808
 30
0.0
 10
191.2792540792031
 20
129.3462310300033
 30
0.0
 10
191.2509732991938
 20
129.4306562077227
 30
0.0
 10
191.2311421516618
 20
129.4891270656745
 30
0.0
 10
191.2306546175189
 20
129.4905645286135
 30
0.0
  0
SPLINE
  5
27B
330
1F
100
AcDbEntity
  8
0
  6
Continuous
 62
     7
370
    25
100
AcDbSpline
210
0.0
220
0.0
230
1.0
 70
     8
 71
     3
 72
    15
 73
    11
 74
     0
 42
0.00000001
 43
0.00000001
 40
0.0
 40
0.0
 40
0.0
 40
0.0
 40
0.0080847466189818
 40
0.3310106400647567
 40
0.4750333064304972
 40
0.6874363079215137
 40
0.8468367539418253
 40
0.9000996640391794
 40
0.9910442771984082
 40
1.0
 40
1.0
 40
1.0
 40
1.0
 10
191.2306546175189
 20
129.4905645286135
 30
0.0
 10
191.231934449063
 20
129.4897485926252
 30
0.0
 10
191.2843340947868
 20
129.4563420424316
 30
0.0
 10
191.3596891862412
 20
129.4075284776967
 30
0.0
 10
191.461608298259
 20
129.3401580054285
 30
0.0
 10
191.5339992432509
 20
129.2915739650851
 30
0.0
 10
191.5817046715157
 20
129.2591251036265
 30
0.0
 10
191.6032401552231
 20
129.2444140625603
 30
0.0
 10
191.6086691712426
 20
129.2406956116421
 30
0.0
 10
191.6088449233991
 20
129.2405753129766
 30
0.0
 10
191.6088606789777
 20
129.2405645286135
 30
0.0
  0
SPLINE
  5
27C
330
1F
100
AcDbEntity
  8
0
  6
Continuous
 62
     7
370
    25
100
AcDbSpline
210
0.0
220
0.0
230
1.0
 70
     8
 71
     3
 72
    15
 73
    11
 74
     0
 42
0.00000001
 43
0.00000001
 40
0.0
 40
0.0
 40
0.0
 40
0.0
 40
0.0081667445812695
 40
0.3321939991490083
 40
0.4756279600585602
 40
0.6866830973284899
 40
0.8457435502264811
 40
0.8967566214763185
 40
0.9909540928118029
 40
1.0
 40
1.0
 40
1.0
 40
1.0
 10
181.0326155903333
 20
129.4905645286134
 30
0.0
 10
181.0321280561904
 20
129.4891270656744
 30
0.0
 10
181.0122969086583
 20
129.4306562077228
 30
0.0
 10
180.9840161286491
 20
129.3462310300033
 30
0.0
 10
180.9461868301602
 20
129.2316519579808
 30
0.0
 10
180.9196029335928
 20
129.1502810707842
 30
0.0
 10
180.9024331098378
 20
129.0972620787826
 30
0.0
 10
180.8946161136213
 20
129.0730601469384
 30
0.0
 10
180.8926204271854
 20
129.0668705262722
 30
0.0
 10
180.8925554632346
 20
129.0666691308597
 30
0.0
 10
180.892549771268
 20
129.0666514851352
 30
0.0
  0
ARC
  5
27D
330
1F
100
AcDbEntity
  8
0
  6
Continuous
 62
     7
370
    25
100
AcDbCircle
 10
186.1316351039
 20
130.7405645286
 30
0.0
 40
5.250000000000015
100
AcDbArc
 50
193.774146998
 51
346.225853002
  0
ARC
  5
27E
330
1F
100
AcDbEntity
  8
0
  6
Continuous
 62
     7
370
    25
100
AcDbCircle
 10
186.1316351039
 20
130.7405645286
 30
0.0
 40
5.499999999999993
100
AcDbArc
 50
197.7189318734
 51
342.2810681266
  0
ARC
  5
27F
330
1F
100
AcDbEntity
  8
0
  6
Continuous
 62
     7
370
    25
100
AcDbCircle
 10
180.6544095289
 20
128.9905645286
 30
0.0
 40
0.2500000000000299
100
AcDbArc
 50
17.7189318734
 51
90.0
  0
SPLINE
  5
280
330
1F
100
AcDbEntity
  8
0
  6
Continuous
 62
     7
370
    25
100
AcDbSpline
210
0.0
220
0.0
230
1.0
 70
     8
 71
     3
 72
    15
 73
    11
 74
     0
 42
0.00000001
 43
0.00000001
 40
0.0
 40
0.0
 40
0.0
 40
0.0
 40
0.0089557228015919
 40
0.0999003359608148
 40
0.153163246058169
 40
0.3125636920784848
 40
0.5249666935694999
 40
0.6689893599352451
 40
0.9919152533810159
 40
1.0
 40
1.0
 40
1.0
 40
1.0
 10
180.6544095288744
 20
129.2405645286134
 30
0.0
 10
180.654425284453
 20
129.2405753129766
 30
0.0
 10
180.6546010366096
 20
129.2406956116421
 30
0.0
 10
180.6600300526291
 20
129.2444140625602
 30
0.0
 10
180.6815655363364
 20
129.2591251036265
 30
0.0
 10
180.7292709646013
 20
129.2915739650851
 30
0.0
 10
180.8016619095932
 20
129.3401580054285
 30
0.0
 10
180.9035810216109
 20
129.4075284776967
 30
0.0
 10
180.9789361130654
 20
129.4563420424315
 30
0.0
 10
181.0313357587892
 20
129.4897485926252
 30
0.0
 10
181.0326155903333
 20
129.4905645286134
 30
0.0
  0
LINE
  5
281
330
1F
100
AcDbEntity
  8
0
  6
Continuous
 62
     7
370
    25
100
AcDbLine
 10
181.1316351039
 20
130.1405645286
 30
0.0
 11
191.1316351039
 21
130.1405645286
 31
0.0
  0
LINE
  5
282
330
1F
100
AcDbEntity
  8
0
  6
Continuous
 62
     7
370
    25
100
AcDbLine
 10
181.1316351039
 20
131.3405645286
 30
0.0
 11
181.1316351039
 21
130.1405645286
 31
0.0
  0
LINE
  5
283
330
1F
100
AcDbEntity
  8
0
  6
Continuous
 62
     7
370
    25
100
AcDbLine
 10
191.1316351039
 20
131.3405645286
 30
0.0
 11
181.1316351039
 21
131.3405645286
 31
0.0
  0
LINE
  5
284
330
1F
100
AcDbEntity
  8
0
  6
Continuous
 62
     7
370
    25
100
AcDbLine
 10
191.1316351039
 20
130.1405645286
 30
0.0
 11
191.1316351039
 21
131.3405645286
 31
0.0
  0
LINE
  5
285
330
1F
100
AcDbEntity
  8
0
  6
Continuous
 62
     7
370
    25
100
AcDbLine
 10
180.3816351039
 20
129.4905645286
 30
0.0
 11
181.0326155903
 21
129.4905645286
 31
0.0
  0
LINE
  5
286
330
1F
100
AcDbEntity
  8
0
  6
Continuous
 62
     7
370
    25
100
AcDbLine
 10
180.3816351039
 20
131.9905645286
 30
0.0
 11
180.3816351039
 21
129.4905645286
 31
0.0
  0
LINE
  5
287
330
1F
100
AcDbEntity
  8
0
  6
Continuous
 62
     7
370
    25
100
AcDbLine
 10
181.0326155903
 20
131.9905645286
 30
0.0
 11
180.3816351039
 21
131.9905645286
 31
0.0
  0
LINE
  5
288
330
1F
100
AcDbEntity
  8
0
  6
Continuous
 62
     7
370
    25
100
AcDbLine
 10
191.8816351039
 20
131.9905645286
 30
0.0
 11
191.2306546175
 21
131.9905645286
 31
0.0
  0
LINE
  5
289
330
1F
100
AcDbEntity
  8
0
  6
Continuous
 62
     7
370
    25
100
AcDbLine
 10
191.8816351039
 20
129.4905645286
 30
0.0
 11
191.8816351039
 21
131.9905645286
 31
0.0
  0
LINE
  5
28A
330
1F
100
AcDbEntity
  8
0
  6
Continuous
 62
     7
370
    25
100
AcDbLine
 10
191.2306546175
 20
129.4905645286
 30
0.0
 11
191.8816351039
 21
129.4905645286
 31
0.0
  0
ARC
  5
28B
330
1F
100
AcDbEntity
  8
0
  6
Continuous
 62
     7
370
    25
100
AcDbCircle
 10
180.3816351039
 20
131.9905645286
 30
0.0
 40
0.25
100
AcDbArc
 50
90.0
 51
180.0
  0
LINE
  5
28C
330
1F
100
AcDbEntity
  8
0
  6
Continuous
 62
     7
370
    25
100
AcDbLine
 10
180.3816351039
 20
132.2405645286
 30
0.0
 11
180.3816351039
 21
131.9905645286
 31
0.0
  0
LINE
  5
28D
330
1F
100
AcDbEntity
  8
0
  6
Continuous
 62
     7
370
    25
100
AcDbLine
 10
180.3816351039
 20
131.9905645286
 30
0.0
 11
180.1316351039
 21
131.9905645286
 31
0.0
  0
LINE
  5
28E
330
1F
100
AcDbEntity
  8
0
  6
Continuous
 62
     7
370
    25
100
AcDbLine
 10
191.608860679
 20
132.2405645286
 30
0.0
 11
191.8816351039
 21
132.2405645286
 31
0.0
  0
LINE
  5
28F
330
1F
100
AcDbEntity
  8
0
  6
Continuous
 62
     7
370
    25
100
AcDbLine
 10
191.8816351039
 20
131.9905645286
 30
0.0
 11
191.8816351039
 21
132.2405645286
 31
0.0
  0
LINE
  5
290
330
1F
100
AcDbEntity
  8
0
  6
Continuous
 62
     7
370
    25
100
AcDbLine
 10
180.3816351039
 20
132.2405645286
 30
0.0
 11
180.6544095289
 21
132.2405645286
 31
0.0
  0
LINE
  5
291
330
1F
100
AcDbEntity
  8
0
  6
Continuous
 62
     7
370
    25
100
AcDbLine
 10
192.1316351039
 20
131.9905645286
 30
0.0
 11
191.8816351039
 21
131.9905645286
 31
0.0
  0
ARC
  5
292
330
1F
100
AcDbEntity
  8
0
  6
Continuous
 62
     7
370
    25
100
AcDbCircle
 10
191.8816351039
 20
131.9905645286
 30
0.0
 40
0.25
100
AcDbArc
 50
0.0
 51
90.0
  0
LINE
  5
293
330
1F
100
AcDbEntity
  8
0
  6
Continuous
 62
     7
370
    25
100
AcDbLine
 10
180.1316351039
 20
129.4905645286
 30
0.0
 11
180.3816351039
 21
129.4905645286
 31
0.0
  0
LINE
  5
294
330
1F
100
AcDbEntity
  8
0
  6
Continuous
 62
     7
370
    25
100
AcDbLine
 10
180.1316351039
 20
129.4905645286
 30
0.0
 11
180.1316351039
 21
131.9905645286
 31
0.0
  0
LINE
  5
295
330
1F
100
AcDbEntity
  8
0
  6
Continuous
 62
     7
370
    25
100
AcDbLine
 10
192.1316351039
 20
131.9905645286
 30
0.0
 11
192.1316351039
 21
129.4905645286
 31
0.0
  0
LINE
  5
296
330
1F
100
AcDbEntity
  8
0
  6
Continuous
 62
     7
370
    25
100
AcDbLine
 10
191.8816351039
 20
129.4905645286
 30
0.0
 11
192.1316351039
 21
129.4905645286
 31
0.0
  0
LINE
  5
297
330
1F
100
AcDbEntity
  8
0
  6
Continuous
 62
     7
370
    25
100
AcDbLine
 10
191.8816351039
 20
129.2405645286
 30
0.0
 11
191.8816351039
 21
129.4905645286
 31
0.0
  0
ARC
  5
298
330
1F
100
AcDbEntity
  8
0
  6
Continuous
 62
     7
370
    25
100
AcDbCircle
 10
191.8816351039
 20
129.4905645286
 30
0.0
 40
0.25
100
AcDbArc
 50
270.0
 51
0.0
  0
LINE
  5
299
330
1F
100
AcDbEntity
  8
0
  6
Continuous
 62
     7
370
    25
100
AcDbLine
 10
191.8816351039
 20
129.2405645286
 30
0.0
 11
191.608860679
 21
129.2405645286
 31
0.0
  0
ARC
  5
29A
330
1F
100
AcDbEntity
  8
0
  6
Continuous
 62
     7
370
    25
100
AcDbCircle
 10
180.3816351039
 20
129.4905645286
 30
0.0
 40
0.25
100
AcDbArc
 50
180.0
 51
270.0
  0
LINE
  5
29B
330
1F
100
AcDbEntity
  8
0
  6
Continuous
 62
     7
370
    25
100
AcDbLine
 10
180.3816351039
 20
129.4905645286
 30
0.0
 11
180.3816351039
 21
129.2405645286
 31
0.0
  0
LINE
  5
29C
330
1F
100
AcDbEntity
  8
0
  6
Continuous
 62
     7
370
    25
100
AcDbLine
 10
180.6544095289
 20
129.2405645286
 30
0.0
 11
180.3816351039
 21
129.2405645286
 31
0.0
  0
LINE
  5
29D
330
1F
100
AcDbEntity
  8
0
  6
Continuous
 62
     7
370
    25
100
AcDbLine
 10
166.1316351039
 20
134.0122637927
 30
0.0
 11
163.9561982424
 21
134.2405645286
 31
0.0
  0
LINE
  5
29E
330
1F
100
AcDbEntity
  8
0
  6
Continuous
 62
     7
370
    25
100
AcDbLine
 10
166.1316351039
 20
127.4688652646
 30
0.0
 11
166.1316351039
 21
134.0122637927
 31
0.0
  0
LINE
  5
29F
330
1F
100
AcDbEntity
  8
0
  6
Continuous
 62
     7
370
    25
100
AcDbLine
 10
163.9561982424
 20
127.2405645286
 30
0.0
 11
166.1316351039
 21
127.4688652646
 31
0.0
  0
LINE
  5
2A0
330
1F
100
AcDbEntity
  8
0
  6
Continuous
 62
     7
370
    25
100
AcDbLine
 10
146.1316351039
 20
127.2405645286
 30
0.0
 11
163.9561982424
 21
127.2405645286
 31
0.0
  0
LINE
  5
2A1
330
1F
100
AcDbEntity
  8
0
  6
Continuous
 62
     7
370
    25
100
AcDbLine
 10
146.1316351039
 20
134.2405645286
 30
0.0
 11
146.1316351039
 21
127.2405645286
 31
0.0
  0
LINE
  5
2A2
330
1F
100
AcDbEntity
  8
0
  6
Continuous
 62
     7
370
    25
100
AcDbLine
 10
163.9561982424
 20
134.2405645286
 30
0.0
 11
146.1316351039
 21
134.2405645286
 31
0.0
  0
LINE
  5
2A3
330
1F
100
AcDbEntity
  8
0
  6
Continuous
 62
     7
370
    25
100
AcDbLine
 10
180.9078329296
 20
132.4615790094
 30
0.0
 11
180.8112686122
 21
132.3021796892
 31
0.0
  0
LINE
  5
2A4
330
1F
100
AcDbEntity
  8
0
  6
Continuous
 62
     7
370
    25
100
AcDbLine
 10
180.7889912316
 20
129.1953468613
 30
0.0
 11
180.9078329296
 21
129.0195500478
 31
0.0
  0
LINE
  5
2A5
330
1F
100
AcDbEntity
  8
0
  6
Continuous
 62
     7
370
    25
100
AcDbLine
 10
172.7150654503
 20
133.3213671642
 30
0.0
 11
172.7150654503
 21
128.159761893
 31
0.0
  0
LINE
  5
2A6
330
1F
100
AcDbEntity
  8
0
  6
Continuous
 62
     7
370
    25
100
AcDbLine
 10
180.9078329296
 20
129.0195500478
 30
0.0
 11
172.7150654503
 21
128.159761893
 31
0.0
  0
LINE
  5
2A7
330
1F
100
AcDbEntity
  8
0
  6
Continuous
 62
     7
370
    25
100
AcDbLine
 10
172.7150654503
 20
133.3213671642
 30
0.0
 11
180.9078329296
 21
132.4615790094
 31
0.0
  0
LINE
  5
2A8
330
1F
100
AcDbEntity
  8
0
  6
Continuous
 62
     7
370
    25
100
AcDbLine
 10
172.7150654503
 20
128.159761893
 30
0.0
 11
166.1316351039
 21
127.4688652646
 31
0.0
  0
LINE
  5
2A9
330
1F
100
AcDbEntity
  8
0
  6
Continuous
 62
     7
370
    25
100
AcDbLine
 10
166.1316351039
 20
134.0122637927
 30
0.0
 11
172.7150654503
 21
133.3213671642
 31
0.0
  0
ARC
  5
2AA
330
1F
100
AcDbEntity
  8
0
  6
Continuous
 62
     7
370
    25
100
AcDbCircle
 10
186.1316351039
 20
130.7405645286
 30
0.0
 40
7.450000000000639
100
AcDbArc
 50
233.0863788866
 51
126.9136211134
  0
ARC
  5
2AB
330
1F
100
AcDbEntity
  8
0
  6
Continuous
 62
     7
370
    25
100
AcDbCircle
 10
186.1316351039
 20
130.7405645286
 30
0.0
 40
7.207531252870791
100
AcDbArc
 50
195.3041237151
 51
238.9797515565
  0
ARC
  5
2AC
330
1F
100
AcDbEntity
  8
0
  6
Continuous
 62
     7
370
    25
100
AcDbCircle
 10
186.1316351039
 20
130.7405645286
 30
0.0
 40
7.207531252872454
100
AcDbArc
 50
121.0202484435
 51
164.6958762849
  0
ARC
  5
2AD
330
1F
100
AcDbEntity
  8
0
  6
Continuous
 62
     7
370
    25
100
AcDbCircle
 10
163.9561982424
 20
199.2405645286
 30
0.0
 40
65.0
100
AcDbArc
 50
270.0
 51
286.5000949923
  0
ARC
  5
2AE
330
1F
100
AcDbEntity
  8
0
  6
Continuous
 62
     7
370
    25
100
AcDbCircle
 10
163.9561982424
 20
62.2405645286
 30
0.0
 40
65.00000000000003
100
AcDbArc
 50
73.4999050077
 51
90.0
  0
SPLINE
  5
2AF
330
1F
100
AcDbEntity
  8
0
  6
Continuous
 62
     7
370
    25
100
AcDbSpline
210
0.0
220
0.0
230
1.0
 70
    24
 71
     3
 72
    13
 73
     9
 74
     0
 42
0.00000001
 43
0.00000001
 40
0.0
 40
0.0
 40
0.0
 40
0.0
 40
0.1098424160860285
 40
0.2738283121920673
 40
0.4377819566873922
 40
0.6058902757370972
 40
0.7740167298668005
 40
1.0
 40
1.0
 40
1.0
 40
1.0
 10
189.8210919814408
 20
139.2406514447789
 30
0.0
 10
189.557668617146
 20
139.2406514447789
 30
0.0
 10
188.9009753486703
 20
139.2406514447789
 30
0.0
 10
187.8372246670559
 20
139.2406514447789
 30
0.0
 10
186.6221993977533
 20
139.2406514447789
 30
0.0
 10
185.3935036101227
 20
139.2406514447789
 30
0.0
 10
184.0168330133928
 20
139.2406514447789
 30
0.0
 10
183.0679331941312
 20
139.2406514447789
 30
0.0
 10
182.5238322217775
 20
139.2406514447789
 30
0.0
  0
LINE
  5
2B0
330
1F
100
AcDbEntity
  8
0
  6
Continuous
 62
     7
370
    25
100
AcDbLine
 10
197.3095761314
 20
130.4905645286
 30
0.0
 11
193.5774392915
 21
130.4905645286
 31
0.0
  0
LINE
  5
2B1
330
1F
100
AcDbEntity
  8
0
  6
Continuous
 62
     7
370
    25
100
AcDbLine
 10
193.5774392915
 20
130.9905645286
 30
0.0
 11
197.3095761314
 21
130.9905645286
 31
0.0
  0
INSERT
  5
2BD
330
1F
100
AcDbEntity
  8
0
  6
Continuous
 62
     7
370
    18
100
AcDbBlockReference
  2
SW_CENTERMARKSYMBOL_1
 10
186.1316351039
 20
130.7405645286
 30
0.0
  0
ENDSEC
  0
SECTION
  2
OBJECTS
  0
DICTIONARY
  5
C
330
0
100
AcDbDictionary
281
     1
  3
ACAD_GROUP
350
D
  3
ACAD_LAYOUT
350
1A
  3
ACAD_MLINESTYLE
350
17
  3
ACAD_PLOTSETTINGS
350
19
  3
ACAD_PLOTSTYLENAME
350
E
  3
ACAD_SCALELIST
350
47
  3
DWGPROPS
350
2BE
  0
DICTIONARY
  5
D
102
{ACAD_REACTORS
330
C
102
}
330
C
100
AcDbDictionary
281
     1
  0
DICTIONARY
  5
1A
102
{ACAD_REACTORS
330
C
102
}
330
C
100
AcDbDictionary
281
     1
  3
Layout1
350
1E
  3
Layout2
350
26
  3
Model
350
22
  0
DICTIONARY
  5
17
102
{ACAD_REACTORS
330
C
102
}
330
C
100
AcDbDictionary
281
     1
  3
Standard
350
18
  0
DICTIONARY
  5
19
102
{ACAD_REACTORS
330
C
102
}
330
C
100
AcDbDictionary
281
     1
  0
ACDBDICTIONARYWDFLT
  5
E
102
{ACAD_REACTORS
330
C
102
}
330
C
100
AcDbDictionary
281
     1
  3
Normal
350
F
100
AcDbDictionaryWithDefault
340
F
  0
DICTIONARY
  5
47
102
{ACAD_REACTORS
330
C
102
}
330
C
100
AcDbDictionary
281
     1
  3
A0
350
48
  3
A1
350
49
  3
A2
350
4A
  3
A3
350
4B
  3
A4
350
4C
  3
A5
350
4D
  3
A6
350
4E
  3
A7
350
4F
  3
A8
350
50
  3
A9
350
51
  3
B0
350
52
  3
B1
350
53
  3
B2
350
54
  3
B3
350
55
  3
B4
350
56
  3
B5
350
57
  3
B6
350
58
  0
XRECORD
  5
2BE
102
{ACAD_REACTORS
330
C
102
}
330
C
100
AcDbXrecord
280
     1
  1
DWGPROPS COOKIE
  2

  3

  4

  6

  7

  8
user28
  9

300
=
301
=
302
=
303
=
304
=
305
=
306
=
307
=
308
=
309
=
 40
0.0
 41
2460277.349637002
 42
2460277.349637743
  1

 90
        0
  0
LAYOUT
  5
1E
102
{ACAD_REACTORS
330
1A
102
}
330
1A
100
AcDbPlotSettings
  1

  2
none_device
  4

  6

 40
0.0
 41
0.0
 42
0.0
 43
0.0
 44
0.0
 45
0.0
 46
0.0
 47
0.0
 48
0.0
 49
0.0
140
0.0
141
0.0
142
1.0
143
1.0
 70
   688
 72
     1
 73
     0
 74
     5
  7

 75
    16
147
1.0
148
0.0
149
0.0
100
AcDbLayout
  1
Layout1
 70
     1
 71
     1
 10
0.0
 20
0.0
 11
420.0
 21
297.0
 12
0.0
 22
0.0
 32
0.0
 14
1.0000000000E+20
 24
1.0000000000E+20
 34
1.0000000000E+20
 15
-1.0000000000E+20
 25
-1.0000000000E+20
 35
-1.0000000000E+20
146
0.0
 13
0.0
 23
0.0
 33
0.0
 16
1.0
 26
0.0
 36
0.0
 17
0.0
 27
1.0
 37
0.0
 76
     0
330
1B
  0
LAYOUT
  5
26
102
{ACAD_REACTORS
330
1A
102
}
330
1A
100
AcDbPlotSettings
  1

  2
none_device
  4

  6

 40
0.0
 41
0.0
 42
0.0
 43
0.0
 44
0.0
 45
0.0
 46
0.0
 47
0.0
 48
0.0
 49
0.0
140
0.0
141
0.0
142
1.0
143
1.0
 70
   688
 72
     1
 73
     0
 74
     5
  7

 75
    16
147
1.0
148
0.0
149
0.0
100
AcDbLayout
  1
Layout2
 70
     1
 71
     2
 10
0.0
 20
0.0
 11
0.0
 21
0.0
 12
0.0
 22
0.0
 32
0.0
 14
0.0
 24
0.0
 34
0.0
 15
0.0
 25
0.0
 35
0.0
146
0.0
 13
0.0
 23
0.0
 33
0.0
 16
1.0
 26
0.0
 36
0.0
 17
0.0
 27
1.0
 37
0.0
 76
     0
330
23
  0
LAYOUT
  5
22
102
{ACAD_REACTORS
330
1A
102
}
330
1A
100
AcDbPlotSettings
  1

  2
none_device
  4
Letter_(8.50_x_11.00_Inches)
  6

 40
6.35
 41
6.35
 42
6.35000508
 43
6.35000508
 44
215.9
 45
279.4
 46
0.0
 47
0.0
 48
0.0
 49
0.0
140
0.0
141
0.0
142
1.0
143
1.0
 70
  1712
 72
     1
 73
     0
 74
     0
  7

 75
     0
147
1.0
148
0.0
149
0.0
100
AcDbLayout
  1
Model
 70
     1
 71
     0
 10
0.0
 20
0.0
 11
431.8
 21
279.4
 12
0.0
 22
0.0
 32
0.0
 14
0.0
 24
0.0
 34
0.0
 15
431.8
 25
279.4
 35
0.0
146
0.0
 13
0.0
 23
0.0
 33
0.0
 16
1.0
 26
0.0
 36
0.0
 17
0.0
 27
1.0
 37
0.0
 76
     0
330
1F
331
29
  0
MLINESTYLE
  5
18
102
{ACAD_REACTORS
330
17
102
}
330
17
100
AcDbMlineStyle
  2
Standard
 70
     0
  3

 62
   256
 51
90.0
 52
90.0
 71
     2
 49
0.5
 62
   256
  6
BYLAYER
 49
-0.5
 62
   256
  6
BYLAYER
  0
ACDBPLACEHOLDER
  5
F
102
{ACAD_REACTORS
330
E
102
}
330
E
  0
SCALE
  5
48
102
{ACAD_REACTORS
330
47
102
}
330
47
100
AcDbScale
 70
     0
300
1:1
140
1.0
141
1.0
290
     1
  0
SCALE
  5
49
102
{ACAD_REACTORS
330
47
102
}
330
47
100
AcDbScale
 70
     0
300
1:2
140
1.0
141
2.0
290
     0
  0
SCALE
  5
4A
102
{ACAD_REACTORS
330
47
102
}
330
47
100
AcDbScale
 70
     0
300
1:4
140
1.0
141
4.0
290
     0
  0
SCALE
  5
4B
102
{ACAD_REACTORS
330
47
102
}
330
47
100
AcDbScale
 70
     0
300
1:5
140
1.0
141
5.0
290
     0
  0
SCALE
  5
4C
102
{ACAD_REACTORS
330
47
102
}
330
47
100
AcDbScale
 70
     0
300
1:8
140
1.0
141
8.0
290
     0
  0
SCALE
  5
4D
102
{ACAD_REACTORS
330
47
102
}
330
47
100
AcDbScale
 70
     0
300
1:10
140
1.0
141
10.0
290
     0
  0
SCALE
  5
4E
102
{ACAD_REACTORS
330
47
102
}
330
47
100
AcDbScale
 70
     0
300
1:16
140
1.0
141
16.0
290
     0
  0
SCALE
  5
4F
102
{ACAD_REACTORS
330
47
102
}
330
47
100
AcDbScale
 70
     0
300
1:20
140
1.0
141
20.0
290
     0
  0
SCALE
  5
50
102
{ACAD_REACTORS
330
47
102
}
330
47
100
AcDbScale
 70
     0
300
1:30
140
1.0
141
30.0
290
     0
  0
SCALE
  5
51
102
{ACAD_REACTORS
330
47
102
}
330
47
100
AcDbScale
 70
     0
300
1:40
140
1.0
141
40.0
290
     0
  0
SCALE
  5
52
102
{ACAD_REACTORS
330
47
102
}
330
47
100
AcDbScale
 70
     0
300
1:50
140
1.0
141
50.0
290
     0
  0
SCALE
  5
53
102
{ACAD_REACTORS
330
47
102
}
330
47
100
AcDbScale
 70
     0
300
1:100
140
1.0
141
100.0
290
     0
  0
SCALE
  5
54
102
{ACAD_REACTORS
330
47
102
}
330
47
100
AcDbScale
 70
     0
300
2:1
140
2.0
141
1.0
290
     0
  0
SCALE
  5
55
102
{ACAD_REACTORS
330
47
102
}
330
47
100
AcDbScale
 70
     0
300
4:1
140
4.0
141
1.0
290
     0
  0
SCALE
  5
56
102
{ACAD_REACTORS
330
47
102
}
330
47
100
AcDbScale
 70
     0
300
8:1
140
8.0
141
1.0
290
     0
  0
SCALE
  5
57
102
{ACAD_REACTORS
330
47
102
}
330
47
100
AcDbScale
 70
     0
300
10:1
140
10.0
141
1.0
290
     0
  0
SCALE
  5
58
102
{ACAD_REACTORS
330
47
102
}
330
47
100
AcDbScale
 70
     0
300
100:1
140
100.0
141
1.0
290
     0
  0
ENDSEC
  0
EOF
