  0
SECTION
  2
HEADER
  9
$ACADVER
  1
AC1015
  9
$ACADMAINTVER
 70
     6
  9
$DWGCODEPAGE
  3
DOS932
  9
$INSBASE
 10
0.0
 20
0.0
 30
0.0
  9
$EXTMIN
 10
0.0
 20
0.0
 30
0.0
  9
$EXTMAX
 10
431.8
 20
279.4
 30
0.0
  9
$LIMMIN
 10
0.0
 20
0.0
  9
$LIMMAX
 10
431.8
 20
279.4
  9
$ORTHOMODE
 70
     0
  9
$REGENMODE
 70
     1
  9
$FILLMODE
 70
     1
  9
$QTEXTMODE
 70
     0
  9
$MIRRTEXT
 70
     1
  9
$LTSCALE
 40
1.0
  9
$ATTMODE
 70
     1
  9
$TEXTSIZE
 40
3.5
  9
$TRACEWID
 40
1.0
  9
$TEXTSTYLE
  7
Standard
  9
$CLAYER
  8
0
  9
$CELTYPE
  6
ByLayer
  9
$CECOLOR
 62
   256
  9
$CELTSCALE
 40
1.0
  9
$DISPSILH
 70
     0
  9
$DIMSCALE
 40
1.0
  9
$DIMASZ
 40
3.302
  9
$DIMEXO
 40
1.0
  9
$DIMDLI
 40
3.75
  9
$DIMRND
 40
0.0
  9
$DIMDLE
 40
0.0
  9
$DIMEXE
 40
1.0
  9
$DIMTP
 40
0.0
  9
$DIMTM
 40
0.0
  9
$DIMTXT
 40
3.5
  9
$DIMCEN
 40
2.5
  9
$DIMTSZ
 40
0.0
  9
$DIMTOL
 70
     0
  9
$DIMLIM
 70
     0
  9
$DIMTIH
 70
     1
  9
$DIMTOH
 70
     1
  9
$DIMSE1
 70
     0
  9
$DIMSE2
 70
     0
  9
$DIMTAD
 70
     1
  9
$DIMZIN
 70
     1
  9
$DIMBLK
  1

  9
$DIMASO
 70
     1
  9
$DIMSHO
 70
     1
  9
$DIMPOST
  1

  9
$DIMAPOST
  1

  9
$DIMALT
 70
     0
  9
$DIMALTD
 70
     3
  9
$DIMALTF
 40
0.0393700787
  9
$DIMLFAC
 40
1.0
  9
$DIMTOFL
 70
     1
  9
$DIMTVP
 40
0.0
  9
$DIMTIX
 70
     0
  9
$DIMSOXD
 70
     0
  9
$DIMSAH
 70
     0
  9
$DIMBLK1
  1

  9
$DIMBLK2
  1

  9
$DIMSTYLE
  2
ISO-25
  9
$DIMCLRD
 70
     0
  9
$DIMCLRE
 70
     0
  9
$DIMCLRT
 70
     0
  9
$DIMTFAC
 40
1.0
  9
$DIMGAP
 40
1.524
  9
$DIMJUST
 70
     0
  9
$DIMSD1
 70
     0
  9
$DIMSD2
 70
     0
  9
$DIMTOLJ
 70
     0
  9
$DIMTZIN
 70
     1
  9
$DIMALTZ
 70
     0
  9
$DIMALTTZ
 70
     0
  9
$DIMUPT
 70
     0
  9
$DIMDEC
 70
     2
  9
$DIMTDEC
 70
     2
  9
$DIMALTU
 70
     2
  9
$DIMALTTD
 70
     3
  9
$DIMTXSTY
  7
Standard
  9
$DIMAUNIT
 70
     0
  9
$DIMADEC
 70
     2
  9
$DIMALTRND
 40
0.0
  9
$DIMAZIN
 70
     0
  9
$DIMDSEP
 70
    44
  9
$DIMATFIT
 70
     3
  9
$DIMFRAC
 70
     0
  9
$DIMLDRBLK
  1

  9
$DIMLUNIT
 70
     2
  9
$DIMLWD
 70
    -2
  9
$DIMLWE
 70
    -2
  9
$DIMTMOVE
 70
     0
  9
$LUNITS
 70
     2
  9
$LUPREC
 70
     2
  9
$SKETCHINC
 40
1.0
  9
$FILLETRAD
 40
10.0
  9
$AUNITS
 70
     0
  9
$AUPREC
 70
     2
  9
$MENU
  1
.
  9
$ELEVATION
 40
0.0
  9
$PELEVATION
 40
0.0
  9
$THICKNESS
 40
0.0
  9
$LIMCHECK
 70
     0
  9
$CHAMFERA
 40
0.0
  9
$CHAMFERB
 40
0.0
  9
$CHAMFERC
 40
0.0
  9
$CHAMFERD
 40
0.0
  9
$SKPOLY
 70
     0
  9
$TDCREATE
 40
2459828.736946852
  9
$TDUCREATE
 40
2459828.361946852
  9
$TDUPDATE
 40
2459828.736947454
  9
$TDUUPDATE
 40
2459828.361947454
  9
$TDINDWG
 40
0.0000000116
  9
$TDUSRTIMER
 40
0.0000000116
  9
$USRTIMER
 70
     1
  9
$ANGBASE
 50
0.0
  9
$ANGDIR
 70
     0
  9
$PDMODE
 70
     0
  9
$PDSIZE
 40
-1.0
  9
$PLINEWID
 40
0.0
  9
$SPLFRAME
 70
     0
  9
$SPLINETYPE
 70
     6
  9
$SPLINESEGS
 70
     8
  9
$HANDSEED
  5
265
  9
$SURFTAB1
 70
     6
  9
$SURFTAB2
 70
     6
  9
$SURFTYPE
 70
     6
  9
$SURFU
 70
     6
  9
$SURFV
 70
     6
  9
$UCSBASE
  2

  9
$UCSNAME
  2

  9
$UCSORG
 10
0.0
 20
0.0
 30
0.0
  9
$UCSXDIR
 10
1.0
 20
0.0
 30
0.0
  9
$UCSYDIR
 10
0.0
 20
1.0
 30
0.0
  9
$UCSORTHOREF
  2

  9
$UCSORTHOVIEW
 70
     0
  9
$UCSORGTOP
 10
0.0
 20
0.0
 30
0.0
  9
$UCSORGBOTTOM
 10
0.0
 20
0.0
 30
0.0
  9
$UCSORGLEFT
 10
0.0
 20
0.0
 30
0.0
  9
$UCSORGRIGHT
 10
0.0
 20
0.0
 30
0.0
  9
$UCSORGFRONT
 10
0.0
 20
0.0
 30
0.0
  9
$UCSORGBACK
 10
0.0
 20
0.0
 30
0.0
  9
$PUCSBASE
  2

  9
$PUCSNAME
  2

  9
$PUCSORG
 10
0.0
 20
0.0
 30
0.0
  9
$PUCSXDIR
 10
1.0
 20
0.0
 30
0.0
  9
$PUCSYDIR
 10
0.0
 20
1.0
 30
0.0
  9
$PUCSORTHOREF
  2

  9
$PUCSORTHOVIEW
 70
     0
  9
$PUCSORGTOP
 10
0.0
 20
0.0
 30
0.0
  9
$PUCSORGBOTTOM
 10
0.0
 20
0.0
 30
0.0
  9
$PUCSORGLEFT
 10
0.0
 20
0.0
 30
0.0
  9
$PUCSORGRIGHT
 10
0.0
 20
0.0
 30
0.0
  9
$PUCSORGFRONT
 10
0.0
 20
0.0
 30
0.0
  9
$PUCSORGBACK
 10
0.0
 20
0.0
 30
0.0
  9
$USERI1
 70
     0
  9
$USERI2
 70
     0
  9
$USERI3
 70
     0
  9
$USERI4
 70
     0
  9
$USERI5
 70
     0
  9
$USERR1
 40
0.0
  9
$USERR2
 40
0.0
  9
$USERR3
 40
0.0
  9
$USERR4
 40
0.0
  9
$USERR5
 40
0.0
  9
$WORLDVIEW
 70
     1
  9
$SHADEDGE
 70
     3
  9
$SHADEDIF
 70
    70
  9
$TILEMODE
 70
     1
  9
$MAXACTVP
 70
    64
  9
$PINSBASE
 10
0.0
 20
0.0
 30
0.0
  9
$PLIMCHECK
 70
     0
  9
$PEXTMIN
 10
1.0000000000E+20
 20
1.0000000000E+20
 30
1.0000000000E+20
  9
$PEXTMAX
 10
-1.0000000000E+20
 20
-1.0000000000E+20
 30
-1.0000000000E+20
  9
$PLIMMIN
 10
0.0
 20
0.0
  9
$PLIMMAX
 10
420.0
 20
297.0
  9
$UNITMODE
 70
     0
  9
$VISRETAIN
 70
     1
  9
$PLINEGEN
 70
     0
  9
$PSLTSCALE
 70
     1
  9
$TREEDEPTH
 70
  3020
  9
$CMLSTYLE
  2
Standard
  9
$CMLJUST
 70
     0
  9
$CMLSCALE
 40
20.0
  9
$PROXYGRAPHICS
 70
     1
  9
$MEASUREMENT
 70
     1
  9
$CELWEIGHT
370
    -1
  9
$ENDCAPS
280
     0
  9
$JOINSTYLE
280
     0
  9
$LWDISPLAY
290
     1
  9
$INSUNITS
 70
     4
  9
$HYPERLINKBASE
  1

  9
$STYLESHEET
  1

  9
$XEDIT
290
     1
  9
$CEPSNTYPE
380
     0
  9
$PSTYLEMODE
290
     1
  9
$FINGERPRINTGUID
  2
{1C76B4F9-A3B2-4A54-BEA5-DAFB70FA9EE6}
  9
$VERSIONGUID
  2
{FAEB1C32-E019-11D5-929B-00C0DF256EC4}
  9
$EXTNAMES
290
     1
  9
$PSVPSCALE
 40
0.0
  9
$OLESTARTUP
290
     0
  0
ENDSEC
  0
SECTION
  2
CLASSES
  0
CLASS
  1
ACDBDICTIONARYWDFLT
  2
AcDbDictionaryWithDefault
  3
ObjectDBX Classes
 90
        0
280
     0
281
     0
  0
CLASS
  1
VISUALSTYLE
  2
AcDbVisualStyle
  3
ObjectDBX Classes
 90
     4095
280
     0
281
     0
  0
CLASS
  1
MATERIAL
  2
AcDbMaterial
  3
ObjectDBX Classes
 90
     1153
280
     0
281
     0
  0
CLASS
  1
SCALE
  2
AcDbScale
  3
ObjectDBX Classes
 90
     1153
280
     0
281
     0
  0
CLASS
  1
TABLESTYLE
  2
AcDbTableStyle
  3
ObjectDBX Classes
 90
     4095
280
     0
281
     0
  0
CLASS
  1
MLEADERSTYLE
  2
AcDbMLeaderStyle
  3
ACDB_MLEADERSTYLE_CLASS
 90
     4095
280
     0
281
     0
  0
CLASS
  1
SUN
  2
AcDbSun
  3
SCENEOE
 90
     1153
280
     0
281
     0
  0
CLASS
  1
ACDBPLACEHOLDER
  2
AcDbPlaceHolder
  3
ObjectDBX Classes
 90
        0
280
     0
281
     0
  0
CLASS
  1
LAYOUT
  2
AcDbLayout
  3
ObjectDBX Classes
 90
        0
280
     0
281
     0
  0
ENDSEC
  0
SECTION
  2
TABLES
  0
TABLE
  2
VPORT
  5
8
330
0
100
AcDbSymbolTable
 70
     1
  0
VPORT
  5
29
330
8
100
AcDbSymbolTableRecord
100
AcDbViewportTableRecord
  2
*Active
 70
     0
 10
0.0
 20
0.0
 11
1.0
 21
1.0
 12
215.9
 22
139.7
 13
0.0
 23
0.0
 14
10.0
 24
10.0
 15
10.0
 25
10.0
 16
0.0
 26
0.0
 36
1.0
 17
0.0
 27
0.0
 37
0.0
 40
279.4
 41
1.5454545455
 42
50.0
 43
0.0
 44
0.0
 50
0.0
 51
0.0
 71
     0
 72
  2000
 73
     1
 74
     3
 75
     0
 76
     0
 77
     0
 78
     0
281
     0
 65
     1
110
0.0
120
0.0
130
0.0
111
1.0
121
0.0
131
0.0
112
0.0
122
1.0
132
0.0
 79
     0
146
0.0
  0
ENDTAB
  0
TABLE
  2
LTYPE
  5
5
330
0
100
AcDbSymbolTable
 70
     6
  0
LTYPE
  5
14
330
5
100
AcDbSymbolTableRecord
100
AcDbLinetypeTableRecord
  2
ByBlock
 70
     0
  3

 72
    65
 73
     0
 40
0.0
  0
LTYPE
  5
15
330
5
100
AcDbSymbolTableRecord
100
AcDbLinetypeTableRecord
  2
ByLayer
 70
     0
  3

 72
    65
 73
     0
 40
0.0
  0
LTYPE
  5
16
330
5
100
AcDbSymbolTableRecord
100
AcDbLinetypeTableRecord
  2
Continuous
 70
     0
  3
Solid line
 72
    65
 73
     0
 40
0.0
  0
LTYPE
  5
6E
330
5
100
AcDbSymbolTableRecord
100
AcDbLinetypeTableRecord
  2
HIDDEN
 70
     0
  3
Hidden __ __ __ __ __ __ __ __ __ __ __ __ __ __
 72
    65
 73
     2
 40
1.905
 49
1.27
 74
     0
 49
-0.635
 74
     0
  0
LTYPE
  5
6F
330
5
100
AcDbSymbolTableRecord
100
AcDbLinetypeTableRecord
  2
PHANTOM
 70
     0
  3
Phantom ______  __  __  ______  __  __  ______
 72
    65
 73
     6
 40
12.7
 49
6.35
 74
     0
 49
-1.27
 74
     0
 49
1.27
 74
     0
 49
-1.27
 74
     0
 49
1.27
 74
     0
 49
-1.27
 74
     0
  0
LTYPE
  5
70
330
5
100
AcDbSymbolTableRecord
100
AcDbLinetypeTableRecord
  2
CENTER
 70
     0
  3
Center ____ _ ____ _ ____ _ ____ _ ____ _ ____
 72
    65
 73
     4
 40
10.16
 49
6.35
 74
     0
 49
-1.27
 74
     0
 49
1.27
 74
     0
 49
-1.27
 74
     0
  0
LTYPE
  5
71
330
5
100
AcDbSymbolTableRecord
100
AcDbLinetypeTableRecord
  2
CENTERX2
 70
     0
  3
Center (2x) ________  __  ________  __  _____
 72
    65
 73
     4
 40
20.32
 49
12.7
 74
     0
 49
-2.54
 74
     0
 49
2.54
 74
     0
 49
-2.54
 74
     0
  0
LTYPE
  5
72
330
5
100
AcDbSymbolTableRecord
100
AcDbLinetypeTableRecord
  2
DOT2
 70
     0
  3
Dot (.5x) ........................................
 72
    65
 73
     2
 40
0.635
 49
0.0
 74
     0
 49
-0.635
 74
     0
  0
ENDTAB
  0
TABLE
  2
LAYER
  5
2
330
0
100
AcDbSymbolTable
 70
     1
  0
LAYER
  5
10
330
2
100
AcDbSymbolTableRecord
100
AcDbLayerTableRecord
  2
0
 70
     0
 62
     7
  6
Continuous
370
    -3
390
F
  0
ENDTAB
  0
TABLE
  2
STYLE
  5
3
330
0
100
AcDbSymbolTable
 70
     2
  0
STYLE
  5
11
330
3
100
AcDbSymbolTableRecord
100
AcDbTextStyleTableRecord
  2
Standard
 70
     0
 40
0.0
 41
1.0
 50
0.0
 71
     0
 42
3.5
  3
txt
  4
bigfont
  0
STYLE
  5
73
330
3
100
AcDbSymbolTableRecord
100
AcDbTextStyleTableRecord
  2
SLDTEXTSTYLE0
 70
     0
 40
0.0
 41
0.7
 50
0.0
 71
     0
 42
3.5
  3
TXT
  4
bigfont
  0
ENDTAB
  0
TABLE
  2
VIEW
  5
6
330
0
100
AcDbSymbolTable
 70
     0
  0
ENDTAB
  0
TABLE
  2
UCS
  5
7
330
0
100
AcDbSymbolTable
 70
     0
  0
ENDTAB
  0
TABLE
  2
APPID
  5
9
330
0
100
AcDbSymbolTable
 70
     1
  0
APPID
  5
12
330
9
100
AcDbSymbolTableRecord
100
AcDbRegAppTableRecord
  2
ACAD
 70
     0
  0
ENDTAB
  0
TABLE
  2
DIMSTYLE
  5
A
330
0
100
AcDbSymbolTable
 70
     1
100
AcDbDimStyleTable
  0
DIMSTYLE
105
27
330
A
100
AcDbSymbolTableRecord
100
AcDbDimStyleTableRecord
  2
ISO-25
 70
     0
 41
2.5
 42
0.625
 43
3.75
 44
1.25
 73
     0
 74
     0
 77
     1
 78
     8
140
2.5
141
2.5
143
0.0393700787
147
0.625
171
     3
172
     1
178
     0
271
     2
272
     2
274
     3
278
    44
283
     0
284
     8
340
11
  0
ENDTAB
  0
TABLE
  2
BLOCK_RECORD
  5
1
330
0
100
AcDbSymbolTable
 70
     3
  0
BLOCK_RECORD
  5
1F
330
1
100
AcDbSymbolTableRecord
100
AcDbBlockTableRecord
  2
*Model_Space
340
22
  0
BLOCK_RECORD
  5
1B
330
1
100
AcDbSymbolTableRecord
100
AcDbBlockTableRecord
  2
*Paper_Space
340
1E
  0
BLOCK_RECORD
  5
23
330
1
100
AcDbSymbolTableRecord
100
AcDbBlockTableRecord
  2
*Paper_Space0
340
26
  0
BLOCK_RECORD
  5
186
330
1
100
AcDbSymbolTableRecord
100
AcDbBlockTableRecord
  2
SW_CENTERMARKSYMBOL_0
340
0
102
{BLKREFS
331
191
102
}
  0
BLOCK_RECORD
  5
256
330
1
100
AcDbSymbolTableRecord
100
AcDbBlockTableRecord
  2
SW_CENTERMARKSYMBOL_1
340
0
102
{BLKREFS
331
261
102
}
  0
ENDTAB
  0
ENDSEC
  0
SECTION
  2
BLOCKS
  0
BLOCK
  5
20
330
1F
100
AcDbEntity
  8
0
100
AcDbBlockBegin
  2
*Model_Space
 70
     0
 10
0.0
 20
0.0
 30
0.0
  3
*Model_Space
  1

  0
ENDBLK
  5
21
330
1F
100
AcDbEntity
  8
0
100
AcDbBlockEnd
  0
BLOCK
  5
1C
330
1B
100
AcDbEntity
 67
     1
  8
0
100
AcDbBlockBegin
  2
*Paper_Space
 70
     0
 10
0.0
 20
0.0
 30
0.0
  3
*Paper_Space
  1

  0
ENDBLK
  5
1D
330
1B
100
AcDbEntity
 67
     1
  8
0
100
AcDbBlockEnd
  0
BLOCK
  5
24
330
23
100
AcDbEntity
  8
0
100
AcDbBlockBegin
  2
*Paper_Space0
 70
     0
 10
0.0
 20
0.0
 30
0.0
  3
*Paper_Space0
  1

  0
ENDBLK
  5
25
330
23
100
AcDbEntity
  8
0
100
AcDbBlockEnd
  0
BLOCK
  5
187
330
186
100
AcDbEntity
  8
0
100
AcDbBlockBegin
  2
SW_CENTERMARKSYMBOL_0
 70
     0
 10
0.0
 20
0.0
 30
0.0
  3
SW_CENTERMARKSYMBOL_0
  1

  0
LINE
  5
189
330
186
100
AcDbEntity
  8
0
  6
Continuous
 62
     0
370
    18
100
AcDbLine
 10
0.0
 20
0.0
 30
0.0
 11
0.0
 21
2.5
 31
0.0
  0
LINE
  5
18A
330
186
100
AcDbEntity
  8
0
  6
Continuous
 62
     0
370
    18
100
AcDbLine
 10
0.0
 20
0.0
 30
0.0
 11
-2.5
 21
0.0
 31
0.0
  0
LINE
  5
18B
330
186
100
AcDbEntity
  8
0
  6
Continuous
 62
     0
370
    18
100
AcDbLine
 10
0.0
 20
0.0
 30
0.0
 11
0.0
 21
-2.5
 31
0.0
  0
LINE
  5
18C
330
186
100
AcDbEntity
  8
0
  6
Continuous
 62
     0
370
    18
100
AcDbLine
 10
0.0
 20
0.0
 30
0.0
 11
2.5
 21
0.0
 31
0.0
  0
LINE
  5
18D
330
186
100
AcDbEntity
  8
0
  6
Continuous
 62
     0
370
    18
100
AcDbLine
 10
0.0
 20
5.0
 30
0.0
 11
0.0
 21
30.8478870792
 31
0.0
  0
LINE
  5
18E
330
186
100
AcDbEntity
  8
0
  6
Continuous
 62
     0
370
    18
100
AcDbLine
 10
-5.0
 20
0.0
 30
0.0
 11
-12.5
 21
0.0
 31
0.0
  0
LINE
  5
18F
330
186
100
AcDbEntity
  8
0
  6
Continuous
 62
     0
370
    18
100
AcDbLine
 10
0.0
 20
-5.0
 30
0.0
 11
0.0
 21
-12.5
 31
0.0
  0
LINE
  5
190
330
186
100
AcDbEntity
  8
0
  6
Continuous
 62
     0
370
    18
100
AcDbLine
 10
5.0
 20
0.0
 30
0.0
 11
12.5
 21
0.0
 31
0.0
  0
ENDBLK
  5
188
330
186
100
AcDbEntity
  8
0
100
AcDbBlockEnd
  0
BLOCK
  5
257
330
256
100
AcDbEntity
  8
0
100
AcDbBlockBegin
  2
SW_CENTERMARKSYMBOL_1
 70
     0
 10
0.0
 20
0.0
 30
0.0
  3
SW_CENTERMARKSYMBOL_1
  1

  0
LINE
  5
259
330
256
100
AcDbEntity
  8
0
  6
Continuous
 62
     0
370
    18
100
AcDbLine
 10
0.0
 20
0.0
 30
0.0
 11
0.0
 21
2.5
 31
0.0
  0
LINE
  5
25A
330
256
100
AcDbEntity
  8
0
  6
Continuous
 62
     0
370
    18
100
AcDbLine
 10
0.0
 20
0.0
 30
0.0
 11
-2.5
 21
0.0
 31
0.0
  0
LINE
  5
25B
330
256
100
AcDbEntity
  8
0
  6
Continuous
 62
     0
370
    18
100
AcDbLine
 10
0.0
 20
0.0
 30
0.0
 11
0.0
 21
-2.5
 31
0.0
  0
LINE
  5
25C
330
256
100
AcDbEntity
  8
0
  6
Continuous
 62
     0
370
    18
100
AcDbLine
 10
0.0
 20
0.0
 30
0.0
 11
2.5
 21
0.0
 31
0.0
  0
LINE
  5
25D
330
256
100
AcDbEntity
  8
0
  6
Continuous
 62
     0
370
    18
100
AcDbLine
 10
0.0
 20
5.0
 30
0.0
 11
0.0
 21
9.7075312529
 31
0.0
  0
LINE
  5
25E
330
256
100
AcDbEntity
  8
0
  6
Continuous
 62
     0
370
    18
100
AcDbLine
 10
-5.0
 20
0.0
 30
0.0
 11
-22.1296180004
 21
0.0
 31
0.0
  0
LINE
  5
25F
330
256
100
AcDbEntity
  8
0
  6
Continuous
 62
     0
370
    18
100
AcDbLine
 10
0.0
 20
-5.0
 30
0.0
 11
0.0
 21
-9.7075312529
 31
0.0
  0
LINE
  5
260
330
256
100
AcDbEntity
  8
0
  6
Continuous
 62
     0
370
    18
100
AcDbLine
 10
5.0
 20
0.0
 30
0.0
 11
42.4072705395
 21
0.0
 31
0.0
  0
ENDBLK
  5
258
330
256
100
AcDbEntity
  8
0
100
AcDbBlockEnd
  0
ENDSEC
  0
SECTION
  2
ENTITIES
  0
MTEXT
  5
74
330
1F
100
AcDbEntity
  8
0
  6
Continuous
 62
     7
370
     0
100
AcDbMText
 10
135.2855722885
 20
110.3465400715
 30
0.0
 40
3.5
 41
0.0
 71
     1
 72
     1
  1
エースボール　BH-1210R
  7
SLDTEXTSTYLE0
 73
     1
 44
1.0
  0
LINE
  5
75
330
1F
100
AcDbEntity
  8
0
  6
Continuous
 62
     7
370
    25
100
AcDbLine
 10
88.1274943998
 20
90.2925594719
 30
0.0
 11
86.1774944527
 21
82.2925600233
 31
0.0
  0
LINE
  5
76
330
1F
100
AcDbEntity
  8
0
  6
Continuous
 62
     7
370
    25
100
AcDbLine
 10
86.1774944527
 20
82.2925600233
 30
0.0
 11
86.6274941539
 21
74.2925596433
 31
0.0
  0
LINE
  5
77
330
1F
100
AcDbEntity
  8
0
  6
Continuous
 62
     7
370
    25
100
AcDbLine
 10
100.627494586
 20
74.2925596433
 30
0.0
 11
100.6981507701
 21
75.5486772405
 31
0.0
  0
LINE
  5
78
330
1F
100
AcDbEntity
  8
0
  6
Continuous
 62
     7
370
    25
100
AcDbLine
 10
99.3814711285
 20
89.250603226
 30
0.0
 11
99.1274943402
 21
90.2925594719
 31
0.0
  0
LINE
  5
79
330
1F
100
AcDbEntity
  8
0
  6
Continuous
 62
     7
370
    25
100
AcDbLine
 10
106.4274940466
 20
55.7925594049
 30
0.0
 11
106.6274946382
 21
55.9925599965
 31
0.0
  0
LINE
  5
7A
330
1F
100
AcDbEntity
  8
0
  6
Continuous
 62
     7
370
    25
100
AcDbLine
 10
106.6274946382
 20
71.5925595733
 30
0.0
 11
106.4274940466
 21
71.7925601648
 31
0.0
  0
LINE
  5
7B
330
1F
100
AcDbEntity
  8
0
  6
Continuous
 62
     7
370
    25
100
AcDbLine
 10
103.6274941464
 20
55.7925594049
 30
0.0
 11
106.4274940466
 21
55.7925594049
 31
0.0
  0
LINE
  5
7C
330
1F
100
AcDbEntity
  8
0
  6
Continuous
 62
     7
370
    25
100
AcDbLine
 10
106.4274940466
 20
71.7925601648
 30
0.0
 11
103.6274941464
 21
71.7925601648
 31
0.0
  0
LINE
  5
7D
330
1F
100
AcDbEntity
  8
0
  6
Continuous
 62
     7
370
    25
100
AcDbLine
 10
120.127494057
 20
58.5425598556
 30
0.0
 11
124.6274938633
 21
59.2925599786
 31
0.0
  0
LINE
  5
7E
330
1F
100
AcDbEntity
  8
0
  6
Continuous
 62
     7
370
    25
100
AcDbLine
 10
124.6274938633
 20
68.2925595912
 30
0.0
 11
120.127494057
 21
69.0425597141
 31
0.0
  0
LINE
  5
7F
330
1F
100
AcDbEntity
  8
0
  6
Continuous
 62
     7
370
    25
100
AcDbLine
 10
129.1274955323
 20
58.5425598556
 30
0.0
 11
133.1474935462
 21
59.2125598351
 31
0.0
  0
LINE
  5
80
330
1F
100
AcDbEntity
  8
0
  6
Continuous
 62
     7
370
    25
100
AcDbLine
 10
133.1474935462
 20
68.3725597346
 30
0.0
 11
129.1274955323
 21
69.0425597141
 31
0.0
  0
LINE
  5
81
330
1F
100
AcDbEntity
  8
0
  6
Continuous
 62
     7
370
    25
100
AcDbLine
 10
124.6274938633
 20
58.5425598556
 30
0.0
 11
129.1274955323
 21
59.2925599786
 31
0.0
  0
LINE
  5
82
330
1F
100
AcDbEntity
  8
0
  6
Continuous
 62
     7
370
    25
100
AcDbLine
 10
129.1274955323
 20
68.2925595912
 30
0.0
 11
124.6274938633
 21
69.0425597141
 31
0.0
  0
LINE
  5
83
330
1F
100
AcDbEntity
  8
0
  6
Continuous
 62
     7
370
    25
100
AcDbLine
 10
115.6274942508
 20
58.5425598556
 30
0.0
 11
120.127494057
 21
59.2925599786
 31
0.0
  0
LINE
  5
84
330
1F
100
AcDbEntity
  8
0
  6
Continuous
 62
     7
370
    25
100
AcDbLine
 10
120.127494057
 20
68.2925595912
 30
0.0
 11
115.6274942508
 21
69.0425597141
 31
0.0
  0
LINE
  5
85
330
1F
100
AcDbEntity
  8
0
  6
Continuous
 62
     7
370
    25
100
AcDbLine
 10
106.6274946382
 20
58.5425598556
 30
0.0
 11
111.1274944445
 21
58.5425598556
 31
0.0
  0
LINE
  5
86
330
1F
100
AcDbEntity
  8
0
  6
Continuous
 62
     7
370
    25
100
AcDbLine
 10
111.1274944445
 20
69.0425597141
 30
0.0
 11
106.6274946382
 21
69.0425597141
 31
0.0
  0
LINE
  5
87
330
1F
100
AcDbEntity
  8
0
  6
Continuous
 62
     7
370
    25
100
AcDbLine
 10
111.1274944445
 20
58.5425598556
 30
0.0
 11
115.6274942508
 21
59.2925599786
 31
0.0
  0
LINE
  5
88
330
1F
100
AcDbEntity
  8
0
  6
Continuous
 62
     7
370
    25
100
AcDbLine
 10
115.6274942508
 20
68.2925595912
 30
0.0
 11
111.1274944445
 21
69.0425597141
 31
0.0
  0
LINE
  5
89
330
1F
100
AcDbEntity
  8
0
  6
Continuous
 62
     7
370
    25
100
AcDbLine
 10
133.1474935462
 20
59.2125598351
 30
0.0
 11
133.6274934759
 21
59.6925597647
 31
0.0
  0
LINE
  5
8A
330
1F
100
AcDbEntity
  8
0
  6
Continuous
 62
     7
370
    25
100
AcDbLine
 10
133.6274934759
 20
67.892559805
 30
0.0
 11
133.1474935462
 21
68.3725597346
 31
0.0
  0
LINE
  5
8B
330
1F
100
AcDbEntity
  8
0
  6
Continuous
 62
     7
370
    25
100
AcDbLine
 10
84.1274946754
 20
53.7925600084
 30
0.0
 11
85.7455279504
 21
53.7925600084
 31
0.0
  0
LINE
  5
8C
330
1F
100
AcDbEntity
  8
0
  6
Continuous
 62
     7
370
    25
100
AcDbLine
 10
85.7455279504
 20
73.7925595613
 30
0.0
 11
84.1274946754
 21
73.7925595613
 31
0.0
  0
ARC
  5
8D
330
1F
100
AcDbEntity
  8
0
  6
Continuous
 62
     7
370
    25
100
AcDbCircle
 10
84.62749437
 20
54.7925597849
 30
0.0
 40
1.5
100
AcDbArc
 50
318.1896851042
 51
0.0
  0
ARC
  5
8E
330
1F
100
AcDbEntity
  8
0
  6
Continuous
 62
     7
370
    25
100
AcDbCircle
 10
84.62749437
 20
72.7925597849
 30
0.0
 40
1.5
100
AcDbArc
 50
0.0
 51
41.8103148958
  0
ARC
  5
8F
330
1F
100
AcDbEntity
  8
0
  6
Continuous
 62
     7
370
    25
100
AcDbCircle
 10
102.62749437
 20
72.7925597849
 30
0.0
 40
1.500000000000004
100
AcDbArc
 50
138.1896851042
 51
180.0
  0
ARC
  5
90
330
1F
100
AcDbEntity
  8
0
  6
Continuous
 62
     7
370
    25
100
AcDbCircle
 10
102.62749437
 20
54.7925597849
 30
0.0
 40
1.500000000000004
100
AcDbArc
 50
180.0
 51
221.8103148958
  0
LINE
  5
91
330
1F
100
AcDbEntity
  8
0
  6
Continuous
 62
     7
370
    25
100
AcDbLine
 10
103.3774945711
 20
53.7925600084
 30
0.0
 11
103.6274941464
 21
54.0425595837
 31
0.0
  0
LINE
  5
92
330
1F
100
AcDbEntity
  8
0
  6
Continuous
 62
     7
370
    25
100
AcDbLine
 10
103.6274941464
 20
73.542559986
 30
0.0
 11
103.3774945711
 21
73.7925595613
 31
0.0
  0
LINE
  5
93
330
1F
100
AcDbEntity
  8
0
  6
Continuous
 62
     7
370
    25
100
AcDbLine
 10
84.1274946754
 20
73.7925595613
 30
0.0
 11
83.6274945935
 21
73.2925594794
 31
0.0
  0
LINE
  5
94
330
1F
100
AcDbEntity
  8
0
  6
Continuous
 62
     7
370
    25
100
AcDbLine
 10
83.6274945935
 20
54.2925600903
 30
0.0
 11
84.1274946754
 21
53.7925600084
 31
0.0
  0
LINE
  5
95
330
1F
100
AcDbEntity
  8
0
  6
Continuous
 62
     7
370
    25
100
AcDbLine
 10
103.3774945711
 20
73.7925595613
 30
0.0
 11
101.5094607895
 21
73.7925595613
 31
0.0
  0
LINE
  5
96
330
1F
100
AcDbEntity
  8
0
  6
Continuous
 62
     7
370
    25
100
AcDbLine
 10
101.5094607895
 20
53.7925600084
 30
0.0
 11
103.3774945711
 21
53.7925600084
 31
0.0
  0
ARC
  5
97
330
1F
100
AcDbEntity
  8
0
  6
Continuous
 62
     7
370
    25
100
AcDbCircle
 10
100.62749437
 20
54.7925597849
 30
0.0
 40
0.5
100
AcDbArc
 50
0.0
 51
90.0
  0
ARC
  5
98
330
1F
100
AcDbEntity
  8
0
  6
Continuous
 62
     7
370
    25
100
AcDbCircle
 10
86.62749437
 20
54.7925597849
 30
0.0
 40
0.5
100
AcDbArc
 50
90.0
 51
180.0
  0
ARC
  5
99
330
1F
100
AcDbEntity
  8
0
  6
Continuous
 62
     7
370
    25
100
AcDbCircle
 10
86.62749437
 20
72.7925597849
 30
0.0
 40
0.5
100
AcDbArc
 50
180.0
 51
270.0
  0
ARC
  5
9A
330
1F
100
AcDbEntity
  8
0
  6
Continuous
 62
     7
370
    25
100
AcDbCircle
 10
100.62749437
 20
72.7925597849
 30
0.0
 40
0.5
100
AcDbArc
 50
270.0
 51
0.0
  0
LINE
  5
9B
330
1F
100
AcDbEntity
  8
0
  6
Continuous
 62
     7
370
    25
100
AcDbLine
 10
83.6274945935
 20
70.5368891368
 30
0.0
 11
75.7916202595
 21
70.2920178892
 31
0.0
  0
LINE
  5
9C
330
1F
100
AcDbEntity
  8
0
  6
Continuous
 62
     7
370
    25
100
AcDbLine
 10
75.7916202595
 20
57.2931016805
 30
0.0
 11
83.6274945935
 21
57.0482304329
 31
0.0
  0
LINE
  5
9D
330
1F
100
AcDbEntity
  8
0
  6
Continuous
 62
     7
370
    25
100
AcDbLine
 10
87.2274945316
 20
72.2925602468
 30
0.0
 11
86.6274941539
 21
72.2925602468
 31
0.0
  0
LINE
  5
9E
330
1F
100
AcDbEntity
  8
0
  6
Continuous
 62
     7
370
    25
100
AcDbLine
 10
100.627494586
 20
72.2925602468
 30
0.0
 11
100.0098153775
 21
72.2925602468
 31
0.0
  0
LINE
  5
9F
330
1F
100
AcDbEntity
  8
0
  6
Continuous
 62
     7
370
    25
100
AcDbLine
 10
86.6274941539
 20
55.2925593229
 30
0.0
 11
100.627494586
 21
55.2925593229
 31
0.0
  0
LINE
  5
A0
330
1F
100
AcDbEntity
  8
0
  6
Continuous
 62
     7
370
    25
100
AcDbLine
 10
75.7916202595
 20
70.2920178892
 30
0.0
 11
73.627494817
 21
69.0425597141
 31
0.0
  0
LINE
  5
A1
330
1F
100
AcDbEntity
  8
0
  6
Continuous
 62
     7
370
    25
100
AcDbLine
 10
73.627494817
 20
58.5425598556
 30
0.0
 11
75.7916202595
 21
57.2931016805
 31
0.0
  0
SPLINE
  5
A2
330
1F
100
AcDbEntity
  8
0
  6
Continuous
 62
     7
370
    25
100
AcDbSpline
210
0.0
220
0.0
230
1.0
 70
     8
 71
     3
 72
    14
 73
    10
 74
     0
 42
0.000000001
 43
0.00000001
 40
0.0
 40
0.0
 40
0.0
 40
0.0
 40
0.0218925567044549
 40
0.1995265698952237
 40
0.3777123680513973
 40
0.5663665278760555
 40
0.769532402781882
 40
0.9412882251936303
 40
1.0
 40
1.0
 40
1.0
 40
1.0
 10
100.0094456424503
 20
72.29442941120884
 30
0.0
 10
100.0039493002987
 20
72.29412206989326
 30
0.0
 10
99.95385618822985
 20
72.29132099191455
 30
0.0
 10
99.8596073007902
 20
72.31692023414858
 30
0.0
 10
99.73647776153076
 20
72.37754518689708
 30
0.0
 10
99.62972923447603
 20
72.47713748015278
 30
0.0
 10
99.55948666186329
 20
72.60154656305419
 30
0.0
 10
99.5285456021074
 20
72.70855237737987
 30
0.0
 10
99.53022341917355
 20
72.76655810084827
 30
0.0
 10
99.5306508441953
 20
72.78133509776613
 30
0.0
  0
SPLINE
  5
A3
330
1F
100
AcDbEntity
  8
0
  6
Continuous
 62
     7
370
    25
100
AcDbSpline
210
0.0
220
0.0
230
1.0
 70
     8
 71
     3
 72
    14
 73
    10
 74
     0
 42
0.000000001
 43
0.00000001
 40
0.0
 40
0.0
 40
0.0
 40
0.0
 40
0.1261757386517774
 40
0.3043767501909392
 40
0.4873839947522152
 40
0.6669946339429397
 40
0.8215104119778422
 40
0.9578705999709165
 40
0.9999999999999999
 40
0.9999999999999999
 40
0.9999999999999999
 40
0.9999999999999999
 10
87.7247509372918
 20
72.7925407709839
 30
0.0
 10
87.72392451700489
 20
72.75942746336372
 30
0.0
 10
87.72193092359377
 20
72.67954743992026
 30
0.0
 10
87.67592537657873
 20
72.55783935010804
 30
0.0
 10
87.59326210268571
 20
72.44155074779196
 30
0.0
 10
87.48498645042325
 20
72.35687027306074
 30
0.0
 10
87.37068833006157
 20
72.30989424881435
 30
0.0
 10
87.28419242515437
 20
72.29163116537023
 30
0.0
 10
87.23754660956511
 20
72.29399602415597
 30
0.0
 10
87.22653666637224
 20
72.29455420843384
 30
0.0
  0
LINE
  5
A4
330
1F
100
AcDbEntity
  8
0
  6
Continuous
 62
     7
370
    25
100
AcDbLine
 10
99.527494592
 20
72.781289463
 30
0.0
 11
99.527494592
 21
74.2925596433
 31
0.0
  0
LINE
  5
A5
330
1F
100
AcDbEntity
  8
0
  6
Continuous
 62
     7
370
    25
100
AcDbLine
 10
87.7274941479
 20
74.2925596433
 30
0.0
 11
87.7274941479
 21
72.7925593974
 31
0.0
  0
LINE
  5
A6
330
1F
100
AcDbEntity
  8
0
  6
Continuous
 62
     7
370
    25
100
AcDbLine
 10
88.3884090757
 20
90.8925603153
 30
0.0
 11
88.3884090757
 21
90.2925594719
 31
0.0
  0
LINE
  5
A7
330
1F
100
AcDbEntity
  8
0
  6
Continuous
 62
     7
370
    25
100
AcDbLine
 10
98.8665796643
 20
90.8925603153
 30
0.0
 11
88.3884090757
 21
90.8925603153
 31
0.0
  0
LINE
  5
A8
330
1F
100
AcDbEntity
  8
0
  6
Continuous
 62
     7
370
    25
100
AcDbLine
 10
98.8665796643
 20
90.2925594719
 30
0.0
 11
98.8665796643
 21
90.8925603153
 31
0.0
  0
LINE
  5
A9
330
1F
100
AcDbEntity
  8
0
  6
Continuous
 62
     7
370
    25
100
AcDbLine
 10
88.3884090757
 20
90.2925594719
 30
0.0
 11
98.8665796643
 21
90.2925594719
 31
0.0
  0
SPLINE
  5
AA
330
1F
100
AcDbEntity
  8
0
  6
Continuous
 62
     7
370
    25
100
AcDbSpline
210
0.0
220
0.0
230
1.0
 70
     8
 71
     3
 72
    15
 73
    11
 74
     0
 42
0.000000001
 43
0.00000001
 40
0.0
 40
0.0
 40
0.0
 40
0.0
 40
0.0081668554937291
 40
0.3321941846999776
 40
0.4756279332062201
 40
0.6866839627273442
 40
0.8457444903091523
 40
0.8967583891412989
 40
0.9909563331444947
 40
1.0
 40
1.0
 40
1.0
 40
1.0
 10
88.52847486860436
 20
91.14255895934126
 30
0.0
 10
88.52798730492329
 20
91.14255655948196
 30
0.0
 10
88.50815521414452
 20
91.1424589430494
 30
0.0
 10
88.47987602062662
 20
91.13289967447848
 30
0.0
 10
88.44204585234411
 20
91.09554183453761
 30
0.0
 10
88.41546283953944
 20
91.05067373885579
 30
0.0
 10
88.39829184389862
 20
90.99279817197741
 30
0.0
 10
88.390475621163
 20
90.94212146323898
 30
0.0
 10
88.38848053537426
 20
90.91342747910511
 30
0.0
 10
88.38841483115606
 20
90.89424099585187
 30
0.0
 10
88.38840907565636
 20
90.89256031534693
 30
0.0
  0
LINE
  5
AB
330
1F
100
AcDbEntity
  8
0
  6
Continuous
 62
     7
370
    25
100
AcDbLine
 10
88.5284748686
 20
91.1425589593
 30
0.0
 11
98.7265138713
 21
91.1425589593
 31
0.0
  0
SPLINE
  5
AC
330
1F
100
AcDbEntity
  8
0
  6
Continuous
 62
     7
370
    25
100
AcDbSpline
210
0.0
220
0.0
230
1.0
 70
     8
 71
     3
 72
    15
 73
    11
 74
     0
 42
0.000000001
 43
0.00000001
 40
0.0
 40
0.0
 40
0.0
 40
0.0
 40
0.0090436668555053
 40
0.1032416108587011
 40
0.1542555096908477
 40
0.3133160372726557
 40
0.5243720667937798
 40
0.6678058153000223
 40
0.9918331445062708
 40
0.9999999999999999
 40
0.9999999999999999
 40
0.9999999999999999
 40
0.9999999999999999
 10
98.86657966426891
 20
90.89256031534693
 30
0.0
 10
98.86657390876921
 20
90.89424099585187
 30
0.0
 10
98.86650820455102
 20
90.91342747910511
 30
0.0
 10
98.86451311876226
 20
90.94212146323899
 30
0.0
 10
98.85669689602665
 20
90.99279817197741
 30
0.0
 10
98.83952590038584
 20
91.05067373885579
 30
0.0
 10
98.81294288758116
 20
91.09554183453763
 30
0.0
 10
98.77511271929866
 20
91.13289967447848
 30
0.0
 10
98.74683352578072
 20
91.14245894304938
 30
0.0
 10
98.72700143500198
 20
91.14255655948196
 30
0.0
 10
98.7265138713209
 20
91.14255895934126
 30
0.0
  0
LINE
  5
AD
330
1F
100
AcDbEntity
  8
0
  6
Continuous
 62
     7
370
    25
100
AcDbLine
 10
88.150268962
 20
90.8925603153
 30
0.0
 11
88.3884090757
 21
90.8925603153
 31
0.0
  0
SPLINE
  5
AE
330
1F
100
AcDbEntity
  8
0
  6
Continuous
 62
     7
370
    25
100
AcDbSpline
210
0.0
220
0.0
230
1.0
 70
     8
 71
     3
 72
    15
 73
    11
 74
     0
 42
0.000000001
 43
0.00000001
 40
0.0
 40
0.0
 40
0.0
 40
0.0
 40
0.0089534934608068
 40
0.0998985020501141
 40
0.1531621750630547
 40
0.3125626131158444
 40
0.524966528186016
 40
0.6689889196484162
 40
0.9919154833883785
 40
0.9999999999999999
 40
0.9999999999999999
 40
0.9999999999999999
 40
0.9999999999999999
 10
88.1502689620046
 20
90.89256031534693
 30
0.0
 10
88.15028462567601
 20
90.89424102316026
 30
0.0
 10
88.15045939291265
 20
90.91299350158357
 30
0.0
 10
88.15589006451304
 20
90.94175526223668
 30
0.0
 10
88.17742375456592
 20
90.99264329610088
 30
0.0
 10
88.2251308008585
 20
91.05077804531491
 30
0.0
 10
88.29752060902847
 20
91.09548854168197
 30
0.0
 10
88.39944027459481
 20
91.13276585258903
 30
0.0
 10
88.47479639411185
 20
91.14245821334886
 30
0.0
 10
88.52719509817206
 20
91.1425565574149
 30
0.0
 10
88.52847486860436
 20
91.14255895934126
 30
0.0
  0
LINE
  5
AF
330
1F
100
AcDbEntity
  8
0
  6
Continuous
 62
     7
370
    25
100
AcDbLine
 10
98.8665796643
 20
90.8925603153
 30
0.0
 11
99.1047197779
 21
90.8925603153
 31
0.0
  0
SPLINE
  5
B0
330
1F
100
AcDbEntity
  8
0
  6
Continuous
 62
     7
370
    25
100
AcDbSpline
210
0.0
220
0.0
230
1.0
 70
     8
 71
     3
 72
    15
 73
    11
 74
     0
 42
0.000000001
 43
0.00000001
 40
0.0
 40
0.0
 40
0.0
 40
0.0
 40
0.0080845166116213
 40
0.3310110803515837
 40
0.4750334718139839
 40
0.6874373868841556
 40
0.8468378249369453
 40
0.9001014979498858
 40
0.9910465065391931
 40
0.9999999999999999
 40
0.9999999999999999
 40
0.9999999999999999
 40
0.9999999999999999
 10
98.7265138713209
 20
91.14255895934126
 30
0.0
 10
98.72779364175321
 20
91.1425565574149
 30
0.0
 10
98.78019234581346
 20
91.14245821334896
 30
0.0
 10
98.85554846533046
 20
91.13276585258899
 30
0.0
 10
98.95746813089681
 20
91.095488541682
 30
0.0
 10
99.02985793906679
 20
91.05077804531491
 30
0.0
 10
99.07756498535934
 20
90.99264329610088
 30
0.0
 10
99.09909867541222
 20
90.94175526223668
 30
0.0
 10
99.10452934701264
 20
90.91299350158361
 30
0.0
 10
99.10470411424926
 20
90.89424102316026
 30
0.0
 10
99.10471977792066
 20
90.89256031534693
 30
0.0
  0
LINE
  5
B1
330
1F
100
AcDbEntity
  8
0
  6
Continuous
 62
     7
370
    25
100
AcDbLine
 10
88.150268962
 20
90.2925594719
 30
0.0
 11
88.150268962
 21
90.8925603153
 31
0.0
  0
LINE
  5
B2
330
1F
100
AcDbEntity
  8
0
  6
Continuous
 62
     7
370
    25
100
AcDbLine
 10
88.3884090757
 20
90.2925594719
 30
0.0
 11
88.150268962
 21
90.2925594719
 31
0.0
  0
LINE
  5
B3
330
1F
100
AcDbEntity
  8
0
  6
Continuous
 62
     7
370
    25
100
AcDbLine
 10
99.1047197779
 20
90.8925603153
 30
0.0
 11
99.1047197779
 21
90.2925594719
 31
0.0
  0
LINE
  5
B4
330
1F
100
AcDbEntity
  8
0
  6
Continuous
 62
     7
370
    25
100
AcDbLine
 10
99.1047197779
 20
90.2925594719
 30
0.0
 11
98.8665796643
 21
90.2925594719
 31
0.0
  0
LINE
  5
B5
330
1F
100
AcDbEntity
  8
0
  6
Continuous
 62
     7
370
    25
100
AcDbLine
 10
87.8774943588
 20
90.8925603153
 30
0.0
 11
87.8774943588
 21
90.2925594719
 31
0.0
  0
LINE
  5
B6
330
1F
100
AcDbEntity
  8
0
  6
Continuous
 62
     7
370
    25
100
AcDbLine
 10
88.150268962
 20
90.8925603153
 30
0.0
 11
87.8774943588
 21
90.8925603153
 31
0.0
  0
LINE
  5
B7
330
1F
100
AcDbEntity
  8
0
  6
Continuous
 62
     7
370
    25
100
AcDbLine
 10
88.150268962
 20
90.2925594719
 30
0.0
 11
87.8774943588
 21
90.2925594719
 31
0.0
  0
LINE
  5
B8
330
1F
100
AcDbEntity
  8
0
  6
Continuous
 62
     7
370
    25
100
AcDbLine
 10
87.6274943178
 20
90.8925603153
 30
0.0
 11
87.8774943588
 21
90.8925603153
 31
0.0
  0
ARC
  5
B9
330
1F
100
AcDbEntity
  8
0
  6
Continuous
 62
     7
370
    25
100
AcDbCircle
 10
87.87749437
 20
90.8925597848
 30
0.0
 40
0.25
100
AcDbArc
 50
90.0
 51
180.0
  0
LINE
  5
BA
330
1F
100
AcDbEntity
  8
0
  6
Continuous
 62
     7
370
    25
100
AcDbLine
 10
87.8774943588
 20
91.1425589593
 30
0.0
 11
87.8774943588
 21
90.8925603153
 31
0.0
  0
LINE
  5
BB
330
1F
100
AcDbEntity
  8
0
  6
Continuous
 62
     7
370
    25
100
AcDbLine
 10
87.6274943178
 20
90.2925594719
 30
0.0
 11
87.6274943178
 21
90.8925603153
 31
0.0
  0
LINE
  5
BC
330
1F
100
AcDbEntity
  8
0
  6
Continuous
 62
     7
370
    25
100
AcDbLine
 10
87.8774943588
 20
90.2925594719
 30
0.0
 11
87.6274943178
 21
90.2925594719
 31
0.0
  0
LINE
  5
BD
330
1F
100
AcDbEntity
  8
0
  6
Continuous
 62
     7
370
    25
100
AcDbLine
 10
87.8774943588
 20
91.1425589593
 30
0.0
 11
88.5284748686
 21
91.1425589593
 31
0.0
  0
LINE
  5
BE
330
1F
100
AcDbEntity
  8
0
  6
Continuous
 62
     7
370
    25
100
AcDbLine
 10
99.3774943811
 20
90.8925603153
 30
0.0
 11
99.3774943811
 21
91.1425589593
 31
0.0
  0
LINE
  5
BF
330
1F
100
AcDbEntity
  8
0
  6
Continuous
 62
     7
370
    25
100
AcDbLine
 10
99.3774943811
 20
90.8925603153
 30
0.0
 11
99.1047197779
 21
90.8925603153
 31
0.0
  0
LINE
  5
C0
330
1F
100
AcDbEntity
  8
0
  6
Continuous
 62
     7
370
    25
100
AcDbLine
 10
98.7265138713
 20
91.1425589593
 30
0.0
 11
99.3774943811
 21
91.1425589593
 31
0.0
  0
LINE
  5
C1
330
1F
100
AcDbEntity
  8
0
  6
Continuous
 62
     7
370
    25
100
AcDbLine
 10
99.3774943811
 20
90.2925594719
 30
0.0
 11
99.3774943811
 21
90.8925603153
 31
0.0
  0
LINE
  5
C2
330
1F
100
AcDbEntity
  8
0
  6
Continuous
 62
     7
370
    25
100
AcDbLine
 10
99.3774943811
 20
90.8925603153
 30
0.0
 11
99.6274944221
 21
90.8925603153
 31
0.0
  0
LINE
  5
C3
330
1F
100
AcDbEntity
  8
0
  6
Continuous
 62
     7
370
    25
100
AcDbLine
 10
99.6274944221
 20
90.8925603153
 30
0.0
 11
99.6274944221
 21
90.2925594719
 31
0.0
  0
LINE
  5
C4
330
1F
100
AcDbEntity
  8
0
  6
Continuous
 62
     7
370
    25
100
AcDbLine
 10
99.6274944221
 20
90.2925594719
 30
0.0
 11
99.3774943811
 21
90.2925594719
 31
0.0
  0
ARC
  5
C5
330
1F
100
AcDbEntity
  8
0
  6
Continuous
 62
     7
370
    25
100
AcDbCircle
 10
99.37749437
 20
90.8925597848
 30
0.0
 40
0.25
100
AcDbArc
 50
0.0
 51
90.0
  0
LINE
  5
C6
330
1F
100
AcDbEntity
  8
0
  6
Continuous
 62
     7
370
    25
100
AcDbLine
 10
99.3774943811
 20
90.2925594719
 30
0.0
 11
99.1047197779
 21
90.2925594719
 31
0.0
  0
LINE
  5
C7
330
1F
100
AcDbEntity
  8
0
  6
Continuous
 62
     7
370
    25
100
AcDbLine
 10
88.6274944817
 20
91.1525595011
 30
0.0
 11
98.6274942582
 21
91.1525595011
 31
0.0
  0
LINE
  5
C8
330
1F
100
AcDbEntity
  8
0
  6
Continuous
 62
     7
370
    25
100
AcDbLine
 10
88.6274944817
 20
91.1425589593
 30
0.0
 11
88.6274944817
 21
91.1525595011
 31
0.0
  0
LINE
  5
C9
330
1F
100
AcDbEntity
  8
0
  6
Continuous
 62
     7
370
    25
100
AcDbLine
 10
98.6274942582
 20
91.1425589593
 30
0.0
 11
98.6274942582
 21
91.1525595011
 31
0.0
  0
LINE
  5
CA
330
1F
100
AcDbEntity
  8
0
  6
Continuous
 62
     7
370
    25
100
AcDbLine
 10
86.1774944527
 20
82.2925600233
 30
0.0
 11
98.1020411303
 21
82.2925600233
 31
0.0
  0
LINE
  5
CB
330
1F
100
AcDbEntity
  8
0
  6
Continuous
 62
     7
370
    25
100
AcDbLine
 10
98.8512966608
 20
90.2925594719
 30
0.0
 11
88.3884090757
 21
90.2925594719
 31
0.0
  0
LINE
  5
CC
330
1F
100
AcDbEntity
  8
0
  6
Continuous
 62
     7
370
    25
100
AcDbLine
 10
100.5794350816
 20
83.2873038026
 30
0.0
 11
98.8512966608
 21
90.2925594719
 31
0.0
  0
SPLINE
  5
CD
330
1F
100
AcDbEntity
  8
0
  6
Continuous
 62
     7
370
    25
100
AcDbSpline
210
0.0
220
0.0
230
1.0
 70
     8
 71
     3
 72
     9
 73
     5
 74
     0
 42
0.000000001
 43
0.00000001
 40
0.0
 40
0.0
 40
0.0
 40
0.0
 40
0.4983244219185156
 40
1.0
 40
1.0
 40
1.0
 40
1.0
 10
98.1020411302833
 20
82.29256002328417
 30
0.0
 10
97.98593075563164
 20
82.46635190299644
 30
0.0
 10
97.75292918166777
 20
82.81510438645526
 30
0.0
 10
97.47916916627813
 20
83.12955274202739
 30
0.0
 10
97.34183045230192
 20
83.28730380258581
 30
0.0
  0
LINE
  5
CE
330
1F
100
AcDbEntity
  8
0
  6
Continuous
 62
     7
370
    25
100
AcDbLine
 10
95.627494465
 20
74.2925596433
 30
0.0
 11
95.627494465
 21
74.3303769278
 31
0.0
  0
LINE
  5
CF
330
1F
100
AcDbEntity
  8
0
  6
Continuous
 62
     7
370
    25
100
AcDbLine
 10
86.6274941539
 20
74.2925596433
 30
0.0
 11
95.627494465
 21
74.2925596433
 31
0.0
  0
SPLINE
  5
D0
330
1F
100
AcDbEntity
  8
0
  6
Continuous
 62
     7
370
    25
100
AcDbSpline
210
0.0
220
0.0
230
1.0
 70
     8
 71
     3
 72
    17
 73
    13
 74
     0
 42
0.000000001
 43
0.00000001
 40
0.0
 40
0.0
 40
0.0
 40
0.0
 40
0.015561846449589
 40
0.0359292690912283
 40
0.0739045690777559
 40
0.1292602803021116
 40
0.184993852391363
 40
0.2407361090911398
 40
0.4593513138619285
 40
0.6784168665902561
 40
0.8975060046930645
 40
1.0
 40
1.0
 40
1.0
 40
1.0
 10
95.78343954063338
 20
74.29255964330456
 30
0.0
 10
95.82583198935642
 20
74.29775251887051
 30
0.0
 10
95.92370788747299
 20
74.30974185600805
 30
0.0
 10
96.09717446118692
 20
74.42808098444966
 30
0.0
 10
96.29692362130554
 20
74.67819363687671
 30
0.0
 10
96.49910993608992
 20
75.0490982669309
 30
0.0
 10
96.6741267132007
 20
75.4889185042974
 30
0.0
 10
96.96458446894394
 20
76.38033613350962
 30
0.0
 10
97.32467893220095
 20
77.73858228258999
 30
0.0
 10
97.67504055729319
 20
79.5768422786303
 30
0.0
 10
97.91877051930354
 20
81.09802347206231
 30
0.0
 10
98.05774697747552
 20
82.00385588107919
 30
0.0
 10
98.1020411302833
 20
82.29256002328417
 30
0.0
  0
SPLINE
  5
D1
330
1F
100
AcDbEntity
  8
0
  6
Continuous
 62
     7
370
    25
100
AcDbSpline
210
0.0
220
0.0
230
1.0
 70
     8
 71
     3
 72
     9
 73
     5
 74
     0
 42
0.000000001
 43
0.00000001
 40
0.0
 40
0.0
 40
0.0
 40
0.0
 40
0.5124863176752154
 40
1.0
 40
1.0
 40
1.0
 40
1.0
 10
95.62749446495754
 20
74.3303769277694
 30
0.0
 10
95.65313699367852
 20
74.3193491389508
 30
0.0
 10
95.70317253187065
 20
74.2978309277552
 30
0.0
 10
95.75713304982521
 20
74.29428723971166
 30
0.0
 10
95.78343954063338
 20
74.29255964330456
 30
0.0
  0
LINE
  5
D2
330
1F
100
AcDbEntity
  8
0
  6
Continuous
 62
     7
370
    25
100
AcDbLine
 10
97.3418304523
 20
83.2873038026
 30
0.0
 11
115.8029312094
 21
83.2873038026
 31
0.0
  0
LINE
  5
D3
330
1F
100
AcDbEntity
  8
0
  6
Continuous
 62
     7
370
    25
100
AcDbLine
 10
115.8029312094
 20
83.2873038026
 30
0.0
 11
115.8029312094
 21
80.0447347584
 31
0.0
  0
SPLINE
  5
D4
330
1F
100
AcDbEntity
  8
0
  6
Continuous
 62
     7
370
    25
100
AcDbSpline
210
0.0
220
0.0
230
1.0
 70
     8
 71
     3
 72
    11
 73
     7
 74
     0
 42
0.000000001
 43
0.00000001
 40
0.0
 40
0.0
 40
0.0
 40
0.0
 40
0.248860712681952
 40
0.4977192115733558
 40
0.7488602656597823
 40
1.0
 40
1.0
 40
1.0
 40
1.0
 10
108.7325379078774
 20
78.72153492740414
 30
0.0
 10
109.3091307971877
 20
78.87101396443005
 30
0.0
 10
110.4623114466102
 20
79.16997070876103
 30
0.0
 10
112.223225735107
 20
79.53177446759513
 30
0.0
 10
114.0032042891133
 20
79.83404952702395
 30
0.0
 10
115.2030232868313
 20
79.97450647092747
 30
0.0
 10
115.802931209424
 20
80.04473475835344
 30
0.0
  0
LWPOLYLINE
  5
D5
330
1F
100
AcDbEntity
  8
0
  6
Continuous
 62
     7
370
    25
100
AcDbPolyline
 90
        4
 70
   128
 43
0.0
 10
108.7325379079
 20
78.7215349274
 10
106.7972663616
 20
78.1963043856
 10
104.8701029097
 20
77.6732736277
 10
102.9527807435
 20
77.1529139029
  0
SPLINE
  5
D6
330
1F
100
AcDbEntity
  8
0
  6
Continuous
 62
     7
370
    25
100
AcDbSpline
210
0.0
220
0.0
230
1.0
 70
     8
 71
     3
 72
    13
 73
     9
 74
     0
 42
0.000000001
 43
0.00000001
 40
0.0
 40
0.0
 40
0.0
 40
0.0
 40
0.1610294667108458
 40
0.3266881201944549
 40
0.4877296242753278
 40
0.6535536689976723
 40
0.823760217438079
 40
1.0
 40
1.0
 40
1.0
 40
1.0
 10
102.9527807434587
 20
77.15291390291473
 30
0.0
 10
102.738910644854
 20
77.0835167588641
 30
0.0
 10
102.3050222273732
 20
76.94272747973498
 30
0.0
 10
101.7137011876172
 20
76.59660341917481
 30
0.0
 10
101.1797702261711
 20
76.1573960905555
 30
0.0
 10
100.7260864730409
 20
75.62379448389669
 30
0.0
 10
100.3516325288095
 20
74.99996816725323
 30
0.0
 10
100.2030695685684
 20
74.5310842974091
 30
0.0
 10
100.1274945040731
 20
74.29255964330456
 30
0.0
  0
LINE
  5
D7
330
1F
100
AcDbEntity
  8
0
  6
Continuous
 62
     7
370
    25
100
AcDbLine
 10
100.1274945041
 20
74.2925596433
 30
0.0
 11
95.7834395406
 21
74.2925596433
 31
0.0
  0
LINE
  5
D8
330
1F
100
AcDbEntity
  8
0
  6
Continuous
 62
     7
370
    25
100
AcDbLine
 10
95.6342938182
 20
74.2925596433
 30
0.0
 11
95.627494465
 21
74.3303769278
 31
0.0
  0
LINE
  5
D9
330
1F
100
AcDbEntity
  8
0
  6
Continuous
 62
     7
370
    25
100
AcDbLine
 10
95.627494465
 20
74.2925596433
 30
0.0
 11
95.6342938182
 21
74.2925596433
 31
0.0
  0
LINE
  5
DA
330
1F
100
AcDbEntity
  8
0
  6
Continuous
 62
     7
370
    25
100
AcDbLine
 10
95.7834395406
 20
74.2925596433
 30
0.0
 11
95.6342938182
 21
74.2925596433
 31
0.0
  0
LINE
  5
DB
330
1F
100
AcDbEntity
  8
0
  6
Continuous
 62
     7
370
    25
100
AcDbLine
 10
115.8029312094
 20
83.2873038026
 30
0.0
 11
115.8029312094
 21
92.2925597998
 31
0.0
  0
LINE
  5
DC
330
1F
100
AcDbEntity
  8
0
  6
Continuous
 62
     7
370
    25
100
AcDbLine
 10
115.8029312094
 20
92.2925597998
 30
0.0
 11
133.6274934759
 21
92.2925597998
 31
0.0
  0
LINE
  5
DD
330
1F
100
AcDbEntity
  8
0
  6
Continuous
 62
     7
370
    25
100
AcDbLine
 10
133.6274934759
 20
92.2925597998
 30
0.0
 11
133.6274934759
 21
85.292560515
 31
0.0
  0
ARC
  5
DE
330
1F
100
AcDbEntity
  8
0
  6
Continuous
 62
     7
370
    25
100
AcDbCircle
 10
128.62749437
 20
85.2925597849
 30
0.0
 40
5.0
100
AcDbArc
 50
270.0
 51
0.0
  0
LINE
  5
DF
330
1F
100
AcDbEntity
  8
0
  6
Continuous
 62
     7
370
    25
100
AcDbLine
 10
128.627494519
 20
80.2925596955
 30
0.0
 11
120.5191617658
 21
80.2925596955
 31
0.0
  0
ARC
  5
E0
330
1F
100
AcDbEntity
  8
0
  6
Continuous
 62
     7
370
    25
100
AcDbCircle
 10
120.5191622277
 20
35.2924305307
 30
0.0
 40
45.00012925418373
100
AcDbArc
 50
90.0
 51
96.0159222295
  0
ARC
  5
E1
330
1F
100
AcDbEntity
  8
0
  6
Continuous
 62
     7
370
    25
100
AcDbCircle
 10
108.0164479342
 20
94.2925597849
 30
0.0
 40
10.00000000000847
100
AcDbArc
 50
203.5781784783
 51
264.4198332155
  0
ARC
  5
E2
330
1F
100
AcDbEntity
  8
0
  6
Continuous
 62
     7
370
    25
100
AcDbCircle
 10
107.62749437
 20
90.3115153082
 30
0.0
 40
6.000000000000004
100
AcDbArc
 50
264.4198332155
 51
0.0
  0
LINE
  5
E3
330
1F
100
AcDbEntity
  8
0
  6
Continuous
 62
     7
370
    25
100
AcDbLine
 10
113.6274939229
 20
92.2925597998
 30
0.0
 11
113.6274939229
 21
90.3115156116
 31
0.0
  0
LINE
  5
E4
330
1F
100
AcDbEntity
  8
0
  6
Continuous
 62
     7
370
    25
100
AcDbLine
 10
113.6274939229
 20
92.2925597998
 30
0.0
 11
115.8029312094
 21
92.2925597998
 31
0.0
  0
LINE
  5
E5
330
1F
100
AcDbEntity
  8
0
  6
Continuous
 62
     7
370
    25
100
AcDbLine
 10
100.627494586
 20
74.2925596433
 30
0.0
 11
100.1274945041
 21
74.2925596433
 31
0.0
  0
LINE
  5
E6
330
1F
100
AcDbEntity
  8
0
  6
Continuous
 62
     7
370
    25
100
AcDbLine
 10
98.8512966608
 20
90.2925594719
 30
0.0
 11
98.8665796643
 21
90.2925594719
 31
0.0
  0
LINE
  5
E7
330
1F
100
AcDbEntity
  8
0
  6
Continuous
 62
     7
370
    25
100
AcDbLine
 10
106.4274940466
 20
64.8336304594
 30
0.0
 11
106.4274940466
 21
71.7925601648
 31
0.0
  0
LINE
  5
E8
330
1F
100
AcDbEntity
  8
0
  6
Continuous
 62
     7
370
    25
100
AcDbLine
 10
106.4274940466
 20
55.7925594049
 30
0.0
 11
106.4274940466
 21
64.8336304594
 31
0.0
  0
LINE
  5
E9
330
1F
100
AcDbEntity
  8
0
  6
Continuous
 62
     7
370
    25
100
AcDbLine
 10
106.6274946382
 20
64.8076037187
 30
0.0
 11
106.6274946382
 21
55.9925599965
 31
0.0
  0
LINE
  5
EA
330
1F
100
AcDbEntity
  8
0
  6
Continuous
 62
     7
370
    25
100
AcDbLine
 10
106.6274946382
 20
71.5925595733
 30
0.0
 11
106.6274946382
 21
64.8076037187
 31
0.0
  0
LINE
  5
EB
330
1F
100
AcDbEntity
  8
0
  6
Continuous
 62
     7
370
    25
100
AcDbLine
 10
120.127494057
 20
64.475762426
 30
0.0
 11
120.127494057
 21
69.0425597141
 31
0.0
  0
LINE
  5
EC
330
1F
100
AcDbEntity
  8
0
  6
Continuous
 62
     7
370
    25
100
AcDbLine
 10
120.127494057
 20
58.5425598556
 30
0.0
 11
120.127494057
 21
64.475762426
 31
0.0
  0
LINE
  5
ED
330
1F
100
AcDbEntity
  8
0
  6
Continuous
 62
     7
370
    25
100
AcDbLine
 10
129.1274955323
 20
64.475762426
 30
0.0
 11
129.1274955323
 21
69.0425597141
 31
0.0
  0
LINE
  5
EE
330
1F
100
AcDbEntity
  8
0
  6
Continuous
 62
     7
370
    25
100
AcDbLine
 10
129.1274955323
 20
58.5425598556
 30
0.0
 11
129.1274955323
 21
64.475762426
 31
0.0
  0
LINE
  5
EF
330
1F
100
AcDbEntity
  8
0
  6
Continuous
 62
     7
370
    25
100
AcDbLine
 10
133.1474935462
 20
59.2125598351
 30
0.0
 11
133.1474935462
 21
68.3725597346
 31
0.0
  0
LINE
  5
F0
330
1F
100
AcDbEntity
  8
0
  6
Continuous
 62
     7
370
    25
100
AcDbLine
 10
124.6274938633
 20
64.475762426
 30
0.0
 11
124.6274938633
 21
69.0425597141
 31
0.0
  0
LINE
  5
F1
330
1F
100
AcDbEntity
  8
0
  6
Continuous
 62
     7
370
    25
100
AcDbLine
 10
124.6274938633
 20
58.5425598556
 30
0.0
 11
124.6274938633
 21
64.475762426
 31
0.0
  0
LINE
  5
F2
330
1F
100
AcDbEntity
  8
0
  6
Continuous
 62
     7
370
    25
100
AcDbLine
 10
115.6274942508
 20
64.475762426
 30
0.0
 11
115.6274942508
 21
69.0425597141
 31
0.0
  0
LINE
  5
F3
330
1F
100
AcDbEntity
  8
0
  6
Continuous
 62
     7
370
    25
100
AcDbLine
 10
115.6274942508
 20
58.5425598556
 30
0.0
 11
115.6274942508
 21
64.475762426
 31
0.0
  0
LINE
  5
F4
330
1F
100
AcDbEntity
  8
0
  6
Continuous
 62
     7
370
    25
100
AcDbLine
 10
111.1274944445
 20
64.475762426
 30
0.0
 11
111.1274944445
 21
69.0425597141
 31
0.0
  0
LINE
  5
F5
330
1F
100
AcDbEntity
  8
0
  6
Continuous
 62
     7
370
    25
100
AcDbLine
 10
111.1274944445
 20
58.5425598556
 30
0.0
 11
111.1274944445
 21
64.475762426
 31
0.0
  0
LINE
  5
F6
330
1F
100
AcDbEntity
  8
0
  6
Continuous
 62
     7
370
    25
100
AcDbLine
 10
133.6274934759
 20
64.3261085507
 30
0.0
 11
133.6274934759
 21
59.6925597647
 31
0.0
  0
LINE
  5
F7
330
1F
100
AcDbEntity
  8
0
  6
Continuous
 62
     7
370
    25
100
AcDbLine
 10
133.6274934759
 20
67.892559805
 30
0.0
 11
133.6274934759
 21
64.3261085507
 31
0.0
  0
LINE
  5
F8
330
1F
100
AcDbEntity
  8
0
  6
Continuous
 62
     7
370
    25
100
AcDbLine
 10
85.7455279504
 20
63.7925597849
 30
0.0
 11
85.7455279504
 21
53.7925600084
 31
0.0
  0
LINE
  5
F9
330
1F
100
AcDbEntity
  8
0
  6
Continuous
 62
     7
370
    25
100
AcDbLine
 10
85.7455279504
 20
73.7925595613
 30
0.0
 11
85.7455279504
 21
63.7925597849
 31
0.0
  0
LINE
  5
FA
330
1F
100
AcDbEntity
  8
0
  6
Continuous
 62
     7
370
    25
100
AcDbLine
 10
84.1274946754
 20
63.7925597849
 30
0.0
 11
84.1274946754
 21
53.7925600084
 31
0.0
  0
LINE
  5
FB
330
1F
100
AcDbEntity
  8
0
  6
Continuous
 62
     7
370
    25
100
AcDbLine
 10
84.1274946754
 20
73.7925595613
 30
0.0
 11
84.1274946754
 21
63.7925597849
 31
0.0
  0
LINE
  5
FC
330
1F
100
AcDbEntity
  8
0
  6
Continuous
 62
     7
370
    25
100
AcDbLine
 10
86.1274945376
 20
72.7925593974
 30
0.0
 11
86.1274945376
 21
69.2925597551
 31
0.0
  0
SPLINE
  5
FD
330
1F
100
AcDbEntity
  8
0
  6
Continuous
 62
     7
370
    25
100
AcDbSpline
210
0.0
220
0.0
230
1.0
 70
     8
 71
     3
 72
     8
 73
     4
 74
     0
 42
0.000000001
 43
0.00000001
 40
0.0
 40
0.0
 40
0.0
 40
0.0
 40
1.0
 40
1.0
 40
1.0
 40
1.0
 10
86.03029324530871
 20
69.19224963636148
 30
0.0
 10
86.09812966288479
 20
69.22361257737225
 30
0.0
 10
86.12749436996265
 20
69.25708073802181
 30
0.0
 10
86.12749436996265
 20
69.29255978486557
 30
0.0
  0
SPLINE
  5
FE
330
1F
100
AcDbEntity
  8
0
  6
Continuous
 62
     7
370
    25
100
AcDbSpline
210
0.0
220
0.0
230
1.0
 70
     8
 71
     3
 72
    12
 73
     8
 74
     0
 42
0.000000001
 43
0.00000001
 40
0.0
 40
0.0
 40
0.0
 40
0.0
 40
0.4999999999999992
 40
0.4999999999999992
 40
0.7499999999999996
 40
0.7499999999999996
 40
1.0
 40
1.0
 40
1.0
 40
1.0
 10
86.03029324530871
 20
69.19224963636148
 30
0.0
 10
85.96242348529891
 20
69.16087128007938
 30
0.0
 10
85.88638893404517
 20
69.02716275958083
 30
0.0
 10
85.83974433566817
 20
68.74913664991504
 30
0.0
 10
85.83530533914553
 20
68.6422904659111
 30
0.0
 10
85.85103595293836
 20
68.41540899185534
 30
0.0
 10
85.87091638288074
 20
68.29524001955073
 30
0.0
 10
85.8984083028606
 20
68.17379037474049
 30
0.0
  0
SPLINE
  5
FF
330
1F
100
AcDbEntity
  8
0
  6
Continuous
 62
     7
370
    25
100
AcDbSpline
210
0.0
220
0.0
230
1.0
 70
     8
 71
     3
 72
    12
 73
     8
 74
     0
 42
0.000000001
 43
0.00000001
 40
0.0
 40
0.0
 40
0.0
 40
0.0
 40
0.5000000000000002
 40
0.5000000000000002
 40
0.7500000000000001
 40
0.7500000000000001
 40
1.0
 40
1.0
 40
1.0
 40
1.0
 10
86.12749436996265
 20
63.79255978486556
 30
0.0
 10
86.12749436996265
 20
64.52651680702279
 30
0.0
 10
86.13205176496186
 20
65.25949525138557
 30
0.0
 10
86.10486810058259
 20
66.35631936433201
 30
0.0
 10
86.0894184296654
 20
66.72146695290243
 30
0.0
 10
86.02655482813356
 20
67.4502549667665
 30
0.0
 10
85.97952490496525
 20
67.8154457221648
 30
0.0
 10
85.89840830286059
 20
68.17379037474049
 30
0.0
  0
SPLINE
  5
100
330
1F
100
AcDbEntity
  8
0
  6
Continuous
 62
     7
370
    25
100
AcDbSpline
210
0.0
220
0.0
230
1.0
 70
     8
 71
     3
 72
    12
 73
     8
 74
     0
 42
0.000000001
 43
0.00000001
 40
0.0
 40
0.0
 40
0.0
 40
0.0
 40
0.2499999999999999
 40
0.2499999999999999
 40
0.4999999999999999
 40
0.4999999999999999
 40
1.0
 40
1.0
 40
1.0
 40
1.0
 10
85.89840830286059
 20
59.41132919499068
 30
0.0
 10
85.97952490496525
 20
59.76967384756635
 30
0.0
 10
86.02655482813356
 20
60.13486460296467
 30
0.0
 10
86.08941842966539
 20
60.86365261682872
 30
0.0
 10
86.10486810058258
 20
61.22880020539914
 30
0.0
 10
86.13205176496186
 20
62.32562431834555
 30
0.0
 10
86.12749436996265
 20
63.05860276270836
 30
0.0
 10
86.12749436996265
 20
63.79255978486559
 30
0.0
  0
SPLINE
  5
101
330
1F
100
AcDbEntity
  8
0
  6
Continuous
 62
     7
370
    25
100
AcDbSpline
210
0.0
220
0.0
230
1.0
 70
     8
 71
     3
 72
    14
 73
    10
 74
     0
 42
0.000000001
 43
0.00000001
 40
0.0
 40
0.0
 40
0.0
 40
0.0
 40
0.25
 40
0.25
 40
0.5
 40
0.5
 40
0.75
 40
0.75
 40
1.0
 40
1.0
 40
1.0
 40
1.0
 10
85.89840830286059
 20
59.41132919499068
 30
0.0
 10
85.87088731511552
 20
59.28975113900496
 30
0.0
 10
85.8509673932791
 20
59.16922640197983
 30
0.0
 10
85.83530035146106
 20
58.94225014287173
 30
0.0
 10
85.83979218327336
 20
58.83528016530555
 30
0.0
 10
85.87104852855694
 20
58.64981461352582
 30
0.0
 10
85.89742111193871
 20
58.57092935240699
 30
0.0
 10
85.96025766308301
 20
58.4502915612339
 30
0.0
 10
85.9962972419431
 20
58.40858737079128
 30
0.0
 10
86.03029324530871
 20
58.39286993336968
 30
0.0
  0
SPLINE
  5
102
330
1F
100
AcDbEntity
  8
0
  6
Continuous
 62
     7
370
    25
100
AcDbSpline
210
0.0
220
0.0
230
1.0
 70
     8
 71
     3
 72
     8
 73
     4
 74
     0
 42
0.000000001
 43
0.00000001
 40
0.0
 40
0.0
 40
0.0
 40
0.0
 40
1.0
 40
1.0
 40
1.0
 40
1.0
 10
86.12749436996265
 20
58.29255978486558
 30
0.0
 10
86.12749436996265
 20
58.32803883170935
 30
0.0
 10
86.09812966288479
 20
58.3615069923589
 30
0.0
 10
86.03029324530871
 20
58.39286993336969
 30
0.0
  0
LINE
  5
103
330
1F
100
AcDbEntity
  8
0
  6
Continuous
 62
     7
370
    25
100
AcDbLine
 10
86.1274945376
 20
58.2925598147
 30
0.0
 11
86.1274945376
 21
54.7925601723
 31
0.0
  0
LINE
  5
104
330
1F
100
AcDbEntity
  8
0
  6
Continuous
 62
     7
370
    25
100
AcDbLine
 10
101.5094607895
 20
53.7925600084
 30
0.0
 11
101.5094607895
 21
73.7925595613
 31
0.0
  0
SPLINE
  5
105
330
1F
100
AcDbEntity
  8
0
  6
Continuous
 62
     7
370
    25
100
AcDbSpline
210
0.0
220
0.0
230
1.0
 70
     8
 71
     3
 72
    12
 73
     8
 74
     0
 42
0.000000001
 43
0.00000001
 40
0.0
 40
0.0
 40
0.0
 40
0.0
 40
0.5000000000000001
 40
0.5000000000000001
 40
0.75
 40
0.75
 40
1.0
 40
1.0
 40
1.0
 40
1.0
 10
101.1274943699626
 20
63.79255978486559
 30
0.0
 10
101.1274943699626
 20
63.05860276270838
 30
0.0
 10
101.1229369749634
 20
62.32562431834556
 30
0.0
 10
101.1501206393427
 20
61.22880020539915
 30
0.0
 10
101.1655703102599
 20
60.86365261682872
 30
0.0
 10
101.2284339117917
 20
60.13486460296468
 30
0.0
 10
101.27546383496
 20
59.76967384756635
 30
0.0
 10
101.3565804370647
 20
59.41132919499068
 30
0.0
  0
SPLINE
  5
106
330
1F
100
AcDbEntity
  8
0
  6
Continuous
 62
     7
370
    25
100
AcDbSpline
210
0.0
220
0.0
230
1.0
 70
     8
 71
     3
 72
    12
 73
     8
 74
     0
 42
0.000000001
 43
0.00000001
 40
0.0
 40
0.0
 40
0.0
 40
0.0
 40
0.2500000000000001
 40
0.2500000000000001
 40
0.5000000000000001
 40
0.5000000000000001
 40
1.0
 40
1.0
 40
1.0
 40
1.0
 10
101.3565804370647
 20
68.17379037474049
 30
0.0
 10
101.27546383496
 20
67.8154457221648
 30
0.0
 10
101.2284339117917
 20
67.4502549667665
 30
0.0
 10
101.1655703102599
 20
66.72146695290245
 30
0.0
 10
101.1501206393427
 20
66.35631936433201
 30
0.0
 10
101.1229369749634
 20
65.25949525138559
 30
0.0
 10
101.1274943699626
 20
64.5265168070228
 30
0.0
 10
101.1274943699626
 20
63.79255978486557
 30
0.0
  0
SPLINE
  5
107
330
1F
100
AcDbEntity
  8
0
  6
Continuous
 62
     7
370
    25
100
AcDbSpline
210
0.0
220
0.0
230
1.0
 70
     8
 71
     3
 72
    14
 73
    10
 74
     0
 42
0.000000001
 43
0.00000001
 40
0.0
 40
0.0
 40
0.0
 40
0.0
 40
0.25
 40
0.25
 40
0.5
 40
0.5
 40
0.75
 40
0.75
 40
1.0
 40
1.0
 40
1.0
 40
1.0
 10
101.3565804370647
 20
68.17379037474049
 30
0.0
 10
101.3841014248097
 20
68.2953684307262
 30
0.0
 10
101.4040213466461
 20
68.41589316775134
 30
0.0
 10
101.4196883884642
 20
68.64286942685943
 30
0.0
 10
101.4151965566519
 20
68.74983940442561
 30
0.0
 10
101.3839402113683
 20
68.93530495620534
 30
0.0
 10
101.3575676279865
 20
69.01419021732416
 30
0.0
 10
101.2947310768423
 20
69.13482800849727
 30
0.0
 10
101.2586914979822
 20
69.17653219893988
 30
0.0
 10
101.2246954946166
 20
69.19224963636148
 30
0.0
  0
SPLINE
  5
108
330
1F
100
AcDbEntity
  8
0
  6
Continuous
 62
     7
370
    25
100
AcDbSpline
210
0.0
220
0.0
230
1.0
 70
     8
 71
     3
 72
     8
 73
     4
 74
     0
 42
0.000000001
 43
0.00000001
 40
0.0
 40
0.0
 40
0.0
 40
0.0
 40
1.0
 40
1.0
 40
1.0
 40
1.0
 10
101.1274943699626
 20
69.29255978486557
 30
0.0
 10
101.1274943699626
 20
69.25708073802181
 30
0.0
 10
101.1568590770405
 20
69.22361257737225
 30
0.0
 10
101.2246954946166
 20
69.19224963636148
 30
0.0
  0
LINE
  5
109
330
1F
100
AcDbEntity
  8
0
  6
Continuous
 62
     7
370
    25
100
AcDbLine
 10
101.1274942023
 20
69.2925597551
 30
0.0
 11
101.1274942023
 21
72.7925593974
 31
0.0
  0
LINE
  5
10A
330
1F
100
AcDbEntity
  8
0
  6
Continuous
 62
     7
370
    25
100
AcDbLine
 10
101.1274942023
 20
54.7925601723
 30
0.0
 11
101.1274942023
 21
58.2925598147
 31
0.0
  0
SPLINE
  5
10B
330
1F
100
AcDbEntity
  8
0
  6
Continuous
 62
     7
370
    25
100
AcDbSpline
210
0.0
220
0.0
230
1.0
 70
     8
 71
     3
 72
     8
 73
     4
 74
     0
 42
0.000000001
 43
0.00000001
 40
0.0
 40
0.0
 40
0.0
 40
0.0
 40
1.0
 40
1.0
 40
1.0
 40
1.0
 10
101.2246954946166
 20
58.39286993336969
 30
0.0
 10
101.1568590770405
 20
58.3615069923589
 30
0.0
 10
101.1274943699626
 20
58.32803883170935
 30
0.0
 10
101.1274943699626
 20
58.29255978486558
 30
0.0
  0
SPLINE
  5
10C
330
1F
100
AcDbEntity
  8
0
  6
Continuous
 62
     7
370
    25
100
AcDbSpline
210
0.0
220
0.0
230
1.0
 70
     8
 71
     3
 72
    12
 73
     8
 74
     0
 42
0.000000001
 43
0.00000001
 40
0.0
 40
0.0
 40
0.0
 40
0.0
 40
0.5000000000000001
 40
0.5000000000000001
 40
0.75
 40
0.75
 40
1.0
 40
1.0
 40
1.0
 40
1.0
 10
101.2246954946166
 20
58.39286993336969
 30
0.0
 10
101.2925652546264
 20
58.42424828965178
 30
0.0
 10
101.3685998058801
 20
58.55795681015033
 30
0.0
 10
101.4152444042571
 20
58.83598291981611
 30
0.0
 10
101.4196834007797
 20
58.94282910382007
 30
0.0
 10
101.4039527869869
 20
59.16971057787582
 30
0.0
 10
101.3840723570445
 20
59.28987955018043
 30
0.0
 10
101.3565804370647
 20
59.41132919499068
 30
0.0
  0
LINE
  5
10D
330
1F
100
AcDbEntity
  8
0
  6
Continuous
 62
     7
370
    25
100
AcDbLine
 10
103.6274941464
 20
73.542559986
 30
0.0
 11
103.6274941464
 21
54.0425595837
 31
0.0
  0
LINE
  5
10E
330
1F
100
AcDbEntity
  8
0
  6
Continuous
 62
     7
370
    25
100
AcDbLine
 10
103.3774945711
 20
53.7925600084
 30
0.0
 11
103.3774945711
 21
73.7925595613
 31
0.0
  0
LINE
  5
10F
330
1F
100
AcDbEntity
  8
0
  6
Continuous
 62
     7
370
    25
100
AcDbLine
 10
83.6274945935
 20
63.7925597849
 30
0.0
 11
83.6274945935
 21
73.2925594794
 31
0.0
  0
LINE
  5
110
330
1F
100
AcDbEntity
  8
0
  6
Continuous
 62
     7
370
    25
100
AcDbLine
 10
83.6274945935
 20
54.2925600903
 30
0.0
 11
83.6274945935
 21
63.7925597849
 31
0.0
  0
LINE
  5
111
330
1F
100
AcDbEntity
  8
0
  6
Continuous
 62
     7
370
    25
100
AcDbLine
 10
101.1274942023
 20
63.7925597849
 30
0.0
 11
100.627494586
 21
63.7925597849
 31
0.0
  0
SPLINE
  5
112
330
1F
100
AcDbEntity
  8
0
  6
Continuous
 62
     7
370
    25
100
AcDbSpline
210
0.0
220
0.0
230
1.0
 70
     8
 71
     3
 72
    14
 73
    10
 74
     0
 42
0.000000001
 43
0.00000001
 40
0.0
 40
0.0
 40
0.0
 40
0.0
 40
0.25
 40
0.25
 40
0.5
 40
0.5
 40
0.75
 40
0.75
 40
1.0
 40
1.0
 40
1.0
 40
1.0
 10
100.6274943699626
 20
63.79255978486557
 30
0.0
 10
100.6274943699626
 20
64.16907649695256
 30
0.0
 10
100.627085108243
 20
64.54561255458151
 30
0.0
 10
100.6303964563489
 20
65.2984894534301
 30
0.0
 10
100.6341599418135
 20
65.67482826794544
 30
0.0
 10
100.6599331975932
 20
66.42664340666059
 30
0.0
 10
100.6818512922717
 20
66.8021240643096
 30
0.0
 10
100.767068955457
 20
67.55112930357828
 30
0.0
 10
100.8303819416079
 20
67.92673721901971
 30
0.0
 10
100.932942459432
 20
68.29255978486557
 30
0.0
  0
LWPOLYLINE
  5
113
330
1F
100
AcDbEntity
  8
0
  6
Continuous
 62
     7
370
    25
100
AcDbPolyline
 90
        9
 70
   128
 43
0.0
 10
101.3565804636
 20
68.1737903515
 10
101.322093123
 20
68.1834588768
 10
101.2805798849
 20
68.195097615
 10
101.2327904639
 20
68.2084956216
 10
101.1795877305
 20
68.2234112183
 10
101.1219314126
 20
68.2395757186
 10
101.0608631944
 20
68.2566962214
 10
100.9974852962
 20
68.2744649248
 10
100.9329423135
 20
68.2925595912
  0
LWPOLYLINE
  5
114
330
1F
100
AcDbEntity
  8
0
  6
Continuous
 62
     7
370
    25
100
AcDbPolyline
 90
        9
 70
   128
 43
0.0
 10
101.3565804636
 20
59.4113292182
 10
101.322093123
 20
59.4016606929
 10
101.2805798849
 20
59.3900219547
 10
101.2327904639
 20
59.3766239481
 10
101.1795877305
 20
59.3617083514
 10
101.1219314126
 20
59.3455438512
 10
101.0608631944
 20
59.3284233483
 10
100.9974852962
 20
59.3106546449
 10
100.9329423135
 20
59.2925599786
  0
SPLINE
  5
115
330
1F
100
AcDbEntity
  8
0
  6
Continuous
 62
     7
370
    25
100
AcDbSpline
210
0.0
220
0.0
230
1.0
 70
     8
 71
     3
 72
    14
 73
    10
 74
     0
 42
0.000000001
 43
0.00000001
 40
0.0
 40
0.0
 40
0.0
 40
0.0
 40
0.25
 40
0.25
 40
0.5
 40
0.5
 40
0.75
 40
0.75
 40
1.0
 40
1.0
 40
1.0
 40
1.0
 10
100.932942459432
 20
59.29255978486558
 30
0.0
 10
100.8303819416079
 20
59.65838235071143
 30
0.0
 10
100.767068955457
 20
60.03399026615288
 30
0.0
 10
100.6818512922717
 20
60.78299550542157
 30
0.0
 10
100.6599331975932
 20
61.15847616307057
 30
0.0
 10
100.6341599418135
 20
61.91029130178573
 30
0.0
 10
100.6303964563489
 20
62.28663011630108
 30
0.0
 10
100.627085108243
 20
63.03950701514965
 30
0.0
 10
100.6274943699626
 20
63.41604307277862
 30
0.0
 10
100.6274943699626
 20
63.79255978486559
 30
0.0
  0
SPLINE
  5
116
330
1F
100
AcDbEntity
  8
0
  6
Continuous
 62
     7
370
    25
100
AcDbSpline
210
0.0
220
0.0
230
1.0
 70
     8
 71
     3
 72
    14
 73
    10
 74
     0
 42
0.000000001
 43
0.00000001
 40
0.0
 40
0.0
 40
0.0
 40
0.0
 40
0.2500000000000001
 40
0.2500000000000001
 40
0.5
 40
0.5
 40
0.75
 40
0.75
 40
1.0
 40
1.0
 40
1.0
 40
1.0
 10
86.62749436996265
 20
63.79255978486559
 30
0.0
 10
86.62749436996265
 20
63.41604307277861
 30
0.0
 10
86.62790363168229
 20
63.03950701514965
 30
0.0
 10
86.6245922835764
 20
62.28663011630107
 30
0.0
 10
86.62082879811175
 20
61.91029130178572
 30
0.0
 10
86.59505554233202
 20
61.15847616307057
 30
0.0
 10
86.57313744765352
 20
60.78299550542157
 30
0.0
 10
86.48791978446823
 20
60.03399026615288
 30
0.0
 10
86.42460679831734
 20
59.65838235071143
 30
0.0
 10
86.32204628049325
 20
59.29255978486558
 30
0.0
  0
LWPOLYLINE
  5
117
330
1F
100
AcDbEntity
  8
0
  6
Continuous
 62
     7
370
    25
100
AcDbPolyline
 90
        9
 70
   128
 43
0.0
 10
86.3220464265
 20
59.2925599786
 10
86.2575034437
 20
59.3106546449
 10
86.1941255455
 20
59.3284233483
 10
86.1330573273
 20
59.3455438512
 10
86.0754010094
 20
59.3617083514
 10
86.022198276
 20
59.3766239481
 10
85.9744088551
 20
59.3900219547
 10
85.932895617
 20
59.4016606929
 10
85.8984082764
 20
59.4113292182
  0
LINE
  5
118
330
1F
100
AcDbEntity
  8
0
  6
Continuous
 62
     7
370
    25
100
AcDbLine
 10
86.6274941539
 20
63.7925597849
 30
0.0
 11
86.1274945376
 21
63.7925597849
 31
0.0
  0
SPLINE
  5
119
330
1F
100
AcDbEntity
  8
0
  6
Continuous
 62
     7
370
    25
100
AcDbSpline
210
0.0
220
0.0
230
1.0
 70
     8
 71
     3
 72
    14
 73
    10
 74
     0
 42
0.000000001
 43
0.00000001
 40
0.0
 40
0.0
 40
0.0
 40
0.0
 40
0.2499999999999999
 40
0.2499999999999999
 40
0.4999999999999998
 40
0.4999999999999998
 40
0.7499999999999999
 40
0.7499999999999999
 40
1.0
 40
1.0
 40
1.0
 40
1.0
 10
86.32204628049325
 20
68.29255978486557
 30
0.0
 10
86.42460679831736
 20
67.92673721901971
 30
0.0
 10
86.48791978446823
 20
67.55112930357828
 30
0.0
 10
86.57313744765352
 20
66.8021240643096
 30
0.0
 10
86.59505554233202
 20
66.42664340666059
 30
0.0
 10
86.62082879811175
 20
65.67482826794543
 30
0.0
 10
86.6245922835764
 20
65.29848945343008
 30
0.0
 10
86.62790363168229
 20
64.54561255458151
 30
0.0
 10
86.62749436996265
 20
64.16907649695254
 30
0.0
 10
86.62749436996265
 20
63.79255978486556
 30
0.0
  0
LWPOLYLINE
  5
11A
330
1F
100
AcDbEntity
  8
0
  6
Continuous
 62
     7
370
    25
100
AcDbPolyline
 90
        9
 70
   128
 43
0.0
 10
86.3220464265
 20
68.2925595912
 10
86.2575034437
 20
68.2744649248
 10
86.1941255455
 20
68.2566962214
 10
86.1330573273
 20
68.2395757186
 10
86.0754010094
 20
68.2234112183
 10
86.022198276
 20
68.2084956216
 10
85.9744088551
 20
68.195097615
 10
85.932895617
 20
68.1834588768
 10
85.8984082764
 20
68.1737903515
  0
SPLINE
  5
11B
330
1F
100
AcDbEntity
  8
0
  6
Continuous
 62
     7
370
    25
100
AcDbSpline
210
0.0
220
0.0
230
1.0
 70
     8
 71
     3
 72
    14
 73
    10
 74
     0
 42
0.000000001
 43
0.00000001
 40
0.0
 40
0.0
 40
0.0
 40
0.0
 40
0.25
 40
0.25
 40
0.5
 40
0.5
 40
0.75
 40
0.75
 40
1.0
 40
1.0
 40
1.0
 40
1.0
 10
100.7570958695012
 20
68.79255978486557
 30
0.0
 10
100.7955713531228
 20
68.79255978486557
 30
0.0
 10
100.8366602745928
 20
68.78177321388236
 30
0.0
 10
100.9159431220334
 20
68.7388414268172
 30
0.0
 10
100.9532260231438
 20
68.70742391851232
 30
0.0
 10
101.0060317824556
 20
68.61610907293611
 30
0.0
 10
101.0180010425492
 20
68.55487859017185
 30
0.0
 10
100.9979992541771
 20
68.42401522951613
 30
0.0
 10
100.9685427986248
 20
68.35605111517854
 30
0.0
 10
100.932942459432
 20
68.29255978486557
 30
0.0
  0
ARC
  5
11C
330
1F
100
AcDbEntity
  8
0
  6
Continuous
 62
     7
370
    25
100
AcDbCircle
 10
100.7485471258
 20
69.275929508
 30
0.0
 40
0.4834454273381095
100
AcDbArc
 50
271.0132315313
 51
350.0324555796
  0
SPLINE
  5
11D
330
1F
100
AcDbEntity
  8
0
  6
Continuous
 62
     7
370
    25
100
AcDbSpline
210
0.0
220
0.0
230
1.0
 70
     8
 71
     3
 72
    14
 73
    10
 74
     0
 42
0.000000001
 43
0.00000001
 40
0.0
 40
0.0
 40
0.0
 40
0.0
 40
0.25
 40
0.25
 40
0.5
 40
0.5
 40
0.75
 40
0.75
 40
1.0
 40
1.0
 40
1.0
 40
1.0
 10
86.49789287042407
 20
58.79255978486558
 30
0.0
 10
86.45941738680247
 20
58.79255978486558
 30
0.0
 10
86.41832846533245
 20
58.8033463558488
 30
0.0
 10
86.3390456178919
 20
58.84627814291395
 30
0.0
 10
86.30176271678144
 20
58.87769565121883
 30
0.0
 10
86.24895695746966
 20
58.96901049679504
 30
0.0
 10
86.23698769737604
 20
59.03024097955931
 30
0.0
 10
86.25698948574818
 20
59.16110434021503
 30
0.0
 10
86.2864459413005
 20
59.22906845455261
 30
0.0
 10
86.32204628049325
 20
59.29255978486558
 30
0.0
  0
ARC
  5
11E
330
1F
100
AcDbEntity
  8
0
  6
Continuous
 62
     7
370
    25
100
AcDbCircle
 10
86.5064416141
 20
58.3091900617
 30
0.0
 40
0.4834454273381052
100
AcDbArc
 50
91.0132315313
 51
170.0324555796
  0
ARC
  5
11F
330
1F
100
AcDbEntity
  8
0
  6
Continuous
 62
     7
370
    25
100
AcDbCircle
 10
100.7485471258
 20
58.3091900617
 30
0.0
 40
0.4834454273380913
100
AcDbArc
 50
9.9675444204
 51
88.9867684688
  0
SPLINE
  5
120
330
1F
100
AcDbEntity
  8
0
  6
Continuous
 62
     7
370
    25
100
AcDbSpline
210
0.0
220
0.0
230
1.0
 70
     8
 71
     3
 72
    16
 73
    12
 74
     0
 42
0.000000001
 43
0.00000001
 40
0.0
 40
0.0
 40
0.0
 40
0.0
 40
0.2500000000000008
 40
0.2500000000000008
 40
0.3750000000000017
 40
0.3750000000000017
 40
0.5000000000000026
 40
0.5000000000000026
 40
0.7500000000000012
 40
0.7500000000000012
 40
1.0
 40
1.0
 40
1.0
 40
1.0
 10
100.932942459432
 20
59.29255978486558
 30
0.0
 10
100.9684963888807
 20
59.22915122388738
 30
0.0
 10
100.9977685301094
 20
59.16188392356657
 30
0.0
 10
101.0129810803302
 20
59.06344461242423
 30
0.0
 10
101.0130417485038
 20
59.03096920606895
 30
0.0
 10
101.0028311640265
 20
58.97234399894274
 30
0.0
 10
100.9930478345012
 20
58.94672118738975
 30
0.0
 10
100.9538832859693
 20
58.8785123436943
 30
0.0
 10
100.916010212696
 20
58.84634958852853
 30
0.0
 10
100.8369372397044
 20
58.80346136941264
 30
0.0
 10
100.7955501071136
 20
58.79255978486558
 30
0.0
 10
100.7570958695012
 20
58.79255978486558
 30
0.0
  0
SPLINE
  5
121
330
1F
100
AcDbEntity
  8
0
  6
Continuous
 62
     7
370
    25
100
AcDbSpline
210
0.0
220
0.0
230
1.0
 70
     8
 71
     3
 72
    16
 73
    12
 74
     0
 42
0.000000001
 43
0.00000001
 40
0.0
 40
0.0
 40
0.0
 40
0.0
 40
0.2500000000000011
 40
0.2500000000000011
 40
0.3749999999999992
 40
0.3749999999999992
 40
0.4999999999999974
 40
0.4999999999999974
 40
0.7499999999999987
 40
0.7499999999999987
 40
1.0
 40
1.0
 40
1.0
 40
1.0
 10
86.32204628049325
 20
68.29255978486557
 30
0.0
 10
86.2864923510446
 20
68.35596834584378
 30
0.0
 10
86.2572202098159
 20
68.4232356461646
 30
0.0
 10
86.24200765959503
 20
68.52167495730693
 30
0.0
 10
86.24194699142149
 20
68.55415036366222
 30
0.0
 10
86.2521575758988
 20
68.61277557078841
 30
0.0
 10
86.26194090542405
 20
68.6383983823414
 30
0.0
 10
86.30110545395598
 20
68.70660722603687
 30
0.0
 10
86.33897852722924
 20
68.73876998120262
 30
0.0
 10
86.41805150022083
 20
68.78165820031852
 30
0.0
 10
86.45943863281167
 20
68.79255978486557
 30
0.0
 10
86.49789287042407
 20
68.79255978486557
 30
0.0
  0
ARC
  5
122
330
1F
100
AcDbEntity
  8
0
  6
Continuous
 62
     7
370
    25
100
AcDbCircle
 10
86.5064416141
 20
69.275929508
 30
0.0
 40
0.4834454273381097
100
AcDbArc
 50
189.9675444204
 51
268.9867684687
  0
LINE
  5
123
330
1F
100
AcDbEntity
  8
0
  6
Continuous
 62
     7
370
    25
100
AcDbLine
 10
86.3220464265
 20
59.2925599786
 30
0.0
 11
100.9329423135
 21
59.2925599786
 31
0.0
  0
LINE
  5
124
330
1F
100
AcDbEntity
  8
0
  6
Continuous
 62
     7
370
    25
100
AcDbLine
 10
100.9329423135
 20
68.2925595912
 30
0.0
 11
86.3220464265
 21
68.2925595912
 31
0.0
  0
LINE
  5
125
330
1F
100
AcDbEntity
  8
0
  6
Continuous
 62
     7
370
    25
100
AcDbLine
 10
86.4978927014
 20
68.7925596731
 30
0.0
 11
100.7570960385
 21
68.7925596731
 31
0.0
  0
LINE
  5
126
330
1F
100
AcDbEntity
  8
0
  6
Continuous
 62
     7
370
    25
100
AcDbLine
 10
100.7570960385
 20
58.7925598966
 30
0.0
 11
86.4978927014
 21
58.7925598966
 31
0.0
  0
ARC
  5
127
330
1F
100
AcDbEntity
  8
0
  6
Continuous
 62
     7
370
    25
100
AcDbCircle
 10
86.62749437
 20
69.2925597849
 30
0.0
 40
0.5
100
AcDbArc
 50
180.0
 51
270.0
  0
ARC
  5
128
330
1F
100
AcDbEntity
  8
0
  6
Continuous
 62
     7
370
    25
100
AcDbCircle
 10
86.62749437
 20
58.2925597849
 30
0.0
 40
0.5
100
AcDbArc
 50
90.0
 51
180.0
  0
ARC
  5
129
330
1F
100
AcDbEntity
  8
0
  6
Continuous
 62
     7
370
    25
100
AcDbCircle
 10
100.62749437
 20
58.2925597849
 30
0.0
 40
0.5
100
AcDbArc
 50
0.0
 51
90.0
  0
ARC
  5
12A
330
1F
100
AcDbEntity
  8
0
  6
Continuous
 62
     7
370
    25
100
AcDbCircle
 10
100.62749437
 20
69.2925597849
 30
0.0
 40
0.5
100
AcDbArc
 50
270.0
 51
0.0
  0
LINE
  5
12B
330
1F
100
AcDbEntity
  8
0
  6
Continuous
 62
     7
370
    25
100
AcDbLine
 10
100.627494586
 20
58.7925598966
 30
0.0
 11
100.627494586
 21
58.5981151099
 31
0.0
  0
LINE
  5
12C
330
1F
100
AcDbEntity
  8
0
  6
Continuous
 62
     7
370
    25
100
AcDbLine
 10
100.627494586
 20
58.5981151099
 30
0.0
 11
86.6274941539
 21
58.5981151099
 31
0.0
  0
LINE
  5
12D
330
1F
100
AcDbEntity
  8
0
  6
Continuous
 62
     7
370
    25
100
AcDbLine
 10
86.6274941539
 20
58.7925598966
 30
0.0
 11
86.6274941539
 21
58.5981151099
 31
0.0
  0
LWPOLYLINE
  5
12E
330
1F
100
AcDbEntity
  8
0
  6
Continuous
 62
     7
370
    25
100
AcDbPolyline
 90
        9
 70
   128
 43
0.0
 10
100.627494586
 20
58.5981151099
 10
100.7250394498
 20
58.5922440524
 10
100.818836206
 20
58.5748562599
 10
100.9052797047
 20
58.5466199564
 10
100.9810479184
 20
58.5086201327
 10
101.0432290671
 20
58.4623175683
 10
101.0894343083
 20
58.4094906235
 10
101.1178871443
 20
58.352170513
 10
101.1274942023
 20
58.2925598147
  0
LWPOLYLINE
  5
12F
330
1F
100
AcDbEntity
  8
0
  6
Continuous
 62
     7
370
    25
100
AcDbPolyline
 90
        9
 70
   128
 43
0.0
 10
86.1274945376
 20
58.2925598147
 10
86.1371015956
 20
58.352170513
 10
86.1655544316
 20
58.4094906235
 10
86.2117596728
 20
58.4623175683
 10
86.2739408215
 20
58.5086201327
 10
86.3497090352
 20
58.5466199564
 10
86.436152534
 20
58.5748562599
 10
86.5299492901
 20
58.5922440524
 10
86.6274941539
 20
58.5981151099
  0
LWPOLYLINE
  5
130
330
1F
100
AcDbEntity
  8
0
  6
Continuous
 62
     7
370
    25
100
AcDbPolyline
 90
        9
 70
   128
 43
0.0
 10
86.6274941539
 20
68.9870044599
 10
86.5299492901
 20
68.9928755174
 10
86.436152534
 20
69.0102633098
 10
86.3497090352
 20
69.0384996133
 10
86.2739408215
 20
69.076499437
 10
86.2117596728
 20
69.1228020015
 10
86.1655544316
 20
69.1756289462
 10
86.1371015956
 20
69.2329490567
 10
86.1274945376
 20
69.2925597551
  0
LWPOLYLINE
  5
131
330
1F
100
AcDbEntity
  8
0
  6
Continuous
 62
     7
370
    25
100
AcDbPolyline
 90
        9
 70
   128
 43
0.0
 10
101.1274942023
 20
69.2925597551
 10
101.1178871443
 20
69.2329490567
 10
101.0894343083
 20
69.1756289462
 10
101.0432290671
 20
69.1228020015
 10
100.9810479184
 20
69.076499437
 10
100.9052797047
 20
69.0384996133
 10
100.818836206
 20
69.0102633098
 10
100.7250394498
 20
68.9928755174
 10
100.627494586
 20
68.9870044599
  0
LINE
  5
132
330
1F
100
AcDbEntity
  8
0
  6
Continuous
 62
     7
370
    25
100
AcDbLine
 10
86.6274941539
 20
68.9870044599
 30
0.0
 11
86.6274941539
 21
68.7925596731
 31
0.0
  0
LINE
  5
133
330
1F
100
AcDbEntity
  8
0
  6
Continuous
 62
     7
370
    25
100
AcDbLine
 10
100.627494586
 20
68.9870044599
 30
0.0
 11
100.627494586
 21
68.7925596731
 31
0.0
  0
LINE
  5
134
330
1F
100
AcDbEntity
  8
0
  6
Continuous
 62
     7
370
    25
100
AcDbLine
 10
86.6274941539
 20
68.9870044599
 30
0.0
 11
100.627494586
 21
68.9870044599
 31
0.0
  0
LINE
  5
135
330
1F
100
AcDbEntity
  8
0
  6
Continuous
 62
     7
370
    25
100
AcDbLine
 10
75.7916202595
 20
57.2931016805
 30
0.0
 11
75.7916202595
 21
70.2920178892
 31
0.0
  0
LINE
  5
136
330
1F
100
AcDbEntity
  8
0
  6
Continuous
 62
     7
370
    25
100
AcDbLine
 10
73.627494817
 20
63.7925597849
 30
0.0
 11
73.627494817
 21
69.0425597141
 31
0.0
  0
LINE
  5
137
330
1F
100
AcDbEntity
  8
0
  6
Continuous
 62
     7
370
    25
100
AcDbLine
 10
73.627494817
 20
58.5425598556
 30
0.0
 11
73.627494817
 21
63.7925597849
 31
0.0
  0
LINE
  5
138
330
1F
100
AcDbEntity
  8
0
  6
Continuous
 62
     8
370
    25
100
AcDbLine
 10
100.627494586
 20
55.2925593229
 30
0.0
 11
100.627494586
 21
58.5981151099
 31
0.0
  0
LINE
  5
139
330
1F
100
AcDbEntity
  8
0
  6
Continuous
 62
     8
370
    25
100
AcDbLine
 10
86.6274941539
 20
58.5981151099
 30
0.0
 11
86.6274941539
 21
55.2925593229
 31
0.0
  0
LINE
  5
13A
330
1F
100
AcDbEntity
  8
0
  6
Continuous
 62
     8
370
    25
100
AcDbLine
 10
86.6274941539
 20
72.2925602468
 30
0.0
 11
86.6274941539
 21
68.9870044599
 31
0.0
  0
LINE
  5
13B
330
1F
100
AcDbEntity
  8
0
  6
Continuous
 62
     8
370
    25
100
AcDbLine
 10
100.627494586
 20
68.9870044599
 30
0.0
 11
100.627494586
 21
72.2925602468
 31
0.0
  0
LWPOLYLINE
  5
13C
330
1F
100
AcDbEntity
  8
0
  6
Continuous
 62
     8
370
    25
100
AcDbPolyline
 90
       26
 70
   128
 43
0.0
 10
100.0098153775
 20
72.2806970598
 10
99.9955912878
 20
72.2711603167
 10
99.9590555032
 20
72.2467177557
 10
99.7393234459
 20
72.1012265431
 10
99.3683739392
 20
71.8617695393
 10
98.8857514051
 20
71.5628336193
 10
98.2875591902
 20
71.2144873115
 10
97.5087558211
 20
70.803378244
 10
96.6068069277
 20
70.3980224217
 10
95.7965751471
 20
70.1101031164
 10
94.9085355563
 20
69.8899757127
 10
94.1519611691
 20
69.7892289618
 10
93.3626101935
 20
69.7739706384
 10
92.6008119307
 20
69.8468890051
 10
91.8456543762
 20
70.001156536
 10
90.9116119904
 20
70.2959368946
 10
90.034586686
 20
70.6649092036
 10
89.2575011415
 20
71.0553829568
 10
88.5650306766
 20
71.4459717283
 10
88.0263788452
 20
71.7736738744
 10
87.5999942248
 20
72.0460941093
 10
87.3677414668
 20
72.1988850283
 10
87.2434727674
 20
72.281835136
 10
87.2279881326
 20
72.2922277646
 10
87.2274945316
 20
72.2925602468
 10
87.2274945316
 20
72.2925602468
  0
SPLINE
  5
13D
330
1F
100
AcDbEntity
  8
0
  6
Continuous
 62
     8
370
    25
100
AcDbSpline
210
0.0
220
0.0
230
1.0
 70
     8
 71
     3
 72
    31
 73
    27
 74
     0
 42
0.000000001
 43
0.00000001
 40
0.0
 40
0.0
 40
0.0
 40
0.0
 40
0.0037711187155444
 40
0.049992002729545
 40
0.097936429388211
 40
0.1050761840256164
 40
0.1549313305626538
 40
0.2062490225881484
 40
0.2581672983497533
 40
0.3112119050157137
 40
0.3615217123260921
 40
0.4131127109614008
 40
0.4497246541022342
 40
0.4873170705379007
 40
0.5237922493394346
 40
0.5614399427421355
 40
0.6059060778355246
 40
0.6516358760110008
 40
0.7059316929466103
 40
0.76152621211828
 40
0.8094471703882749
 40
0.858397299422234
 40
0.9060541990676286
 40
0.9552753251553713
 40
0.9694482414587082
 40
1.0
 40
1.0
 40
1.0
 40
1.0
 10
87.72749414793533
 20
72.7925593974354
 30
0.0
 10
87.72759279435542
 20
72.79248346444604
 30
0.0
 10
87.72890050500432
 20
72.79147685540053
 30
0.0
 10
87.78636633568232
 20
72.74705254580519
 30
0.0
 10
87.9429839719163
 20
72.62748139102999
 30
0.0
 10
88.15792271708364
 20
72.46631429220248
 30
0.0
 10
88.43549019091374
 20
72.26111493289035
 30
0.0
 10
88.94540636383155
 20
71.9017414166462
 30
0.0
 10
89.57088728344391
 20
71.49212708842516
 30
0.0
 10
90.28716158613392
 20
71.07261535685798
 30
0.0
 10
91.09017492151983
 20
70.6764042475703
 30
0.0
 10
91.88594346596753
 20
70.37855022483461
 30
0.0
 10
92.66226360162187
 20
70.19153593995503
 30
0.0
 10
93.37470287597507
 20
70.10998009064882
 30
0.0
 10
94.10206376679974
 20
70.1252166495228
 30
0.0
 10
94.85766718782203
 20
70.24210449349476
 30
0.0
 10
95.62951273864596
 20
70.46634984527995
 30
0.0
 10
96.43309281900531
 20
70.7995438017436
 30
0.0
 10
97.21366512452784
 20
71.20892796171806
 30
0.0
 10
97.90836316893608
 20
71.63501527325366
 30
0.0
 10
98.48428938319003
 20
72.02286361037972
 30
0.0
 10
98.93472427380668
 20
72.34532113284403
 30
0.0
 10
99.2781638609965
 20
72.60143508907696
 30
0.0
 10
99.43677884538485
 20
72.72276599659017
 30
0.0
 10
99.51580867653942
 20
72.7835275712283
 30
0.0
 10
99.51413326400883
 20
72.78225205037117
 30
0.0
 10
99.51298877722901
 20
72.78138073257229
 30
0.0
  0
LINE
  5
13E
330
1F
100
AcDbEntity
  8
0
  6
Continuous
 62
     7
370
     0
100
AcDbLine
 10
74.3276791382
 20
69.4468116493
 30
0.0
 11
83.12749437
 21
69.7218058753
 31
0.0
  0
LINE
  5
13F
330
1F
100
AcDbEntity
  8
0
  6
Continuous
 62
     7
370
     0
100
AcDbLine
 10
74.3276791382
 20
58.1383079205
 30
0.0
 11
83.12749437
 21
57.8633136945
 31
0.0
  0
LINE
  5
140
330
1F
100
AcDbEntity
  8
0
  6
Continuous
 62
     7
370
     0
100
AcDbLine
 10
83.12749437
 20
57.0638554813
 30
0.0
 11
83.12749437
 21
70.5212640884
 31
0.0
  0
LINE
  5
141
330
1F
100
AcDbEntity
  8
0
  6
CENTERX2
 62
     7
370
    18
100
AcDbLine
 10
72.1105202336
 20
63.7925597849
 30
0.0
 11
135.62749437
 21
63.7925597849
 31
0.0
  0
LINE
  5
142
330
1F
100
AcDbEntity
  8
0
  6
CENTERX2
 62
     7
370
    18
100
AcDbLine
 10
93.62749437
 20
51.7925597849
 30
0.0
 11
93.62749437
 21
93.3124049074
 31
0.0
  0
ARC
  5
143
330
1F
100
AcDbEntity
  8
0
  6
Continuous
 62
     7
370
    25
100
AcDbCircle
 10
172.4534078932
 20
90.8925597848
 30
0.0
 40
0.25
100
AcDbArc
 50
0.0
 51
90.0
  0
ARC
  5
144
330
1F
100
AcDbEntity
  8
0
  6
Continuous
 62
     7
370
    25
100
AcDbCircle
 10
161.9534078932
 20
90.8925597848
 30
0.0
 40
0.25
100
AcDbArc
 50
90.0
 51
180.0
  0
LINE
  5
145
330
1F
100
AcDbEntity
  8
0
  6
Continuous
 62
     7
370
    25
100
AcDbLine
 10
172.7034078634
 20
90.2925594719
 30
0.0
 11
172.7034078634
 21
90.8925603153
 31
0.0
  0
LINE
  5
146
330
1F
100
AcDbEntity
  8
0
  6
Continuous
 62
     7
370
    25
100
AcDbLine
 10
161.7034079231
 20
90.8925603153
 30
0.0
 11
161.7034079231
 21
90.2925594719
 31
0.0
  0
LINE
  5
147
330
1F
100
AcDbEntity
  8
0
  6
Continuous
 62
     7
370
    25
100
AcDbLine
 10
174.6534078105
 20
82.2925600233
 30
0.0
 11
172.7034078634
 21
90.2925594719
 31
0.0
  0
LINE
  5
148
330
1F
100
AcDbEntity
  8
0
  6
Continuous
 62
     7
370
    25
100
AcDbLine
 10
161.7034079231
 20
90.2925594719
 30
0.0
 11
159.753407976
 21
82.2925600233
 31
0.0
  0
LINE
  5
149
330
1F
100
AcDbEntity
  8
0
  6
Continuous
 62
     7
370
    25
100
AcDbLine
 10
159.753407976
 20
82.2925600233
 30
0.0
 11
160.2034076772
 21
74.2925596433
 31
0.0
  0
LINE
  5
14A
330
1F
100
AcDbEntity
  8
0
  6
Continuous
 62
     7
370
    25
100
AcDbLine
 10
174.2034081093
 20
74.2925596433
 30
0.0
 11
174.6534078105
 21
82.2925600233
 31
0.0
  0
LINE
  5
14B
330
1F
100
AcDbEntity
  8
0
  6
Continuous
 62
     7
370
    25
100
AcDbLine
 10
173.1034081153
 20
72.7906539114
 30
0.0
 11
173.1034081153
 21
74.2925596433
 31
0.0
  0
LINE
  5
14C
330
1F
100
AcDbEntity
  8
0
  6
Continuous
 62
     7
370
    25
100
AcDbLine
 10
161.3034076712
 20
74.2925596433
 30
0.0
 11
161.3034076712
 21
71.8665919276
 31
0.0
  0
ARC
  5
14D
330
1F
100
AcDbEntity
  8
0
  6
Continuous
 62
     7
370
    25
100
AcDbCircle
 10
172.9034078932
 20
72.3343022152
 30
0.0
 40
0.5000000000000135
100
AcDbArc
 50
359.992141364
 51
66.3930114283
  0
LINE
  5
14E
330
1F
100
AcDbEntity
  8
0
  6
Continuous
 62
     7
370
    25
100
AcDbLine
 10
170.7034080013
 20
91.1425589593
 30
0.0
 11
172.4534078225
 21
91.1425589593
 31
0.0
  0
LINE
  5
14F
330
1F
100
AcDbEntity
  8
0
  6
Continuous
 62
     7
370
    25
100
AcDbLine
 10
161.953407964
 20
91.1425589593
 30
0.0
 11
163.7034077852
 21
91.1425589593
 31
0.0
  0
LINE
  5
150
330
1F
100
AcDbEntity
  8
0
  6
Continuous
 62
     7
370
    25
100
AcDbLine
 10
170.7034080013
 20
90.2925594719
 30
0.0
 11
172.7034078634
 21
90.2925594719
 31
0.0
  0
LINE
  5
151
330
1F
100
AcDbEntity
  8
0
  6
Continuous
 62
     7
370
    25
100
AcDbLine
 10
161.7034079231
 20
90.2925594719
 30
0.0
 11
163.7034077852
 21
90.2925594719
 31
0.0
  0
LINE
  5
152
330
1F
100
AcDbEntity
  8
0
  6
Continuous
 62
     7
370
    25
100
AcDbLine
 10
163.7034077852
 20
92.2925597998
 30
0.0
 11
170.7034080013
 21
92.2925597998
 31
0.0
  0
LINE
  5
153
330
1F
100
AcDbEntity
  8
0
  6
Continuous
 62
     7
370
    25
100
AcDbLine
 10
170.7034080013
 20
85.292560515
 30
0.0
 11
170.7034080013
 21
92.2925597998
 31
0.0
  0
LINE
  5
154
330
1F
100
AcDbEntity
  8
0
  6
Continuous
 62
     7
370
    25
100
AcDbLine
 10
163.7034077852
 20
85.292560515
 30
0.0
 11
170.7034080013
 21
85.292560515
 31
0.0
  0
LINE
  5
155
330
1F
100
AcDbEntity
  8
0
  6
Continuous
 62
     7
370
    25
100
AcDbLine
 10
163.7034077852
 20
92.2925597998
 30
0.0
 11
163.7034077852
 21
85.292560515
 31
0.0
  0
LINE
  5
156
330
1F
100
AcDbEntity
  8
0
  6
Continuous
 62
     7
370
    25
100
AcDbLine
 10
170.7034080013
 20
80.2925596955
 30
0.0
 11
163.7034077852
 21
80.2925596955
 31
0.0
  0
LINE
  5
157
330
1F
100
AcDbEntity
  8
0
  6
Continuous
 62
     7
370
    25
100
AcDbLine
 10
163.7034077852
 20
80.2925596955
 30
0.0
 11
163.7034077852
 21
85.292560515
 31
0.0
  0
LINE
  5
158
330
1F
100
AcDbEntity
  8
0
  6
Continuous
 62
     7
370
    25
100
AcDbLine
 10
170.7034080013
 20
85.292560515
 30
0.0
 11
170.7034080013
 21
80.2925596955
 31
0.0
  0
SPLINE
  5
159
330
1F
100
AcDbEntity
  8
0
  6
Continuous
 62
     7
370
    25
100
AcDbSpline
210
0.0
220
0.0
230
1.0
 70
     8
 71
     3
 72
    11
 73
     7
 74
     0
 42
0.000000001
 43
0.00000001
 40
0.0
 40
0.0
 40
0.0
 40
0.0
 40
0.2488465959137647
 40
0.4976945924499491
 40
0.7488461206779728
 40
1.0
 40
1.0
 40
1.0
 40
1.0
 10
170.7034080012832
 20
80.04473475835344
 30
0.0
 10
170.7080994997307
 20
79.97521060250882
 30
0.0
 10
170.7174825230315
 20
79.83616189950587
 30
0.0
 10
170.7939045633956
 20
79.53583221346614
 30
0.0
 10
170.9116304645671
 20
79.17392386515004
 30
0.0
 10
171.0299394974712
 20
78.87233171053083
 30
0.0
 10
171.0890942908023
 20
78.72153492740414
 30
0.0
  0
LINE
  5
15A
330
1F
100
AcDbEntity
  8
0
  6
Continuous
 62
     7
370
    25
100
AcDbLine
 10
171.0890942908
 20
78.7215349274
 30
0.0
 11
163.3177214957
 21
78.7215349274
 31
0.0
  0
SPLINE
  5
15B
330
1F
100
AcDbEntity
  8
0
  6
Continuous
 62
     7
370
    25
100
AcDbSpline
210
0.0
220
0.0
230
1.0
 70
     8
 71
     3
 72
    11
 73
     7
 74
     0
 42
0.000000001
 43
0.00000001
 40
0.0
 40
0.0
 40
0.0
 40
0.0
 40
0.248860712681952
 40
0.4977192115733558
 40
0.7488602656597823
 40
1.0
 40
1.0
 40
1.0
 40
1.0
 10
163.3177214956973
 20
78.72153492740414
 30
0.0
 10
163.3763750922105
 20
78.87101396443005
 30
0.0
 10
163.4936817634721
 20
79.16997070876103
 30
0.0
 10
163.6117171586379
 20
79.53177446759513
 30
0.0
 10
163.6890721359533
 20
79.83404952702395
 30
0.0
 10
163.6986292438325
 20
79.97450647092747
 30
0.0
 10
163.7034077852164
 20
80.04473475835344
 30
0.0
  0
LINE
  5
15C
330
1F
100
AcDbEntity
  8
0
  6
Continuous
 62
     7
370
    25
100
AcDbLine
 10
163.7034077852
 20
80.0447347584
 30
0.0
 11
163.7034077852
 21
80.2925596955
 31
0.0
  0
LINE
  5
15D
330
1F
100
AcDbEntity
  8
0
  6
Continuous
 62
     7
370
    25
100
AcDbLine
 10
170.7034080013
 20
80.2925596955
 30
0.0
 11
170.7034080013
 21
80.0447347584
 31
0.0
  0
SPLINE
  5
15E
330
1F
100
AcDbEntity
  8
0
  6
Continuous
 62
     7
370
    25
100
AcDbSpline
210
0.0
220
0.0
230
1.0
 70
     8
 71
     3
 72
    17
 73
    13
 74
     0
 42
0.000000001
 43
0.00000001
 40
0.0
 40
0.0
 40
0.0
 40
0.0
 40
0.015561846449589
 40
0.0359292690912283
 40
0.0739045690777559
 40
0.1292602803021116
 40
0.184993852391363
 40
0.2407361090911398
 40
0.4593513138619285
 40
0.6784168665902561
 40
0.8975060046930645
 40
1.0
 40
1.0
 40
1.0
 40
1.0
 10
160.5436854719315
 20
74.29255964330456
 30
0.0
 10
160.5573792981446
 20
74.29775251887051
 30
0.0
 10
160.5889956727497
 20
74.30974185600805
 30
0.0
 10
160.6444717129074
 20
74.42808098444966
 30
0.0
 10
160.7076961102292
 20
74.67819363687671
 30
0.0
 10
160.7710078839494
 20
75.0490982669309
 30
0.0
 10
160.8251179453469
 20
75.4889185042974
 30
0.0
 10
160.9139668518039
 20
76.38033613350962
 30
0.0
 10
161.0225709470446
 20
77.73858228258999
 30
0.0
 10
161.125055213606
 20
79.5768422786303
 30
0.0
 10
161.1947841132188
 20
81.09802347206231
 30
0.0
 10
161.2342443355577
 20
82.00385588107919
 30
0.0
 10
161.2468209772502
 20
82.29256002328417
 30
0.0
  0
SPLINE
  5
15F
330
1F
100
AcDbEntity
  8
0
  6
Continuous
 62
     7
370
    25
100
AcDbSpline
210
0.0
220
0.0
230
1.0
 70
     8
 71
     3
 72
     9
 73
     5
 74
     0
 42
0.000000001
 43
0.00000001
 40
0.0
 40
0.0
 40
0.0
 40
0.0
 40
0.4983244219185156
 40
1.0
 40
1.0
 40
1.0
 40
1.0
 10
161.2468209772502
 20
82.29256002328417
 30
0.0
 10
161.213818258829
 20
82.46635190299644
 30
0.0
 10
161.1475908837105
 20
82.81510438645526
 30
0.0
 10
161.0670602820451
 20
83.12955274202739
 30
0.0
 10
161.0266600459014
 20
83.28730380258581
 30
0.0
  0
ELLIPSE
  5
160
330
1F
100
AcDbEntity
  8
0
  6
Continuous
 62
     7
370
    25
100
AcDbEllipse
 10
98.7034078932
 20
80.6404342172
 30
0.0
 11
65.00000000000003
 21
-7.105427357601003E-14
 31
0.0
210
0.0
220
0.0
230
1.0
 40
0.2713992096
 41
6.084179739699227
 42
6.174194364446294
  0
SPLINE
  5
161
330
1F
100
AcDbEntity
  8
0
  6
Continuous
 62
     7
370
    25
100
AcDbSpline
210
0.0
220
0.0
230
1.0
 70
     8
 71
     3
 72
    13
 73
     9
 74
     0
 42
0.000000001
 43
0.00000001
 40
0.0
 40
0.0
 40
0.0
 40
0.0
 40
0.1610294667108458
 40
0.3266881201944549
 40
0.4877296242753278
 40
0.6535536689976723
 40
0.823760217438079
 40
1.0
 40
1.0
 40
1.0
 40
1.0
 10
162.4205453976188
 20
77.15291390291473
 30
0.0
 10
162.3767418069453
 20
77.0835167588641
 30
0.0
 10
162.2878753840031
 20
76.94272747973498
 30
0.0
 10
162.1588545714141
 20
76.59660341917481
 30
0.0
 10
162.037845046077
 20
76.1573960905555
 30
0.0
 10
161.9311634990402
 20
75.62379448389669
 30
0.0
 10
161.8404969472378
 20
74.99996816725323
 30
0.0
 10
161.8036780504994
 20
74.5310842974091
 30
0.0
 10
161.7849480084274
 20
74.29255964330456
 30
0.0
  0
LINE
  5
162
330
1F
100
AcDbEntity
  8
0
  6
Continuous
 62
     7
370
    25
100
AcDbLine
 10
161.7849480084
 20
74.2925596433
 30
0.0
 11
160.5436854719
 21
74.2925596433
 31
0.0
  0
LINE
  5
163
330
1F
100
AcDbEntity
  8
0
  6
Continuous
 62
     7
370
    25
100
AcDbLine
 10
161.0266600459
 20
83.2873038026
 30
0.0
 11
163.7034077852
 21
83.2873038026
 31
0.0
  0
SPLINE
  5
164
330
1F
100
AcDbEntity
  8
0
  6
Continuous
 62
     7
370
    25
100
AcDbSpline
210
0.0
220
0.0
230
1.0
 70
     8
 71
     3
 72
    17
 73
    13
 74
     0
 42
0.000000001
 43
0.00000001
 40
0.0
 40
0.0
 40
0.0
 40
0.0
 40
0.3241697917523345
 40
0.5422758587479237
 40
0.689509089275669
 40
0.7894035981534984
 40
0.8577089567094359
 40
0.9049823628410104
 40
0.9551711781537311
 40
0.9753097815865951
 40
0.991957189245944
 40
1.0
 40
1.0
 40
1.0
 40
1.0
 10
173.1599948092495
 20
82.29256002328417
 30
0.0
 10
173.2006452137051
 20
81.37994637056752
 30
0.0
 10
173.2686457910122
 20
79.85331321466238
 30
0.0
 10
173.3800793106035
 20
77.92654029729368
 30
0.0
 10
173.4725838432595
 20
76.6389048732012
 30
0.0
 10
173.5504852855275
 20
75.77975315724497
 30
0.0
 10
173.6165374830533
 20
75.20628546948572
 30
0.0
 10
173.6798944326181
 20
74.78475310970612
 30
0.0
 10
173.7380202396028
 20
74.50426124651112
 30
0.0
 10
173.797362900151
 20
74.34871105182454
 30
0.0
 10
173.8343683653541
 20
74.29810163568567
 30
0.0
 10
173.8560632352195
 20
74.29392136255434
 30
0.0
 10
173.8631303145681
 20
74.29255964330456
 30
0.0
  0
LINE
  5
165
330
1F
100
AcDbEntity
  8
0
  6
Continuous
 62
     7
370
    25
100
AcDbLine
 10
173.8631303146
 20
74.2925596433
 30
0.0
 11
172.6218677781
 21
74.2925596433
 31
0.0
  0
SPLINE
  5
166
330
1F
100
AcDbEntity
  8
0
  6
Continuous
 62
     7
370
    25
100
AcDbSpline
210
0.0
220
0.0
230
1.0
 70
     8
 71
     3
 72
    14
 73
    10
 74
     0
 42
0.000000001
 43
0.00000001
 40
0.0
 40
0.0
 40
0.0
 40
0.0
 40
0.1576094553927752
 40
0.315238234353942
 40
0.4726925966125388
 40
0.6301651045756322
 40
0.790731299294198
 40
0.9513051076307096
 40
1.0
 40
1.0
 40
1.0
 40
1.0
 10
172.6218677780722
 20
74.29255964330456
 30
0.0
 10
172.605362598548
 20
74.50606132055154
 30
0.0
 10
172.5723502158966
 20
74.93309085123052
 30
0.0
 10
172.4925462466778
 20
75.51833831074131
 30
0.0
 10
172.3947588068177
 20
76.04049283820437
 30
0.0
 10
172.281168883775
 20
76.48947105228399
 30
0.0
 10
172.1566269848557
 20
76.84875322545597
 30
0.0
 10
172.0562691449416
 20
77.053318967829
 30
0.0
 10
171.9994838111771
 20
77.13411371259828
 30
0.0
 10
171.9862703888808
 20
77.15291390291473
 30
0.0
  0
ELLIPSE
  5
167
330
1F
100
AcDbEntity
  8
0
  6
Continuous
 62
     7
370
    25
100
AcDbEllipse
 10
235.7034078932
 20
80.6404342172
 30
0.0
 11
65.00000000000006
 21
-7.105427357601002E-14
 31
0.0
210
0.0
220
0.0
230
1.0
 40
0.2713992096
 41
3.250583596323193
 42
3.34059822107026
  0
LINE
  5
168
330
1F
100
AcDbEntity
  8
0
  6
Continuous
 62
     7
370
    25
100
AcDbLine
 10
170.7034080013
 20
83.2873038026
 30
0.0
 11
173.3801557406
 21
83.2873038026
 31
0.0
  0
SPLINE
  5
169
330
1F
100
AcDbEntity
  8
0
  6
Continuous
 62
     7
370
    25
100
AcDbSpline
210
0.0
220
0.0
230
1.0
 70
     8
 71
     3
 72
     9
 73
     5
 74
     0
 42
0.000000001
 43
0.00000001
 40
0.0
 40
0.0
 40
0.0
 40
0.0
 40
0.4978404435797771
 40
1.0
 40
1.0
 40
1.0
 40
1.0
 10
173.3801557405983
 20
83.28730380258581
 30
0.0
 10
173.3400526156104
 20
83.13079252279489
 30
0.0
 10
173.2594984430736
 20
82.81641211877327
 30
0.0
 10
173.1932580537628
 20
82.46767946034815
 30
0.0
 10
173.1599948092495
 20
82.29256002328417
 30
0.0
  0
LINE
  5
16A
330
1F
100
AcDbEntity
  8
0
  6
Continuous
 62
     7
370
    25
100
AcDbLine
 10
162.4205453976
 20
77.1529139029
 30
0.0
 11
171.9862703889
 21
77.1529139029
 31
0.0
  0
SPLINE
  5
16B
330
1F
100
AcDbEntity
  8
0
  6
Continuous
 62
     7
370
    25
100
AcDbSpline
210
0.0
220
0.0
230
1.0
 70
     8
 71
     3
 72
    20
 73
    16
 74
     0
 42
0.000000001
 43
0.00000001
 40
0.0
 40
0.0
 40
0.0
 40
0.0
 40
0.0541983892197581
 40
0.108455006629509
 40
0.1748676456855473
 40
0.2413639609389542
 40
0.328094328685751
 40
0.4149092198426188
 40
0.503182920372413
 40
0.591455333622778
 40
0.6906632499013349
 40
0.7897037756433406
 40
0.8506104381268789
 40
0.9114495354756834
 40
0.9999999999999999
 40
0.9999999999999999
 40
0.9999999999999999
 40
0.9999999999999999
 10
169.8014840207194
 20
74.29255964330456
 30
0.0
 10
169.7477667409537
 20
74.3872860286238
 30
0.0
 10
169.6402744701137
 20
74.5768405688175
 30
0.0
 10
169.4038591824546
 20
74.83456389117309
 30
0.0
 10
169.1087924853416
 20
75.06366286903953
 30
0.0
 10
168.7198743072889
 20
75.27204345510913
 30
0.0
 10
168.2578824149791
 20
75.43106370365798
 30
0.0
 10
167.7286746649881
 20
75.52984566688417
 30
0.0
 10
167.1844548085913
 20
75.56105719633851
 30
0.0
 10
166.6150406552209
 20
75.523553428401
 30
0.0
 10
166.0383567636235
 20
75.40460984834925
 30
0.0
 10
165.5480292006837
 20
75.21084449866852
 30
0.0
 10
165.1751591952671
 20
74.97533080656544
 30
0.0
 10
164.8550166486849
 20
74.7015549366609
 30
0.0
 10
164.6982531321458
 20
74.44476910450075
 30
0.0
 10
164.6053317657803
 20
74.29255964330456
 30
0.0
  0
LINE
  5
16C
330
1F
100
AcDbEntity
  8
0
  6
Continuous
 62
     7
370
    25
100
AcDbLine
 10
164.6053317658
 20
74.2925596433
 30
0.0
 11
161.7849480084
 21
74.2925596433
 31
0.0
  0
LINE
  5
16D
330
1F
100
AcDbEntity
  8
0
  6
Continuous
 62
     7
370
    25
100
AcDbLine
 10
172.6218677781
 20
74.2925596433
 30
0.0
 11
169.8014840207
 21
74.2925596433
 31
0.0
  0
LINE
  5
16E
330
1F
100
AcDbEntity
  8
0
  6
Continuous
 62
     7
370
    25
100
AcDbLine
 10
169.8014840207
 20
74.2925596433
 30
0.0
 11
164.6053317658
 21
74.2925596433
 31
0.0
  0
LINE
  5
16F
330
1F
100
AcDbEntity
  8
0
  6
Continuous
 62
     7
370
    25
100
AcDbLine
 10
173.1599948092
 20
82.2925600233
 30
0.0
 11
174.6534078105
 21
82.2925600233
 31
0.0
  0
LINE
  5
170
330
1F
100
AcDbEntity
  8
0
  6
Continuous
 62
     7
370
    25
100
AcDbLine
 10
159.753407976
 20
82.2925600233
 30
0.0
 11
161.2468209773
 21
82.2925600233
 31
0.0
  0
SPLINE
  5
171
330
1F
100
AcDbEntity
  8
0
  6
Continuous
 62
     7
370
    25
100
AcDbSpline
210
0.0
220
0.0
230
1.0
 70
     8
 71
     3
 72
     9
 73
     5
 74
     0
 42
0.000000001
 43
0.00000001
 40
0.0
 40
0.0
 40
0.0
 40
0.0
 40
0.4875149508301391
 40
1.0
 40
1.0
 40
1.0
 40
1.0
 10
173.8631303145681
 20
74.29255964330456
 30
0.0
 10
173.871656367236
 20
74.29428722487604
 30
0.0
 10
173.889145169689
 20
74.29783087326788
 30
0.0
 10
173.905466881996
 20
74.3193491385356
 30
0.0
 10
173.9138315155302
 20
74.3303769277694
 30
0.0
  0
SPLINE
  5
172
330
1F
100
AcDbEntity
  8
0
  6
Continuous
 62
     7
370
    25
100
AcDbSpline
210
0.0
220
0.0
230
1.0
 70
     8
 71
     3
 72
     9
 73
     5
 74
     0
 42
0.000000001
 43
0.00000001
 40
0.0
 40
0.0
 40
0.0
 40
0.0
 40
0.5124863176752154
 40
1.0
 40
1.0
 40
1.0
 40
1.0
 10
160.4929842709695
 20
74.3303769277694
 30
0.0
 10
160.5013488927167
 20
74.3193491389508
 30
0.0
 10
160.5176705416246
 20
74.2978309277552
 30
0.0
 10
160.5351594095362
 20
74.29428723971166
 30
0.0
 10
160.5436854719315
 20
74.29255964330456
 30
0.0
  0
LINE
  5
173
330
1F
100
AcDbEntity
  8
0
  6
Continuous
 62
     7
370
    25
100
AcDbLine
 10
173.9116117082
 20
74.2925596433
 30
0.0
 11
174.2034081093
 21
74.2925596433
 31
0.0
  0
LINE
  5
174
330
1F
100
AcDbEntity
  8
0
  6
Continuous
 62
     7
370
    25
100
AcDbLine
 10
160.2034076772
 20
74.2925596433
 30
0.0
 11
160.4952040783
 21
74.2925596433
 31
0.0
  0
LINE
  5
175
330
1F
100
AcDbEntity
  8
0
  6
Continuous
 62
     7
370
    25
100
AcDbLine
 10
173.9138315155
 20
74.3303769278
 30
0.0
 11
173.9116117082
 21
74.2925596433
 31
0.0
  0
LINE
  5
176
330
1F
100
AcDbEntity
  8
0
  6
Continuous
 62
     7
370
    25
100
AcDbLine
 10
173.9116117082
 20
74.2925596433
 30
0.0
 11
173.8631303146
 21
74.2925596433
 31
0.0
  0
LINE
  5
177
330
1F
100
AcDbEntity
  8
0
  6
Continuous
 62
     7
370
    25
100
AcDbLine
 10
160.4952040783
 20
74.2925596433
 30
0.0
 11
160.492984271
 21
74.3303769278
 31
0.0
  0
LINE
  5
178
330
1F
100
AcDbEntity
  8
0
  6
Continuous
 62
     7
370
    25
100
AcDbLine
 10
160.5436854719
 20
74.2925596433
 30
0.0
 11
160.4952040783
 21
74.2925596433
 31
0.0
  0
CIRCLE
  5
179
330
1F
100
AcDbEntity
  8
0
  6
Continuous
 62
     7
370
    25
100
AcDbCircle
 10
167.2034078932
 20
63.7925597849
 30
0.0
 40
3.099999999999992
  0
CIRCLE
  5
17A
330
1F
100
AcDbEntity
  8
0
  6
Continuous
 62
     7
370
    25
100
AcDbCircle
 10
167.2034078932
 20
63.7925597849
 30
0.0
 40
2.999999999999992
  0
CIRCLE
  5
17B
330
1F
100
AcDbEntity
  8
0
  6
Continuous
 62
     7
370
    25
100
AcDbCircle
 10
167.2034078932
 20
63.7925597849
 30
0.0
 40
4.100000000000021
  0
CIRCLE
  5
17C
330
1F
100
AcDbEntity
  8
0
  6
Continuous
 62
     7
370
    25
100
AcDbCircle
 10
167.2034078932
 20
63.7925597849
 30
0.0
 40
4.579999999999982
  0
CIRCLE
  5
17D
330
1F
100
AcDbEntity
  8
0
  6
Continuous
 62
     7
370
    25
100
AcDbCircle
 10
167.2034078932
 20
63.7925597849
 30
0.0
 40
5.250000000000002
  0
CIRCLE
  5
17E
330
1F
100
AcDbEntity
  8
0
  6
Continuous
 62
     7
370
    25
100
AcDbCircle
 10
167.2034078932
 20
63.7925597849
 30
0.0
 40
7.800000000000012
  0
CIRCLE
  5
17F
330
1F
100
AcDbEntity
  8
0
  6
Continuous
 62
     7
370
    25
100
AcDbCircle
 10
167.2034078932
 20
63.7925597849
 30
0.0
 40
8.000000000000014
  0
CIRCLE
  5
180
330
1F
100
AcDbEntity
  8
0
  6
Continuous
 62
     7
370
    25
100
AcDbCircle
 10
167.2034078932
 20
63.7925597849
 30
0.0
 40
9.75
  0
CIRCLE
  5
181
330
1F
100
AcDbEntity
  8
0
  6
Continuous
 62
     7
370
    25
100
AcDbCircle
 10
167.2034078932
 20
63.7925597849
 30
0.0
 40
10.0
  0
SPLINE
  5
182
330
1F
100
AcDbEntity
  8
0
  6
Continuous
 62
     7
370
    25
100
AcDbSpline
210
0.0
220
0.0
230
1.0
 70
     8
 71
     3
 72
    12
 73
     8
 74
     0
 42
0.000000001
 43
0.00000001
 40
0.0
 40
0.0
 40
0.0
 40
0.0
 40
0.2189570328776399
 40
0.445807827548198
 40
0.6753666123277168
 40
0.906495714678221
 40
1.0
 40
1.0
 40
1.0
 40
1.0
 10
173.1030923969243
 20
72.79065391144773
 30
0.0
 10
173.1014784551869
 20
72.78134453777687
 30
0.0
 10
173.0981923864534
 20
72.76239017217604
 30
0.0
 10
173.0723184965322
 20
72.59860606985187
 30
0.0
 10
173.042970280205
 20
72.35097086568902
 30
0.0
 10
173.0231726460115
 20
72.0993879471134
 30
0.0
 10
173.0208358473319
 20
71.94126437002411
 30
0.0
 10
173.0201627782677
 20
71.89571997246763
 30
0.0
  0
SPLINE
  5
183
330
1F
100
AcDbEntity
  8
0
  6
Continuous
 62
     7
370
    25
100
AcDbSpline
210
0.0
220
0.0
230
1.0
 70
    24
 71
     3
 72
    14
 73
    10
 74
     0
 42
0.000000001
 43
0.00000001
 40
0.0
 40
0.0
 40
0.0
 40
0.0
 40
0.08370506487677
 40
0.2629787593415774
 40
0.4498652239136089
 40
0.6371136402532483
 40
0.8243676640623874
 40
0.9376320544946682
 40
1.0
 40
1.0
 40
1.0
 40
1.0
 10
173.4034080713187
 20
72.32699124238512
 30
0.0
 10
173.4034080713187
 20
72.32834168155972
 30
0.0
 10
173.4034080713187
 20
72.33258439756773
 30
0.0
 10
173.4034080713187
 20
72.26945454932388
 30
0.0
 10
173.4034080713187
 20
72.1476340653075
 30
0.0
 10
173.4034080713187
 20
71.9800513920011
 30
0.0
 10
173.4034080713187
 20
71.81790526891979
 30
0.0
 10
173.4034080713187
 20
71.69494290328718
 30
0.0
 10
173.4034080713187
 20
71.64108621416221
 30
0.0
 10
173.4034080713187
 20
71.62196142694971
 30
0.0
  0
LINE
  5
184
330
1F
100
AcDbEntity
  8
0
  6
Continuous
 62
     8
370
    25
100
AcDbLine
 10
172.7034078634
 20
90.8925603153
 30
0.0
 11
170.7034080013
 21
90.8925603153
 31
0.0
  0
LINE
  5
185
330
1F
100
AcDbEntity
  8
0
  6
Continuous
 62
     8
370
    25
100
AcDbLine
 10
163.7034077852
 20
90.8925603153
 30
0.0
 11
161.7034079231
 21
90.8925603153
 31
0.0
  0
INSERT
  5
191
330
1F
100
AcDbEntity
  8
0
  6
Continuous
 62
     7
370
    18
100
AcDbBlockReference
  2
SW_CENTERMARKSYMBOL_0
 10
167.2034078932
 20
63.7925597849
 30
0.0
  0
LINE
  5
192
330
1F
100
AcDbEntity
  8
0
  6
Continuous
 62
     7
370
    25
100
AcDbLine
 10
106.4274940466
 20
119.9278768394
 30
0.0
 11
106.6274946382
 21
120.127877431
 31
0.0
  0
LINE
  5
193
330
1F
100
AcDbEntity
  8
0
  6
Continuous
 62
     7
370
    25
100
AcDbLine
 10
106.6274946382
 20
135.7278770078
 30
0.0
 11
106.4274940466
 21
135.9278775994
 31
0.0
  0
LINE
  5
194
330
1F
100
AcDbEntity
  8
0
  6
Continuous
 62
     7
370
    25
100
AcDbLine
 10
103.6274941464
 20
119.9278768394
 30
0.0
 11
106.4274940466
 21
119.9278768394
 31
0.0
  0
LINE
  5
195
330
1F
100
AcDbEntity
  8
0
  6
Continuous
 62
     7
370
    25
100
AcDbLine
 10
106.4274940466
 20
135.9278775994
 30
0.0
 11
103.6274941464
 21
135.9278775994
 31
0.0
  0
LINE
  5
196
330
1F
100
AcDbEntity
  8
0
  6
Continuous
 62
     7
370
    25
100
AcDbLine
 10
120.127494057
 20
122.6778772902
 30
0.0
 11
124.6274938633
 21
123.4278774131
 31
0.0
  0
LINE
  5
197
330
1F
100
AcDbEntity
  8
0
  6
Continuous
 62
     7
370
    25
100
AcDbLine
 10
124.6274938633
 20
132.4278770257
 30
0.0
 11
120.127494057
 21
133.1778771486
 31
0.0
  0
LINE
  5
198
330
1F
100
AcDbEntity
  8
0
  6
Continuous
 62
     7
370
    25
100
AcDbLine
 10
124.6274938633
 20
122.6778772902
 30
0.0
 11
129.1274955323
 21
123.4278774131
 31
0.0
  0
LINE
  5
199
330
1F
100
AcDbEntity
  8
0
  6
Continuous
 62
     7
370
    25
100
AcDbLine
 10
129.1274955323
 20
132.4278770257
 30
0.0
 11
124.6274938633
 21
133.1778771486
 31
0.0
  0
LINE
  5
19A
330
1F
100
AcDbEntity
  8
0
  6
Continuous
 62
     7
370
    25
100
AcDbLine
 10
129.1274955323
 20
122.6778772902
 30
0.0
 11
133.1474935462
 21
123.3478772696
 31
0.0
  0
LINE
  5
19B
330
1F
100
AcDbEntity
  8
0
  6
Continuous
 62
     7
370
    25
100
AcDbLine
 10
133.1474935462
 20
132.5078771692
 30
0.0
 11
129.1274955323
 21
133.1778771486
 31
0.0
  0
LINE
  5
19C
330
1F
100
AcDbEntity
  8
0
  6
Continuous
 62
     7
370
    25
100
AcDbLine
 10
106.6274946382
 20
122.6778772902
 30
0.0
 11
111.1274944445
 21
122.6778772902
 31
0.0
  0
LINE
  5
19D
330
1F
100
AcDbEntity
  8
0
  6
Continuous
 62
     7
370
    25
100
AcDbLine
 10
111.1274944445
 20
133.1778771486
 30
0.0
 11
106.6274946382
 21
133.1778771486
 31
0.0
  0
LINE
  5
19E
330
1F
100
AcDbEntity
  8
0
  6
Continuous
 62
     7
370
    25
100
AcDbLine
 10
115.6274942508
 20
122.6778772902
 30
0.0
 11
120.127494057
 21
123.4278774131
 31
0.0
  0
LINE
  5
19F
330
1F
100
AcDbEntity
  8
0
  6
Continuous
 62
     7
370
    25
100
AcDbLine
 10
120.127494057
 20
132.4278770257
 30
0.0
 11
115.6274942508
 21
133.1778771486
 31
0.0
  0
LINE
  5
1A0
330
1F
100
AcDbEntity
  8
0
  6
Continuous
 62
     7
370
    25
100
AcDbLine
 10
111.1274944445
 20
122.6778772902
 30
0.0
 11
115.6274942508
 21
123.4278774131
 31
0.0
  0
LINE
  5
1A1
330
1F
100
AcDbEntity
  8
0
  6
Continuous
 62
     7
370
    25
100
AcDbLine
 10
115.6274942508
 20
132.4278770257
 30
0.0
 11
111.1274944445
 21
133.1778771486
 31
0.0
  0
LINE
  5
1A2
330
1F
100
AcDbEntity
  8
0
  6
Continuous
 62
     7
370
    25
100
AcDbLine
 10
133.1474935462
 20
123.3478772696
 30
0.0
 11
133.6274934759
 21
123.8278771993
 31
0.0
  0
LINE
  5
1A3
330
1F
100
AcDbEntity
  8
0
  6
Continuous
 62
     7
370
    25
100
AcDbLine
 10
133.6274934759
 20
132.0278772395
 30
0.0
 11
133.1474935462
 21
132.5078771692
 31
0.0
  0
LINE
  5
1A4
330
1F
100
AcDbEntity
  8
0
  6
Continuous
 62
     7
370
    25
100
AcDbLine
 10
84.1274946754
 20
137.9278769959
 30
0.0
 11
83.6274945935
 21
137.4278769139
 31
0.0
  0
LINE
  5
1A5
330
1F
100
AcDbEntity
  8
0
  6
Continuous
 62
     7
370
    25
100
AcDbLine
 10
83.6274945935
 20
118.4278775249
 30
0.0
 11
84.1274946754
 21
117.9278774429
 31
0.0
  0
ARC
  5
1A6
330
1F
100
AcDbEntity
  8
0
  6
Continuous
 62
     7
370
    25
100
AcDbCircle
 10
84.62749437
 20
118.9278772194
 30
0.0
 40
1.5
100
AcDbArc
 50
318.1896851042
 51
0.0
  0
ARC
  5
1A7
330
1F
100
AcDbEntity
  8
0
  6
Continuous
 62
     7
370
    25
100
AcDbCircle
 10
84.62749437
 20
136.9278772194
 30
0.0
 40
1.5
100
AcDbArc
 50
0.0
 51
41.8103148958
  0
LINE
  5
1A8
330
1F
100
AcDbEntity
  8
0
  6
Continuous
 62
     7
370
    25
100
AcDbLine
 10
103.3774945711
 20
137.9278769959
 30
0.0
 11
101.5094607895
 21
137.9278769959
 31
0.0
  0
LINE
  5
1A9
330
1F
100
AcDbEntity
  8
0
  6
Continuous
 62
     7
370
    25
100
AcDbLine
 10
101.5094607895
 20
117.9278774429
 30
0.0
 11
103.3774945711
 21
117.9278774429
 31
0.0
  0
LINE
  5
1AA
330
1F
100
AcDbEntity
  8
0
  6
Continuous
 62
     7
370
    25
100
AcDbLine
 10
103.3774945711
 20
117.9278774429
 30
0.0
 11
103.6274941464
 21
118.1778770182
 31
0.0
  0
LINE
  5
1AB
330
1F
100
AcDbEntity
  8
0
  6
Continuous
 62
     7
370
    25
100
AcDbLine
 10
103.6274941464
 20
137.6778774206
 30
0.0
 11
103.3774945711
 21
137.9278769959
 31
0.0
  0
ARC
  5
1AC
330
1F
100
AcDbEntity
  8
0
  6
Continuous
 62
     7
370
    25
100
AcDbCircle
 10
102.62749437
 20
136.9278772194
 30
0.0
 40
1.500000000000004
100
AcDbArc
 50
138.1896851042
 51
180.0
  0
ARC
  5
1AD
330
1F
100
AcDbEntity
  8
0
  6
Continuous
 62
     7
370
    25
100
AcDbCircle
 10
102.62749437
 20
118.9278772194
 30
0.0
 40
1.500000000000004
100
AcDbArc
 50
180.0
 51
221.8103148958
  0
LINE
  5
1AE
330
1F
100
AcDbEntity
  8
0
  6
Continuous
 62
     7
370
    25
100
AcDbLine
 10
84.1274946754
 20
117.9278774429
 30
0.0
 11
85.7455279504
 21
117.9278774429
 31
0.0
  0
LINE
  5
1AF
330
1F
100
AcDbEntity
  8
0
  6
Continuous
 62
     7
370
    25
100
AcDbLine
 10
85.7455279504
 20
137.9278769959
 30
0.0
 11
84.1274946754
 21
137.9278769959
 31
0.0
  0
LINE
  5
1B0
330
1F
100
AcDbEntity
  8
0
  6
Continuous
 62
     7
370
    25
100
AcDbLine
 10
83.6274945935
 20
134.6722065713
 30
0.0
 11
75.7916202595
 21
134.4273353238
 31
0.0
  0
LINE
  5
1B1
330
1F
100
AcDbEntity
  8
0
  6
Continuous
 62
     7
370
    25
100
AcDbLine
 10
75.7916202595
 20
121.428419115
 30
0.0
 11
83.6274945935
 21
121.1835478675
 31
0.0
  0
LINE
  5
1B2
330
1F
100
AcDbEntity
  8
0
  6
Continuous
 62
     7
370
    25
100
AcDbLine
 10
75.7916202595
 20
134.4273353238
 30
0.0
 11
73.627494817
 21
133.1778771486
 31
0.0
  0
LINE
  5
1B3
330
1F
100
AcDbEntity
  8
0
  6
Continuous
 62
     7
370
    25
100
AcDbLine
 10
73.627494817
 20
122.6778772902
 30
0.0
 11
75.7916202595
 21
121.428419115
 31
0.0
  0
SPLINE
  5
1B4
330
1F
100
AcDbEntity
  8
0
  6
Continuous
 62
     7
370
    25
100
AcDbSpline
210
0.0
220
0.0
230
1.0
 70
     8
 71
     3
 72
    15
 73
    11
 74
     0
 42
0.000000001
 43
0.00000001
 40
0.0
 40
0.0
 40
0.0
 40
0.0
 40
0.0090436668555053
 40
0.1032416108587011
 40
0.1542555096908477
 40
0.3133160372726557
 40
0.5243720667937798
 40
0.6678058153000223
 40
0.9918331445062708
 40
0.9999999999999999
 40
0.9999999999999999
 40
0.9999999999999999
 40
0.9999999999999999
 10
88.38840907565636
 20
129.6017903145325
 30
0.0
 10
88.38841483115606
 20
129.6017726487457
 30
0.0
 10
88.38848053537426
 20
129.6015709778627
 30
0.0
 10
88.390475621163
 20
129.5953814603004
 30
0.0
 10
88.3982918438986
 20
129.5711799658583
 30
0.0
 10
88.41546283953944
 20
129.5181602921202
 30
0.0
 10
88.44204585234411
 20
129.4367901932874
 30
0.0
 10
88.4798760206266
 20
129.3222105641347
 30
0.0
 10
88.50815521414455
 20
129.2377852245304
 30
0.0
 10
88.52798730492329
 20
129.1793146657496
 30
0.0
 10
88.52847486860436
 20
129.1778771914464
 30
0.0
  0
ARC
  5
1B5
330
1F
100
AcDbEntity
  8
0
  6
Continuous
 62
     7
370
    25
100
AcDbCircle
 10
93.62749437
 20
127.9278772194
 30
0.0
 40
5.500000000000015
100
AcDbArc
 50
17.7189318734
 51
162.2810681266
  0
SPLINE
  5
1B6
330
1F
100
AcDbEntity
  8
0
  6
Continuous
 62
     7
370
    25
100
AcDbSpline
210
0.0
220
0.0
230
1.0
 70
     8
 71
     3
 72
    15
 73
    11
 74
     0
 42
0.000000001
 43
0.00000001
 40
0.0
 40
0.0
 40
0.0
 40
0.0
 40
0.0081668554937291
 40
0.3321941846999776
 40
0.4756279332062201
 40
0.6866839627273442
 40
0.8457444903091523
 40
0.8967583891412989
 40
0.9909563331444947
 40
1.0
 40
1.0
 40
1.0
 40
1.0
 10
98.7265138713209
 20
129.1778771914464
 30
0.0
 10
98.72700143500198
 20
129.1793146657496
 30
0.0
 10
98.74683352578074
 20
129.2377852245304
 30
0.0
 10
98.77511271929865
 20
129.3222105641347
 30
0.0
 10
98.81294288758116
 20
129.4367901932874
 30
0.0
 10
98.83952590038584
 20
129.5181602921202
 30
0.0
 10
98.85669689602665
 20
129.5711799658583
 30
0.0
 10
98.86451311876226
 20
129.5953814603004
 30
0.0
 10
98.86650820455102
 20
129.6015709778627
 30
0.0
 10
98.86657390876921
 20
129.6017726487457
 30
0.0
 10
98.86657966426891
 20
129.6017903145325
 30
0.0
  0
ARC
  5
1B7
330
1F
100
AcDbEntity
  8
0
  6
Continuous
 62
     7
370
    25
100
AcDbCircle
 10
93.62749437
 20
127.9278772194
 30
0.0
 40
5.250000000000009
100
AcDbArc
 50
13.774146998
 51
166.225853002
  0
SPLINE
  5
1B8
330
1F
100
AcDbEntity
  8
0
  6
Continuous
 62
     7
370
    25
100
AcDbSpline
210
0.0
220
0.0
230
1.0
 70
     8
 71
     3
 72
    15
 73
    11
 74
     0
 42
0.000000001
 43
0.00000001
 40
0.0
 40
0.0
 40
0.0
 40
0.0
 40
0.0089534934608068
 40
0.0998985020501141
 40
0.1531621750630547
 40
0.3125626131158444
 40
0.524966528186016
 40
0.6689889196484162
 40
0.9919154833883785
 40
0.9999999999999999
 40
0.9999999999999999
 40
0.9999999999999999
 40
0.9999999999999999
 10
99.10471977792066
 20
129.4278772324246
 30
0.0
 10
99.10470411424926
 20
129.4278664466553
 30
0.0
 10
99.10452934701263
 20
129.4277461045567
 30
0.0
 10
99.09909867541222
 20
129.4240275133302
 30
0.0
 10
99.07756498535934
 20
129.4093169317707
 30
0.0
 10
99.02985793906679
 20
129.3768675601596
 30
0.0
 10
98.9574681308968
 20
129.3282840823452
 30
0.0
 10
98.85554846533046
 20
129.260912688993
 30
0.0
 10
98.78019234581342
 20
129.2121013117266
 30
0.0
 10
98.72779364175321
 20
129.1786931426749
 30
0.0
 10
98.7265138713209
 20
129.1778771914464
 30
0.0
  0
ARC
  5
1B9
330
1F
100
AcDbEntity
  8
0
  6
Continuous
 62
     7
370
    25
100
AcDbCircle
 10
99.104719945
 20
129.6778772194
 30
0.0
 40
0.25
100
AcDbArc
 50
197.7189318734
 51
270.0
  0
SPLINE
  5
1BA
330
1F
100
AcDbEntity
  8
0
  6
Continuous
 62
     7
370
    25
100
AcDbSpline
210
0.0
220
0.0
230
1.0
 70
     8
 71
     3
 72
    15
 73
    11
 74
     0
 42
0.000000001
 43
0.00000001
 40
0.0
 40
0.0
 40
0.0
 40
0.0
 40
0.0080845166116213
 40
0.3310110803515837
 40
0.4750334718139839
 40
0.6874373868841556
 40
0.8468378249369453
 40
0.9001014979498858
 40
0.9910465065391931
 40
0.9999999999999999
 40
0.9999999999999999
 40
0.9999999999999999
 40
0.9999999999999999
 10
88.52847486860436
 20
129.1778771914464
 30
0.0
 10
88.52719509817206
 20
129.1786931426749
 30
0.0
 10
88.4747963941118
 20
129.2121013117266
 30
0.0
 10
88.39944027459481
 20
129.260912688993
 30
0.0
 10
88.29752060902845
 20
129.3282840823452
 30
0.0
 10
88.2251308008585
 20
129.3768675601596
 30
0.0
 10
88.17742375456592
 20
129.4093169317707
 30
0.0
 10
88.15589006451304
 20
129.4240275133302
 30
0.0
 10
88.15045939291264
 20
129.4277461045567
 30
0.0
 10
88.15028462567601
 20
129.4278664466553
 30
0.0
 10
88.1502689620046
 20
129.4278772324246
 30
0.0
  0
ARC
  5
1BB
330
1F
100
AcDbEntity
  8
0
  6
Continuous
 62
     7
370
    25
100
AcDbCircle
 10
88.1502687949
 20
129.6778772194
 30
0.0
 40
0.25
100
AcDbArc
 50
270.0
 51
342.2810681266
  0
SPLINE
  5
1BC
330
1F
100
AcDbEntity
  8
0
  6
Continuous
 62
     7
370
    25
100
AcDbSpline
210
0.0
220
0.0
230
1.0
 70
     8
 71
     3
 72
    15
 73
    11
 74
     0
 42
0.000000001
 43
0.00000001
 40
0.0
 40
0.0
 40
0.0
 40
0.0
 40
0.0081668554937291
 40
0.3321941846999776
 40
0.4756279332062201
 40
0.6866839627273442
 40
0.8457444903091523
 40
0.8967583891412989
 40
0.9909563331444947
 40
1.0
 40
1.0
 40
1.0
 40
1.0
 10
88.52847486860436
 20
126.6778772473257
 30
0.0
 10
88.52798730492329
 20
126.6764397730225
 30
0.0
 10
88.50815521414452
 20
126.6179692142418
 30
0.0
 10
88.47987602062662
 20
126.5335438746375
 30
0.0
 10
88.44204585234411
 20
126.4189642454848
 30
0.0
 10
88.41546283953944
 20
126.3375941466519
 30
0.0
 10
88.39829184389862
 20
126.2845744729138
 30
0.0
 10
88.390475621163
 20
126.2603729784717
 30
0.0
 10
88.38848053537426
 20
126.2541834609095
 30
0.0
 10
88.38841483115606
 20
126.2539817900264
 30
0.0
 10
88.38840907565636
 20
126.2539641242396
 30
0.0
  0
ARC
  5
1BD
330
1F
100
AcDbEntity
  8
0
  6
Continuous
 62
     7
370
    25
100
AcDbCircle
 10
93.62749437
 20
127.9278772194
 30
0.0
 40
5.250000000000009
100
AcDbArc
 50
193.774146998
 51
346.225853002
  0
SPLINE
  5
1BE
330
1F
100
AcDbEntity
  8
0
  6
Continuous
 62
     7
370
    25
100
AcDbSpline
210
0.0
220
0.0
230
1.0
 70
     8
 71
     3
 72
    15
 73
    11
 74
     0
 42
0.000000001
 43
0.00000001
 40
0.0
 40
0.0
 40
0.0
 40
0.0
 40
0.0090436668555053
 40
0.1032416108587011
 40
0.1542555096908477
 40
0.3133160372726557
 40
0.5243720667937798
 40
0.6678058153000223
 40
0.9918331445062708
 40
0.9999999999999999
 40
0.9999999999999999
 40
0.9999999999999999
 40
0.9999999999999999
 10
98.86657966426891
 20
126.2539641242396
 30
0.0
 10
98.86657390876921
 20
126.2539817900264
 30
0.0
 10
98.86650820455102
 20
126.2541834609095
 30
0.0
 10
98.86451311876226
 20
126.2603729784717
 30
0.0
 10
98.85669689602665
 20
126.2845744729138
 30
0.0
 10
98.83952590038584
 20
126.3375941466519
 30
0.0
 10
98.81294288758116
 20
126.4189642454848
 30
0.0
 10
98.77511271929866
 20
126.5335438746375
 30
0.0
 10
98.74683352578072
 20
126.6179692142418
 30
0.0
 10
98.72700143500198
 20
126.6764397730225
 30
0.0
 10
98.7265138713209
 20
126.6778772473257
 30
0.0
  0
ARC
  5
1BF
330
1F
100
AcDbEntity
  8
0
  6
Continuous
 62
     7
370
    25
100
AcDbCircle
 10
93.62749437
 20
127.9278772194
 30
0.0
 40
5.500000000000007
100
AcDbArc
 50
197.7189318734
 51
342.2810681266
  0
ARC
  5
1C0
330
1F
100
AcDbEntity
  8
0
  6
Continuous
 62
     7
370
    25
100
AcDbCircle
 10
99.104719945
 20
126.1778772194
 30
0.0
 40
0.25
100
AcDbArc
 50
90.0
 51
162.2810681266
  0
SPLINE
  5
1C1
330
1F
100
AcDbEntity
  8
0
  6
Continuous
 62
     7
370
    25
100
AcDbSpline
210
0.0
220
0.0
230
1.0
 70
     8
 71
     3
 72
    15
 73
    11
 74
     0
 42
0.000000001
 43
0.00000001
 40
0.0
 40
0.0
 40
0.0
 40
0.0
 40
0.0080845166116213
 40
0.3310110803515837
 40
0.4750334718139839
 40
0.6874373868841556
 40
0.8468378249369453
 40
0.9001014979498858
 40
0.9910465065391931
 40
0.9999999999999999
 40
0.9999999999999999
 40
0.9999999999999999
 40
0.9999999999999999
 10
98.7265138713209
 20
126.6778772473257
 30
0.0
 10
98.72779364175321
 20
126.6770612960972
 30
0.0
 10
98.78019234581346
 20
126.6436531270456
 30
0.0
 10
98.85554846533046
 20
126.5948417497791
 30
0.0
 10
98.95746813089681
 20
126.5274703564269
 30
0.0
 10
99.02985793906679
 20
126.4788868786125
 30
0.0
 10
99.07756498535934
 20
126.4464375070015
 30
0.0
 10
99.09909867541222
 20
126.4317269254419
 30
0.0
 10
99.10452934701264
 20
126.4280083342155
 30
0.0
 10
99.10470411424926
 20
126.4278879921168
 30
0.0
 10
99.10471977792066
 20
126.4278772063475
 30
0.0
  0
ARC
  5
1C2
330
1F
100
AcDbEntity
  8
0
  6
Continuous
 62
     7
370
    25
100
AcDbCircle
 10
88.1502687949
 20
126.1778772194
 30
0.0
 40
0.2500000000000077
100
AcDbArc
 50
17.7189318734
 51
90.0
  0
SPLINE
  5
1C3
330
1F
100
AcDbEntity
  8
0
  6
Continuous
 62
     7
370
    25
100
AcDbSpline
210
0.0
220
0.0
230
1.0
 70
     8
 71
     3
 72
    15
 73
    11
 74
     0
 42
0.000000001
 43
0.00000001
 40
0.0
 40
0.0
 40
0.0
 40
0.0
 40
0.0089534934608068
 40
0.0998985020501141
 40
0.1531621750630547
 40
0.3125626131158444
 40
0.524966528186016
 40
0.6689889196484162
 40
0.9919154833883785
 40
0.9999999999999999
 40
0.9999999999999999
 40
0.9999999999999999
 40
0.9999999999999999
 10
88.1502689620046
 20
126.4278772063475
 30
0.0
 10
88.15028462567601
 20
126.4278879921168
 30
0.0
 10
88.15045939291265
 20
126.4280083342155
 30
0.0
 10
88.15589006451304
 20
126.4317269254419
 30
0.0
 10
88.17742375456592
 20
126.4464375070015
 30
0.0
 10
88.2251308008585
 20
126.4788868786125
 30
0.0
 10
88.29752060902847
 20
126.5274703564269
 30
0.0
 10
88.39944027459481
 20
126.5948417497791
 30
0.0
 10
88.47479639411185
 20
126.6436531270456
 30
0.0
 10
88.52719509817206
 20
126.6770612960972
 30
0.0
 10
88.52847486860436
 20
126.6778772473257
 30
0.0
  0
LINE
  5
1C4
330
1F
100
AcDbEntity
  8
0
  6
Continuous
 62
     7
370
    25
100
AcDbLine
 10
88.6274944817
 20
127.3278771909
 30
0.0
 11
98.6274942582
 21
127.3278771909
 31
0.0
  0
LINE
  5
1C5
330
1F
100
AcDbEntity
  8
0
  6
Continuous
 62
     7
370
    25
100
AcDbLine
 10
88.6274944817
 20
128.5278772479
 30
0.0
 11
88.6274944817
 21
127.3278771909
 31
0.0
  0
LINE
  5
1C6
330
1F
100
AcDbEntity
  8
0
  6
Continuous
 62
     7
370
    25
100
AcDbLine
 10
98.6274942582
 20
128.5278772479
 30
0.0
 11
88.6274944817
 21
128.5278772479
 31
0.0
  0
LINE
  5
1C7
330
1F
100
AcDbEntity
  8
0
  6
Continuous
 62
     7
370
    25
100
AcDbLine
 10
98.6274942582
 20
127.3278771909
 30
0.0
 11
98.6274942582
 21
128.5278772479
 31
0.0
  0
LINE
  5
1C8
330
1F
100
AcDbEntity
  8
0
  6
Continuous
 62
     7
370
    25
100
AcDbLine
 10
87.8774943588
 20
126.6778772473
 30
0.0
 11
88.5284748686
 21
126.6778772473
 31
0.0
  0
LINE
  5
1C9
330
1F
100
AcDbEntity
  8
0
  6
Continuous
 62
     7
370
    25
100
AcDbLine
 10
87.8774943588
 20
129.1778771914
 30
0.0
 11
87.8774943588
 21
126.6778772473
 31
0.0
  0
LINE
  5
1CA
330
1F
100
AcDbEntity
  8
0
  6
Continuous
 62
     7
370
    25
100
AcDbLine
 10
88.5284748686
 20
129.1778771914
 30
0.0
 11
87.8774943588
 21
129.1778771914
 31
0.0
  0
LINE
  5
1CB
330
1F
100
AcDbEntity
  8
0
  6
Continuous
 62
     7
370
    25
100
AcDbLine
 10
99.3774943811
 20
129.1778771914
 30
0.0
 11
98.7265138713
 21
129.1778771914
 31
0.0
  0
LINE
  5
1CC
330
1F
100
AcDbEntity
  8
0
  6
Continuous
 62
     7
370
    25
100
AcDbLine
 10
99.3774943811
 20
126.6778772473
 30
0.0
 11
99.3774943811
 21
129.1778771914
 31
0.0
  0
LINE
  5
1CD
330
1F
100
AcDbEntity
  8
0
  6
Continuous
 62
     7
370
    25
100
AcDbLine
 10
98.7265138713
 20
126.6778772473
 30
0.0
 11
99.3774943811
 21
126.6778772473
 31
0.0
  0
ARC
  5
1CE
330
1F
100
AcDbEntity
  8
0
  6
Continuous
 62
     7
370
    25
100
AcDbCircle
 10
87.87749437
 20
129.1778772194
 30
0.0
 40
0.25
100
AcDbArc
 50
90.0
 51
180.0
  0
LINE
  5
1CF
330
1F
100
AcDbEntity
  8
0
  6
Continuous
 62
     7
370
    25
100
AcDbLine
 10
87.8774943588
 20
129.4278772324
 30
0.0
 11
87.8774943588
 21
129.1778771914
 31
0.0
  0
LINE
  5
1D0
330
1F
100
AcDbEntity
  8
0
  6
Continuous
 62
     7
370
    25
100
AcDbLine
 10
87.8774943588
 20
129.1778771914
 30
0.0
 11
87.6274943178
 21
129.1778771914
 31
0.0
  0
LINE
  5
1D1
330
1F
100
AcDbEntity
  8
0
  6
Continuous
 62
     7
370
    25
100
AcDbLine
 10
87.8774943588
 20
129.4278772324
 30
0.0
 11
88.150268962
 21
129.4278772324
 31
0.0
  0
LINE
  5
1D2
330
1F
100
AcDbEntity
  8
0
  6
Continuous
 62
     7
370
    25
100
AcDbLine
 10
99.1047197779
 20
129.4278772324
 30
0.0
 11
99.3774943811
 21
129.4278772324
 31
0.0
  0
LINE
  5
1D3
330
1F
100
AcDbEntity
  8
0
  6
Continuous
 62
     7
370
    25
100
AcDbLine
 10
99.3774943811
 20
129.1778771914
 30
0.0
 11
99.3774943811
 21
129.4278772324
 31
0.0
  0
LINE
  5
1D4
330
1F
100
AcDbEntity
  8
0
  6
Continuous
 62
     7
370
    25
100
AcDbLine
 10
99.6274944221
 20
129.1778771914
 30
0.0
 11
99.3774943811
 21
129.1778771914
 31
0.0
  0
ARC
  5
1D5
330
1F
100
AcDbEntity
  8
0
  6
Continuous
 62
     7
370
    25
100
AcDbCircle
 10
99.37749437
 20
129.1778772194
 30
0.0
 40
0.25
100
AcDbArc
 50
0.0
 51
90.0
  0
LINE
  5
1D6
330
1F
100
AcDbEntity
  8
0
  6
Continuous
 62
     7
370
    25
100
AcDbLine
 10
87.6274943178
 20
126.6778772473
 30
0.0
 11
87.8774943588
 21
126.6778772473
 31
0.0
  0
LINE
  5
1D7
330
1F
100
AcDbEntity
  8
0
  6
Continuous
 62
     7
370
    25
100
AcDbLine
 10
87.6274943178
 20
126.6778772473
 30
0.0
 11
87.6274943178
 21
129.1778771914
 31
0.0
  0
LINE
  5
1D8
330
1F
100
AcDbEntity
  8
0
  6
Continuous
 62
     7
370
    25
100
AcDbLine
 10
99.6274944221
 20
129.1778771914
 30
0.0
 11
99.6274944221
 21
126.6778772473
 31
0.0
  0
LINE
  5
1D9
330
1F
100
AcDbEntity
  8
0
  6
Continuous
 62
     7
370
    25
100
AcDbLine
 10
99.3774943811
 20
126.6778772473
 30
0.0
 11
99.6274944221
 21
126.6778772473
 31
0.0
  0
LINE
  5
1DA
330
1F
100
AcDbEntity
  8
0
  6
Continuous
 62
     7
370
    25
100
AcDbLine
 10
87.8774943588
 20
126.6778772473
 30
0.0
 11
87.8774943588
 21
126.4278772063
 31
0.0
  0
LINE
  5
1DB
330
1F
100
AcDbEntity
  8
0
  6
Continuous
 62
     7
370
    25
100
AcDbLine
 10
88.150268962
 20
126.4278772063
 30
0.0
 11
87.8774943588
 21
126.4278772063
 31
0.0
  0
LINE
  5
1DC
330
1F
100
AcDbEntity
  8
0
  6
Continuous
 62
     7
370
    25
100
AcDbLine
 10
99.3774943811
 20
126.4278772063
 30
0.0
 11
99.3774943811
 21
126.6778772473
 31
0.0
  0
ARC
  5
1DD
330
1F
100
AcDbEntity
  8
0
  6
Continuous
 62
     7
370
    25
100
AcDbCircle
 10
99.37749437
 20
126.6778772194
 30
0.0
 40
0.25
100
AcDbArc
 50
270.0
 51
0.0
  0
LINE
  5
1DE
330
1F
100
AcDbEntity
  8
0
  6
Continuous
 62
     7
370
    25
100
AcDbLine
 10
99.3774943811
 20
126.4278772063
 30
0.0
 11
99.1047197779
 21
126.4278772063
 31
0.0
  0
ARC
  5
1DF
330
1F
100
AcDbEntity
  8
0
  6
Continuous
 62
     7
370
    25
100
AcDbCircle
 10
87.87749437
 20
126.6778772194
 30
0.0
 40
0.25
100
AcDbArc
 50
180.0
 51
270.0
  0
LINE
  5
1E0
330
1F
100
AcDbEntity
  8
0
  6
Continuous
 62
     7
370
    25
100
AcDbLine
 10
113.6274939229
 20
124.6561780348
 30
0.0
 11
115.8029312094
 21
124.4278771114
 31
0.0
  0
LINE
  5
1E1
330
1F
100
AcDbEntity
  8
0
  6
Continuous
 62
     7
370
    25
100
AcDbLine
 10
113.6274939229
 20
131.1995764039
 30
0.0
 11
113.6274939229
 21
124.6561780348
 31
0.0
  0
LINE
  5
1E2
330
1F
100
AcDbEntity
  8
0
  6
Continuous
 62
     7
370
    25
100
AcDbLine
 10
133.6274934759
 20
131.4278773274
 30
0.0
 11
115.8029312094
 21
131.4278773274
 31
0.0
  0
LINE
  5
1E3
330
1F
100
AcDbEntity
  8
0
  6
Continuous
 62
     7
370
    25
100
AcDbLine
 10
133.6274934759
 20
124.4278771114
 30
0.0
 11
133.6274934759
 21
131.4278773274
 31
0.0
  0
LINE
  5
1E4
330
1F
100
AcDbEntity
  8
0
  6
Continuous
 62
     7
370
    25
100
AcDbLine
 10
115.8029312094
 20
124.4278771114
 30
0.0
 11
133.6274934759
 21
124.4278771114
 31
0.0
  0
LINE
  5
1E5
330
1F
100
AcDbEntity
  8
0
  6
Continuous
 62
     7
370
    25
100
AcDbLine
 10
115.8029312094
 20
131.4278773274
 30
0.0
 11
113.6274939229
 21
131.1995764039
 31
0.0
  0
LINE
  5
1E6
330
1F
100
AcDbEntity
  8
0
  6
Continuous
 62
     7
370
    25
100
AcDbLine
 10
98.8512966608
 20
126.2068627179
 30
0.0
 11
98.9797055548
 21
126.3910043994
 31
0.0
  0
LINE
  5
1E7
330
1F
100
AcDbEntity
  8
0
  6
Continuous
 62
     7
370
    25
100
AcDbLine
 10
98.970138078
 20
129.4730949225
 30
0.0
 11
98.8512966608
 21
129.6488917209
 31
0.0
  0
LINE
  5
1E8
330
1F
100
AcDbEntity
  8
0
  6
Continuous
 62
     7
370
    25
100
AcDbLine
 10
107.0440640499
 20
125.3470745645
 30
0.0
 11
107.0440640499
 21
130.5086798742
 31
0.0
  0
LWPOLYLINE
  5
1E9
330
1F
100
AcDbEntity
  8
0
  6
Continuous
 62
     7
370
    25
100
AcDbPolyline
 90
       15
 70
   128
 43
0.0
 10
107.0440640499
 20
125.3470745645
 10
106.2926869666
 20
125.4259277843
 10
105.5512219494
 20
125.5037404839
 10
104.8239325931
 20
125.5800656285
 10
104.1150023987
 20
125.6544643324
 10
103.4285059025
 20
125.7265086528
 10
102.7683909809
 20
125.7957841512
 10
102.138454636
 20
125.8618926871
 10
101.5423187812
 20
125.9244540483
 10
100.9834116151
 20
125.9831083948
 10
100.4649462005
 20
126.0375185879
 10
99.9899046322
 20
126.0873717032
 10
99.5610184794
 20
126.1323811263
 10
99.1807534186
 20
126.1722879494
 10
98.8512966608
 20
126.2068627179
  0
LWPOLYLINE
  5
1EA
330
1F
100
AcDbEntity
  8
0
  6
Continuous
 62
     7
370
    25
100
AcDbPolyline
 90
       15
 70
   128
 43
0.0
 10
98.8512966608
 20
129.6488917209
 10
99.1807534186
 20
129.6834664894
 10
99.5610184794
 20
129.7233733125
 10
99.9899046322
 20
129.7683827355
 10
100.4649462005
 20
129.8182358509
 10
100.9834116151
 20
129.872646044
 10
101.5423187812
 20
129.9313003905
 10
102.138454636
 20
129.9938617516
 10
102.7683909809
 20
130.0599702876
 10
103.4285059025
 20
130.129245786
 10
104.1150023987
 20
130.2012901064
 10
104.8239325931
 20
130.2756888103
 10
105.5512219494
 20
130.3520139549
 10
106.2926869666
 20
130.4298266545
 10
107.0440640499
 20
130.5086798742
  0
LWPOLYLINE
  5
1EB
330
1F
100
AcDbEntity
  8
0
  6
Continuous
 62
     7
370
    25
100
AcDbPolyline
 90
       19
 70
   128
 43
0.0
 10
113.6274939229
 20
124.6561780348
 10
113.601746579
 20
124.6588800345
 10
113.5247206142
 20
124.6669634487
 10
113.39707913
 20
124.6803586613
 10
113.2199192246
 20
124.6989508867
 10
112.9947608163
 20
124.7225801703
 10
112.7235336056
 20
124.7510439493
 10
112.4085677614
 20
124.7840977516
 10
112.0525678446
 20
124.8214582223
 10
111.6585867306
 20
124.8628045209
 10
111.2300088455
 20
124.9077815805
 10
110.7705091884
 20
124.9560036007
 10
110.2840328415
 20
125.0070568416
 10
109.7747577181
 20
125.0605026502
 10
109.2470507895
 20
125.115882583
 10
108.7054448029
 20
125.1727214325
 10
108.1545861264
 20
125.2305311859
 10
107.5992040162
 20
125.2888156809
 10
107.0440640499
 20
125.3470745645
  0
LWPOLYLINE
  5
1EC
330
1F
100
AcDbEntity
  8
0
  6
Continuous
 62
     7
370
    25
100
AcDbPolyline
 90
       19
 70
   128
 43
0.0
 10
107.0440640499
 20
130.5086798742
 10
107.5992040162
 20
130.5669387579
 10
108.1545861264
 20
130.6252232529
 10
108.7054448029
 20
130.6830330063
 10
109.2470507895
 20
130.7398718558
 10
109.7747577181
 20
130.7952517886
 10
110.2840328415
 20
130.8486975972
 10
110.7705091884
 20
130.899750838
 10
111.2300088455
 20
130.9479728583
 10
111.6585867306
 20
130.9929499179
 10
112.0525678446
 20
131.0342962164
 10
112.4085677614
 20
131.0716566872
 10
112.7235336056
 20
131.1047104895
 10
112.9947608163
 20
131.1331742685
 10
113.2199192246
 20
131.1568035521
 10
113.39707913
 20
131.1753957774
 10
113.5247206142
 20
131.18879099
 10
113.601746579
 20
131.1968744043
 10
113.6274939229
 20
131.1995764039
  0
ARC
  5
1ED
330
1F
100
AcDbEntity
  8
0
  6
Continuous
 62
     7
370
    25
100
AcDbCircle
 10
93.62749437
 20
127.9278772194
 30
0.0
 40
7.450000000000656
100
AcDbArc
 50
53.0863788866
 51
306.9136211134
  0
ARC
  5
1EE
330
1F
100
AcDbEntity
  8
0
  6
Continuous
 62
     7
370
    25
100
AcDbCircle
 10
93.62749437
 20
127.9278772194
 30
0.0
 40
7.207531252870781
100
AcDbArc
 50
15.3041237151
 51
58.9797515565
  0
ARC
  5
1EF
330
1F
100
AcDbEntity
  8
0
  6
Continuous
 62
     7
370
    25
100
AcDbCircle
 10
93.62749437
 20
127.9278772194
 30
0.0
 40
7.207531252872437
100
AcDbArc
 50
301.0202484435
 51
344.6958762849
  0
ARC
  5
1F0
330
1F
100
AcDbEntity
  8
0
  6
Continuous
 62
     7
370
    25
100
AcDbCircle
 10
115.8029312315
 20
196.4278772194
 30
0.0
 40
64.99999999999999
100
AcDbArc
 50
253.4999050078
 51
270.0
  0
ARC
  5
1F1
330
1F
100
AcDbEntity
  8
0
  6
Continuous
 62
     7
370
    25
100
AcDbCircle
 10
115.8029312315
 20
59.4278772194
 30
0.0
 40
65.0
100
AcDbArc
 50
90.0
 51
106.5000949923
  0
LINE
  5
1F2
330
1F
100
AcDbEntity
  8
0
  6
Continuous
 62
     7
370
    25
100
AcDbLine
 10
106.4274940466
 20
119.9959052969
 30
0.0
 11
106.4274940466
 21
123.7481788043
 31
0.0
  0
LINE
  5
1F3
330
1F
100
AcDbEntity
  8
0
  6
Continuous
 62
     7
370
    25
100
AcDbLine
 10
106.4274940466
 20
132.1075756345
 30
0.0
 11
106.4274940466
 21
135.9278775994
 31
0.0
  0
LINE
  5
1F4
330
1F
100
AcDbEntity
  8
0
  6
Continuous
 62
     7
370
    25
100
AcDbLine
 10
106.4274940466
 20
119.9278768394
 30
0.0
 11
106.4274940466
 21
119.9959052969
 31
0.0
  0
LINE
  5
1F5
330
1F
100
AcDbEntity
  8
0
  6
Continuous
 62
     7
370
    25
100
AcDbLine
 10
106.6274946382
 20
120.1942048278
 30
0.0
 11
106.6274946382
 21
120.127877431
 31
0.0
  0
LINE
  5
1F6
330
1F
100
AcDbEntity
  8
0
  6
Continuous
 62
     7
370
    25
100
AcDbLine
 10
106.6274946382
 20
135.7278770078
 30
0.0
 11
106.6274946382
 21
132.0787409563
 31
0.0
  0
LINE
  5
1F7
330
1F
100
AcDbEntity
  8
0
  6
Continuous
 62
     7
370
    25
100
AcDbLine
 10
106.6274946382
 20
123.7770134825
 30
0.0
 11
106.6274946382
 21
120.1942048278
 31
0.0
  0
LINE
  5
1F8
330
1F
100
AcDbEntity
  8
0
  6
Continuous
 62
     7
370
    25
100
AcDbLine
 10
120.127494057
 20
122.7225207034
 30
0.0
 11
120.127494057
 21
124.4278771114
 31
0.0
  0
LINE
  5
1F9
330
1F
100
AcDbEntity
  8
0
  6
Continuous
 62
     7
370
    25
100
AcDbLine
 10
120.127494057
 20
131.4278773274
 30
0.0
 11
120.127494057
 21
133.1778771486
 31
0.0
  0
LINE
  5
1FA
330
1F
100
AcDbEntity
  8
0
  6
Continuous
 62
     7
370
    25
100
AcDbLine
 10
120.127494057
 20
122.6778772902
 30
0.0
 11
120.127494057
 21
122.7225207034
 31
0.0
  0
LINE
  5
1FB
330
1F
100
AcDbEntity
  8
0
  6
Continuous
 62
     7
370
    25
100
AcDbLine
 10
124.6274938633
 20
122.7225207034
 30
0.0
 11
124.6274938633
 21
124.4278771114
 31
0.0
  0
LINE
  5
1FC
330
1F
100
AcDbEntity
  8
0
  6
Continuous
 62
     7
370
    25
100
AcDbLine
 10
124.6274938633
 20
131.4278773274
 30
0.0
 11
124.6274938633
 21
133.1778771486
 31
0.0
  0
LINE
  5
1FD
330
1F
100
AcDbEntity
  8
0
  6
Continuous
 62
     7
370
    25
100
AcDbLine
 10
124.6274938633
 20
122.6778772902
 30
0.0
 11
124.6274938633
 21
122.7225207034
 31
0.0
  0
LINE
  5
1FE
330
1F
100
AcDbEntity
  8
0
  6
Continuous
 62
     7
370
    25
100
AcDbLine
 10
133.1474935462
 20
123.3478772696
 30
0.0
 11
133.1474935462
 21
124.4278771114
 31
0.0
  0
LINE
  5
1FF
330
1F
100
AcDbEntity
  8
0
  6
Continuous
 62
     7
370
    25
100
AcDbLine
 10
133.1474935462
 20
131.4278773274
 30
0.0
 11
133.1474935462
 21
132.5078771692
 31
0.0
  0
LINE
  5
200
330
1F
100
AcDbEntity
  8
0
  6
Continuous
 62
     7
370
    25
100
AcDbLine
 10
129.1274955323
 20
122.7225207034
 30
0.0
 11
129.1274955323
 21
124.4278771114
 31
0.0
  0
LINE
  5
201
330
1F
100
AcDbEntity
  8
0
  6
Continuous
 62
     7
370
    25
100
AcDbLine
 10
129.1274955323
 20
131.4278773274
 30
0.0
 11
129.1274955323
 21
133.1778771486
 31
0.0
  0
LINE
  5
202
330
1F
100
AcDbEntity
  8
0
  6
Continuous
 62
     7
370
    25
100
AcDbLine
 10
129.1274955323
 20
122.6778772902
 30
0.0
 11
129.1274955323
 21
122.7225207034
 31
0.0
  0
LINE
  5
203
330
1F
100
AcDbEntity
  8
0
  6
Continuous
 62
     7
370
    25
100
AcDbLine
 10
111.1274944445
 20
122.7225207034
 30
0.0
 11
111.1274944445
 21
124.259507494
 31
0.0
  0
LINE
  5
204
330
1F
100
AcDbEntity
  8
0
  6
Continuous
 62
     7
370
    25
100
AcDbLine
 10
111.1274944445
 20
131.5962469447
 30
0.0
 11
111.1274944445
 21
133.1778771486
 31
0.0
  0
LINE
  5
205
330
1F
100
AcDbEntity
  8
0
  6
Continuous
 62
     7
370
    25
100
AcDbLine
 10
111.1274944445
 20
122.6778772902
 30
0.0
 11
111.1274944445
 21
122.7225207034
 31
0.0
  0
LINE
  5
206
330
1F
100
AcDbEntity
  8
0
  6
Continuous
 62
     7
370
    25
100
AcDbLine
 10
115.6274942508
 20
122.7225207034
 30
0.0
 11
115.6274942508
 21
124.4276405554
 31
0.0
  0
LINE
  5
207
330
1F
100
AcDbEntity
  8
0
  6
Continuous
 62
     7
370
    25
100
AcDbLine
 10
115.6274942508
 20
131.4281138834
 30
0.0
 11
115.6274942508
 21
133.1778771486
 31
0.0
  0
LINE
  5
208
330
1F
100
AcDbEntity
  8
0
  6
Continuous
 62
     7
370
    25
100
AcDbLine
 10
115.6274942508
 20
122.6778772902
 30
0.0
 11
115.6274942508
 21
122.7225207034
 31
0.0
  0
LINE
  5
209
330
1F
100
AcDbEntity
  8
0
  6
Continuous
 62
     7
370
    25
100
AcDbLine
 10
133.6274934759
 20
123.8627417255
 30
0.0
 11
133.6274934759
 21
123.8278771993
 31
0.0
  0
LINE
  5
20A
330
1F
100
AcDbEntity
  8
0
  6
Continuous
 62
     7
370
    25
100
AcDbLine
 10
133.6274934759
 20
132.0278772395
 30
0.0
 11
133.6274934759
 21
131.4278773274
 31
0.0
  0
LINE
  5
20B
330
1F
100
AcDbEntity
  8
0
  6
Continuous
 62
     7
370
    25
100
AcDbLine
 10
133.6274934759
 20
124.4278771114
 30
0.0
 11
133.6274934759
 21
123.8627417255
 31
0.0
  0
LINE
  5
20C
330
1F
100
AcDbEntity
  8
0
  6
Continuous
 62
     7
370
    25
100
AcDbLine
 10
84.1274946754
 20
137.9278769959
 30
0.0
 11
84.1274946754
 21
117.9278774429
 31
0.0
  0
LINE
  5
20D
330
1F
100
AcDbEntity
  8
0
  6
Continuous
 62
     7
370
    25
100
AcDbLine
 10
83.6274945935
 20
118.4278775249
 30
0.0
 11
83.6274945935
 21
137.4278769139
 31
0.0
  0
LINE
  5
20E
330
1F
100
AcDbEntity
  8
0
  6
Continuous
 62
     7
370
    25
100
AcDbLine
 10
85.7455279504
 20
137.9278769959
 30
0.0
 11
85.7455279504
 21
117.9278774429
 31
0.0
  0
SPLINE
  5
20F
330
1F
100
AcDbEntity
  8
0
  6
Continuous
 62
     7
370
    25
100
AcDbSpline
210
0.0
220
0.0
230
1.0
 70
     8
 71
     3
 72
    12
 73
     8
 74
     0
 42
0.000000001
 43
0.00000001
 40
0.0
 40
0.0
 40
0.0
 40
0.0
 40
0.25
 40
0.25
 40
0.5
 40
0.5
 40
1.0
 40
1.0
 40
1.0
 40
1.0
 10
85.8984083028606
 20
136.6903383991359
 30
0.0
 10
85.97952490496525
 20
136.724843536996
 30
0.0
 10
86.02655482813356
 20
136.7576886082964
 30
0.0
 10
86.0894184296654
 20
136.8160411365431
 30
0.0
 10
86.10486810058258
 20
136.8416955001717
 30
0.0
 10
86.13205176496186
 20
136.9047947529114
 30
0.0
 10
86.12749436996265
 20
136.9278772193861
 30
0.0
 10
86.12749436996265
 20
136.9278772193861
 30
0.0
  0
SPLINE
  5
210
330
1F
100
AcDbEntity
  8
0
  6
Continuous
 62
     7
370
    25
100
AcDbSpline
210
0.0
220
0.0
230
1.0
 70
     8
 71
     3
 72
    14
 73
    10
 74
     0
 42
0.000000001
 43
0.00000001
 40
0.0
 40
0.0
 40
0.0
 40
0.0
 40
0.25
 40
0.25
 40
0.5
 40
0.5
 40
0.75
 40
0.75
 40
1.0
 40
1.0
 40
1.0
 40
1.0
 10
85.8984083028606
 20
136.6903383991359
 30
0.0
 10
85.87088731511552
 20
136.6786316035903
 30
0.0
 10
85.85096739327912
 20
136.6465896505087
 30
0.0
 10
85.83530035146106
 20
136.5472658998437
 30
0.0
 10
85.83979218327336
 20
136.479442457063
 30
0.0
 10
85.87104852855695
 20
136.3170008396501
 30
0.0
 10
85.89742111193873
 20
136.2225554429144
 30
0.0
 10
85.96025766308301
 20
136.0143263353179
 30
0.0
 10
85.9962972419431
 20
135.9017279424347
 30
0.0
 10
86.03029324530871
 20
135.7819715488346
 30
0.0
  0
SPLINE
  5
211
330
1F
100
AcDbEntity
  8
0
  6
Continuous
 62
     7
370
    25
100
AcDbSpline
210
0.0
220
0.0
230
1.0
 70
     8
 71
     3
 72
     8
 73
     4
 74
     0
 42
0.000000001
 43
0.00000001
 40
0.0
 40
0.0
 40
0.0
 40
0.0
 40
1.0
 40
1.0
 40
1.0
 40
1.0
 10
86.12749436996265
 20
135.0517806437736
 30
0.0
 10
86.12749436996265
 20
135.2992101005686
 30
0.0
 10
86.09812966288479
 20
135.5430068494759
 30
0.0
 10
86.03029324530871
 20
135.7819715488346
 30
0.0
  0
LINE
  5
212
330
1F
100
AcDbEntity
  8
0
  6
Continuous
 62
     7
370
    25
100
AcDbLine
 10
86.1274945376
 20
135.0517805908
 30
0.0
 11
86.1274945376
 21
120.803973848
 31
0.0
  0
SPLINE
  5
213
330
1F
100
AcDbEntity
  8
0
  6
Continuous
 62
     7
370
    25
100
AcDbSpline
210
0.0
220
0.0
230
1.0
 70
     8
 71
     3
 72
     8
 73
     4
 74
     0
 42
0.000000001
 43
0.00000001
 40
0.0
 40
0.0
 40
0.0
 40
0.0
 40
1.0
 40
1.0
 40
1.0
 40
1.0
 10
86.03029324530871
 20
120.0737828899375
 30
0.0
 10
86.09812966288479
 20
120.3127475892962
 30
0.0
 10
86.12749436996265
 20
120.5565443382036
 30
0.0
 10
86.12749436996265
 20
120.8039737949986
 30
0.0
  0
SPLINE
  5
214
330
1F
100
AcDbEntity
  8
0
  6
Continuous
 62
     7
370
    25
100
AcDbSpline
210
0.0
220
0.0
230
1.0
 70
     8
 71
     3
 72
    12
 73
     8
 74
     0
 42
0.000000001
 43
0.00000001
 40
0.0
 40
0.0
 40
0.0
 40
0.0
 40
0.4999999999999992
 40
0.4999999999999992
 40
0.7499999999999996
 40
0.7499999999999996
 40
1.0
 40
1.0
 40
1.0
 40
1.0
 10
86.03029324530871
 20
120.0737828899375
 30
0.0
 10
85.96242348529891
 20
119.8347007364894
 30
0.0
 10
85.88638893404517
 20
119.6189306293126
 30
0.0
 10
85.83974433566817
 20
119.3758360366087
 30
0.0
 10
85.83530533914553
 20
119.3081707611325
 30
0.0
 10
85.85103595293836
 20
119.2090176449759
 30
0.0
 10
85.87091638288074
 20
119.1771104704227
 30
0.0
 10
85.8984083028606
 20
119.1654160396363
 30
0.0
  0
SPLINE
  5
215
330
1F
100
AcDbEntity
  8
0
  6
Continuous
 62
     7
370
    25
100
AcDbSpline
210
0.0
220
0.0
230
1.0
 70
     8
 71
     3
 72
    12
 73
     8
 74
     0
 42
0.000000001
 43
0.00000001
 40
0.0
 40
0.0
 40
0.0
 40
0.0
 40
0.5000000000000002
 40
0.5000000000000002
 40
0.7500000000000001
 40
0.7500000000000001
 40
1.0
 40
1.0
 40
1.0
 40
1.0
 10
86.12749436996265
 20
118.9278772193861
 30
0.0
 10
86.12749436996265
 20
118.9278772193861
 30
0.0
 10
86.13205176496186
 20
118.9509596858607
 30
0.0
 10
86.10486810058259
 20
119.0140589386004
 30
0.0
 10
86.0894184296654
 20
119.039713302229
 30
0.0
 10
86.02655482813356
 20
119.0980658304757
 30
0.0
 10
85.97952490496525
 20
119.1309109017762
 30
0.0
 10
85.89840830286059
 20
119.1654160396363
 30
0.0
  0
LINE
  5
216
330
1F
100
AcDbEntity
  8
0
  6
Continuous
 62
     7
370
    25
100
AcDbLine
 10
101.5094607895
 20
117.9278774429
 30
0.0
 11
101.5094607895
 21
122.8368410151
 31
0.0
  0
LINE
  5
217
330
1F
100
AcDbEntity
  8
0
  6
Continuous
 62
     7
370
    25
100
AcDbLine
 10
101.5094607895
 20
133.0189134236
 30
0.0
 11
101.5094607895
 21
137.9278769959
 31
0.0
  0
LINE
  5
218
330
1F
100
AcDbEntity
  8
0
  6
Continuous
 62
     7
370
    25
100
AcDbLine
 10
103.3774945711
 20
117.9278774429
 30
0.0
 11
103.3774945711
 21
123.2291979026
 31
0.0
  0
LINE
  5
219
330
1F
100
AcDbEntity
  8
0
  6
Continuous
 62
     7
370
    25
100
AcDbLine
 10
103.3774945711
 20
132.6265565362
 30
0.0
 11
103.3774945711
 21
137.9278769959
 31
0.0
  0
LINE
  5
21A
330
1F
100
AcDbEntity
  8
0
  6
Continuous
 62
     7
370
    25
100
AcDbLine
 10
103.6274941464
 20
137.6778774206
 30
0.0
 11
103.6274941464
 21
132.5783764254
 31
0.0
  0
LINE
  5
21B
330
1F
100
AcDbEntity
  8
0
  6
Continuous
 62
     7
370
    25
100
AcDbLine
 10
103.6274941464
 20
123.2773780133
 30
0.0
 11
103.6274941464
 21
118.1778770182
 31
0.0
  0
SPLINE
  5
21C
330
1F
100
AcDbEntity
  8
0
  6
Continuous
 62
     7
370
    25
100
AcDbSpline
210
0.0
220
0.0
230
1.0
 70
     8
 71
     3
 72
    12
 73
     8
 74
     0
 42
0.000000001
 43
0.00000001
 40
0.0
 40
0.0
 40
0.0
 40
0.0
 40
0.2500000000000001
 40
0.2500000000000001
 40
0.5000000000000001
 40
0.5000000000000001
 40
1.0
 40
1.0
 40
1.0
 40
1.0
 10
101.3565804370647
 20
119.1654160396363
 30
0.0
 10
101.27546383496
 20
119.1309109017762
 30
0.0
 10
101.2284339117917
 20
119.0980658304757
 30
0.0
 10
101.1655703102599
 20
119.039713302229
 30
0.0
 10
101.1501206393427
 20
119.0140589386004
 30
0.0
 10
101.1229369749634
 20
118.9509596858607
 30
0.0
 10
101.1274943699626
 20
118.9278772193861
 30
0.0
 10
101.1274943699626
 20
118.9278772193861
 30
0.0
  0
SPLINE
  5
21D
330
1F
100
AcDbEntity
  8
0
  6
Continuous
 62
     7
370
    25
100
AcDbSpline
210
0.0
220
0.0
230
1.0
 70
     8
 71
     3
 72
    14
 73
    10
 74
     0
 42
0.000000001
 43
0.00000001
 40
0.0
 40
0.0
 40
0.0
 40
0.0
 40
0.25
 40
0.25
 40
0.5
 40
0.5
 40
0.75
 40
0.75
 40
1.0
 40
1.0
 40
1.0
 40
1.0
 10
101.3565804370647
 20
119.1654160396363
 30
0.0
 10
101.3841014248097
 20
119.1771228351818
 30
0.0
 10
101.4040213466461
 20
119.2091647882634
 30
0.0
 10
101.4196883884642
 20
119.3084885389284
 30
0.0
 10
101.4151965566519
 20
119.3763119817091
 30
0.0
 10
101.3839402113683
 20
119.538753599122
 30
0.0
 10
101.3575676279865
 20
119.6331989958577
 30
0.0
 10
101.2947310768423
 20
119.8414281034542
 30
0.0
 10
101.2586914979822
 20
119.9540264963374
 30
0.0
 10
101.2246954946166
 20
120.0737828899375
 30
0.0
  0
SPLINE
  5
21E
330
1F
100
AcDbEntity
  8
0
  6
Continuous
 62
     7
370
    25
100
AcDbSpline
210
0.0
220
0.0
230
1.0
 70
     8
 71
     3
 72
     8
 73
     4
 74
     0
 42
0.000000001
 43
0.00000001
 40
0.0
 40
0.0
 40
0.0
 40
0.0
 40
1.0
 40
1.0
 40
1.0
 40
1.0
 10
101.1274943699626
 20
120.8039737949986
 30
0.0
 10
101.1274943699626
 20
120.5565443382036
 30
0.0
 10
101.1568590770405
 20
120.3127475892962
 30
0.0
 10
101.2246954946166
 20
120.0737828899375
 30
0.0
  0
LINE
  5
21F
330
1F
100
AcDbEntity
  8
0
  6
Continuous
 62
     7
370
    25
100
AcDbLine
 10
101.1274942023
 20
120.803973848
 30
0.0
 11
101.1274942023
 21
122.7495285924
 31
0.0
  0
LINE
  5
220
330
1F
100
AcDbEntity
  8
0
  6
Continuous
 62
     7
370
    25
100
AcDbLine
 10
101.1274942023
 20
133.1062258463
 30
0.0
 11
101.1274942023
 21
135.0517805908
 31
0.0
  0
SPLINE
  5
221
330
1F
100
AcDbEntity
  8
0
  6
Continuous
 62
     7
370
    25
100
AcDbSpline
210
0.0
220
0.0
230
1.0
 70
     8
 71
     3
 72
     8
 73
     4
 74
     0
 42
0.000000001
 43
0.00000001
 40
0.0
 40
0.0
 40
0.0
 40
0.0
 40
1.0
 40
1.0
 40
1.0
 40
1.0
 10
101.2246954946166
 20
135.7819715488346
 30
0.0
 10
101.1568590770405
 20
135.5430068494759
 30
0.0
 10
101.1274943699626
 20
135.2992101005686
 30
0.0
 10
101.1274943699626
 20
135.0517806437736
 30
0.0
  0
SPLINE
  5
222
330
1F
100
AcDbEntity
  8
0
  6
Continuous
 62
     7
370
    25
100
AcDbSpline
210
0.0
220
0.0
230
1.0
 70
     8
 71
     3
 72
    12
 73
     8
 74
     0
 42
0.000000001
 43
0.00000001
 40
0.0
 40
0.0
 40
0.0
 40
0.0
 40
0.4999999999999992
 40
0.4999999999999992
 40
0.7499999999999996
 40
0.7499999999999996
 40
1.0
 40
1.0
 40
1.0
 40
1.0
 10
101.2246954946166
 20
135.7819715488346
 30
0.0
 10
101.2925652546264
 20
136.0210537022827
 30
0.0
 10
101.3685998058801
 20
136.2368238094596
 30
0.0
 10
101.4152444042571
 20
136.4799184021635
 30
0.0
 10
101.4196834007797
 20
136.5475836776396
 30
0.0
 10
101.4039527869869
 20
136.6467367937962
 30
0.0
 10
101.3840723570445
 20
136.6786439683494
 30
0.0
 10
101.3565804370647
 20
136.6903383991359
 30
0.0
  0
SPLINE
  5
223
330
1F
100
AcDbEntity
  8
0
  6
Continuous
 62
     7
370
    25
100
AcDbSpline
210
0.0
220
0.0
230
1.0
 70
     8
 71
     3
 72
    12
 73
     8
 74
     0
 42
0.000000001
 43
0.00000001
 40
0.0
 40
0.0
 40
0.0
 40
0.0
 40
0.4999999999999998
 40
0.4999999999999998
 40
0.7499999999999999
 40
0.7499999999999999
 40
1.0
 40
1.0
 40
1.0
 40
1.0
 10
101.1274943699626
 20
136.9278772193861
 30
0.0
 10
101.1274943699626
 20
136.9278772193861
 30
0.0
 10
101.1229369749634
 20
136.9047947529114
 30
0.0
 10
101.1501206393427
 20
136.8416955001717
 30
0.0
 10
101.1655703102599
 20
136.8160411365431
 30
0.0
 10
101.2284339117917
 20
136.7576886082964
 30
0.0
 10
101.27546383496
 20
136.724843536996
 30
0.0
 10
101.3565804370647
 20
136.6903383991359
 30
0.0
  0
ARC
  5
224
330
1F
100
AcDbEntity
  8
0
  6
Continuous
 62
     7
370
    25
100
AcDbCircle
 10
86.5808121353
 20
120.7449983634
 30
0.0
 40
0.4571377824698337
100
AcDbArc
 50
84.1388497305
 51
172.5875946393
  0
ARC
  5
225
330
1F
100
AcDbEntity
  8
0
  6
Continuous
 62
     7
370
    25
100
AcDbCircle
 10
86.5808121353
 20
135.1107560754
 30
0.0
 40
0.4571377824698478
100
AcDbArc
 50
187.4124053607
 51
275.8611502695
  0
ARC
  5
226
330
1F
100
AcDbEntity
  8
0
  6
Continuous
 62
     7
370
    25
100
AcDbCircle
 10
100.6741766046
 20
120.7449983634
 30
0.0
 40
0.4571377824698337
100
AcDbArc
 50
7.4124053607
 51
95.8611502695
  0
ARC
  5
227
330
1F
100
AcDbEntity
  8
0
  6
Continuous
 62
     7
370
    25
100
AcDbCircle
 10
100.6741766046
 20
135.1107560754
 30
0.0
 40
0.4571377824698478
100
AcDbArc
 50
264.1388497305
 51
352.5875946393
  0
LINE
  5
228
330
1F
100
AcDbEntity
  8
0
  6
Continuous
 62
     7
370
    25
100
AcDbLine
 10
75.7916202595
 20
121.428419115
 30
0.0
 11
75.7916202595
 21
134.4273353238
 31
0.0
  0
LINE
  5
229
330
1F
100
AcDbEntity
  8
0
  6
Continuous
 62
     7
370
    25
100
AcDbLine
 10
73.627494817
 20
122.6778772902
 30
0.0
 11
73.627494817
 21
133.1778771486
 31
0.0
  0
SPLINE
  5
22A
330
1F
100
AcDbEntity
  8
0
  6
Continuous
 62
     7
370
    25
100
AcDbSpline
210
0.0
220
0.0
230
1.0
 70
     8
 71
     3
 72
     8
 73
     4
 74
     0
 42
0.000000001
 43
0.00000001
 40
0.0
 40
0.0
 40
0.0
 40
0.0
 40
1.0
 40
1.0
 40
1.0
 40
1.0
 10
100.6274943699626
 20
135.0517806437736
 30
0.0
 10
100.6274943699626
 20
135.3502035118743
 30
0.0
 10
100.6680871741128
 20
135.6426214617562
 30
0.0
 10
100.7570958695012
 20
135.9278772193861
 30
0.0
  0
LWPOLYLINE
  5
22B
330
1F
100
AcDbEntity
  8
0
  6
Continuous
 62
     7
370
    25
100
AcDbPolyline
 90
        9
 70
   128
 43
0.0
 10
100.7570960385
 20
135.9278775994
 10
100.838365109
 20
135.902518617
 10
100.917260704
 20
135.8779009674
 10
100.9914787313
 20
135.8547427002
 10
101.0588520033
 20
135.8337199557
 10
101.1174131011
 20
135.8154474068
 10
101.1654511852
 20
135.80045777
 10
101.201563218
 20
135.7891896982
 10
101.2246954081
 20
135.7819719482
  0
LINE
  5
22C
330
1F
100
AcDbEntity
  8
0
  6
Continuous
 62
     7
370
    25
100
AcDbLine
 10
101.1274942023
 20
135.0517805908
 30
0.0
 11
100.627494586
 21
135.0517805908
 31
0.0
  0
LWPOLYLINE
  5
22D
330
1F
100
AcDbEntity
  8
0
  6
Continuous
 62
     7
370
    25
100
AcDbPolyline
 90
        9
 70
   128
 43
0.0
 10
86.0302933318
 20
135.7819719482
 10
86.0534255219
 20
135.7891896982
 10
86.0895375547
 20
135.80045777
 10
86.1375756388
 20
135.8154474068
 10
86.1961367366
 20
135.8337199557
 10
86.2635100087
 20
135.8547427002
 10
86.337728036
 20
135.8779009674
 10
86.4166236309
 20
135.902518617
 10
86.4978927014
 20
135.9278775994
  0
SPLINE
  5
22E
330
1F
100
AcDbEntity
  8
0
  6
Continuous
 62
     7
370
    25
100
AcDbSpline
210
0.0
220
0.0
230
1.0
 70
     8
 71
     3
 72
     8
 73
     4
 74
     0
 42
0.000000001
 43
0.00000001
 40
0.0
 40
0.0
 40
0.0
 40
0.0
 40
1.0
 40
1.0
 40
1.0
 40
1.0
 10
86.49789287042407
 20
135.9278772193861
 30
0.0
 10
86.58690156581248
 20
135.6426214617562
 30
0.0
 10
86.62749436996265
 20
135.3502035118743
 30
0.0
 10
86.62749436996265
 20
135.0517806437736
 30
0.0
  0
LINE
  5
22F
330
1F
100
AcDbEntity
  8
0
  6
Continuous
 62
     7
370
    25
100
AcDbLine
 10
86.1274945376
 20
135.0517805908
 30
0.0
 11
86.6274941539
 21
135.0517805908
 31
0.0
  0
LWPOLYLINE
  5
230
330
1F
100
AcDbEntity
  8
0
  6
Continuous
 62
     7
370
    25
100
AcDbPolyline
 90
        9
 70
   128
 43
0.0
 10
101.2246954081
 20
120.0737824906
 10
101.201563218
 20
120.0665647406
 10
101.1654511852
 20
120.0552966688
 10
101.1174131011
 20
120.0403070319
 10
101.0588520033
 20
120.022034483
 10
100.9914787313
 20
120.0010117385
 10
100.917260704
 20
119.9778534714
 10
100.838365109
 20
119.9532358218
 10
100.7570960385
 20
119.9278768394
  0
SPLINE
  5
231
330
1F
100
AcDbEntity
  8
0
  6
Continuous
 62
     7
370
    25
100
AcDbSpline
210
0.0
220
0.0
230
1.0
 70
     8
 71
     3
 72
     8
 73
     4
 74
     0
 42
0.000000001
 43
0.00000001
 40
0.0
 40
0.0
 40
0.0
 40
0.0
 40
1.0
 40
1.0
 40
1.0
 40
1.0
 10
100.7570958695012
 20
119.9278772193861
 30
0.0
 10
100.6680871741128
 20
120.2131329770159
 30
0.0
 10
100.6274943699626
 20
120.5055509268978
 30
0.0
 10
100.6274943699626
 20
120.8039737949986
 30
0.0
  0
LINE
  5
232
330
1F
100
AcDbEntity
  8
0
  6
Continuous
 62
     7
370
    25
100
AcDbLine
 10
101.1274942023
 20
120.803973848
 30
0.0
 11
100.627494586
 21
120.803973848
 31
0.0
  0
SPLINE
  5
233
330
1F
100
AcDbEntity
  8
0
  6
Continuous
 62
     7
370
    25
100
AcDbSpline
210
0.0
220
0.0
230
1.0
 70
     8
 71
     3
 72
     8
 73
     4
 74
     0
 42
0.000000001
 43
0.00000001
 40
0.0
 40
0.0
 40
0.0
 40
0.0
 40
1.0
 40
1.0
 40
1.0
 40
1.0
 10
86.62749436996265
 20
120.8039737949986
 30
0.0
 10
86.62749436996265
 20
120.5055509268978
 30
0.0
 10
86.58690156581248
 20
120.2131329770159
 30
0.0
 10
86.49789287042407
 20
119.9278772193861
 30
0.0
  0
LWPOLYLINE
  5
234
330
1F
100
AcDbEntity
  8
0
  6
Continuous
 62
     7
370
    25
100
AcDbPolyline
 90
        9
 70
   128
 43
0.0
 10
86.4978927014
 20
119.9278768394
 10
86.4166236309
 20
119.9532358218
 10
86.337728036
 20
119.9778534714
 10
86.2635100087
 20
120.0010117385
 10
86.1961367366
 20
120.022034483
 10
86.1375756388
 20
120.0403070319
 10
86.0895375547
 20
120.0552966688
 10
86.0534255219
 20
120.0665647406
 10
86.0302933318
 20
120.0737824906
  0
LINE
  5
235
330
1F
100
AcDbEntity
  8
0
  6
Continuous
 62
     7
370
    25
100
AcDbLine
 10
86.6274941539
 20
120.803973848
 30
0.0
 11
86.1274945376
 21
120.803973848
 31
0.0
  0
LINE
  5
236
330
1F
100
AcDbEntity
  8
0
  6
Continuous
 62
     7
370
    25
100
AcDbLine
 10
100.627494586
 20
135.0517805908
 30
0.0
 11
100.627494586
 21
134.6560080778
 31
0.0
  0
LINE
  5
237
330
1F
100
AcDbEntity
  8
0
  6
Continuous
 62
     7
370
    25
100
AcDbLine
 10
86.6274941539
 20
135.0517805908
 30
0.0
 11
86.6274941539
 21
134.6560080778
 31
0.0
  0
LINE
  5
238
330
1F
100
AcDbEntity
  8
0
  6
Continuous
 62
     7
370
    25
100
AcDbLine
 10
100.627494586
 20
121.199746361
 30
0.0
 11
100.627494586
 21
120.803973848
 31
0.0
  0
LINE
  5
239
330
1F
100
AcDbEntity
  8
0
  6
Continuous
 62
     7
370
    25
100
AcDbLine
 10
86.6274941539
 20
121.199746361
 30
0.0
 11
86.6274941539
 21
120.803973848
 31
0.0
  0
ARC
  5
23A
330
1F
100
AcDbEntity
  8
0
  6
Continuous
 62
     7
370
    25
100
AcDbCircle
 10
86.3258745032
 20
136.9071843973
 30
0.0
 40
0.4793220025378311
100
AcDbArc
 50
206.8978733264
 51
269.5424057934
  0
SPLINE
  5
23B
330
1F
100
AcDbEntity
  8
0
  6
Continuous
 62
     7
370
    25
100
AcDbSpline
210
0.0
220
0.0
230
1.0
 70
     8
 71
     3
 72
    14
 73
    10
 74
     0
 42
0.000000001
 43
0.00000001
 40
0.0
 40
0.0
 40
0.0
 40
0.0
 40
0.25
 40
0.25
 40
0.5
 40
0.5
 40
0.75
 40
0.75
 40
1.0
 40
1.0
 40
1.0
 40
1.0
 10
86.49789287042407
 20
135.9278772193861
 30
0.0
 10
86.45941738680247
 20
135.9895304836135
 30
0.0
 10
86.41832846533246
 20
136.0477144288865
 30
0.0
 10
86.3390456178919
 20
136.1613797503534
 30
0.0
 10
86.30176271678144
 20
136.2150563490532
 30
0.0
 10
86.24895695746966
 20
136.3150463814998
 30
0.0
 10
86.23698769737604
 20
136.3594508817228
 30
0.0
 10
86.25698948574819
 20
136.4155107372166
 30
0.0
 10
86.2864459413005
 20
136.4278772193861
 30
0.0
 10
86.32204628049325
 20
136.4278772193861
 30
0.0
  0
ARC
  5
23C
330
1F
100
AcDbEntity
  8
0
  6
Continuous
 62
     7
370
    25
100
AcDbCircle
 10
100.9291142368
 20
118.9485700415
 30
0.0
 40
0.479322002537821
100
AcDbArc
 50
26.8978733264
 51
89.5424057934
  0
SPLINE
  5
23D
330
1F
100
AcDbEntity
  8
0
  6
Continuous
 62
     7
370
    25
100
AcDbSpline
210
0.0
220
0.0
230
1.0
 70
     8
 71
     3
 72
    14
 73
    10
 74
     0
 42
0.000000001
 43
0.00000001
 40
0.0
 40
0.0
 40
0.0
 40
0.0
 40
0.25
 40
0.25
 40
0.5
 40
0.5
 40
0.75
 40
0.75
 40
1.0
 40
1.0
 40
1.0
 40
1.0
 10
100.7570958695012
 20
119.9278772193861
 30
0.0
 10
100.7955713531228
 20
119.8662239551586
 30
0.0
 10
100.8366602745928
 20
119.8080400098857
 30
0.0
 10
100.9159431220334
 20
119.6943746884187
 30
0.0
 10
100.9532260231438
 20
119.640698089719
 30
0.0
 10
101.0060317824556
 20
119.5407080572723
 30
0.0
 10
101.0180010425492
 20
119.4963035570494
 30
0.0
 10
100.9979992541771
 20
119.4402437015556
 30
0.0
 10
100.9685427986248
 20
119.4278772193861
 30
0.0
 10
100.932942459432
 20
119.4278772193861
 30
0.0
  0
SPLINE
  5
23E
330
1F
100
AcDbEntity
  8
0
  6
Continuous
 62
     7
370
    25
100
AcDbSpline
210
0.0
220
0.0
230
1.0
 70
     8
 71
     3
 72
    16
 73
    12
 74
     0
 42
0.000000001
 43
0.00000001
 40
0.0
 40
0.0
 40
0.0
 40
0.0
 40
0.2500000000000049
 40
0.2500000000000049
 40
0.3750000000000051
 40
0.3750000000000051
 40
0.5000000000000052
 40
0.5000000000000052
 40
0.7500000000000026
 40
0.7500000000000026
 40
1.0
 40
1.0
 40
1.0
 40
1.0
 10
100.932942459432
 20
136.4278772193861
 30
0.0
 10
100.9684963888807
 20
136.4278772193861
 30
0.0
 10
100.9977685301094
 20
136.4157454689702
 30
0.0
 10
101.0129810803302
 20
136.3737237626908
 30
0.0
 10
101.0130417485038
 20
136.3555093931843
 30
0.0
 10
101.0028311640265
 20
136.3135723806577
 30
0.0
 10
100.9930478345012
 20
136.2905448171635
 30
0.0
 10
100.9538832859693
 20
136.2161361383914
 30
0.0
 10
100.916010212696
 20
136.1614782622089
 30
0.0
 10
100.8369372397044
 20
136.0481091890302
 30
0.0
 10
100.7955501071136
 20
135.989496438926
 30
0.0
 10
100.7570958695012
 20
135.9278772193861
 30
0.0
  0
ARC
  5
23F
330
1F
100
AcDbEntity
  8
0
  6
Continuous
 62
     7
370
    25
100
AcDbCircle
 10
100.9291142368
 20
136.9071843973
 30
0.0
 40
0.4793220025378055
100
AcDbArc
 50
270.4575942066
 51
333.1021266736
  0
SPLINE
  5
240
330
1F
100
AcDbEntity
  8
0
  6
Continuous
 62
     7
370
    25
100
AcDbSpline
210
0.0
220
0.0
230
1.0
 70
     8
 71
     3
 72
    16
 73
    12
 74
     0
 42
0.000000001
 43
0.00000001
 40
0.0
 40
0.0
 40
0.0
 40
0.0
 40
0.2500000000000011
 40
0.2500000000000011
 40
0.3749999999999992
 40
0.3749999999999992
 40
0.4999999999999974
 40
0.4999999999999974
 40
0.7499999999999987
 40
0.7499999999999987
 40
1.0
 40
1.0
 40
1.0
 40
1.0
 10
86.32204628049325
 20
119.4278772193861
 30
0.0
 10
86.2864923510446
 20
119.4278772193861
 30
0.0
 10
86.2572202098159
 20
119.4400089698019
 30
0.0
 10
86.24200765959503
 20
119.4820306760813
 30
0.0
 10
86.24194699142149
 20
119.5002450455878
 30
0.0
 10
86.2521575758988
 20
119.5421820581144
 30
0.0
 10
86.26194090542405
 20
119.5652096216087
 30
0.0
 10
86.30110545395598
 20
119.6396183003807
 30
0.0
 10
86.33897852722924
 20
119.6942761765632
 30
0.0
 10
86.41805150022083
 20
119.8076452497419
 30
0.0
 10
86.45943863281167
 20
119.8662579998461
 30
0.0
 10
86.49789287042407
 20
119.9278772193861
 30
0.0
  0
ARC
  5
241
330
1F
100
AcDbEntity
  8
0
  6
Continuous
 62
     7
370
    25
100
AcDbCircle
 10
86.3258745032
 20
118.9485700415
 30
0.0
 40
0.4793220025378375
100
AcDbArc
 50
90.4575942066
 51
153.1021266736
  0
LINE
  5
242
330
1F
100
AcDbEntity
  8
0
  6
Continuous
 62
     7
370
    25
100
AcDbLine
 10
86.3220464265
 20
136.4278776813
 30
0.0
 11
100.9329423135
 21
136.4278776813
 31
0.0
  0
LINE
  5
243
330
1F
100
AcDbEntity
  8
0
  6
Continuous
 62
     7
370
    25
100
AcDbLine
 10
100.7570960385
 20
135.9278775994
 30
0.0
 11
86.4978927014
 21
135.9278775994
 31
0.0
  0
LINE
  5
244
330
1F
100
AcDbEntity
  8
0
  6
Continuous
 62
     7
370
    25
100
AcDbLine
 10
86.4978927014
 20
119.9278768394
 30
0.0
 11
100.7570960385
 21
119.9278768394
 31
0.0
  0
LINE
  5
245
330
1F
100
AcDbEntity
  8
0
  6
Continuous
 62
     7
370
    25
100
AcDbLine
 10
100.9329423135
 20
119.4278767575
 30
0.0
 11
86.3220464265
 21
119.4278767575
 31
0.0
  0
ARC
  5
246
330
1F
100
AcDbEntity
  8
0
  6
Continuous
 62
     7
370
    25
100
AcDbCircle
 10
100.62749437
 20
136.9278772194
 30
0.0
 40
0.5
100
AcDbArc
 50
270.0
 51
0.0
  0
ARC
  5
247
330
1F
100
AcDbEntity
  8
0
  6
Continuous
 62
     7
370
    25
100
AcDbCircle
 10
86.62749437
 20
136.9278772194
 30
0.0
 40
0.5
100
AcDbArc
 50
180.0
 51
270.0
  0
ARC
  5
248
330
1F
100
AcDbEntity
  8
0
  6
Continuous
 62
     7
370
    25
100
AcDbCircle
 10
86.62749437
 20
118.9278772194
 30
0.0
 40
0.5
100
AcDbArc
 50
90.0
 51
180.0
  0
ARC
  5
249
330
1F
100
AcDbEntity
  8
0
  6
Continuous
 62
     7
370
    25
100
AcDbCircle
 10
100.62749437
 20
118.9278772194
 30
0.0
 40
0.5
100
AcDbArc
 50
0.0
 51
90.0
  0
LINE
  5
24A
330
1F
100
AcDbEntity
  8
0
  6
Continuous
 62
     8
370
    25
100
AcDbLine
 10
86.6274941539
 20
134.6560080778
 30
0.0
 11
86.6274941539
 21
130.4778773114
 31
0.0
  0
LINE
  5
24B
330
1F
100
AcDbEntity
  8
0
  6
Continuous
 62
     8
370
    25
100
AcDbLine
 10
86.6274941539
 20
125.3778771274
 30
0.0
 11
86.6274941539
 21
121.199746361
 31
0.0
  0
LINE
  5
24C
330
1F
100
AcDbEntity
  8
0
  6
Continuous
 62
     8
370
    25
100
AcDbLine
 10
100.627494586
 20
121.199746361
 30
0.0
 11
100.627494586
 21
122.6315649468
 31
0.0
  0
LINE
  5
24D
330
1F
100
AcDbEntity
  8
0
  6
Continuous
 62
     8
370
    25
100
AcDbLine
 10
100.627494586
 20
133.2241894919
 30
0.0
 11
100.627494586
 21
134.6560080778
 31
0.0
  0
LINE
  5
24E
330
1F
100
AcDbEntity
  8
0
  6
Continuous
 62
     8
370
    25
100
AcDbLine
 10
86.6274941539
 20
121.199746361
 30
0.0
 11
90.4283142475
 21
121.199746361
 31
0.0
  0
LINE
  5
24F
330
1F
100
AcDbEntity
  8
0
  6
Continuous
 62
     8
370
    25
100
AcDbLine
 10
96.8266744924
 20
121.199746361
 30
0.0
 11
100.627494586
 21
121.199746361
 31
0.0
  0
LINE
  5
250
330
1F
100
AcDbEntity
  8
0
  6
Continuous
 62
     8
370
    25
100
AcDbLine
 10
100.627494586
 20
134.6560080778
 30
0.0
 11
96.8266744924
 21
134.6560080778
 31
0.0
  0
LINE
  5
251
330
1F
100
AcDbEntity
  8
0
  6
Continuous
 62
     8
370
    25
100
AcDbLine
 10
90.4283142475
 20
134.6560080778
 30
0.0
 11
86.6274941539
 21
134.6560080778
 31
0.0
  0
LINE
  5
252
330
1F
100
AcDbEntity
  8
0
  6
Continuous
 62
     8
370
    25
100
AcDbLine
 10
86.6274941539
 20
135.0517805908
 30
0.0
 11
91.4474714839
 21
135.0517805908
 31
0.0
  0
LINE
  5
253
330
1F
100
AcDbEntity
  8
0
  6
Continuous
 62
     8
370
    25
100
AcDbLine
 10
95.807517256
 20
135.0517805908
 30
0.0
 11
100.627494586
 21
135.0517805908
 31
0.0
  0
LINE
  5
254
330
1F
100
AcDbEntity
  8
0
  6
Continuous
 62
     8
370
    25
100
AcDbLine
 10
100.627494586
 20
120.803973848
 30
0.0
 11
95.807517256
 21
120.803973848
 31
0.0
  0
LINE
  5
255
330
1F
100
AcDbEntity
  8
0
  6
Continuous
 62
     8
370
    25
100
AcDbLine
 10
91.4474714839
 20
120.803973848
 30
0.0
 11
86.6274941539
 21
120.803973848
 31
0.0
  0
INSERT
  5
261
330
1F
100
AcDbEntity
  8
0
  6
Continuous
 62
     7
370
    18
100
AcDbBlockReference
  2
SW_CENTERMARKSYMBOL_1
 10
93.62749437
 20
127.9278772194
 30
0.0
  0
LINE
  5
262
330
1F
100
AcDbEntity
  8
0
  6
Continuous
 62
     7
370
     0
100
AcDbLine
 10
74.3276791382
 20
133.5821290838
 30
0.0
 11
83.12749437
 21
133.8571233098
 31
0.0
  0
LINE
  5
263
330
1F
100
AcDbEntity
  8
0
  6
Continuous
 62
     7
370
     0
100
AcDbLine
 10
74.3276791382
 20
122.273625355
 30
0.0
 11
83.12749437
 21
121.998631129
 31
0.0
  0
LINE
  5
264
330
1F
100
AcDbEntity
  8
0
  6
Continuous
 62
     7
370
     0
100
AcDbLine
 10
83.12749437
 20
121.1991729158
 30
0.0
 11
83.12749437
 21
134.6565815229
 31
0.0
  0
ENDSEC
  0
SECTION
  2
OBJECTS
  0
DICTIONARY
  5
C
330
0
100
AcDbDictionary
281
     1
  3
ACAD_GROUP
350
D
  3
ACAD_LAYOUT
350
1A
  3
ACAD_MLINESTYLE
350
17
  3
ACAD_PLOTSETTINGS
350
19
  3
ACAD_PLOTSTYLENAME
350
E
  3
ACAD_SCALELIST
350
47
  0
DICTIONARY
  5
D
102
{ACAD_REACTORS
330
C
102
}
330
C
100
AcDbDictionary
281
     1
  0
DICTIONARY
  5
1A
102
{ACAD_REACTORS
330
C
102
}
330
C
100
AcDbDictionary
281
     1
  3
Layout1
350
1E
  3
Layout2
350
26
  3
Model
350
22
  0
DICTIONARY
  5
17
102
{ACAD_REACTORS
330
C
102
}
330
C
100
AcDbDictionary
281
     1
  3
Standard
350
18
  0
DICTIONARY
  5
19
102
{ACAD_REACTORS
330
C
102
}
330
C
100
AcDbDictionary
281
     1
  0
ACDBDICTIONARYWDFLT
  5
E
102
{ACAD_REACTORS
330
C
102
}
330
C
100
AcDbDictionary
281
     1
  3
Normal
350
F
100
AcDbDictionaryWithDefault
340
F
  0
DICTIONARY
  5
47
102
{ACAD_REACTORS
330
C
102
}
330
C
100
AcDbDictionary
281
     1
  3
A0
350
48
  3
A1
350
49
  3
A2
350
4A
  3
A3
350
4B
  3
A4
350
4C
  3
A5
350
4D
  3
A6
350
4E
  3
A7
350
4F
  3
A8
350
50
  3
A9
350
51
  3
B0
350
52
  3
B1
350
53
  3
B2
350
54
  3
B3
350
55
  3
B4
350
56
  3
B5
350
57
  3
B6
350
58
  3
B7
350
59
  3
B8
350
5A
  3
B9
350
5B
  3
C0
350
5C
  3
C1
350
5D
  3
C2
350
5E
  3
C3
350
5F
  3
C4
350
60
  3
C5
350
61
  3
C6
350
62
  3
C7
350
63
  3
C8
350
64
  3
C9
350
65
  3
D0
350
66
  3
D1
350
67
  3
D2
350
68
  0
LAYOUT
  5
1E
102
{ACAD_REACTORS
330
1A
102
}
330
1A
100
AcDbPlotSettings
  1

  2
none_device
  4

  6

 40
0.0
 41
0.0
 42
0.0
 43
0.0
 44
0.0
 45
0.0
 46
0.0
 47
0.0
 48
0.0
 49
0.0
140
0.0
141
0.0
142
1.0
143
1.0
 70
   688
 72
     1
 73
     0
 74
     5
  7

 75
    16
147
1.0
148
0.0
149
0.0
100
AcDbLayout
  1
Layout1
 70
     1
 71
     1
 10
0.0
 20
0.0
 11
420.0
 21
297.0
 12
0.0
 22
0.0
 32
0.0
 14
1.0000000000E+20
 24
1.0000000000E+20
 34
1.0000000000E+20
 15
-1.0000000000E+20
 25
-1.0000000000E+20
 35
-1.0000000000E+20
146
0.0
 13
0.0
 23
0.0
 33
0.0
 16
1.0
 26
0.0
 36
0.0
 17
0.0
 27
1.0
 37
0.0
 76
     0
330
1B
  0
LAYOUT
  5
26
102
{ACAD_REACTORS
330
1A
102
}
330
1A
100
AcDbPlotSettings
  1

  2
none_device
  4

  6

 40
0.0
 41
0.0
 42
0.0
 43
0.0
 44
0.0
 45
0.0
 46
0.0
 47
0.0
 48
0.0
 49
0.0
140
0.0
141
0.0
142
1.0
143
1.0
 70
   688
 72
     1
 73
     0
 74
     5
  7

 75
    16
147
1.0
148
0.0
149
0.0
100
AcDbLayout
  1
Layout2
 70
     1
 71
     2
 10
0.0
 20
0.0
 11
0.0
 21
0.0
 12
0.0
 22
0.0
 32
0.0
 14
0.0
 24
0.0
 34
0.0
 15
0.0
 25
0.0
 35
0.0
146
0.0
 13
0.0
 23
0.0
 33
0.0
 16
1.0
 26
0.0
 36
0.0
 17
0.0
 27
1.0
 37
0.0
 76
     0
330
23
  0
LAYOUT
  5
22
102
{ACAD_REACTORS
330
1A
102
}
330
1A
100
AcDbPlotSettings
  1

  2
none_device
  4
Letter_(8.50_x_11.00_Inches)
  6

 40
6.35
 41
6.35
 42
6.35000508
 43
6.35000508
 44
215.9
 45
279.4
 46
0.0
 47
0.0
 48
0.0
 49
0.0
140
0.0
141
0.0
142
1.0
143
1.0
 70
  1712
 72
     1
 73
     0
 74
     0
  7

 75
     0
147
1.0
148
0.0
149
0.0
100
AcDbLayout
  1
Model
 70
     1
 71
     0
 10
0.0
 20
0.0
 11
431.8
 21
279.4
 12
0.0
 22
0.0
 32
0.0
 14
0.0
 24
0.0
 34
0.0
 15
431.8
 25
279.4
 35
0.0
146
0.0
 13
0.0
 23
0.0
 33
0.0
 16
1.0
 26
0.0
 36
0.0
 17
0.0
 27
1.0
 37
0.0
 76
     0
330
1F
331
29
  0
MLINESTYLE
  5
18
102
{ACAD_REACTORS
330
17
102
}
330
17
100
AcDbMlineStyle
  2
Standard
 70
     0
  3

 62
   256
 51
90.0
 52
90.0
 71
     2
 49
0.5
 62
   256
  6
BYLAYER
 49
-0.5
 62
   256
  6
BYLAYER
  0
ACDBPLACEHOLDER
  5
F
102
{ACAD_REACTORS
330
E
102
}
330
E
  0
SCALE
  5
48
102
{ACAD_REACTORS
330
47
102
}
330
47
100
AcDbScale
 70
     0
300
1:1
140
1.0
141
1.0
290
     1
  0
SCALE
  5
49
102
{ACAD_REACTORS
330
47
102
}
330
47
100
AcDbScale
 70
     0
300
1:2
140
1.0
141
2.0
290
     0
  0
SCALE
  5
4A
102
{ACAD_REACTORS
330
47
102
}
330
47
100
AcDbScale
 70
     0
300
1:4
140
1.0
141
4.0
290
     0
  0
SCALE
  5
4B
102
{ACAD_REACTORS
330
47
102
}
330
47
100
AcDbScale
 70
     0
300
1:5
140
1.0
141
5.0
290
     0
  0
SCALE
  5
4C
102
{ACAD_REACTORS
330
47
102
}
330
47
100
AcDbScale
 70
     0
300
1:8
140
1.0
141
8.0
290
     0
  0
SCALE
  5
4D
102
{ACAD_REACTORS
330
47
102
}
330
47
100
AcDbScale
 70
     0
300
1:10
140
1.0
141
10.0
290
     0
  0
SCALE
  5
4E
102
{ACAD_REACTORS
330
47
102
}
330
47
100
AcDbScale
 70
     0
300
1:16
140
1.0
141
16.0
290
     0
  0
SCALE
  5
4F
102
{ACAD_REACTORS
330
47
102
}
330
47
100
AcDbScale
 70
     0
300
1:20
140
1.0
141
20.0
290
     0
  0
SCALE
  5
50
102
{ACAD_REACTORS
330
47
102
}
330
47
100
AcDbScale
 70
     0
300
1:30
140
1.0
141
30.0
290
     0
  0
SCALE
  5
51
102
{ACAD_REACTORS
330
47
102
}
330
47
100
AcDbScale
 70
     0
300
1:40
140
1.0
141
40.0
290
     0
  0
SCALE
  5
52
102
{ACAD_REACTORS
330
47
102
}
330
47
100
AcDbScale
 70
     0
300
1:50
140
1.0
141
50.0
290
     0
  0
SCALE
  5
53
102
{ACAD_REACTORS
330
47
102
}
330
47
100
AcDbScale
 70
     0
300
1:100
140
1.0
141
100.0
290
     0
  0
SCALE
  5
54
102
{ACAD_REACTORS
330
47
102
}
330
47
100
AcDbScale
 70
     0
300
2:1
140
2.0
141
1.0
290
     0
  0
SCALE
  5
55
102
{ACAD_REACTORS
330
47
102
}
330
47
100
AcDbScale
 70
     0
300
4:1
140
4.0
141
1.0
290
     0
  0
SCALE
  5
56
102
{ACAD_REACTORS
330
47
102
}
330
47
100
AcDbScale
 70
     0
300
8:1
140
8.0
141
1.0
290
     0
  0
SCALE
  5
57
102
{ACAD_REACTORS
330
47
102
}
330
47
100
AcDbScale
 70
     0
300
10:1
140
10.0
141
1.0
290
     0
  0
SCALE
  5
58
102
{ACAD_REACTORS
330
47
102
}
330
47
100
AcDbScale
 70
     0
300
100:1
140
100.0
141
1.0
290
     0
  0
SCALE
  5
59
102
{ACAD_REACTORS
330
47
102
}
330
47
100
AcDbScale
 70
     0
300
1/128" = 1'-0"
140
0.0078125
141
12.0
290
     0
  0
SCALE
  5
5A
102
{ACAD_REACTORS
330
47
102
}
330
47
100
AcDbScale
 70
     0
300
1/64" = 1'-0"
140
0.015625
141
12.0
290
     0
  0
SCALE
  5
5B
102
{ACAD_REACTORS
330
47
102
}
330
47
100
AcDbScale
 70
     0
300
1/32" = 1'-0"
140
0.03125
141
12.0
290
     0
  0
SCALE
  5
5C
102
{ACAD_REACTORS
330
47
102
}
330
47
100
AcDbScale
 70
     0
300
1/16" = 1'-0"
140
0.0625
141
12.0
290
     0
  0
SCALE
  5
5D
102
{ACAD_REACTORS
330
47
102
}
330
47
100
AcDbScale
 70
     0
300
3/32" = 1'-0"
140
0.09375
141
12.0
290
     0
  0
SCALE
  5
5E
102
{ACAD_REACTORS
330
47
102
}
330
47
100
AcDbScale
 70
     0
300
1/8" = 1'-0"
140
0.125
141
12.0
290
     0
  0
SCALE
  5
5F
102
{ACAD_REACTORS
330
47
102
}
330
47
100
AcDbScale
 70
     0
300
3/16" = 1'-0"
140
0.1875
141
12.0
290
     0
  0
SCALE
  5
60
102
{ACAD_REACTORS
330
47
102
}
330
47
100
AcDbScale
 70
     0
300
1/4" = 1'-0"
140
0.25
141
12.0
290
     0
  0
SCALE
  5
61
102
{ACAD_REACTORS
330
47
102
}
330
47
100
AcDbScale
 70
     0
300
3/8" = 1'-0"
140
0.375
141
12.0
290
     0
  0
SCALE
  5
62
102
{ACAD_REACTORS
330
47
102
}
330
47
100
AcDbScale
 70
     0
300
1/2" = 1'-0"
140
0.5
141
12.0
290
     0
  0
SCALE
  5
63
102
{ACAD_REACTORS
330
47
102
}
330
47
100
AcDbScale
 70
     0
300
3/4" = 1'-0"
140
0.75
141
12.0
290
     0
  0
SCALE
  5
64
102
{ACAD_REACTORS
330
47
102
}
330
47
100
AcDbScale
 70
     0
300
1" = 1'-0"
140
1.0
141
12.0
290
     0
  0
SCALE
  5
65
102
{ACAD_REACTORS
330
47
102
}
330
47
100
AcDbScale
 70
     0
300
1-1/2" = 1'-0"
140
1.5
141
12.0
290
     0
  0
SCALE
  5
66
102
{ACAD_REACTORS
330
47
102
}
330
47
100
AcDbScale
 70
     0
300
3" = 1'-0"
140
3.0
141
12.0
290
     0
  0
SCALE
  5
67
102
{ACAD_REACTORS
330
47
102
}
330
47
100
AcDbScale
 70
     0
300
6" = 1'-0"
140
6.0
141
12.0
290
     0
  0
SCALE
  5
68
102
{ACAD_REACTORS
330
47
102
}
330
47
100
AcDbScale
 70
     0
300
1'-0" = 1'-0"
140
12.0
141
12.0
290
     0
  0
ENDSEC
  0
EOF
